  0
SECTION
  2
HEADER
  9
$ACADVER
  1
AC1014
  9
$DWGCODEPAGE
  3
ANSI_1252
  9
$EXTMAX
 10
22.0
 20
17.0
 30
0.0
  9
$EXTMIN
 10
0.0
 20
0.0
 30
0.0
  9
$LIMMIN
 10
0.0
 20
0.0
  9
$LIMMAX
 10
22.0
 20
17.0
  9
$VIEWCTR
 10
11.0
 20
8.5
  9
$VIEWSIZE
 40
17.0
  9
$CLAYER
  8
0
  9
$LTSCALE
 40
1.21
  9
$CELTYPE
  6
BYLAYER
  9
$DIMSCALE
 40
1.0
  9
$DIMASZ
 40
0.1875
  9
$DIMEXO
 40
0.1375
  9
$DIMDLI
 40
0.836
  9
$DIMEXE
 40
0.396
  9
$DIMCEN
 40
0.198
  9
$DIMLFAC
 40
1.0
  9
$DIMBLK
  1
_ARROW_FILLED
  9
$DIMTXT
 40
0.125
  9
$DIMTOL
 70
1
  9
$DIMLIM
 70
0
  9
$DIMTFAC
 40
1.0
  9
$DIMTP
 40
0.00001
  9
$DIMTM
 40
0.00001
  9
$PDMODE
 70
3
  9
$PDSIZE
 40
0.03125
  9
$HANDSEED
  5
450
  9
$TILEMODE
 70
1
  9
$MEASUREMENT
 70
0
  0
ENDSEC
  0
SECTION
  2
CLASSES
  0
ENDSEC
  0
SECTION
  2
TABLES
  0
TABLE
  2
VPORT
  5
8
100
AcDbSymbolTable
 70
2
  0
VPORT
  5
1F4
100
AcDbSymbolTableRecord
100
AcDbViewportTableRecord
  2
*ACTIVE
 70
0
 10
0.0
 20
0.0
 11
1.0
 21
1.0
 12
11.0
 22
8.5
 13
0.0
 23
0.0
 14
1.0
 24
1.0
 15
0.0
 25
0.0
 16
0.0
 26
0.0
 36
1.0
 17
0.0
 27
0.0
 37
0.0
 40
17.0
 41
1.2941176471
 42
50.0
 43
0.0
 44
0.0
 50
0.0
 51
0.0
 71
0
 72
100
 73
1
 74
1
 75
0
 76
0
 77
0
 78
0
  0
ENDTAB
  0
TABLE
  2
LTYPE
  5
5
100
AcDbSymbolTable
 70
6
  0
LTYPE
  5
14
100
AcDbSymbolTableRecord
100
AcDbLinetypeTableRecord
  2
BYBLOCK
 70
0
  3

 72
65
 73
0
 40
0.0
  0
LTYPE
  5
15
100
AcDbSymbolTableRecord
100
AcDbLinetypeTableRecord
  2
BYLAYER
 70
0
  3

 72
65
 73
0
 40
0.0
  0
LTYPE
  5
16
100
AcDbSymbolTableRecord
100
AcDbLinetypeTableRecord
  2
CONTINUOUS
 70
64
  3
Solid line
 72
65
 73
0
 40
0.0
  0
LTYPE
  5
1F5
100
AcDbSymbolTableRecord
100
AcDbLinetypeTableRecord
  2
CENTER
 70
64
  3
____ _ ____ _ ____ _ ____ _ ____ _ ____ _ ____
 72
65
 73
4
 40
0.6
 49
0.375
 74
0
 49
-0.075
 74
0
 49
0.075
 74
0
 49
-0.075
 74
0
  0
LTYPE
  5
1F6
100
AcDbSymbolTableRecord
100
AcDbLinetypeTableRecord
  2
HIDDEN
 70
64
  3
- - - - - - - - - - - - - - - - - - - -
 72
65
 73
2
 40
0.2
 49
0.1
 74
0
 49
-0.1
 74
0
  0
LTYPE
  5
1F7
100
AcDbSymbolTableRecord
100
AcDbLinetypeTableRecord
  2
PHANTOM
 70
64
  3
_____ _ _ _____ _ _ _____ _ _ _____
 72
65
 73
6
 40
0.8
 49
0.45
 74
0
 49
-0.05
 74
0
 49
0.1
 74
0
 49
-0.05
 74
0
 49
0.1
 74
0
 49
-0.05
 74
0
  0
LTYPE
  5
1F8
100
AcDbSymbolTableRecord
100
AcDbLinetypeTableRecord
  2
DOT
 70
64
  3
. . . . . . . . . . . . . . . . . . . .
 72
65
 73
2
 40
0.2
 49
0.1
 74
0
 49
-0.1
 74
0
  0
LTYPE
  5
1F9
100
AcDbSymbolTableRecord
100
AcDbLinetypeTableRecord
  2
DASHED
 70
64
  3
- - - - - - - - - - - - - - - - - - - -
 72
65
 73
2
 40
0.2
 49
0.1
 74
0
 49
-0.1
 74
0
  0
ENDTAB
  0
TABLE
  2
LAYER
  5
2
100
AcDbSymbolTable
 70
36
  0
LAYER
  5
10
100
AcDbSymbolTableRecord
100
AcDbLayerTableRecord
  2
0
 70
0
 62
7
  6
CONTINUOUS
  0
LAYER
  5
1FA
100
AcDbSymbolTableRecord
100
AcDbLayerTableRecord
  2
DEFAULT_1
 70
0
 62
7
  6
CENTER
  0
LAYER
  5
1FB
100
AcDbSymbolTableRecord
100
AcDbLayerTableRecord
  2
DEFAULT_2
 70
0
 62
8
  6
HIDDEN
  0
LAYER
  5
1FC
100
AcDbSymbolTableRecord
100
AcDbLayerTableRecord
  2
DEFAULT_3
 70
0
 62
7
  6
PHANTOM
  0
LAYER
  5
1FD
100
AcDbSymbolTableRecord
100
AcDbLayerTableRecord
  2
1_CURVES
 70
0
 62
7
  6
CONTINUOUS
  0
LAYER
  5
1FE
100
AcDbSymbolTableRecord
100
AcDbLayerTableRecord
  2
1_CURVES_CONDUIT
 70
0
 62
7
  6
CONTINUOUS
  0
LAYER
  5
1FF
100
AcDbSymbolTableRecord
100
AcDbLayerTableRecord
  2
1_CURVES_DRW
 70
0
 62
7
  6
CONTINUOUS
  0
LAYER
  5
200
100
AcDbSymbolTableRecord
100
AcDbLayerTableRecord
  2
1_CURVES_JETS
 70
0
 62
7
  6
CONTINUOUS
  0
LAYER
  5
201
100
AcDbSymbolTableRecord
100
AcDbLayerTableRecord
  2
1_CURVES_PATINS
 70
0
 62
7
  6
CONTINUOUS
  0
LAYER
  5
202
100
AcDbSymbolTableRecord
100
AcDbLayerTableRecord
  2
1_CURVES_RESURFACAGE
 70
0
 62
7
  6
CONTINUOUS
  0
LAYER
  5
203
100
AcDbSymbolTableRecord
100
AcDbLayerTableRecord
  2
1_CURVES_SPEC
 70
0
 62
7
  6
CONTINUOUS
  0
LAYER
  5
204
100
AcDbSymbolTableRecord
100
AcDbLayerTableRecord
  2
2_PLANES
 70
0
 62
7
  6
CONTINUOUS
  0
LAYER
  5
205
100
AcDbSymbolTableRecord
100
AcDbLayerTableRecord
  2
2_PLANES_JETS
 70
0
 62
7
  6
CONTINUOUS
  0
LAYER
  5
206
100
AcDbSymbolTableRecord
100
AcDbLayerTableRecord
  2
3_POINTS
 70
0
 62
7
  6
CONTINUOUS
  0
LAYER
  5
207
100
AcDbSymbolTableRecord
100
AcDbLayerTableRecord
  2
3_POINTS-JETS
 70
0
 62
7
  6
CONTINUOUS
  0
LAYER
  5
208
100
AcDbSymbolTableRecord
100
AcDbLayerTableRecord
  2
4_CSYS
 70
0
 62
7
  6
CONTINUOUS
  0
LAYER
  5
209
100
AcDbSymbolTableRecord
100
AcDbLayerTableRecord
  2
5_AXIS
 70
0
 62
7
  6
CONTINUOUS
  0
LAYER
  5
20A
100
AcDbSymbolTableRecord
100
AcDbLayerTableRecord
  2
5_AXIS_JETS
 70
0
 62
7
  6
CONTINUOUS
  0
LAYER
  5
20B
100
AcDbSymbolTableRecord
100
AcDbLayerTableRecord
  2
6_AIRE_CONDUIT
 70
0
 62
7
  6
CONTINUOUS
  0
LAYER
  5
20C
100
AcDbSymbolTableRecord
100
AcDbLayerTableRecord
  2
6_SURFACE-OFFSET-FIBRE-ACRYLIQU
 70
0
 62
7
  6
CONTINUOUS
  0
LAYER
  5
20D
100
AcDbSymbolTableRecord
100
AcDbLayerTableRecord
  2
6_SURFACES
 70
0
 62
7
  6
CONTINUOUS
  0
LAYER
  5
20E
100
AcDbSymbolTableRecord
100
AcDbLayerTableRecord
  2
6_SURFACES-PATINS-SPEC
 70
0
 62
7
  6
CONTINUOUS
  0
LAYER
  5
20F
100
AcDbSymbolTableRecord
100
AcDbLayerTableRecord
  2
6_SURFACES_AIRE
 70
0
 62
7
  6
CONTINUOUS
  0
LAYER
  5
210
100
AcDbSymbolTableRecord
100
AcDbLayerTableRecord
  2
6_SURFACES_OFFSET_FIBRE
 70
0
 62
7
  6
CONTINUOUS
  0
LAYER
  5
211
100
AcDbSymbolTableRecord
100
AcDbLayerTableRecord
  2
6_SURFACES_OFFSET_FIBRE_ACRYLIQ
 70
0
 62
7
  6
CONTINUOUS
  0
LAYER
  5
212
100
AcDbSymbolTableRecord
100
AcDbLayerTableRecord
  2
6_SURFACES_POUR_CONDUIT
 70
0
 62
7
  6
CONTINUOUS
  0
LAYER
  5
213
100
AcDbSymbolTableRecord
100
AcDbLayerTableRecord
  2
6_SURFACES_POUR_HFL
 70
0
 62
7
  6
CONTINUOUS
  0
LAYER
  5
214
100
AcDbSymbolTableRecord
100
AcDbLayerTableRecord
  2
6_SURFACES_TOOLING
 70
0
 62
7
  6
CONTINUOUS
  0
LAYER
  5
215
100
AcDbSymbolTableRecord
100
AcDbLayerTableRecord
  2
7_NOTES
 70
0
 62
7
  6
CONTINUOUS
  0
LAYER
  5
216
100
AcDbSymbolTableRecord
100
AcDbLayerTableRecord
  2
8_COSMETIC
 70
0
 62
7
  6
CONTINUOUS
  0
LAYER
  5
217
100
AcDbSymbolTableRecord
100
AcDbLayerTableRecord
  2
8_TOL_GEOM
 70
0
 62
7
  6
CONTINUOUS
  0
LAYER
  5
218
100
AcDbSymbolTableRecord
100
AcDbLayerTableRecord
  2
9_IMPORT
 70
0
 62
7
  6
CONTINUOUS
  0
LAYER
  5
219
100
AcDbSymbolTableRecord
100
AcDbLayerTableRecord
  2
DEGAGEMENT_SERIGRAPHIE
 70
0
 62
7
  6
CONTINUOUS
  0
LAYER
  5
21A
100
AcDbSymbolTableRecord
100
AcDbLayerTableRecord
  2
NONE
 70
0
 62
7
  6
CONTINUOUS
  0
LAYER
  5
21B
100
AcDbSymbolTableRecord
100
AcDbLayerTableRecord
  2
XSEC_DATUMS
 70
0
 62
7
  6
CONTINUOUS
  0
ENDTAB
  0
TABLE
  2
STYLE
  5
3
100
AcDbSymbolTable
 70
1
  0
STYLE
  5
11
100
AcDbSymbolTableRecord
100
AcDbTextStyleTableRecord
  2
STANDARD
 70
0
 40
0.0
 41
0.8
 50
0.0
 71
0
 42
0.2
  3
txt
  4

  0
STYLE
  5
21C
100
AcDbSymbolTableRecord
100
AcDbTextStyleTableRecord
  2
TEXTSTYLE_1
 70
0
 40
0.0
 41
0.8
 50
0.0
 71
0
 42
0.2
  3
gdt
  4

  0
ENDTAB
  0
TABLE
  2
VIEW
  5
6
100
AcDbSymbolTable
 70
0
  0
ENDTAB
  0
TABLE
  2
UCS
  5
7
100
AcDbSymbolTable
 70
0
  0
ENDTAB
  0
TABLE
  2
APPID
  5
9
100
AcDbSymbolTable
 70
1
  0
APPID
  5
21D
100
AcDbSymbolTableRecord
100
AcDbRegAppTableRecord
  2
ACAD
 70
0
  0
ENDTAB
  0
TABLE
  2
BLOCK_RECORD
  5
1
100
AcDbSymbolTable
 70
0
  0
BLOCK_RECORD
  5
1F
100
AcDbSymbolTableRecord
100
AcDbBlockTableRecord
  2
*MODEL_SPACE
  0
BLOCK_RECORD
  5
1B
100
AcDbSymbolTableRecord
100
AcDbBlockTableRecord
  2
*PAPER_SPACE
  0
ENDTAB
  0
TABLE
  2
DIMSTYLE
  5
A
100
AcDbSymbolTable
 70
1
  0
DIMSTYLE
105
21E
100
AcDbSymbolTableRecord
100
AcDbDimStyleTableRecord
  2
STANDARD
 70
0
  3

  4

  5
_ARROW_FILLED
  6
_ARROW_FILLED
  7
_ARROW_FILLED
 40
1.0
 41
0.1875
 42
0.0625
 43
0.38
 44
0.18
 45
0.0
 46
0.0
 47
0.00001
 48
0.00001
140
0.125
141
0.09
142
0.0
143
25.4
144
1.0
145
0.0
146
1.0
147
0.09
 71
1.0
 72
0.0
 73
1
 74
1
 75
0
 76
0
 77
0
 78
4
170
0
171
2
172
0
173
0
174
0
175
0
176
0
177
0
178
0
270
2
271
5
272
5
273
2
274
2
275
0
280
0
281
0
282
0
283
1
284
4
285
0
286
0
287
3
288
0
340
11
  0
ENDTAB
  0
ENDSEC
  0
SECTION
  2
BLOCKS
  0
BLOCK
  5
20
100
AcDbEntity
  8
0
100
AcDbBlockBegin
  2
*MODEL_SPACE
 70
0
 10
0.0
 20
0.0
 30
0.0
  3
*MODEL_SPACE
  1

  0
ENDBLK
  5
21
100
AcDbEntity
  8
0
100
AcDbBlockEnd
  0
BLOCK
  5
1C
100
AcDbEntity
  8
0
100
AcDbBlockBegin
  2
*PAPER_SPACE
 70
0
 10
0.0
 20
0.0
 30
0.0
  3
*PAPER_SPACE
  1

  0
ENDBLK
  5
1D
100
AcDbEntity
  8
0
100
AcDbBlockEnd
  0
ENDSEC
  0
SECTION
  2
ENTITIES
  0
LINE
  5
21F
100
AcDbEntity
  8
0
100
AcDbLine
 62
7
  6
CONTINUOUS
 10
129.9457540597
 20
27.7878088349
 11
130.0020514083
 21
27.8034437081
  0
LINE
  5
220
100
AcDbEntity
  8
6_SURFACES-PATINS-SPEC
100
AcDbLine
 62
7
  6
CONTINUOUS
 10
124.6352121835
 20
18.8863515616
 11
124.6481579337
 21
18.889761744
  0
LINE
  5
221
100
AcDbEntity
  8
6_SURFACES-PATINS-SPEC
100
AcDbLine
 62
7
  6
CONTINUOUS
 10
113.8634958184
 20
18.9861626742
 11
113.8752435169
 21
18.9891144487
  0
LINE
  5
222
100
AcDbEntity
  8
6_SURFACES-PATINS-SPEC
100
AcDbLine
 62
7
  6
CONTINUOUS
 10
122.905355769
 20
15.942196262
 11
122.9861867558
 21
15.9603853306
  0
LINE
  5
223
100
AcDbEntity
  8
6_SURFACES-PATINS-SPEC
100
AcDbLine
 62
7
  6
CONTINUOUS
 10
112.0935198156
 20
15.942196262
 11
112.1743508023
 21
15.9603853306
  0
LINE
  5
224
100
AcDbEntity
  8
6_SURFACES-PATINS-SPEC
100
AcDbLine
 62
7
  6
CONTINUOUS
 10
124.6481579337
 20
18.889761744
 11
124.6586359468
 21
18.8921141067
  0
LINE
  5
225
100
AcDbEntity
  8
6_SURFACES-PATINS-SPEC
100
AcDbLine
 62
7
  6
CONTINUOUS
 10
113.8752435169
 20
18.9891144487
 11
113.8845267405
 21
18.9911180806
  0
LINE
  5
226
100
AcDbEntity
  8
6_SURFACES-PATINS-SPEC
100
AcDbLine
 62
7
  6
CONTINUOUS
 10
124.6586359468
 20
18.8921141067
 11
124.6664442623
 21
18.8936153527
  0
LINE
  5
227
100
AcDbEntity
  8
0
100
AcDbLine
 62
7
  6
CONTINUOUS
 10
129.8851457364
 20
27.7733573865
 11
129.9457540597
 21
27.7878088349
  0
LINE
  5
228
100
AcDbEntity
  8
6_SURFACES-PATINS-SPEC
100
AcDbLine
 62
7
  6
CONTINUOUS
 10
113.8845267405
 20
18.9911180806
 11
113.8914337098
 21
18.9924066014
  0
LINE
  5
229
100
AcDbEntity
  8
6_SURFACES-PATINS-SPEC
100
AcDbLine
 62
7
  6
CONTINUOUS
 10
124.6664442623
 20
18.8936153527
 11
124.671735228
 21
18.8944947909
  0
LINE
  5
22A
100
AcDbEntity
  8
6_SURFACES-PATINS-SPEC
100
AcDbLine
 62
7
  6
CONTINUOUS
 10
122.8231290467
 20
15.9311900913
 11
122.905355769
 21
15.942196262
  0
LINE
  5
22B
100
AcDbEntity
  8
6_SURFACES-PATINS-SPEC
100
AcDbLine
 62
7
  6
CONTINUOUS
 10
113.8914337098
 20
18.9924066014
 11
113.8961417791
 21
18.9931718
  0
LINE
  5
22C
100
AcDbEntity
  8
6_SURFACES-PATINS-SPEC
100
AcDbLine
 62
7
  6
CONTINUOUS
 10
124.671735228
 20
18.8944947909
 11
124.6748565532
 21
18.8949486131
  0
LINE
  5
22D
100
AcDbEntity
  8
6_SURFACES-PATINS-SPEC
100
AcDbLine
 62
7
  6
CONTINUOUS
 10
112.0112930933
 20
15.9311900913
 11
112.0935198156
 21
15.942196262
  0
LINE
  5
22E
100
AcDbEntity
  8
0
100
AcDbLine
 62
7
  6
CONTINUOUS
 10
126.6116666776
 20
27.6352792938
 11
126.6482143097
 21
27.6428120566
  0
LINE
  5
22F
100
AcDbEntity
  8
0
100
AcDbLine
 62
7
  6
CONTINUOUS
 10
129.8187992502
 20
27.7597799134
 11
129.8851457364
 21
27.7733573865
  0
LINE
  5
230
100
AcDbEntity
  8
0
100
AcDbLine
 62
7
  6
CONTINUOUS
 10
132.4455497768
 20
37.3844590719
 11
132.432557605
 21
37.380933498
  0
LINE
  5
231
100
AcDbEntity
  8
6_SURFACES-PATINS-SPEC
100
AcDbLine
 62
7
  6
CONTINUOUS
 10
113.8961417791
 20
18.9931718
 11
113.8988582035
 21
18.9935601796
  0
LINE
  5
232
100
AcDbEntity
  8
6_SURFACES-PATINS-SPEC
100
AcDbLine
 62
7
  6
CONTINUOUS
 10
124.6748565532
 20
18.8949486131
 11
124.6758897339
 21
18.8950833627
  0
LINE
  5
233
100
AcDbEntity
  8
6_SURFACES-PATINS-SPEC
100
AcDbLine
 62
7
  6
CONTINUOUS
 10
113.8988582035
 20
18.9935601796
 11
113.899146573
 21
18.9935982172
  0
LINE
  5
234
100
AcDbEntity
  8
0
100
AcDbLine
 62
7
  6
CONTINUOUS
 10
132.6490862315
 20
38.7662288765
 11
132.5977766319
 21
38.7522634484
  0
LINE
  5
235
100
AcDbEntity
  8
0
100
AcDbLine
 62
7
  6
CONTINUOUS
 10
129.7447069224
 20
27.7468149122
 11
129.8187992502
 21
27.7597799134
  0
LINE
  5
236
100
AcDbEntity
  8
0
100
AcDbLine
 62
7
  6
CONTINUOUS
 10
132.432557605
 20
37.380933498
 11
132.4153122063
 21
37.3766757524
  0
LINE
  5
237
100
AcDbEntity
  8
0
100
AcDbLine
 62
7
  6
CONTINUOUS
 10
132.4153122063
 20
37.3766757524
 11
132.3938296634
 21
37.3718382542
  0
LINE
  5
238
100
AcDbEntity
  8
0
100
AcDbLine
 62
7
  6
CONTINUOUS
 10
129.6610364744
 20
27.7344002971
 11
129.7447069224
 21
27.7468149122
  0
LINE
  5
239
100
AcDbEntity
  8
6_SURFACES-PATINS-SPEC
100
AcDbLine
 62
7
  6
CONTINUOUS
 10
108.8990145038
 20
18.9089874574
 11
109.9226662516
 21
19.0077527887
  0
LINE
  5
23A
100
AcDbEntity
  8
6_SURFACES-PATINS-SPEC
100
AcDbLine
 62
7
  6
CONTINUOUS
 10
108.8990145027
 20
18.9402326979
 11
109.9226662504
 21
19.0389980292
  0
LINE
  5
23B
100
AcDbEntity
  8
6_SURFACES-PATINS-SPEC
100
AcDbLine
 62
7
  6
CONTINUOUS
 10
113.9285232434
 20
18.9946509607
 11
113.8811165468
 21
18.9903820461
  0
LWPOLYLINE
  5
23C
100
AcDbEntity
  8
6_SURFACES-PATINS-SPEC
100
AcDbPolyline
 62
7
  6
CONTINUOUS
 90
14
 70
0
 10
109.9226662516
 20
19.0077527926
 10
109.9399593677
 20
19.009245222
 10
109.957274423
 20
19.0104743942
 10
110.0040881749
 20
19.0131450995
 10
110.0626964542
 20
19.0157433039
 10
110.132591981
 20
19.0182488095
 10
110.2132929469
 20
19.0206444646
 10
110.3045855617
 20
19.0229229464
 10
110.4108105519
 20
19.0251708953
 10
110.5170422383
 20
19.0270858402
 10
110.7634329496
 20
19.0306120195
 10
111.0383732289
 20
19.0334231547
 10
111.335770869
 20
19.035458039
 10
111.6466320732
 20
19.0366512092
  0
LWPOLYLINE
  5
23D
100
AcDbEntity
  8
6_SURFACES-PATINS-SPEC
100
AcDbPolyline
 62
7
  6
CONTINUOUS
 90
14
 70
0
 10
109.9226662504
 20
19.0389980335
 10
109.9399593687
 20
19.0404904748
 10
109.9572744285
 20
19.0417196347
 10
110.0040881829
 20
19.0443903405
 10
110.0626964671
 20
19.0469885416
 10
110.1325919926
 20
19.0494940607
 10
110.2132929646
 20
19.0518897042
 10
110.3045855922
 20
19.0541681534
 10
110.4108105837
 20
19.0564160962
 10
110.517042271
 20
19.0583310428
 10
110.7634329897
 20
19.0618571805
 10
111.0383732448
 20
19.0646684345
 10
111.3357708705
 20
19.066703426
 10
111.6466320947
 20
19.0678964976
  0
LINE
  5
23E
100
AcDbEntity
  8
0
100
AcDbLine
 62
7
  6
CONTINUOUS
 10
118.7815335074
 20
17.1585010574
 11
120.5369078172
 21
17.2659729539
  0
LINE
  5
23F
100
AcDbEntity
  8
0
100
AcDbLine
 62
7
  6
CONTINUOUS
 10
123.9597999055
 20
17.4755377756
 11
127.1544371478
 21
17.6711278109
  0
LINE
  5
240
100
AcDbEntity
  8
DEFAULT_3
100
AcDbLine
 62
7
  6
PHANTOM
 10
127.1467983709
 20
17.7958941889
 11
118.7738947495
 21
17.2832674366
  0
LINE
  5
241
100
AcDbEntity
  8
6_SURFACES-PATINS-SPEC
100
AcDbLine
 62
7
  6
CONTINUOUS
 10
122.7401357126
 20
15.9274799117
 11
122.8231290467
 21
15.9311900913
  0
LINE
  5
242
100
AcDbEntity
  8
6_SURFACES-PATINS-SPEC
100
AcDbLine
 62
7
  6
CONTINUOUS
 10
111.9282997593
 20
15.9274799117
 11
112.0112930933
 21
15.9311900913
  0
LINE
  5
243
100
AcDbEntity
  8
0
100
AcDbLine
 62
7
  6
CONTINUOUS
 10
132.3938296634
 20
37.3718382542
 11
132.3681180589
 21
37.3665463562
  0
LINE
  5
244
100
AcDbEntity
  8
0
100
AcDbLine
 62
7
  6
CONTINUOUS
 10
129.568594448
 20
27.7229062911
 11
129.6610364744
 21
27.7344002971
  0
LWPOLYLINE
  5
245
100
AcDbEntity
  8
0
100
AcDbPolyline
 62
7
  6
CONTINUOUS
 90
16
 70
0
 10
109.3181103318
 20
19.1518970914
 10
109.0623827685
 20
19.1346786227
 10
108.8067147628
 20
19.1165892288
 10
108.5511217718
 20
19.0974783829
 10
108.3807707562
 20
19.0840890116
 10
108.2104685179
 20
19.0700948449
 10
108.0547244518
 20
19.0566863792
 10
107.8990397639
 20
19.0426054649
 10
107.7581337885
 20
19.0291871131
 10
107.6173012246
 20
19.0150186827
 10
107.4914442401
 20
19.0016048678
 10
107.365680826
 20
18.9873434355
 10
107.2550637223
 20
18.9739509528
 10
107.1445675811
 20
18.9595887647
 10
107.0493584963
 20
18.9462444073
 10
106.9543180765
 20
18.9317647192
  0
LINE
  5
246
100
AcDbEntity
  8
0
100
AcDbLine
 62
7
  6
CONTINUOUS
 10
126.6482143097
 20
27.6428120566
 11
126.6875900651
 21
27.6476670225
  0
LINE
  5
247
100
AcDbEntity
  8
0
100
AcDbLine
 62
7
  6
CONTINUOUS
 10
132.3681180589
 20
37.3665463562
 11
132.3381737103
 21
37.3609037647
  0
LINE
  5
248
100
AcDbEntity
  8
DEFAULT_3
100
AcDbLine
 62
7
  6
PHANTOM
 10
129.198479581
 20
33.0276496076
 11
128.149060719
 21
32.8614379884
  0
LWPOLYLINE
  5
249
100
AcDbEntity
  8
0
100
AcDbPolyline
 62
7
  6
CONTINUOUS
 90
33
 70
0
 10
114.376149262
 20
19.1785306948
 10
114.3919252902
 20
19.1792233986
 10
114.4076901257
 20
19.1802600537
 10
114.4234346129
 20
19.1816407414
 10
114.4391495961
 20
19.1833655432
 10
114.4548259197
 20
19.1854345402
 10
114.4704544281
 20
19.1878478139
 10
114.4860259657
 20
19.1906054455
 10
114.5015313768
 20
19.1937075164
 10
114.5171288368
 20
19.1971926116
 10
114.5326428291
 20
19.2010253097
 10
114.5480668091
 20
19.2052011822
 10
114.5633942326
 20
19.2097158003
 10
114.5786185549
 20
19.2145647355
 10
114.5937332318
 20
19.219743559
 10
114.6087317187
 20
19.2252478423
 10
114.6236074712
 20
19.2310731567
 10
114.6388743218
 20
19.2374379782
 10
114.6539981936
 20
19.2441348858
 10
114.6689747076
 20
19.2511565365
 10
114.6837994847
 20
19.2584955876
 10
114.6984681456
 20
19.2661446961
 10
114.7129763114
 20
19.2740965191
 10
114.7273196028
 20
19.2823437136
 10
114.7414936407
 20
19.2908789369
 10
114.756272667
 20
19.3001959714
 10
114.7708560436
 20
19.309815738
 10
114.7852417261
 20
19.3197279958
 10
114.7994276704
 20
19.3299225039
 10
114.8134118321
 20
19.3403890212
 10
114.8271921671
 20
19.3511173069
 10
114.840766631
 20
19.36209712
 10
114.8541331797
 20
19.3733182195
  0
LWPOLYLINE
  5
24A
100
AcDbEntity
  8
DEFAULT_3
100
AcDbPolyline
 62
7
  6
PHANTOM
 90
21
 70
0
 10
104.3248213571
 20
33.0263992453
 10
104.3024679947
 20
33.0221878899
 10
104.2745431528
 20
33.0169398012
 10
104.2354655684
 20
33.009619866
 10
104.1852676415
 20
33.000258123
 10
104.1239964141
 20
32.9888942553
 10
104.0517155772
 20
32.9755774793
 10
103.9685017158
 20
32.9603658924
 10
103.8744424173
 20
32.9433258037
 10
103.7696378577
 20
32.9245319256
 10
103.6541989672
 20
32.9040663838
 10
103.5282516161
 20
32.8820197927
 10
103.3919382201
 20
32.8584905024
 10
103.2454164146
 20
32.833584314
 10
103.0888551946
 20
32.8074133105
 10
102.9224448704
 20
32.7800970422
 10
102.7463911991
 20
32.7517606911
 10
102.5609147723
 20
32.7225349123
 10
102.3662487355
 20
32.6925543337
 10
102.1626408692
 20
32.6619575094
 10
101.9503510861
 20
32.6308859261
  0
LINE
  5
24B
100
AcDbEntity
  8
0
100
AcDbLine
 62
7
  6
CONTINUOUS
 10
129.4710700452
 20
27.7128720902
 11
129.568594448
 21
27.7229062911
  0
LINE
  5
24C
100
AcDbEntity
  8
0
100
AcDbLine
 62
7
  6
CONTINUOUS
 10
132.4542653297
 20
37.3870652234
 11
132.4455497768
 21
37.3844590719
  0
LWPOLYLINE
  5
24D
100
AcDbEntity
  8
0
100
AcDbPolyline
 62
7
  6
CONTINUOUS
 90
32
 70
0
 10
112.6554914546
 20
19.1616315676
 10
112.6889058472
 20
19.1627109386
 10
112.7223035926
 20
19.1644858561
 10
112.7556660597
 20
19.1669625567
 10
112.7889746174
 20
19.1701472769
 10
112.8222106345
 20
19.1740462535
 10
112.85535548
 20
19.1786657228
 10
112.8883905227
 20
19.1840119216
 10
112.9171708596
 20
19.1892861116
 10
112.9458415736
 20
19.195120258
 10
112.974391232
 20
19.2015139511
 10
113.002808402
 20
19.2084667812
 10
113.0310816508
 20
19.2159783384
 10
113.0591995457
 20
19.2240482131
 10
113.0871506538
 20
19.2326759953
 10
113.1149235424
 20
19.2418612755
 10
113.1429349602
 20
19.2517592782
 10
113.1707390323
 20
19.2622281871
 10
113.1983240201
 20
19.2732643277
 10
113.2256781853
 20
19.284864026
 10
113.2527897894
 20
19.2970236074
 10
113.2796470938
 20
19.3097393978
 10
113.3062383602
 20
19.3230077229
 10
113.33255185
 20
19.3368249083
 10
113.3594242607
 20
19.3516660597
 10
113.3859763994
 20
19.3670769089
 10
113.4121968046
 20
19.3830456325
 10
113.4380740148
 20
19.3995604071
 10
113.4635965684
 20
19.4166094092
 10
113.4887530038
 20
19.4341808155
 10
113.5135318596
 20
19.4522628024
 10
113.5379216741
 20
19.4708435466
  0
LINE
  5
24E
100
AcDbEntity
  8
6_SURFACES-PATINS-SPEC
100
AcDbLine
 62
7
  6
CONTINUOUS
 10
110.8689538246
 20
15.927479842
 11
111.9279382992
 21
15.927479842
  0
LINE
  5
24F
100
AcDbEntity
  8
6_SURFACES-PATINS-SPEC
100
AcDbLine
 62
7
  6
CONTINUOUS
 10
121.6807897779
 20
15.927479842
 11
122.7397742525
 21
15.927479842
  0
LINE
  5
250
100
AcDbEntity
  8
0
100
AcDbLine
 62
7
  6
CONTINUOUS
 10
132.3381737103
 20
37.3609037647
 11
132.3039753698
 21
37.3549965621
  0
LINE
  5
251
100
AcDbEntity
  8
6_SURFACES-PATINS-SPEC
100
AcDbLine
 62
7
  6
CONTINUOUS
 10
123.6206810658
 20
16.5443359576
 11
123.6056665078
 21
16.5443359576
  0
LINE
  5
252
100
AcDbEntity
  8
6_SURFACES-PATINS-SPEC
100
AcDbLine
 62
7
  6
CONTINUOUS
 10
109.9880470113
 20
16.5443359576
 11
110.0030615692
 21
16.5443359576
  0
LINE
  5
253
100
AcDbEntity
  8
0
100
AcDbLine
 62
7
  6
CONTINUOUS
 10
118.0758106479
 20
16.652479842
 11
115.5329174291
 21
16.652479842
  0
LINE
  5
254
100
AcDbEntity
  8
DEFAULT_3
100
AcDbLine
 62
7
  6
PHANTOM
 10
118.0758106479
 20
16.777479842
 11
115.5329174291
 21
16.777479842
  0
LINE
  5
255
100
AcDbEntity
  8
0
100
AcDbLine
 62
7
  6
CONTINUOUS
 10
129.3721508525
 20
27.7045637895
 11
129.4710700452
 21
27.7128720902
  0
LINE
  5
256
100
AcDbEntity
  8
0
100
AcDbLine
 62
7
  6
CONTINUOUS
 10
116.8043640385
 20
17.1591394302
 11
114.8271945697
 21
17.1585010574
  0
LINE
  5
257
100
AcDbEntity
  8
0
100
AcDbLine
 62
7
  6
CONTINUOUS
 10
116.8043640385
 20
17.1591394302
 11
118.7815335074
 21
17.1585010574
  0
LINE
  5
258
100
AcDbEntity
  8
0
100
AcDbLine
 62
7
  6
CONTINUOUS
 10
132.3039753698
 20
37.3549965621
 11
132.2654957447
 21
37.3488992351
  0
LWPOLYLINE
  5
259
100
AcDbEntity
  8
DEFAULT_3
100
AcDbPolyline
 62
7
  6
PHANTOM
 90
24
 70
0
 10
102.0896712751
 20
31.3053428729
 10
102.3109757784
 20
31.3376323236
 10
102.5245392141
 20
31.3696502556
 10
102.7301252771
 20
31.4012671138
 10
102.9275244539
 20
31.4323577753
 10
103.1165183871
 20
31.4627964492
 10
103.2969066559
 20
31.4924613065
 10
103.4684879872
 20
31.5212320392
 10
103.631073386
 20
31.5489922164
 10
103.7845627014
 20
31.5756433532
 10
103.9287719832
 20
31.6010756397
 10
104.0635392409
 20
31.6251860771
 10
104.188797471
 20
31.6478924198
 10
104.3044094204
 20
31.6691038814
 10
104.4102782652
 20
31.6887412208
 10
104.5063183252
 20
31.7067318391
 10
104.5924544695
 20
31.7230098243
 10
104.668609635
 20
31.7375138456
 10
104.7347348621
 20
31.7501930191
 10
104.7907712046
 20
31.7609997954
 10
104.8366757772
 20
31.7698950559
 10
104.8724051725
 20
31.7768450254
 10
104.8979361085
 20
31.7818253919
 10
104.9189067792
 20
31.7859252489
  0
LWPOLYLINE
  5
25A
100
AcDbEntity
  8
0
100
AcDbPolyline
 62
7
  6
CONTINUOUS
 90
29
 70
0
 10
126.7740522392
 20
18.9113352413
 10
126.8338492254
 20
18.911834866
 10
126.8936422082
 20
18.9133607975
 10
126.9534079498
 20
18.9159309405
 10
127.0131232124
 20
18.9195631996
 10
127.0727647585
 20
18.9242754794
 10
127.1323093504
 20
18.9300856847
 10
127.1832306513
 20
18.9359505711
 10
127.2340481653
 20
18.9426457564
 10
127.2847463335
 20
18.9501824543
 10
127.3353095969
 20
18.9585718782
 10
127.3857223966
 20
18.9678252415
 10
127.4359691737
 20
18.9779537578
 10
127.4860343694
 20
18.9889686406
 10
127.5358840255
 20
19.0008766422
 10
127.5855121123
 20
19.0136912387
 10
127.634894067
 20
19.0274220541
 10
127.6840053271
 20
19.0420787128
 10
127.7328213297
 20
19.057670839
 10
127.7813175122
 20
19.0742080569
 10
127.8294693118
 20
19.0916999908
 10
127.8713237599
 20
19.1078054102
 10
127.9128795585
 20
19.1246566115
 10
127.9541208484
 20
19.142260227
 10
127.9950317705
 20
19.1606228889
 10
128.0355998103
 20
19.1797522914
 10
128.0757987531
 20
19.1996475051
 10
128.1156058059
 20
19.2203084921
 10
128.154998176
 20
19.2417352142
  0
LINE
  5
25B
100
AcDbEntity
  8
0
100
AcDbLine
 62
7
  6
CONTINUOUS
 10
101.4139433962
 20
37.7358434239
 11
101.3907344688
 21
37.9506447007
  0
LINE
  5
25C
100
AcDbEntity
  8
0
100
AcDbLine
 62
7
  6
CONTINUOUS
 10
101.3521347993
 20
38.3117748447
 11
101.3907347657
 21
37.950642446
  0
LINE
  5
25D
100
AcDbEntity
  8
0
100
AcDbLine
 62
7
  6
CONTINUOUS
 10
102.0977402392
 20
30.1525353922
 11
102.1086001466
 21
30.050744635
  0
LINE
  5
25E
100
AcDbEntity
  8
0
100
AcDbLine
 62
7
  6
CONTINUOUS
 10
101.5506441811
 20
35.2774807189
 11
102.0977402392
 21
30.1525353922
  0
LINE
  5
25F
100
AcDbEntity
  8
0
100
AcDbLine
 62
7
  6
CONTINUOUS
 10
101.5463877139
 20
35.277479842
 11
102.0874410585
 21
30.1300431084
  0
LINE
  5
260
100
AcDbEntity
  8
0
100
AcDbLine
 62
7
  6
CONTINUOUS
 10
101.4105697901
 20
37.7670665344
 11
101.3514307501
 21
38.3297434701
  0
LINE
  5
261
100
AcDbEntity
  8
DEFAULT_3
100
AcDbLine
 62
7
  6
PHANTOM
 10
102.2024461261
 20
30.2327995514
 11
101.3514229711
 21
38.329744007
  0
LINE
  5
262
100
AcDbEntity
  8
1_CURVES_SPEC
100
AcDbLine
 62
8
  6
HIDDEN
 10
101.3532987481
 20
38.3118971806
 11
101.3514229711
 21
38.329744007
  0
LINE
  5
263
100
AcDbEntity
  8
0
100
AcDbLine
 62
7
  6
CONTINUOUS
 10
103.1826858236
 20
28.0815209913
 11
104.0332535696
 21
19.9889094631
  0
LINE
  5
264
100
AcDbEntity
  8
DEFAULT_3
100
AcDbLine
 62
7
  6
PHANTOM
 10
104.1575688066
 20
20.0019755206
 11
103.1763613867
 21
29.3375405185
  0
LWPOLYLINE
  5
265
100
AcDbEntity
  8
0
100
AcDbPolyline
 62
7
  6
CONTINUOUS
 90
17
 70
0
 10
119.3939903866
 20
22.0192613727
 10
119.3967762449
 20
21.9916736921
 10
119.3992257971
 20
21.9640526168
 10
119.4013522906
 20
21.936403581
 10
119.4031689728
 20
21.9087320188
 10
119.40472307
 20
21.880297902
 10
119.4059611332
 20
21.8518490342
 10
119.4068798623
 20
21.8233886887
 10
119.4074759571
 20
21.7949201388
 10
119.407750216
 20
21.7658188632
 10
119.4076915232
 20
21.7367159247
 10
119.4073073916
 20
21.7076148113
 10
119.4066053343
 20
21.6785190114
 10
119.405570418
 20
21.6489282321
 10
119.4042088847
 20
21.619351092
 10
119.4025153812
 20
21.5897921212
 10
119.400484554
 20
21.5602558495
  0
LINE
  5
266
100
AcDbEntity
  8
0
100
AcDbLine
 62
7
  6
CONTINUOUS
 10
136.8043640385
 20
35.277479842
 11
136.5181195972
 21
38.5492687777
  0
LINE
  5
267
100
AcDbEntity
  8
0
100
AcDbLine
 62
7
  6
CONTINUOUS
 10
136.2690709227
 20
38.777479842
 11
136.4387673762
 21
36.8358113382
  0
LWPOLYLINE
  5
268
100
AcDbEntity
  8
0
100
AcDbPolyline
 62
7
  6
CONTINUOUS
 90
55
 70
0
 10
117.6597534989
 20
29.94688182
 10
117.6564800782
 20
29.9942966161
 10
117.6522299751
 20
30.0416354388
 10
117.6487826683
 20
30.0732074238
 10
117.6448137794
 20
30.1047178871
 10
117.640296481
 20
30.1361541376
 10
117.63519694
 20
30.1675641754
 10
117.629513606
 20
30.1988742539
 10
117.6232401558
 20
30.230071655
 10
117.6163560239
 20
30.2611941129
 10
117.608852819
 20
30.2921730573
 10
117.6007098817
 20
30.3229907858
 10
117.5918937768
 20
30.3536737555
 10
117.5823991528
 20
30.3841530092
 10
117.5722098401
 20
30.41440428
 10
117.561292022
 20
30.4444492772
 10
117.5496415514
 20
30.4742209436
 10
117.5372387923
 20
30.5036989641
 10
117.5240415795
 20
30.5329128741
 10
117.510063056
 20
30.5617732781
 10
117.4952966515
 20
30.5902417767
 10
117.4797357957
 20
30.6182799703
 10
117.4633739185
 20
30.6458494594
 10
117.4462044496
 20
30.6729118445
 10
117.428137757
 20
30.6995496701
 10
117.40924958
 20
30.725603363
 10
117.3895400662
 20
30.7510392992
 10
117.3689410062
 20
30.7759046406
 10
117.3475262239
 20
30.8000735755
 10
117.3253066976
 20
30.8235054501
 10
117.3080494372
 20
30.8406407754
 10
117.2903501316
 20
30.8573190494
 10
117.2722169136
 20
30.8735242949
 10
117.2536579155
 20
30.8892405349
 10
117.2345895222
 20
30.9045237709
 10
117.2151110118
 20
30.9192811778
 10
117.1952339433
 20
30.9334967803
 10
117.1749698755
 20
30.9471546028
 10
117.1542204587
 20
30.9603062782
 10
117.1331045867
 20
30.9728617475
 10
117.1116352255
 20
30.9848046434
 10
117.0898253411
 20
30.996118599
 10
117.067568117
 20
31.0068415906
 10
117.0449971257
 20
31.0168865439
 10
117.0221297065
 20
31.0262277202
 10
116.9989831987
 20
31.0348393806
 10
116.9754703566
 20
31.0427269784
 10
116.9517059803
 20
31.0498161784
 10
116.9276467398
 20
31.0560781777
 10
116.9033699805
 20
31.061427252
 10
116.8788499739
 20
31.0657996478
 10
116.8541586392
 20
31.0691228846
 10
116.8375945145
 20
31.0707143269
 10
116.8209884556
 20
31.071709252
 10
116.8043640385
 20
31.0720046807
  0
LINE
  5
269
100
AcDbEntity
  8
0
100
AcDbLine
 62
7
  6
CONTINUOUS
 10
118.1658506913
 20
20.9919612843
 11
117.6597534989
 21
29.94688182
  0
LINE
  5
26A
100
AcDbEntity
  8
0
100
AcDbLine
 62
7
  6
CONTINUOUS
 10
100.8541617841
 20
38.777479842
 11
100.854967026
 21
38.7585928336
  0
LWPOLYLINE
  5
26B
100
AcDbEntity
  8
0
100
AcDbPolyline
 62
7
  6
CONTINUOUS
 90
37
 70
0
 10
97.1699607009
 20
36.8358113382
 10
97.1699667337
 20
36.8350229154
 10
97.1701140079
 20
36.8342456576
 10
97.1704210705
 20
36.8334360415
 10
97.1708482273
 20
36.8326820198
 10
97.1714625426
 20
36.8318666022
 10
97.17216348
 20
36.8311239341
 10
97.1730815848
 20
36.8303133885
 10
97.1740587
 20
36.8295749436
 10
97.1758260521
 20
36.8284344378
 10
97.1776751993
 20
36.8274259223
 10
97.1795786669
 20
36.8265185135
 10
97.1821419927
 20
36.8254297476
 10
97.1847435444
 20
36.82444398
 10
97.1873745892
 20
36.8235413728
 10
97.1906897026
 20
36.8225050255
 10
97.194030843
 20
36.8215533206
 10
97.1973916704
 20
36.8206721748
 10
97.2034557587
 20
36.8192313885
 10
97.2095528029
 20
36.8179392949
 10
97.2166433875
 20
36.8165896183
 10
97.2237577693
 20
36.8153704828
 10
97.2318117006
 20
36.8141229919
 10
97.2398828494
 20
36.8129924614
 10
97.2488254439
 20
36.8118580126
 10
97.2577809723
 20
36.8108304829
 10
97.2675268692
 20
36.8098198356
 10
97.2772825373
 20
36.8089078611
 10
97.2916143908
 20
36.8077273894
 10
97.3059596649
 20
36.8067176856
 10
97.3203150974
 20
36.8058614777
 10
97.3359542916
 20
36.8050857971
 10
97.3516001449
 20
36.8044629516
 10
97.3672511404
 20
36.8039842673
 10
97.3835563417
 20
36.8036307131
 10
97.3998639638
 20
36.8034209329
 10
97.4161724945
 20
36.8033517195
  0
LINE
  5
26C
100
AcDbEntity
  8
0
100
AcDbLine
 62
7
  6
CONTINUOUS
 10
102.8121861763
 20
37.2674595452
 11
102.8121861763
 21
37.2642967952
  0
LINE
  5
26D
100
AcDbEntity
  8
6_SURFACES-PATINS-SPEC
100
AcDbLine
 62
7
  6
CONTINUOUS
 10
108.8671055458
 20
18.9340095507
 11
108.8671055424
 21
18.9027643003
  0
LINE
  5
26E
100
AcDbEntity
  8
6_SURFACES-PATINS-SPEC
100
AcDbLine
 62
7
  6
CONTINUOUS
 10
108.8990145038
 20
18.9089874574
 11
108.8990145027
 21
18.9402326979
  0
LINE
  5
26F
100
AcDbEntity
  8
6_SURFACES-PATINS-SPEC
100
AcDbLine
 62
7
  6
CONTINUOUS
 10
109.9226662516
 20
19.0077527887
 11
109.9226662504
 21
19.0389980292
  0
LINE
  5
270
100
AcDbEntity
  8
6_SURFACES-PATINS-SPEC
100
AcDbLine
 62
7
  6
CONTINUOUS
 10
111.6466320732
 20
19.0366512092
 11
111.6466320947
 21
19.0678956131
  0
LINE
  5
271
100
AcDbEntity
  8
6_SURFACES-PATINS-SPEC
100
AcDbLine
 62
7
  6
CONTINUOUS
 10
112.209162184
 20
19.0366503686
 11
112.2091621992
 21
19.0678958697
  0
LINE
  5
272
100
AcDbEntity
  8
6_SURFACES-PATINS-SPEC
100
AcDbLine
 62
7
  6
CONTINUOUS
 10
112.3055976733
 20
19.0363750972
 11
112.3055976711
 21
19.0676203375
  0
LINE
  5
273
100
AcDbEntity
  8
6_SURFACES-PATINS-SPEC
100
AcDbLine
 62
7
  6
CONTINUOUS
 10
113.9285232434
 20
18.9946509607
 11
113.9285232446
 21
19.0258962011
  0
LINE
  5
274
100
AcDbEntity
  8
6_SURFACES-PATINS-SPEC
100
AcDbLine
 62
7
  6
CONTINUOUS
 10
113.9656883768
 20
19.0014240607
 11
113.9656883766
 21
19.0326693087
  0
LINE
  5
275
100
AcDbEntity
  8
DEFAULT_1
100
AcDbLine
 62
7
  6
CENTER
 10
116.8043458268
 20
18.9113352413
 11
116.8043640385
 21
31.0720492692
  0
LINE
  5
276
100
AcDbEntity
  8
0
100
AcDbLine
 62
7
  6
CONTINUOUS
 10
116.8043458268
 20
18.6831622532
 11
116.8043458268
 21
18.9113352413
  0
LINE
  5
277
100
AcDbEntity
  8
DEFAULT_1
100
AcDbLine
 62
7
  6
CENTER
 10
116.8043640385
 20
12.0902414411
 11
116.8043640385
 21
17.1228168517
  0
LINE
  5
278
100
AcDbEntity
  8
0
100
AcDbLine
 62
7
  6
CONTINUOUS
 10
116.8043640385
 20
17.1228168517
 11
116.8043647071
 21
18.0677728351
  0
LINE
  5
279
100
AcDbEntity
  8
0
100
AcDbLine
 62
7
  6
CONTINUOUS
 10
116.8043640385
 20
31.0720492692
 11
116.8043640385
 21
31.3544802308
  0
LINE
  5
27A
100
AcDbEntity
  8
1_CURVES_SPEC
100
AcDbLine
 62
7
  6
PHANTOM
 10
116.8043640385
 20
37.2642968042
 11
116.8043640385
 21
37.2674595452
  0
LINE
  5
27B
100
AcDbEntity
  8
DEFAULT_1
100
AcDbLine
 62
7
  6
CENTER
 10
116.8043640385
 20
31.3544802308
 11
116.8043640385
 21
39.8441548817
  0
LINE
  5
27C
100
AcDbEntity
  8
0
100
AcDbLine
 62
7
  6
CONTINUOUS
 10
116.8043613606
 20
31.3544802311
 11
116.8043600283
 21
31.5828665952
  0
LINE
  5
27D
100
AcDbEntity
  8
DEFAULT_1
100
AcDbLine
 62
7
  6
CENTER
 10
116.8043647071
 20
18.0677728351
 11
116.8043458268
 21
18.6831622532
  0
LINE
  5
27E
100
AcDbEntity
  8
6_SURFACES-PATINS-SPEC
100
AcDbLine
 62
7
  6
CONTINUOUS
 10
119.643039704
 20
19.0326693084
 11
119.6430397004
 21
19.0014240608
  0
LINE
  5
27F
100
AcDbEntity
  8
6_SURFACES-PATINS-SPEC
100
AcDbLine
 62
7
  6
CONTINUOUS
 10
119.6802048336
 20
18.9946509607
 11
119.6802048324
 21
19.0258962011
  0
LINE
  5
280
100
AcDbEntity
  8
6_SURFACES-PATINS-SPEC
100
AcDbLine
 62
7
  6
CONTINUOUS
 10
121.3031304038
 20
19.0363750969
 11
121.3031304061
 21
19.0676203379
  0
LINE
  5
281
100
AcDbEntity
  8
6_SURFACES-PATINS-SPEC
100
AcDbLine
 62
7
  6
CONTINUOUS
 10
121.3995658656
 20
19.0366506286
 11
121.3995658809
 21
19.0678956121
  0
LINE
  5
282
100
AcDbEntity
  8
6_SURFACES-PATINS-SPEC
100
AcDbLine
 62
7
  6
CONTINUOUS
 10
121.9620959767
 20
19.0366503698
 11
121.9620959858
 21
19.0678964976
  0
LINE
  5
283
100
AcDbEntity
  8
6_SURFACES-PATINS-SPEC
100
AcDbLine
 62
7
  6
CONTINUOUS
 10
123.6860618289
 20
19.0077527887
 11
123.6860618165
 21
19.0389980292
  0
LINE
  5
284
100
AcDbEntity
  8
6_SURFACES-PATINS-SPEC
100
AcDbLine
 62
7
  6
CONTINUOUS
 10
124.7097135766
 20
18.9089874574
 11
124.7097135643
 21
18.9402326979
  0
LINE
  5
285
100
AcDbEntity
  8
6_SURFACES-PATINS-SPEC
100
AcDbLine
 62
7
  6
CONTINUOUS
 10
124.7416225346
 20
18.9027643003
 11
124.7416225327
 21
18.9340095505
  0
LINE
  5
286
100
AcDbEntity
  8
0
100
AcDbLine
 62
7
  6
CONTINUOUS
 10
130.7965419008
 20
37.2674595452
 11
130.7965419008
 21
37.2642967952
  0
LWPOLYLINE
  5
287
100
AcDbEntity
  8
0
100
AcDbPolyline
 62
7
  6
CONTINUOUS
 90
37
 70
0
 10
136.4387673762
 20
36.8358113382
 10
136.4387613434
 20
36.8350229154
 10
136.4386140692
 20
36.8342456576
 10
136.4383070066
 20
36.8334360415
 10
136.4378798498
 20
36.8326820198
 10
136.4372655345
 20
36.8318666022
 10
136.4365645971
 20
36.8311239341
 10
136.4356464922
 20
36.8303133885
 10
136.434669377
 20
36.8295749436
 10
136.432902025
 20
36.8284344378
 10
136.4310528777
 20
36.8274259223
 10
136.4291494101
 20
36.8265185135
 10
136.4265860843
 20
36.8254297476
 10
136.4239845326
 20
36.82444398
 10
136.4213534879
 20
36.8235413728
 10
136.4180383744
 20
36.8225050255
 10
136.414697234
 20
36.8215533206
 10
136.4113364066
 20
36.8206721748
 10
136.4052723184
 20
36.8192313885
 10
136.3991752742
 20
36.8179392949
 10
136.3920846896
 20
36.8165896183
 10
136.3849703078
 20
36.8153704828
 10
136.3769163765
 20
36.8141229919
 10
136.3688452277
 20
36.8129924614
 10
136.3599026332
 20
36.8118580126
 10
136.3509471048
 20
36.8108304829
 10
136.3412012079
 20
36.8098198356
 10
136.3314455398
 20
36.8089078611
 10
136.3171136863
 20
36.8077273894
 10
136.3027684122
 20
36.8067176856
 10
136.2884129797
 20
36.8058614777
 10
136.2727737855
 20
36.8050857971
 10
136.2571279321
 20
36.8044629516
 10
136.2414769366
 20
36.8039842673
 10
136.2251717353
 20
36.8036307131
 10
136.2088641133
 20
36.8034209329
 10
136.1925555825
 20
36.8033517195
  0
LINE
  5
288
100
AcDbEntity
  8
0
100
AcDbLine
 62
7
  6
CONTINUOUS
 10
132.7545662929
 20
38.777479842
 11
132.753761051
 21
38.7585928336
  0
LINE
  5
289
100
AcDbEntity
  8
0
100
AcDbLine
 62
7
  6
CONTINUOUS
 10
115.4428773858
 20
20.9919612843
 11
115.9489745781
 21
29.94688182
  0
LWPOLYLINE
  5
28A
100
AcDbEntity
  8
0
100
AcDbPolyline
 62
7
  6
CONTINUOUS
 90
55
 70
0
 10
115.9489745781
 20
29.94688182
 10
115.9522479989
 20
29.9942966161
 10
115.956498102
 20
30.0416354388
 10
115.9599454088
 20
30.0732074238
 10
115.9639142977
 20
30.1047178871
 10
115.9684315961
 20
30.1361541376
 10
115.9735311371
 20
30.1675641754
 10
115.9792144711
 20
30.1988742539
 10
115.9854879213
 20
30.230071655
 10
115.9923720532
 20
30.2611941129
 10
115.9998752581
 20
30.2921730573
 10
116.0080181954
 20
30.3229907858
 10
116.0168343003
 20
30.3536737555
 10
116.0263289243
 20
30.3841530092
 10
116.036518237
 20
30.41440428
 10
116.0474360551
 20
30.4444492772
 10
116.0590865257
 20
30.4742209436
 10
116.0714892848
 20
30.5036989641
 10
116.0846864975
 20
30.5329128741
 10
116.098665021
 20
30.5617732781
 10
116.1134314255
 20
30.5902417767
 10
116.1289922813
 20
30.6182799703
 10
116.1453541585
 20
30.6458494594
 10
116.1625236275
 20
30.6729118445
 10
116.1805903201
 20
30.6995496701
 10
116.1994784971
 20
30.725603363
 10
116.2191880109
 20
30.7510392992
 10
116.2397870709
 20
30.7759046406
 10
116.2612018532
 20
30.8000735755
 10
116.2834213795
 20
30.8235054501
 10
116.3006786399
 20
30.8406407754
 10
116.3183779455
 20
30.8573190494
 10
116.3365111635
 20
30.8735242949
 10
116.3550701616
 20
30.8892405349
 10
116.3741385549
 20
30.9045237709
 10
116.3936170653
 20
30.9192811778
 10
116.4134941338
 20
30.9334967803
 10
116.4337582015
 20
30.9471546028
 10
116.4545076183
 20
30.9603062782
 10
116.4756234903
 20
30.9728617475
 10
116.4970928515
 20
30.9848046434
 10
116.5189027359
 20
30.996118599
 10
116.5411599601
 20
31.0068415906
 10
116.5637309514
 20
31.0168865439
 10
116.5865983706
 20
31.0262277202
 10
116.6097448783
 20
31.0348393806
 10
116.6332577204
 20
31.0427269784
 10
116.6570220968
 20
31.0498161784
 10
116.6810813373
 20
31.0560781777
 10
116.7053580966
 20
31.061427252
 10
116.7298781032
 20
31.0657996478
 10
116.7545694379
 20
31.0691228846
 10
116.7711335626
 20
31.0707143269
 10
116.7877396215
 20
31.071709252
 10
116.8043640385
 20
31.0720046807
  0
LINE
  5
28B
100
AcDbEntity
  8
0
100
AcDbLine
 62
7
  6
CONTINUOUS
 10
96.8043640385
 20
35.277479842
 11
97.0906084799
 21
38.5492687777
  0
LINE
  5
28C
100
AcDbEntity
  8
0
100
AcDbLine
 62
7
  6
CONTINUOUS
 10
97.3396571544
 20
38.777479842
 11
97.1699607009
 21
36.8358113382
  0
LWPOLYLINE
  5
28D
100
AcDbEntity
  8
0
100
AcDbPolyline
 62
7
  6
CONTINUOUS
 90
7
 70
0
 10
130.0283330941
 20
24.2975711025
 10
130.0560856385
 20
24.5891600901
 10
130.0909171933
 20
24.9409962024
 10
130.1271871284
 20
25.2926873296
 10
130.1648753706
 20
25.6442306151
 10
130.203962348
 20
25.9956208037
 10
130.2373900206
 20
26.2866148933
  0
LWPOLYLINE
  5
28E
100
AcDbEntity
  8
6_SURFACES-PATINS-SPEC
100
AcDbPolyline
 62
7
  6
CONTINUOUS
 90
37
 70
0
 10
108.8671055458
 20
18.9340093256
 10
108.8671165695
 20
18.934123465
 10
108.8671478242
 20
18.9342335832
 10
108.8671965351
 20
18.9343393612
 10
108.8672599275
 20
18.9344404803
 10
108.8673352268
 20
18.9345366214
 10
108.8674196581
 20
18.9346274657
 10
108.8675104467
 20
18.9347126943
 10
108.8676048179
 20
18.9347919883
 10
108.8677570708
 20
18.9349056244
 10
108.8679116755
 20
18.9350066282
 10
108.8680689478
 20
18.9350981254
 10
108.8682292036
 20
18.9351832419
 10
108.8685142305
 20
18.9353222852
 10
108.8688065347
 20
18.9354523809
 10
108.8691034825
 20
18.9355743581
 10
108.8695952372
 20
18.9357587899
 10
108.8700916304
 20
18.9359263951
 10
108.8705918987
 20
18.9360799385
 10
108.8710952785
 20
18.9362221849
 10
108.8716010063
 20
18.9363558989
 10
108.8724697771
 20
18.9365708127
 10
108.8733423819
 20
18.9367710265
 10
108.8742180191
 20
18.9369587139
 10
108.8750958872
 20
18.9371360484
 10
108.876513332
 20
18.9374043202
 10
108.8779340489
 20
18.9376535388
 10
108.8793575998
 20
18.9378858803
 10
108.8807835468
 20
18.9381035211
 10
108.8822114521
 20
18.9383086375
 10
108.8836408775
 20
18.9385034057
 10
108.8850713853
 20
18.9386900019
 10
108.8878561145
 20
18.9390354604
 10
108.8906430365
 20
18.9393603447
 10
108.8934319056
 20
18.9396667698
 10
108.8962224762
 20
18.9399568504
 10
108.8990145027
 20
18.9402327012
  0
LWPOLYLINE
  5
28F
100
AcDbEntity
  8
6_SURFACES-PATINS-SPEC
100
AcDbPolyline
 62
7
  6
CONTINUOUS
 90
37
 70
0
 10
108.8671055424
 20
18.9027641738
 10
108.8671165822
 20
18.9028783172
 10
108.8671478519
 20
18.9029884367
 10
108.8671965767
 20
18.9030942141
 10
108.8672599819
 20
18.9031953309
 10
108.867335293
 20
18.9032914688
 10
108.8674197351
 20
18.9033823093
 10
108.8675105336
 20
18.9034675342
 10
108.8676049137
 20
18.9035468251
 10
108.8677571784
 20
18.9036604575
 10
108.8679117932
 20
18.9037614596
 10
108.8680690745
 20
18.9038529565
 10
108.868229339
 20
18.9039380733
 10
108.8685143769
 20
18.904077115
 10
108.868806692
 20
18.9042072089
 10
108.8691036504
 20
18.9043291844
 10
108.869595415
 20
18.9045136119
 10
108.8700918174
 20
18.9046812144
 10
108.8705920942
 20
18.9048347561
 10
108.8710954822
 20
18.9049770014
 10
108.871601218
 20
18.9051107148
 10
108.8724699924
 20
18.9053256253
 10
108.8733426007
 20
18.905525836
 10
108.8742182413
 20
18.9057135206
 10
108.8750961128
 20
18.9058908525
 10
108.8765135491
 20
18.9061591179
 10
108.877934257
 20
18.9064083308
 10
108.8793577988
 20
18.9066406674
 10
108.8807837366
 20
18.9068583039
 10
108.8822116324
 20
18.9070634165
 10
108.8836410484
 20
18.9072581813
 10
108.8850715466
 20
18.9074447747
 10
108.887856244
 20
18.9077902268
 10
108.8906431342
 20
18.9081151066
 10
108.8934319713
 20
18.9084215288
 10
108.8962225098
 20
18.9087116084
 10
108.8990145038
 20
18.9089874604
  0
LWPOLYLINE
  5
290
100
AcDbEntity
  8
0
100
AcDbPolyline
 62
7
  6
CONTINUOUS
 90
17
 70
0
 10
114.2147376905
 20
22.0192613727
 10
114.2119518321
 20
21.9916736921
 10
114.20950228
 20
21.9640526168
 10
114.2073757865
 20
21.936403581
 10
114.2055591042
 20
21.9087320188
 10
114.2040050071
 20
21.880297902
 10
114.2027669439
 20
21.8518490342
 10
114.2018482148
 20
21.8233886887
 10
114.2012521199
 20
21.7949201388
 10
114.200977861
 20
21.7658188632
 10
114.2010365538
 20
21.7367159247
 10
114.2014206854
 20
21.7076148113
 10
114.2021227427
 20
21.6785190114
 10
114.203157659
 20
21.6489282321
 10
114.2045191923
 20
21.619351092
 10
114.2062126959
 20
21.5897921212
 10
114.2082435231
 20
21.5602558495
  0
LWPOLYLINE
  5
291
100
AcDbEntity
  8
6_SURFACES-PATINS-SPEC
100
AcDbPolyline
 62
7
  6
CONTINUOUS
 90
37
 70
0
 10
113.9656883766
 20
19.0326691998
 10
113.9656753423
 20
19.0325427383
 10
113.9656384956
 20
19.0324214981
 10
113.9655812156
 20
19.0323057145
 10
113.9655068817
 20
19.032195623
 10
113.9654188727
 20
19.0320914588
 10
113.965320568
 20
19.0319934575
 10
113.9652153467
 20
19.0319018545
 10
113.9651065879
 20
19.031816885
 10
113.9649274917
 20
19.031692155
 10
113.964747123
 20
19.0315820441
 10
113.9645646321
 20
19.0314828353
 10
113.9643791693
 20
19.0313908115
 10
113.964046942
 20
19.0312393773
 10
113.9637063237
 20
19.031097683
 10
113.9633605765
 20
19.0309648941
 10
113.9627860201
 20
19.0307634055
 10
113.9622070639
 20
19.0305806939
 10
113.9616243761
 20
19.0304136234
 10
113.9610386247
 20
19.0302590579
 10
113.9604504777
 20
19.0301138615
 10
113.959437806
 20
19.0298798802
 10
113.9584209715
 20
19.0296618859
 10
113.9574008918
 20
19.029457535
 10
113.9563784843
 20
19.0292644839
 10
113.9547261001
 20
19.0289721809
 10
113.9530704729
 20
19.0287007837
 10
113.951412029
 20
19.028447894
 10
113.9497511946
 20
19.0282111132
 10
113.9480883961
 20
19.0279880429
 10
113.9464240599
 20
19.0277762848
 10
113.9447586122
 20
19.0275734403
 10
113.9415155941
 20
19.0271977778
 10
113.9382702648
 20
19.0268445055
 10
113.9350229079
 20
19.0265113411
 10
113.9317738066
 20
19.026196002
 10
113.9285232446
 20
19.0258962058
  0
LWPOLYLINE
  5
292
100
AcDbEntity
  8
6_SURFACES-PATINS-SPEC
100
AcDbPolyline
 62
7
  6
CONTINUOUS
 90
37
 70
0
 10
113.9656883768
 20
19.0014239675
 10
113.9656753442
 20
19.0012975065
 10
113.965638499
 20
19.0011762664
 10
113.9655812204
 20
19.0010604828
 10
113.9655068877
 20
19.000950391
 10
113.9654188799
 20
19.0008462266
 10
113.9653205762
 20
19.0007482249
 10
113.9652153558
 20
19.0006566215
 10
113.9651065979
 20
19.0005716518
 10
113.9649275027
 20
19.0004469213
 10
113.9647471349
 20
19.0003368103
 10
113.9645646449
 20
19.0002376015
 10
113.9643791828
 20
19.0001455778
 10
113.9640469564
 20
18.9999941436
 10
113.9637063389
 20
18.9998524492
 10
113.9633605925
 20
18.9997196602
 10
113.9627860367
 20
18.9995181714
 10
113.9622070811
 20
18.9993354597
 10
113.9616243938
 20
18.9991683892
 10
113.9610386429
 20
18.9990138238
 10
113.9604504964
 20
18.9988686275
 10
113.959437825
 20
18.998634646
 10
113.9584209907
 20
18.9984166514
 10
113.9574009113
 20
18.9982123001
 10
113.9563785041
 20
18.9980192485
 10
113.9547261203
 20
18.9977269442
 10
113.9530704935
 20
18.9974555455
 10
113.95141205
 20
18.997202654
 10
113.949751216
 20
18.9969658714
 10
113.9480884179
 20
18.9967427993
 10
113.946424082
 20
18.9965310395
 10
113.9447586346
 20
18.9963281936
 10
113.9415156122
 20
18.9959525287
 10
113.9382702784
 20
18.9955992556
 10
113.9350229167
 20
18.9952660921
 10
113.9317738105
 20
18.9949507559
 10
113.9285232434
 20
18.9946509649
  0
LINE
  5
293
100
AcDbEntity
  8
DEFAULT_3
100
AcDbLine
 62
7
  6
PHANTOM
 10
130.4323666904
 20
29.3375405185
 11
129.4511592705
 21
20.0019755206
  0
LINE
  5
294
100
AcDbEntity
  8
0
100
AcDbLine
 62
7
  6
CONTINUOUS
 10
130.4260418282
 20
28.0815169458
 11
130.2373900206
 21
26.2866148933
  0
LINE
  5
295
100
AcDbEntity
  8
0
100
AcDbLine
 62
7
  6
CONTINUOUS
 10
130.0283330941
 20
24.2975711025
 11
129.5754745075
 21
19.9889094631
  0
LINE
  5
296
100
AcDbEntity
  8
DEFAULT_3
100
AcDbLine
 62
7
  6
PHANTOM
 10
132.257305106
 20
38.329744007
 11
131.406281951
 21
30.2327995514
  0
LINE
  5
297
100
AcDbEntity
  8
0
100
AcDbLine
 62
7
  6
CONTINUOUS
 10
132.257297327
 20
38.3297434701
 11
132.198158287
 21
37.7670665344
  0
LINE
  5
298
100
AcDbEntity
  8
0
100
AcDbLine
 62
7
  6
CONTINUOUS
 10
131.5212855265
 20
30.1300289091
 11
132.0623403647
 21
35.277479842
  0
LINE
  5
299
100
AcDbEntity
  8
0
100
AcDbLine
 62
7
  6
CONTINUOUS
 10
129.3479518139
 20
21.044075457
 11
129.3705803277
 21
21.2567753729
  0
LINE
  5
29A
100
AcDbEntity
  8
0
100
AcDbLine
 62
7
  6
CONTINUOUS
 10
131.5109878379
 20
30.1525353922
 11
131.5001279305
 21
30.050744635
  0
LINE
  5
29B
100
AcDbEntity
  8
0
100
AcDbLine
 62
7
  6
CONTINUOUS
 10
132.2565932778
 20
38.3117748447
 11
132.2179933114
 21
37.950642446
  0
LINE
  5
29C
100
AcDbEntity
  8
0
100
AcDbLine
 62
7
  6
CONTINUOUS
 10
132.058083896
 20
35.2774807189
 11
131.5109878379
 21
30.1525353922
  0
LINE
  5
29D
100
AcDbEntity
  8
0
100
AcDbLine
 62
7
  6
CONTINUOUS
 10
132.2179936083
 20
37.9506447007
 11
132.1947846808
 21
37.7358434239
  0
LINE
  5
29E
100
AcDbEntity
  8
0
100
AcDbLine
 62
7
  6
CONTINUOUS
 10
132.1947846808
 20
37.7358434239
 11
132.1734358253
 21
37.5433645121
  0
LINE
  5
29F
100
AcDbEntity
  8
0
100
AcDbLine
 62
7
  6
CONTINUOUS
 10
131.5175397498
 20
30.0993164413
 11
131.5195330445
 21
30.1169968085
  0
LINE
  5
2A0
100
AcDbEntity
  8
0
100
AcDbLine
 62
7
  6
CONTINUOUS
 10
132.1734358253
 20
37.5433645121
 11
132.1521493201
 21
37.3575102857
  0
LINE
  5
2A1
100
AcDbEntity
  8
0
100
AcDbLine
 62
7
  6
CONTINUOUS
 10
132.1521493201
 20
37.3575102857
 11
132.1492537301
 21
37.333174837
  0
LWPOLYLINE
  5
2A2
100
AcDbEntity
  8
0
100
AcDbPolyline
 62
7
  6
CONTINUOUS
 90
29
 70
0
 10
119.4004847076
 20
21.5602559175
 10
119.3932587538
 20
21.5044226559
 10
119.3869954614
 20
21.4484580322
 10
119.3817106606
 20
21.3923816959
 10
119.3774201816
 20
21.3362132964
 10
119.3741398546
 20
21.2799724832
 10
119.3718855098
 20
21.2236789056
 10
119.3706729776
 20
21.1673522131
 10
119.3705060476
 20
21.1129648493
 10
119.3713417053
 20
21.0585854347
 10
119.3731969254
 20
21.0042344666
 10
119.3760886822
 20
20.9499324427
 10
119.3800339504
 20
20.8956998604
 10
119.3850497044
 20
20.8415572172
 10
119.3911529186
 20
20.7875250106
 10
119.3979290642
 20
20.7366317052
 10
119.4057068674
 20
20.685879628
 10
119.4145034782
 20
20.6352932909
 10
119.4243360466
 20
20.5848972057
 10
119.4352217225
 20
20.5347158843
 10
119.447177656
 20
20.4847738385
 10
119.4602209968
 20
20.4350955801
 10
119.473336919
 20
20.3891713194
 10
119.487417982
 20
20.3435295353
 10
119.5024746634
 20
20.2982035287
 10
119.5185174408
 20
20.2532266006
 10
119.535556792
 20
20.208632052
 10
119.5536031945
 20
20.1644531838
 10
119.5726671259
 20
20.1207232972
  0
LWPOLYLINE
  5
2A3
100
AcDbEntity
  8
6_SURFACES-PATINS-SPEC
100
AcDbPolyline
 62
7
  6
CONTINUOUS
 90
34
 70
0
 10
124.7416225346
 20
18.9027641737
 10
124.7415985619
 20
18.9025817668
 10
124.7415312202
 20
18.9024129654
 10
124.7414273744
 20
18.9022570334
 10
124.7412938892
 20
18.9021132348
 10
124.7411376293
 20
18.9019808336
 10
124.7409654596
 20
18.9018590935
 10
124.7407842449
 20
18.9017472786
 10
124.7406008499
 20
18.9016446528
 10
124.740272739
 20
18.9014772071
 10
124.7399545611
 20
18.9013322579
 10
124.7396404078
 20
18.9012037171
 10
124.7393243705
 20
18.9010854959
 10
124.7387422783
 20
18.9008861621
 10
124.7381439917
 20
18.9007000911
 10
124.7375382968
 20
18.9005269813
 10
124.7363918859
 20
18.9002319425
 10
124.7352439512
 20
18.8999692904
 10
124.7338468537
 20
18.8996793099
 10
124.7324427449
 20
18.8994126049
 10
124.7300753849
 20
18.8990047923
 10
124.7277025437
 20
18.8986382437
 10
124.7253253679
 20
18.8983029747
 10
124.7222854382
 20
18.8979071279
 10
124.7192414165
 20
18.8975409253
 10
124.7161944078
 20
18.8971992937
 10
124.7124826412
 20
18.8968101026
 10
124.7087685043
 20
18.8964457788
 10
124.7050524151
 20
18.8961022979
 10
124.7006705275
 20
18.8957193846
 10
124.6962868465
 20
18.8953570723
 10
124.6919017093
 20
18.8950125981
 10
124.684325476
 20
18.8944527218
 10
124.6767465882
 20
18.8939304413
  0
LINE
  5
2A4
100
AcDbEntity
  8
0
100
AcDbLine
 62
7
  6
CONTINUOUS
 10
115.3317913658
 20
29.9766139487
 11
114.21473769
 21
22.0192613588
  0
LINE
  5
2A5
100
AcDbEntity
  8
0
100
AcDbLine
 62
7
  6
CONTINUOUS
 10
132.2633522215
 20
38.3708419154
 11
132.2572974038
 21
38.3297434821
  0
LINE
  5
2A6
100
AcDbEntity
  8
DEFAULT_3
100
AcDbLine
 62
7
  6
PHANTOM
 10
104.100752625
 20
32.6716828876
 11
104.1242177948
 21
32.8198361387
  0
LINE
  5
2A7
100
AcDbEntity
  8
DEFAULT_3
100
AcDbLine
 62
7
  6
PHANTOM
 10
105.5635740925
 20
32.7184226377
 11
105.5205546146
 21
32.4468083441
  0
LWPOLYLINE
  5
2A8
100
AcDbEntity
  8
DEFAULT_3
100
AcDbPolyline
 62
7
  6
PHANTOM
 90
77
 70
0
 10
105.5205546146
 20
32.4468083441
 10
105.5148565021
 20
32.414761794
 10
105.5079554364
 20
32.3829620428
 10
105.4998642387
 20
32.3514632107
 10
105.4905957304
 20
32.3203194178
 10
105.4801640573
 20
32.289584327
 10
105.4685886644
 20
32.259309772
 10
105.4558903213
 20
32.2295471292
 10
105.4420897977
 20
32.2003477751
 10
105.4272090921
 20
32.1717623854
 10
105.4112751179
 20
32.1438388332
 10
105.3943160172
 20
32.1166242906
 10
105.3763599323
 20
32.0901659302
 10
105.3574361066
 20
32.0645100117
 10
105.3375781884
 20
32.0396991449
 10
105.3168209274
 20
32.0157750273
 10
105.2951990732
 20
31.9927793561
 10
105.2727483186
 20
31.970752726
 10
105.2495081288
 20
31.9497313203
 10
105.2255189122
 20
31.9297502197
 10
105.2008210774
 20
31.910844505
 10
105.1754557923
 20
31.8930479948
 10
105.1494672625
 20
31.8763894593
 10
105.1229004534
 20
31.8608964069
 10
105.0958003303
 20
31.8465963459
 10
105.0682124134
 20
31.8335153974
 10
105.0401844432
 20
31.8216741336
 10
105.0117647151
 20
31.8110917399
 10
104.9830015245
 20
31.8017874013
 10
104.9539435023
 20
31.7937788287
 10
104.9246406214
 20
31.7870778354
 10
104.8951431902
 20
31.7816947602
 10
104.8655015169
 20
31.7776399421
 10
104.8357660166
 20
31.7749221984
 10
104.8059875314
 20
31.7735442612
 10
104.7762170101
 20
31.773507341
 10
104.7465054018
 20
31.7748126482
 10
104.7169035302
 20
31.7774598665
 10
104.68746172
 20
31.7814425719
 10
104.6582301709
 20
31.7867528137
 10
104.6292590826
 20
31.7933826408
 10
104.6005983018
 20
31.8013226118
 10
104.5722962626
 20
31.8105573221
 10
104.5444010462
 20
31.8210698762
 10
104.5169607339
 20
31.8328433789
 10
104.490022835
 20
31.845859521
 10
104.4636325725
 20
31.8600943372
 10
104.4378345975
 20
31.8755224488
 10
104.4126735612
 20
31.8921184766
 10
104.3881933401
 20
31.9098557431
 10
104.364434712
 20
31.9287023766
 10
104.34143768
 20
31.9486252068
 10
104.3192422473
 20
31.9695910633
 10
104.2978874604
 20
31.9915656281
 10
104.27740854
 20
32.014509992
 10
104.25783975
 20
32.038384098
 10
104.2392153544
 20
32.0631478893
 10
104.2215685048
 20
32.0887603431
 10
104.2049279038
 20
32.1151765746
 10
104.1893211414
 20
32.142350733
 10
104.1747758079
 20
32.1702369679
 10
104.1613182558
 20
32.1987886712
 10
104.1489698864
 20
32.2279562056
 10
104.1377508634
 20
32.2576891763
 10
104.1276813505
 20
32.2879371885
 10
104.1187801819
 20
32.31864932
 10
104.1110608749
 20
32.3497725383
 10
104.104535617
 20
32.3812532835
 10
104.0992165962
 20
32.4130379955
 10
104.095114615
 20
32.4450728278
 10
104.0922349355
 20
32.4773027869
 10
104.0905814346
 20
32.5096725929
 10
104.0901579893
 20
32.5421269656
 10
104.0909670753
 20
32.5746105994
 10
104.0930055635
 20
32.6070680865
 10
104.0962689235
 20
32.6394439937
 10
104.100752625
 20
32.6716828876
  0
LINE
  5
2A9
100
AcDbEntity
  8
0
100
AcDbLine
 62
7
  6
CONTINUOUS
 10
131.8558434902
 20
34.7064638347
 11
131.9216109155
 21
35.0219975738
  0
LINE
  5
2AA
100
AcDbEntity
  8
0
100
AcDbLine
 62
7
  6
CONTINUOUS
 10
131.9216109155
 20
35.0219975738
 11
131.9749614969
 21
35.277479842
  0
LINE
  5
2AB
100
AcDbEntity
  8
0
100
AcDbLine
 62
7
  6
CONTINUOUS
 10
131.4910004332
 20
29.9769253046
 11
131.5175397498
 21
30.0993164413
  0
LINE
  5
2AC
100
AcDbEntity
  8
0
100
AcDbLine
 62
7
  6
CONTINUOUS
 10
132.2760454342
 20
38.4224809746
 11
132.2633522215
 21
38.3708419154
  0
LWPOLYLINE
  5
2AD
100
AcDbEntity
  8
6_SURFACES-PATINS-SPEC
100
AcDbPolyline
 62
7
  6
CONTINUOUS
 90
25
 70
0
 10
119.643039704
 20
19.0326691995
 10
119.6431863547
 20
19.0330923637
 10
119.6435159651
 20
19.0334403608
 10
119.6441111573
 20
19.0338257176
 10
119.6449442307
 20
19.0342108504
 10
119.6473226245
 20
19.0349801976
 10
119.65064798
 20
19.0357479012
 10
119.6601270341
 20
19.0372764259
 10
119.673366531
 20
19.0387939586
 10
119.6903621307
 20
19.0402995556
 10
119.7111045939
 20
19.0417919602
 10
119.7355748318
 20
19.04326947
 10
119.7637265062
 20
19.0447294335
 10
119.7954873115
 20
19.0461682411
 10
119.8307507941
 20
19.0475810417
 10
119.911418514
 20
19.050315205
 10
120.0052029414
 20
19.0529137196
 10
120.1115752375
 20
19.0553607863
 10
120.2298834913
 20
19.057642758
 10
120.3592267739
 20
19.0597419653
 10
120.4981473495
 20
19.0616345073
 10
120.6456041387
 20
19.0633054156
 10
120.801076159
 20
19.0647500988
 10
120.96353019
 20
19.0659585769
 10
121.3031304061
 20
19.0676203375
  0
LWPOLYLINE
  5
2AE
100
AcDbEntity
  8
6_SURFACES-PATINS-SPEC
100
AcDbPolyline
 62
7
  6
CONTINUOUS
 90
25
 70
0
 10
119.6430397004
 20
19.0014239676
 10
119.6431863569
 20
19.0018471324
 10
119.643515972
 20
19.0021951284
 10
119.6441111696
 20
19.0025804847
 10
119.6449442482
 20
19.0029656165
 10
119.6473226522
 20
19.0037349617
 10
119.6506480167
 20
19.0045026644
 10
119.6601270845
 20
19.0060311973
 10
119.673366593
 20
19.0075487404
 10
119.6903622119
 20
19.0090543241
 10
119.7111046941
 20
19.0105467114
 10
119.7355749404
 20
19.0120242302
 10
119.7637266208
 20
19.0134842053
 10
119.795487436
 20
19.0149230088
 10
119.8307509272
 20
19.0163358041
 10
119.9114186558
 20
19.0190699696
 10
120.0052030873
 20
19.0216684851
 10
120.1115753838
 20
19.0241155482
 10
120.2298836323
 20
19.0263975194
 10
120.3592269036
 20
19.0284967296
 10
120.498147467
 20
19.0303892593
 10
120.6456042331
 20
19.0320601879
 10
120.8010762366
 20
19.0335048554
 10
120.9635302377
 20
19.0347133372
 10
121.3031304038
 20
19.0363750969
  0
LINE
  5
2AF
100
AcDbEntity
  8
0
100
AcDbLine
 62
7
  6
CONTINUOUS
 10
131.4582569468
 20
29.8830737343
 11
131.4910004332
 21
29.9769253046
  0
LINE
  5
2B0
100
AcDbEntity
  8
0
100
AcDbLine
 62
7
  6
CONTINUOUS
 10
132.2941510304
 20
38.4724799483
 11
132.2760454342
 21
38.4224809746
  0
LINE
  5
2B1
100
AcDbEntity
  8
6_SURFACES-PATINS-SPEC
100
AcDbLine
 62
7
  6
CONTINUOUS
 10
113.0549194618
 20
17.219519609
 11
113.3300745759
 21
17.9758078826
  0
LINE
  5
2B2
100
AcDbEntity
  8
6_SURFACES-PATINS-SPEC
100
AcDbLine
 62
7
  6
CONTINUOUS
 10
113.3300745759
 20
17.9758078826
 11
113.6132395832
 21
18.7544494206
  0
LINE
  5
2B3
100
AcDbEntity
  8
6_SURFACES-PATINS-SPEC
100
AcDbLine
 62
7
  6
CONTINUOUS
 10
124.1119241189
 20
17.8935919876
 11
124.3891768737
 21
18.6558002369
  0
LINE
  5
2B4
100
AcDbEntity
  8
6_SURFACES-PATINS-SPEC
100
AcDbLine
 62
7
  6
CONTINUOUS
 10
123.8524187222
 20
17.1804423733
 11
124.1119241189
 21
17.8935919876
  0
LINE
  5
2B5
100
AcDbEntity
  8
6_SURFACES-PATINS-SPEC
100
AcDbLine
 62
7
  6
CONTINUOUS
 10
123.6206810658
 20
16.5443359576
 11
123.8524187222
 21
17.1804423733
  0
LINE
  5
2B6
100
AcDbEntity
  8
6_SURFACES-PATINS-SPEC
100
AcDbLine
 62
7
  6
CONTINUOUS
 10
112.8088451122
 20
16.5443359576
 11
113.0549194618
 21
17.219519609
  0
LWPOLYLINE
  5
2B7
100
AcDbEntity
  8
0
100
AcDbPolyline
 62
7
  6
CONTINUOUS
 90
22
 70
0
 10
131.5001267808
 20
30.0507447577
 10
131.5018669684
 20
30.0551768516
 10
131.5035626227
 20
30.0596265169
 10
131.5052112712
 20
30.0640939478
 10
131.5068104414
 20
30.0685793385
 10
131.5083576607
 20
30.0730828832
 10
131.5097135581
 20
30.0771828943
 10
131.511021465
 20
30.0812984164
 10
131.5122781491
 20
30.0854298706
 10
131.5134803778
 20
30.0895776784
 10
131.5146249186
 20
30.0937422609
 10
131.5154437563
 20
30.0968792424
 10
131.5162247832
 20
30.1000259469
 10
131.5169645069
 20
30.1031824103
 10
131.5176594347
 20
30.1063486687
 10
131.5183060739
 20
30.1095247581
 10
131.518900932
 20
30.1127107143
 10
131.5194823073
 20
30.1161585884
 10
131.5200052424
 20
30.1196161548
 10
131.5204756276
 20
30.1230815802
 10
131.5208993537
 20
30.1265530311
 10
131.5212823112
 20
30.1300286744
  0
LINE
  5
2B8
100
AcDbEntity
  8
6_SURFACES-PATINS-SPEC
100
AcDbLine
 62
7
  6
CONTINUOUS
 10
124.3891770187
 20
18.6558007451
 11
124.3986562389
 21
18.6793406487
  0
LINE
  5
2B9
100
AcDbEntity
  8
0
100
AcDbLine
 62
7
  6
CONTINUOUS
 10
131.4582569468
 20
29.8830737343
 11
131.4583068216
 21
29.8831973158
  0
LINE
  5
2BA
100
AcDbEntity
  8
6_SURFACES-PATINS-SPEC
100
AcDbLine
 62
7
  6
CONTINUOUS
 10
113.6132389194
 20
18.7544476855
 11
113.6232047622
 21
18.7790837328
  0
LINE
  5
2BB
100
AcDbEntity
  8
6_SURFACES-PATINS-SPEC
100
AcDbLine
 62
7
  6
CONTINUOUS
 10
112.7823299034
 20
16.4793194834
 11
112.8088451125
 21
16.5443359576
  0
LINE
  5
2BC
100
AcDbEntity
  8
6_SURFACES-PATINS-SPEC
100
AcDbLine
 62
7
  6
CONTINUOUS
 10
123.5941658567
 20
16.4793194834
 11
123.6206810658
 21
16.5443359576
  0
LINE
  5
2BD
100
AcDbEntity
  8
0
100
AcDbLine
 62
7
  6
CONTINUOUS
 10
131.3804140154
 20
29.7061867161
 11
131.458307842
 21
29.8831969041
  0
LWPOLYLINE
  5
2BE
100
AcDbEntity
  8
0
100
AcDbPolyline
 62
7
  6
CONTINUOUS
 90
29
 70
0
 10
114.0360532794
 20
20.1207253983
 10
114.0226984473
 20
20.0916805198
 10
114.0088718485
 20
20.0628487554
 10
113.9945722177
 20
20.0342425681
 10
113.9797982896
 20
20.0058744213
 10
113.9645487988
 20
19.9777567781
 10
113.9488224801
 20
19.9499021019
 10
113.9326180681
 20
19.9223228558
 10
113.9168776072
 20
19.8965459866
 10
113.9007093306
 20
19.8710366619
 10
113.8841127986
 20
19.8458057525
 10
113.8670875715
 20
19.8208641291
 10
113.8496332096
 20
19.7962226626
 10
113.8317492733
 20
19.7718922238
 10
113.813435323
 20
19.7478836834
 10
113.7956772515
 20
19.725431557
 10
113.7775342506
 20
19.7032883309
 10
113.7590082144
 20
19.6814638651
 10
113.7401010367
 20
19.6599680198
 10
113.7208146117
 20
19.6388106551
 10
113.7011508334
 20
19.6180016311
 10
113.6811115957
 20
19.597550808
 10
113.6616319998
 20
19.5783696062
 10
113.6418175307
 20
19.5595331129
 10
113.621673809
 20
19.5410505595
 10
113.6012064555
 20
19.5229311776
 10
113.580421091
 20
19.5051841988
 10
113.5593233362
 20
19.4878188543
 10
113.5379188118
 20
19.4708443759
  0
LWPOLYLINE
  5
2BF
100
AcDbEntity
  8
0
100
AcDbPolyline
 62
7
  6
CONTINUOUS
 90
24
 70
0
 10
129.1444562024
 20
20.1264803609
 10
129.1546105009
 20
20.1484982034
 10
129.1643159342
 20
20.1707216137
 10
129.1735985916
 20
20.1931280997
 10
129.1824845628
 20
20.2156951691
 10
129.1910785048
 20
20.2386221654
 10
129.1993102057
 20
20.2616795828
 10
129.2071952085
 20
20.2848570733
 10
129.2147490559
 20
20.3081442889
 10
129.2243858796
 20
20.3395281061
 10
129.2334899357
 20
20.37107109
 10
129.2420960392
 20
20.4027536923
 10
129.2502627343
 20
20.4346567013
 10
129.2579929864
 20
20.4666679637
 10
129.2653163772
 20
20.498774914
 10
129.2736185282
 20
20.5374693577
 10
129.2814141959
 20
20.5762705317
 10
129.2887417553
 20
20.6151651227
 10
129.2956395817
 20
20.6541398176
 10
129.3021460502
 20
20.6931813032
 10
129.3097815234
 20
20.7420429885
 10
129.3169211119
 20
20.7909770755
 10
129.3236200993
 20
20.8399724628
 10
129.3299337689
 20
20.8890180492
  0
LINE
  5
2C0
100
AcDbEntity
  8
0
100
AcDbLine
 62
7
  6
CONTINUOUS
 10
132.3174642208
 20
38.5202733067
 11
132.2941510304
 21
38.4724799483
  0
LINE
  5
2C1
100
AcDbEntity
  8
0
100
AcDbLine
 62
7
  6
CONTINUOUS
 10
131.2801078948
 20
29.5027683475
 11
131.3804140154
 21
29.7061867161
  0
LINE
  5
2C2
100
AcDbEntity
  8
6_SURFACES-PATINS-SPEC
100
AcDbLine
 62
7
  6
CONTINUOUS
 10
124.3986562389
 20
18.6793406487
 11
124.4147441084
 21
18.7114301924
  0
LINE
  5
2C3
100
AcDbEntity
  8
6_SURFACES-PATINS-SPEC
100
AcDbLine
 62
7
  6
CONTINUOUS
 10
112.7451500366
 20
16.4057744381
 11
112.7823299034
 21
16.4793194834
  0
LINE
  5
2C4
100
AcDbEntity
  8
6_SURFACES-PATINS-SPEC
100
AcDbLine
 62
7
  6
CONTINUOUS
 10
123.55698599
 20
16.4057744381
 11
123.5941658567
 21
16.4793194834
  0
LINE
  5
2C5
100
AcDbEntity
  8
6_SURFACES-PATINS-SPEC
100
AcDbLine
 62
7
  6
CONTINUOUS
 10
113.6232047622
 20
18.7790837328
 11
113.6399535352
 21
18.8121037039
  0
LWPOLYLINE
  5
2C6
100
AcDbEntity
  8
0
100
AcDbPolyline
 62
7
  6
CONTINUOUS
 90
25
 70
0
 10
129.0306613597
 20
20.1483538567
 10
129.0495966382
 20
20.1854011795
 10
129.0679144221
 20
20.2227672658
 10
129.0856189369
 20
20.2604360279
 10
129.1027144081
 20
20.298391378
 10
129.1192050611
 20
20.3366172286
 10
129.1350951215
 20
20.3750974917
 10
129.1503888146
 20
20.4138160799
 10
129.1674741054
 20
20.4592397696
 10
129.1837694124
 20
20.5049476614
 10
129.1992896973
 20
20.5509218525
 10
129.2140499215
 20
20.5971444403
 10
129.2280650466
 20
20.6435975222
 10
129.241350034
 20
20.6902631954
 10
129.2539077349
 20
20.7370758335
 10
129.2657695512
 20
20.7840689623
 10
129.2769533007
 20
20.8312287848
 10
129.2874768012
 20
20.8785415041
 10
129.2973578706
 20
20.9259933234
 10
129.3066143267
 20
20.9735704457
 10
129.3169131548
 20
21.0307489515
 10
129.326376776
 20
21.088069953
 10
129.3350419094
 20
21.1455157189
 10
129.342945274
 20
21.2030685177
 10
129.3501235886
 20
21.2607106182
  0
LINE
  5
2C7
100
AcDbEntity
  8
0
100
AcDbLine
 62
7
  6
CONTINUOUS
 10
131.1566930452
 20
29.2706533132
 11
131.2801078948
 21
29.5027683475
  0
LINE
  5
2C8
100
AcDbEntity
  8
0
100
AcDbLine
 62
7
  6
CONTINUOUS
 10
131.0104527374
 20
29.0115481059
 11
131.1566930452
 21
29.2706533132
  0
LINE
  5
2C9
100
AcDbEntity
  8
0
100
AcDbLine
 62
7
  6
CONTINUOUS
 10
130.8421347528
 20
28.7285396626
 11
131.0104527374
 21
29.0115481059
  0
LINE
  5
2CA
100
AcDbEntity
  8
6_SURFACES-PATINS-SPEC
100
AcDbLine
 62
7
  6
CONTINUOUS
 10
112.7017078066
 20
16.3357098352
 11
112.7451500366
 21
16.4057744381
  0
LINE
  5
2CB
100
AcDbEntity
  8
6_SURFACES-PATINS-SPEC
100
AcDbLine
 62
7
  6
CONTINUOUS
 10
123.5135437599
 20
16.3357098352
 11
123.55698599
 21
16.4057744381
  0
LINE
  5
2CC
100
AcDbEntity
  8
0
100
AcDbLine
 62
7
  6
CONTINUOUS
 10
130.6526770782
 20
28.4251295319
 11
130.8421347528
 21
28.7285396626
  0
LINE
  5
2CD
100
AcDbEntity
  8
6_SURFACES-PATINS-SPEC
100
AcDbLine
 62
7
  6
CONTINUOUS
 10
124.4147441084
 20
18.7114301924
 11
124.4330290651
 21
18.7406708409
  0
LINE
  5
2CE
100
AcDbEntity
  8
0
100
AcDbLine
 62
7
  6
CONTINUOUS
 10
132.3457213137
 20
38.5653204674
 11
132.3174642208
 21
38.5202733067
  0
LINE
  5
2CF
100
AcDbEntity
  8
6_SURFACES-PATINS-SPEC
100
AcDbLine
 62
7
  6
CONTINUOUS
 10
113.6399535352
 20
18.8121037039
 11
113.6590174392
 21
18.8420807182
  0
LINE
  5
2D0
100
AcDbEntity
  8
0
100
AcDbLine
 62
7
  6
CONTINUOUS
 10
130.4442799283
 20
28.1066750687
 11
130.6526770782
 21
28.4251295319
  0
LINE
  5
2D1
100
AcDbEntity
  8
0
100
AcDbLine
 62
7
  6
CONTINUOUS
 10
130.415238375
 20
28.066615413
 11
130.4442744888
 21
28.106665811
  0
LINE
  5
2D2
100
AcDbEntity
  8
6_SURFACES-PATINS-SPEC
100
AcDbLine
 62
7
  6
CONTINUOUS
 10
112.6522668372
 20
16.269706901
 11
112.7017078066
 21
16.3357098352
  0
LINE
  5
2D3
100
AcDbEntity
  8
6_SURFACES-PATINS-SPEC
100
AcDbLine
 62
7
  6
CONTINUOUS
 10
123.4641027906
 20
16.269706901
 11
123.5135437599
 21
16.3357098352
  0
LINE
  5
2D4
100
AcDbEntity
  8
6_SURFACES-PATINS-SPEC
100
AcDbLine
 62
7
  6
CONTINUOUS
 10
124.4330290651
 20
18.7406708409
 11
124.453054475
 21
18.7670526018
  0
LINE
  5
2D5
100
AcDbEntity
  8
6_SURFACES-PATINS-SPEC
100
AcDbLine
 62
7
  6
CONTINUOUS
 10
113.6590174392
 20
18.8420807182
 11
113.6798811551
 21
18.8689899284
  0
LINE
  5
2D6
100
AcDbEntity
  8
0
100
AcDbLine
 62
7
  6
CONTINUOUS
 10
132.3786026981
 20
38.6071119095
 11
132.3457213137
 21
38.5653204674
  0
LINE
  5
2D7
100
AcDbEntity
  8
0
100
AcDbLine
 62
7
  6
CONTINUOUS
 10
130.3722646547
 20
28.0169595198
 11
130.415238375
 21
28.066615413
  0
LINE
  5
2D8
100
AcDbEntity
  8
6_SURFACES-PATINS-SPEC
100
AcDbLine
 62
7
  6
CONTINUOUS
 10
112.5971613814
 20
16.2083224187
 11
112.6522668372
 21
16.269706901
  0
LINE
  5
2D9
100
AcDbEntity
  8
6_SURFACES-PATINS-SPEC
100
AcDbLine
 62
7
  6
CONTINUOUS
 10
123.4089973348
 20
16.2083224187
 11
123.4641027906
 21
16.269706901
  0
LINE
  5
2DA
100
AcDbEntity
  8
6_SURFACES-PATINS-SPEC
100
AcDbLine
 62
7
  6
CONTINUOUS
 10
124.453054475
 20
18.7670526018
 11
124.4743949323
 21
18.7906054936
  0
LINE
  5
2DB
100
AcDbEntity
  8
6_SURFACES-PATINS-SPEC
100
AcDbLine
 62
7
  6
CONTINUOUS
 10
113.6798811551
 20
18.8689899284
 11
113.7020506066
 21
18.8928486927
  0
LINE
  5
2DC
100
AcDbEntity
  8
0
100
AcDbLine
 62
7
  6
CONTINUOUS
 10
132.4157364587
 20
38.6451749368
 11
132.3786026981
 21
38.6071119095
  0
LINE
  5
2DD
100
AcDbEntity
  8
DEFAULT_3
100
AcDbLine
 62
7
  6
PHANTOM
 10
118.61239557
 20
17.2105113735
 11
118.2525873432
 21
16.8507031467
  0
LINE
  5
2DE
100
AcDbEntity
  8
0
100
AcDbLine
 62
7
  6
CONTINUOUS
 10
118.3409756909
 20
16.7623147991
 11
118.7007839176
 21
17.1221230258
  0
LINE
  5
2DF
100
AcDbEntity
  8
0
100
AcDbLine
 62
7
  6
CONTINUOUS
 10
130.3293073917
 20
27.9756937162
 11
130.3722646547
 21
28.0169595198
  0
LINE
  5
2E0
100
AcDbEntity
  8
6_SURFACES-PATINS-SPEC
100
AcDbLine
 62
7
  6
CONTINUOUS
 10
112.5368482592
 20
16.151986858
 11
112.5971613814
 21
16.2083224187
  0
LINE
  5
2E1
100
AcDbEntity
  8
6_SURFACES-PATINS-SPEC
100
AcDbLine
 62
7
  6
CONTINUOUS
 10
124.4743949323
 20
18.7906054936
 11
124.4966302793
 21
18.811373571
  0
LINE
  5
2E2
100
AcDbEntity
  8
6_SURFACES-PATINS-SPEC
100
AcDbLine
 62
7
  6
CONTINUOUS
 10
123.3486842126
 20
16.151986858
 11
123.4089973348
 21
16.2083224187
  0
LINE
  5
2E3
100
AcDbEntity
  8
6_SURFACES-PATINS-SPEC
100
AcDbLine
 62
7
  6
CONTINUOUS
 10
113.7020506066
 20
18.8928486927
 11
113.7250437106
 21
18.9137099903
  0
LWPOLYLINE
  5
2E4
100
AcDbEntity
  8
0
100
AcDbPolyline
 62
7
  6
CONTINUOUS
 90
38
 70
0
 10
114.8541331797
 20
19.3733182195
 10
114.8787063548
 20
19.3950433219
 10
114.9025764283
 20
19.4175622237
 10
114.9257466399
 20
19.4408203338
 10
114.9482202291
 20
19.4647630611
 10
114.9700004357
 20
19.4893358144
 10
114.992931068
 20
19.5167453533
 10
115.0150643009
 20
19.5447924518
 10
115.0364207652
 20
19.5734326037
 10
115.0570210915
 20
19.6026213027
 10
115.0768859104
 20
19.6323140427
 10
115.0977625729
 20
19.6652659466
 10
115.1178111212
 20
19.6987273598
 10
115.1370559495
 20
19.7326597851
 10
115.1555214521
 20
19.7670247251
 10
115.1732320233
 20
19.8017836826
 10
115.191700085
 20
19.8400684694
 10
115.2093274089
 20
19.878744963
 10
115.2261407871
 20
19.917782682
 10
115.2421670118
 20
19.9571511447
 10
115.257432875
 20
19.9968198697
 10
115.2731432633
 20
20.0401023106
 10
115.2880184575
 20
20.0836774191
 10
115.3020842695
 20
20.1275212155
 10
115.3153665113
 20
20.1716097198
 10
115.3278909949
 20
20.2159189525
 10
115.3435581836
 20
20.2757211632
 10
115.3579517229
 20
20.3358414985
 10
115.3711175255
 20
20.3962433822
 10
115.3831015041
 20
20.4568902381
 10
115.3945923293
 20
20.5215817793
 10
115.4048393587
 20
20.5864812972
 10
115.4138820846
 20
20.6515613345
 10
115.4217599994
 20
20.7167944338
 10
115.4288208711
 20
20.7854433362
 10
115.4346726
 20
20.8542047841
 10
115.4393473751
 20
20.9230527695
 10
115.4428773858
 20
20.9919612843
  0
LINE
  5
2E5
100
AcDbEntity
  8
0
100
AcDbLine
 62
7
  6
CONTINUOUS
 10
132.4567025817
 20
38.6790790244
 11
132.4157364587
 21
38.6451749368
  0
LINE
  5
2E6
100
AcDbEntity
  8
0
100
AcDbLine
 62
7
  6
CONTINUOUS
 10
130.286414843
 20
27.9408009076
 11
130.3293073917
 21
27.9756937162
  0
LINE
  5
2E7
100
AcDbEntity
  8
6_SURFACES-PATINS-SPEC
100
AcDbLine
 62
7
  6
CONTINUOUS
 10
124.4966302793
 20
18.811373571
 11
124.5193718817
 21
18.8294462404
  0
LINE
  5
2E8
100
AcDbEntity
  8
6_SURFACES-PATINS-SPEC
100
AcDbLine
 62
7
  6
CONTINUOUS
 10
112.471792051
 20
16.1011437751
 11
112.5368482592
 21
16.151986858
  0
LINE
  5
2E9
100
AcDbEntity
  8
6_SURFACES-PATINS-SPEC
100
AcDbLine
 62
7
  6
CONTINUOUS
 10
123.2836280044
 20
16.1011437752
 11
123.3486842126
 21
16.151986858
  0
LINE
  5
2EA
100
AcDbEntity
  8
6_SURFACES-PATINS-SPEC
100
AcDbLine
 62
7
  6
CONTINUOUS
 10
113.7250437106
 20
18.9137099903
 11
113.7484125098
 21
18.9316818097
  0
LWPOLYLINE
  5
2EB
100
AcDbEntity
  8
0
100
AcDbPolyline
 62
7
  6
CONTINUOUS
 90
39
 70
0
 10
116.037974763
 20
31.3544802957
 10
116.0101607514
 20
31.3344912149
 10
115.9828932693
 20
31.3137405976
 10
115.9561886521
 20
31.2922553675
 10
115.9300632353
 20
31.2700624483
 10
115.9045333545
 20
31.2471887637
 10
115.8790192294
 20
31.2230855522
 10
115.8541488996
 20
31.1983245629
 10
115.829924406
 20
31.1729337928
 10
115.8063477895
 20
31.1469412386
 10
115.7834210911
 20
31.120374897
 10
115.7603415342
 20
31.092259297
 10
115.737957414
 20
31.0635867204
 10
115.7162635672
 20
31.0343867008
 10
115.6952548304
 20
31.0046887721
 10
115.6749260405
 20
30.9745224681
 10
115.6543794244
 20
30.9424925039
 10
115.6345592529
 20
30.9100095115
 10
115.6154534125
 20
30.8771007794
 10
115.5970497897
 20
30.8437935962
 10
115.579336271
 20
30.8101152503
 10
115.5614194535
 20
30.7742861825
 10
115.5442377601
 20
30.7380998959
 10
115.5277748335
 20
30.7015803198
 10
115.5120143162
 20
30.6647513835
 10
115.4969398508
 20
30.6276370167
 10
115.4817359566
 20
30.5881274039
 10
115.4672612914
 20
30.5483458793
 10
115.4534970731
 20
30.5083126134
 10
115.4404245194
 20
30.4680477768
 10
115.4280248478
 20
30.4275715398
 10
115.412616204
 20
30.3737039166
 10
115.3983148367
 20
30.3195324407
 10
115.3850820955
 20
30.2650882777
 10
115.3728793301
 20
30.2104025929
 10
115.3610335379
 20
30.1522380262
 10
115.3502623086
 20
30.0938659852
 10
115.3405275989
 20
30.0353150869
 10
115.3317913658
 20
29.9766139487
  0
LINE
  5
2EC
100
AcDbEntity
  8
0
100
AcDbLine
 62
7
  6
CONTINUOUS
 10
130.2432180072
 20
27.910735587
 11
130.286414843
 21
27.9408009076
  0
LINE
  5
2ED
100
AcDbEntity
  8
6_SURFACES-PATINS-SPEC
100
AcDbLine
 62
7
  6
CONTINUOUS
 10
124.5193718817
 20
18.8294462404
 11
124.542231242
 21
18.8449289486
  0
LINE
  5
2EE
100
AcDbEntity
  8
0
100
AcDbLine
 62
7
  6
CONTINUOUS
 10
132.5010377043
 20
38.7084406869
 11
132.4567025817
 21
38.6790790244
  0
LINE
  5
2EF
100
AcDbEntity
  8
6_SURFACES-PATINS-SPEC
100
AcDbLine
 62
7
  6
CONTINUOUS
 10
113.7484125098
 20
18.9316818097
 11
113.7716533268
 21
18.9468612214
  0
LINE
  5
2F0
100
AcDbEntity
  8
6_SURFACES-PATINS-SPEC
100
AcDbLine
 62
7
  6
CONTINUOUS
 10
112.4024653711
 20
16.05625218
 11
112.471792051
 21
16.1011437751
  0
LINE
  5
2F1
100
AcDbEntity
  8
6_SURFACES-PATINS-SPEC
100
AcDbLine
 62
7
  6
CONTINUOUS
 10
123.2143013245
 20
16.05625218
 11
123.2836280044
 21
16.1011437752
  0
LINE
  5
2F2
100
AcDbEntity
  8
0
100
AcDbLine
 62
7
  6
CONTINUOUS
 10
130.199103481
 20
27.884346715
 11
130.2432180072
 21
27.910735587
  0
LINE
  5
2F3
100
AcDbEntity
  8
6_SURFACES-PATINS-SPEC
100
AcDbLine
 62
7
  6
CONTINUOUS
 10
124.542231242
 20
18.8449289486
 11
124.5644989403
 21
18.8577800848
  0
LWPOLYLINE
  5
2F4
100
AcDbEntity
  8
0
100
AcDbPolyline
 62
7
  6
CONTINUOUS
 90
29
 70
0
 10
128.1550048334
 20
19.2417387752
 10
128.1946523061
 20
19.2643440698
 10
128.2338466183
 20
19.2877593031
 10
128.2725631418
 20
19.311979494
 10
128.3107772486
 20
19.3369996617
 10
128.3484643105
 20
19.3628148253
 10
128.3855996992
 20
19.3894200037
 10
128.4221587867
 20
19.4168102162
 10
128.4581223634
 20
19.4449822971
 10
128.4934686022
 20
19.473921173
 10
128.5281812302
 20
19.5036134094
 10
128.5622439747
 20
19.534045572
 10
128.5956405628
 20
19.5652042267
 10
128.6283547216
 20
19.597075939
 10
128.6603701784
 20
19.6296472747
 10
128.6916748353
 20
19.6629065887
 10
128.7222571094
 20
19.6968320712
 10
128.7521097165
 20
19.7314035832
 10
128.7812253723
 20
19.7666009854
 10
128.8095967927
 20
19.8024041387
 10
128.8372166934
 20
19.8387929037
 10
128.8640777902
 20
19.8757471415
 10
128.8901745046
 20
19.9132467878
 10
128.9155051142
 20
19.9512677831
 10
128.9400696313
 20
19.9897861222
 10
128.9638680683
 20
20.0287777996
 10
128.9869004377
 20
20.0682188103
 10
129.0091667519
 20
20.1080851489
 10
129.0306670232
 20
20.1483528101
  0
LINE
  5
2F5
100
AcDbEntity
  8
6_SURFACES-PATINS-SPEC
100
AcDbLine
 62
7
  6
CONTINUOUS
 10
113.7716533268
 20
18.9468612214
 11
113.7939559303
 21
18.9592387634
  0
LINE
  5
2F6
100
AcDbEntity
  8
6_SURFACES-PATINS-SPEC
100
AcDbLine
 62
7
  6
CONTINUOUS
 10
112.3293990951
 20
16.0176499083
 11
112.4024653711
 21
16.05625218
  0
LINE
  5
2F7
100
AcDbEntity
  8
6_SURFACES-PATINS-SPEC
100
AcDbLine
 62
7
  6
CONTINUOUS
 10
123.1412350485
 20
16.0176499084
 11
123.2143013245
 21
16.05625218
  0
LINE
  5
2F8
100
AcDbEntity
  8
0
100
AcDbLine
 62
7
  6
CONTINUOUS
 10
132.548240356
 20
38.7329278182
 11
132.5010377043
 21
38.7084406869
  0
LINE
  5
2F9
100
AcDbEntity
  8
0
100
AcDbLine
 62
7
  6
CONTINUOUS
 10
130.1532481048
 20
27.8607652849
 11
130.199103481
 21
27.884346715
  0
LINE
  5
2FA
100
AcDbEntity
  8
6_SURFACES-PATINS-SPEC
100
AcDbLine
 62
7
  6
CONTINUOUS
 10
124.5644989403
 20
18.8577800848
 11
124.5852318596
 21
18.8679819575
  0
LINE
  5
2FB
100
AcDbEntity
  8
6_SURFACES-PATINS-SPEC
100
AcDbLine
 62
7
  6
CONTINUOUS
 10
113.7939559303
 20
18.9592387634
 11
113.8145184793
 21
18.9689483264
  0
LINE
  5
2FC
100
AcDbEntity
  8
0
100
AcDbLine
 62
7
  6
CONTINUOUS
 10
126.5360627834
 20
27.6085151349
 11
126.5475723113
 21
27.6137361536
  0
LINE
  5
2FD
100
AcDbEntity
  8
0
100
AcDbLine
 62
7
  6
CONTINUOUS
 10
130.1052052604
 20
27.839568143
 11
130.1532481048
 21
27.8607652849
  0
LINE
  5
2FE
100
AcDbEntity
  8
6_SURFACES-PATINS-SPEC
100
AcDbLine
 62
7
  6
CONTINUOUS
 10
124.5852318596
 20
18.8679819575
 11
124.603789468
 21
18.8757896832
  0
LINE
  5
2FF
100
AcDbEntity
  8
6_SURFACES-PATINS-SPEC
100
AcDbLine
 62
7
  6
CONTINUOUS
 10
112.2531724707
 20
15.9856096075
 11
112.3293990951
 21
16.0176499083
  0
LINE
  5
300
100
AcDbEntity
  8
6_SURFACES-PATINS-SPEC
100
AcDbLine
 62
7
  6
CONTINUOUS
 10
123.0650084242
 20
15.9856096076
 11
123.1412350485
 21
16.0176499084
  0
LINE
  5
301
100
AcDbEntity
  8
6_SURFACES-PATINS-SPEC
100
AcDbLine
 62
7
  6
CONTINUOUS
 10
113.8145184793
 20
18.9689483264
 11
113.8329931533
 21
18.9763861964
  0
LINE
  5
302
100
AcDbEntity
  8
0
100
AcDbLine
 62
7
  6
CONTINUOUS
 10
132.4578036252
 20
37.3881581912
 11
132.4586847641
 21
37.3885091579
  0
LINE
  5
303
100
AcDbEntity
  8
0
100
AcDbLine
 62
7
  6
CONTINUOUS
 10
132.5977766319
 20
38.7522634484
 11
132.548240356
 21
38.7329278182
  0
LINE
  5
304
100
AcDbEntity
  8
0
100
AcDbLine
 62
7
  6
CONTINUOUS
 10
126.5475723113
 20
27.6137361536
 11
126.5780730524
 21
27.6254548021
  0
LINE
  5
305
100
AcDbEntity
  8
0
100
AcDbLine
 62
7
  6
CONTINUOUS
 10
130.0549440878
 20
27.8205712326
 11
130.1052052604
 21
27.839568143
  0
LINE
  5
306
100
AcDbEntity
  8
6_SURFACES-PATINS-SPEC
100
AcDbLine
 62
7
  6
CONTINUOUS
 10
124.603789468
 20
18.8757896832
 11
124.6203620214
 21
18.881766291
  0
LINE
  5
307
100
AcDbEntity
  8
6_SURFACES-PATINS-SPEC
100
AcDbLine
 62
7
  6
CONTINUOUS
 10
113.8329931533
 20
18.9763861964
 11
113.8493443591
 21
18.9820068651
  0
LINE
  5
308
100
AcDbEntity
  8
0
100
AcDbLine
 62
7
  6
CONTINUOUS
 10
132.4586560237
 20
37.3885132213
 11
132.4542653297
 21
37.3870652234
  0
LINE
  5
309
100
AcDbEntity
  8
0
100
AcDbLine
 62
7
  6
CONTINUOUS
 10
130.0020514083
 20
27.8034437081
 11
130.0549440878
 21
27.8205712326
  0
LINE
  5
30A
100
AcDbEntity
  8
6_SURFACES-PATINS-SPEC
100
AcDbLine
 62
7
  6
CONTINUOUS
 10
112.1743508023
 20
15.9603853306
 11
112.2531724707
 21
15.9856096075
  0
LINE
  5
30B
100
AcDbEntity
  8
6_SURFACES-PATINS-SPEC
100
AcDbLine
 62
7
  6
CONTINUOUS
 10
122.9861867558
 20
15.9603853306
 11
123.0650084242
 21
15.9856096076
  0
LINE
  5
30C
100
AcDbEntity
  8
6_SURFACES-PATINS-SPEC
100
AcDbLine
 62
7
  6
CONTINUOUS
 10
124.6203620214
 20
18.881766291
 11
124.6352121835
 21
18.8863515616
  0
LINE
  5
30D
100
AcDbEntity
  8
6_SURFACES-PATINS-SPEC
100
AcDbLine
 62
7
  6
CONTINUOUS
 10
113.8493443591
 20
18.9820068651
 11
113.8634958184
 21
18.9861626742
  0
LINE
  5
30E
100
AcDbEntity
  8
0
100
AcDbLine
 62
7
  6
CONTINUOUS
 10
126.5780730524
 20
27.6254548021
 11
126.6116666776
 21
27.6352792938
  0
LINE
  5
30F
100
AcDbEntity
  8
0
100
AcDbLine
 62
7
  6
CONTINUOUS
 10
132.7015887979
 20
38.7746661449
 11
132.6490862315
 21
38.7662288765
  0
LINE
  5
310
100
AcDbEntity
  8
0
100
AcDbLine
 62
7
  6
CONTINUOUS
 10
132.2654957447
 20
37.3488992351
 11
132.2227067205
 21
37.3426780314
  0
LINE
  5
311
100
AcDbEntity
  8
0
100
AcDbLine
 62
7
  6
CONTINUOUS
 10
132.2227067205
 20
37.3426780314
 11
132.1755840081
 21
37.3363933607
  0
LINE
  5
312
100
AcDbEntity
  8
0
100
AcDbLine
 62
7
  6
CONTINUOUS
 10
132.1755840081
 20
37.3363933607
 11
132.1238174112
 21
37.330067133
  0
LINE
  5
313
100
AcDbEntity
  8
0
100
AcDbLine
 62
7
  6
CONTINUOUS
 10
132.1241112672
 20
37.3301015078
 11
132.0682758809
 21
37.3238549955
  0
LINE
  5
314
100
AcDbEntity
  8
0
100
AcDbLine
 62
7
  6
CONTINUOUS
 10
132.1238174112
 20
37.330067133
 11
132.0679798028
 21
37.3238233278
  0
LINE
  5
315
100
AcDbEntity
  8
DEFAULT_1
100
AcDbLine
 62
7
  6
CENTER
 10
104.5783900272
 20
34.0943443217
 11
99.4731776309
 21
33.557764877
  0
LINE
  5
316
100
AcDbEntity
  8
0
100
AcDbLine
 62
7
  6
CONTINUOUS
 10
132.0682758809
 20
37.3238549955
 11
132.0080056738
 21
37.3176972967
  0
LINE
  5
317
100
AcDbEntity
  8
0
100
AcDbLine
 62
7
  6
CONTINUOUS
 10
132.0679798028
 20
37.3238233278
 11
132.0077097586
 21
37.3176684324
  0
LINE
  5
318
100
AcDbEntity
  8
0
100
AcDbLine
 62
7
  6
CONTINUOUS
 10
132.0080056738
 20
37.3176972967
 11
131.9431908062
 21
37.3116683379
  0
LINE
  5
319
100
AcDbEntity
  8
0
100
AcDbLine
 62
7
  6
CONTINUOUS
 10
132.0077097586
 20
37.3176684324
 11
131.9428975744
 21
37.3116423468
  0
LINE
  5
31A
100
AcDbEntity
  8
0
100
AcDbLine
 62
7
  6
CONTINUOUS
 10
131.9431908062
 20
37.3116683379
 11
131.8737207312
 21
37.3058095746
  0
LINE
  5
31B
100
AcDbEntity
  8
0
100
AcDbLine
 62
7
  6
CONTINUOUS
 10
131.9428975744
 20
37.3116423468
 11
131.8734329088
 21
37.3057865031
  0
LINE
  5
31C
100
AcDbEntity
  8
0
100
AcDbLine
 62
7
  6
CONTINUOUS
 10
131.8737207312
 20
37.3058095746
 11
131.7992103156
 21
37.3001446548
  0
LINE
  5
31D
100
AcDbEntity
  8
0
100
AcDbLine
 62
7
  6
CONTINUOUS
 10
131.7994897591
 20
37.3001647857
 11
131.7204023127
 21
37.2947806283
  0
LINE
  5
31E
100
AcDbEntity
  8
0
100
AcDbLine
 62
7
  6
CONTINUOUS
 10
131.7992103156
 20
37.3001446548
 11
131.7201344871
 21
37.2947634295
  0
LINE
  5
31F
100
AcDbEntity
  8
0
100
AcDbLine
 62
7
  6
CONTINUOUS
 10
129.2722625662
 20
27.6978548421
 11
129.3721508525
 21
27.7045637895
  0
LINE
  5
320
100
AcDbEntity
  8
0
100
AcDbLine
 62
7
  6
CONTINUOUS
 10
131.7204023127
 20
37.2947806283
 11
131.6363745124
 21
37.2897068172
  0
LINE
  5
321
100
AcDbEntity
  8
0
100
AcDbLine
 62
7
  6
CONTINUOUS
 10
131.7201344871
 20
37.2947634295
 11
131.6361217548
 21
37.289692502
  0
LINE
  5
322
100
AcDbEntity
  8
0
100
AcDbLine
 62
7
  6
CONTINUOUS
 10
132.7545584139
 20
38.777479842
 11
132.7015887979
 21
38.7746661449
  0
LINE
  5
323
100
AcDbEntity
  8
0
100
AcDbLine
 62
7
  6
CONTINUOUS
 10
131.6363745124
 20
37.2897068172
 11
131.547096896
 21
37.2849845619
  0
LINE
  5
324
100
AcDbEntity
  8
0
100
AcDbLine
 62
7
  6
CONTINUOUS
 10
129.1709766208
 20
27.6926154853
 11
129.2722625662
 21
27.6978548421
  0
LINE
  5
325
100
AcDbEntity
  8
0
100
AcDbLine
 62
7
  6
CONTINUOUS
 10
126.6875900651
 20
27.6476670225
 11
126.7223374003
 21
27.6493776297
  0
LINE
  5
326
100
AcDbEntity
  8
0
100
AcDbLine
 62
7
  6
CONTINUOUS
 10
131.5473310092
 20
37.2849960917
 11
131.4532209092
 21
37.2807052285
  0
LINE
  5
327
100
AcDbEntity
  8
0
100
AcDbLine
 62
7
  6
CONTINUOUS
 10
131.547096896
 20
37.2849845619
 11
131.453009129
 21
37.280696332
  0
LINE
  5
328
100
AcDbEntity
  8
0
100
AcDbLine
 62
7
  6
CONTINUOUS
 10
131.4532209092
 20
37.2807052285
 11
131.3540268809
 21
37.2768952288
  0
LINE
  5
329
100
AcDbEntity
  8
0
100
AcDbLine
 62
7
  6
CONTINUOUS
 10
131.453009129
 20
37.280696332
 11
131.3538411997
 21
37.2768887539
  0
LINE
  5
32A
100
AcDbEntity
  8
0
100
AcDbLine
 62
7
  6
CONTINUOUS
 10
129.0677467787
 20
27.688783906
 11
129.1709766208
 21
27.6926154853
  0
LINE
  5
32B
100
AcDbEntity
  8
0
100
AcDbLine
 62
7
  6
CONTINUOUS
 10
131.3540268809
 20
37.2768952288
 11
131.2497723334
 21
37.273631213
  0
LINE
  5
32C
100
AcDbEntity
  8
0
100
AcDbLine
 62
7
  6
CONTINUOUS
 10
131.3538411997
 20
37.2768887539
 11
131.249616548
 21
37.2736268826
  0
LINE
  5
32D
100
AcDbEntity
  8
0
100
AcDbLine
 62
7
  6
CONTINUOUS
 10
131.2497723334
 20
37.273631213
 11
131.1404098271
 21
37.2709797119
  0
LINE
  5
32E
100
AcDbEntity
  8
0
100
AcDbLine
 62
7
  6
CONTINUOUS
 10
128.9710539235
 20
27.686513861
 11
129.0677467787
 21
27.688783906
  0
LINE
  5
32F
100
AcDbEntity
  8
0
100
AcDbLine
 62
7
  6
CONTINUOUS
 10
131.1405319436
 20
37.2709822453
 11
131.0263566774
 21
37.2690196942
  0
LINE
  5
330
100
AcDbEntity
  8
0
100
AcDbLine
 62
7
  6
CONTINUOUS
 10
128.2070239852
 20
27.6736454507
 11
128.9710539297
 21
27.6865141133
  0
LINE
  5
331
100
AcDbEntity
  8
0
100
AcDbLine
 62
7
  6
CONTINUOUS
 10
127.450008599
 20
27.6611459806
 11
128.2070239852
 21
27.6736454507
  0
LINE
  5
332
100
AcDbEntity
  8
0
100
AcDbLine
 62
7
  6
CONTINUOUS
 10
126.7223373646
 20
27.6493777324
 11
127.450008599
 21
27.6611459806
  0
LINE
  5
333
100
AcDbEntity
  8
0
100
AcDbLine
 62
7
  6
CONTINUOUS
 10
131.0264414591
 20
37.2690208535
 11
130.9077015003
 21
37.2678222757
  0
LWPOLYLINE
  5
334
100
AcDbEntity
  8
0
100
AcDbPolyline
 62
7
  6
CONTINUOUS
 90
33
 70
0
 10
116.8043640385
 20
31.5828665952
 10
116.7787117488
 20
31.5826383584
 10
116.753063274
 20
31.5820307396
 10
116.7274266041
 20
31.5810246149
 10
116.7018097289
 20
31.5796008603
 10
116.676243155
 20
31.5777447182
 10
116.6507123742
 20
31.575448707
 10
116.6252254438
 20
31.572708943
 10
116.5997904214
 20
31.5695215425
 10
116.5744634795
 20
31.5658895028
 10
116.5492060957
 20
31.5618013089
 10
116.5240280886
 20
31.5572506249
 10
116.4989392771
 20
31.5522311145
 10
116.4740245106
 20
31.546754193
 10
116.4492188225
 20
31.5408018933
 10
116.4245328708
 20
31.5343711504
 10
116.3999773133
 20
31.5274588995
 10
116.3756638842
 20
31.5200940954
 10
116.3515014894
 20
31.512247686
 10
116.3275012792
 20
31.5039186272
 10
116.3036744037
 20
31.4951058748
 10
116.2801545915
 20
31.485858673
 10
116.2568278851
 20
31.4761343532
 10
116.2337048225
 20
31.4659354984
 10
116.2107959416
 20
31.4552646919
 10
116.1882489235
 20
31.4441938274
 10
116.1659336973
 20
31.4326627672
 10
116.1438600597
 20
31.4206749935
 10
116.1220378075
 20
31.4082339886
 10
116.1006188412
 20
31.3954318828
 10
116.0794642494
 20
31.3821977303
 10
116.0585806892
 20
31.3685432675
 10
116.0379748173
 20
31.3544802308
  0
LINE
  5
335
100
AcDbEntity
  8
0
100
AcDbLine
 62
7
  6
CONTINUOUS
 10
130.9076786404
 20
37.2678222011
 11
130.7965419008
 21
37.2674595273
  0
LINE
  5
336
100
AcDbEntity
  8
6_SURFACES-PATINS-SPEC
100
AcDbLine
 62
7
  6
CONTINUOUS
 10
121.3031304088
 20
19.0363750967
 11
121.3995658656
 21
19.0366506286
  0
LINE
  5
337
100
AcDbEntity
  8
6_SURFACES-PATINS-SPEC
100
AcDbLine
 62
7
  6
CONTINUOUS
 10
121.3031304061
 20
19.0676203379
 11
121.3995658809
 21
19.0678958697
  0
LWPOLYLINE
  5
338
100
AcDbEntity
  8
0
100
AcDbPolyline
 62
7
  6
CONTINUOUS
 90
12
 70
0
 10
110.0430578764
 20
19.1616315676
 10
109.9222864313
 20
19.1614626359
 10
109.8015160049
 20
19.1609341784
 10
109.6888762927
 20
19.1600796148
 10
109.5857125075
 20
19.1589163233
 10
109.4948427641
 20
19.1574741637
 10
109.4567411255
 20
19.1567068361
 10
109.418643112
 20
19.1557930226
 10
109.3889334734
 20
19.1549423257
 10
109.3592283708
 20
19.1539170088
 10
109.3386617367
 20
19.1530491197
 10
109.3181105065
 20
19.1518970906
  0
LINE
  5
339
100
AcDbEntity
  8
0
100
AcDbLine
 62
7
  6
CONTINUOUS
 10
108.8671055486
 20
18.9113360278
 11
106.8346758024
 21
18.9113354711
  0
LINE
  5
33A
100
AcDbEntity
  8
0
100
AcDbLine
 62
7
  6
CONTINUOUS
 10
116.8043594856
 20
18.9113352415
 11
119.8861186062
 21
18.9113355815
  0
LINE
  5
33B
100
AcDbEntity
  8
0
100
AcDbLine
 62
7
  6
CONTINUOUS
 10
116.8043594856
 20
18.9113352415
 11
113.7224261979
 21
18.9113355815
  0
LINE
  5
33C
100
AcDbEntity
  8
0
100
AcDbLine
 62
7
  6
CONTINUOUS
 10
124.7416225288
 20
18.9113360278
 11
126.7740522747
 21
18.9113354711
  0
LINE
  5
33D
100
AcDbEntity
  8
0
100
AcDbLine
 62
7
  6
CONTINUOUS
 10
110.0430578764
 20
19.1616315676
 11
113.8191818286
 21
19.1616315677
  0
LINE
  5
33E
100
AcDbEntity
  8
0
100
AcDbLine
 62
7
  6
CONTINUOUS
 10
119.7895462484
 20
19.1616315677
 11
123.5656702007
 21
19.1616315676
  0
LINE
  5
33F
100
AcDbEntity
  8
0
100
AcDbLine
 62
7
  6
CONTINUOUS
 10
114.3761492861
 20
19.1785306948
 11
119.2325787909
 21
19.1785306948
  0
LINE
  5
340
100
AcDbEntity
  8
0
100
AcDbLine
 62
7
  6
CONTINUOUS
 10
96.8043640385
 20
35.277479842
 11
136.8043640385
 21
35.277479842
  0
LINE
  5
341
100
AcDbEntity
  8
0
100
AcDbLine
 62
7
  6
CONTINUOUS
 10
97.4161724945
 20
36.8033517195
 11
136.1925555825
 21
36.8033517195
  0
LINE
  5
342
100
AcDbEntity
  8
0
100
AcDbLine
 62
7
  6
CONTINUOUS
 10
130.7965419008
 20
37.2642967952
 11
102.8121861763
 21
37.2642967952
  0
LINE
  5
343
100
AcDbEntity
  8
0
100
AcDbLine
 62
7
  6
CONTINUOUS
 10
102.8121861763
 20
37.2674595452
 11
130.7965419008
 21
37.2674595452
  0
LINE
  5
344
100
AcDbEntity
  8
0
100
AcDbLine
 62
7
  6
CONTINUOUS
 10
136.2690709227
 20
38.777479842
 11
132.7545662929
 21
38.777479842
  0
LINE
  5
345
100
AcDbEntity
  8
0
100
AcDbLine
 62
7
  6
CONTINUOUS
 10
97.3396571544
 20
38.777479842
 11
100.8541617841
 21
38.777479842
  0
LWPOLYLINE
  5
346
100
AcDbEntity
  8
0
100
AcDbPolyline
 62
7
  6
CONTINUOUS
 90
12
 70
0
 10
123.5656702007
 20
19.1616315676
 10
123.6864416458
 20
19.1614626359
 10
123.8072120722
 20
19.1609341784
 10
123.9198517844
 20
19.1600796148
 10
124.0230155696
 20
19.1589163233
 10
124.1138853129
 20
19.1574741637
 10
124.1519869516
 20
19.1567068361
 10
124.190084965
 20
19.1557930226
 10
124.2197946036
 20
19.1549423257
 10
124.2494997062
 20
19.1539170088
 10
124.2700663404
 20
19.1530491197
 10
124.2906175705
 20
19.1518970906
  0
LINE
  5
347
100
AcDbEntity
  8
6_SURFACES-PATINS-SPEC
100
AcDbLine
 62
7
  6
CONTINUOUS
 10
112.2091622115
 20
19.0366506286
 11
112.3055976733
 21
19.0363750972
  0
LINE
  5
348
100
AcDbEntity
  8
6_SURFACES-PATINS-SPEC
100
AcDbLine
 62
7
  6
CONTINUOUS
 10
112.2091621992
 20
19.0678958697
 11
112.3055976711
 21
19.0676203379
  0
LINE
  5
349
100
AcDbEntity
  8
0
100
AcDbLine
 62
7
  6
CONTINUOUS
 10
102.8121861763
 20
37.2674595273
 11
102.6877374292
 21
37.2679145332
  0
LWPOLYLINE
  5
34A
100
AcDbEntity
  8
6_SURFACES-PATINS-SPEC
100
AcDbPolyline
 62
7
  6
CONTINUOUS
 90
14
 70
0
 10
121.9620960039
 20
19.0366512092
 10
122.2729572094
 20
19.035458039
 10
122.5703548508
 20
19.0334231546
 10
122.845295131
 20
19.0306120194
 10
123.091685843
 20
19.0270858401
 10
123.1979175295
 20
19.0251708952
 10
123.3041425198
 20
19.0229229463
 10
123.3954351346
 20
19.0206444645
 10
123.4761361002
 20
19.0182488093
 10
123.5460316268
 20
19.0157433037
 10
123.604639905
 20
19.0131450993
 10
123.6514536582
 20
19.0104743941
 10
123.668768699
 20
19.0092452215
 10
123.6860618007
 20
19.0077527925
  0
LWPOLYLINE
  5
34B
100
AcDbEntity
  8
6_SURFACES-PATINS-SPEC
100
AcDbPolyline
 62
7
  6
CONTINUOUS
 90
14
 70
0
 10
121.9620959858
 20
19.0678964976
 10
122.2729572114
 20
19.066703426
 10
122.5703548387
 20
19.0646684345
 10
122.8452950957
 20
19.0618571805
 10
123.0916858163
 20
19.0583310428
 10
123.1979175045
 20
19.0564160962
 10
123.3041424969
 20
19.0541681534
 10
123.3954351254
 20
19.0518897041
 10
123.4761360979
 20
19.0494940606
 10
123.5460316245
 20
19.0469885415
 10
123.6046399083
 20
19.0443903404
 10
123.6514536652
 20
19.0417196346
 10
123.66876871
 20
19.0404904744
 10
123.6860618132
 20
19.0389980334
  0
LWPOLYLINE
  5
34C
100
AcDbEntity
  8
6_SURFACES-PATINS-SPEC
100
AcDbPolyline
 62
7
  6
CONTINUOUS
 90
25
 70
0
 10
112.3055976685
 20
19.0363750964
 10
112.6451978404
 20
19.0347133372
 10
112.8076518425
 20
19.0335048554
 10
112.9631238458
 20
19.0320601879
 10
113.1105806122
 20
19.0303892593
 10
113.2495011756
 20
19.0284967296
 10
113.378844447
 20
19.0263975193
 10
113.4971526953
 20
19.0241155482
 10
113.6035249918
 20
19.021668485
 10
113.6973094233
 20
19.0190699696
 10
113.7779771517
 20
19.0163358041
 10
113.8132406427
 20
19.0149230087
 10
113.8450014578
 20
19.0134842052
 10
113.873153138
 20
19.0120242301
 10
113.897623384
 20
19.0105467114
 10
113.9183658664
 20
19.0090543241
 10
113.9353614847
 20
19.0075487404
 10
113.9486009933
 20
19.0060311972
 10
113.9580800608
 20
19.0045026643
 10
113.9614054252
 20
19.0037349616
 10
113.9637838291
 20
19.0029656164
 10
113.9646169077
 20
19.0025804846
 10
113.9652121052
 20
19.0021951283
 10
113.9655417203
 20
19.0018471323
 10
113.9656883768
 20
19.0014239675
  0
LWPOLYLINE
  5
34D
100
AcDbEntity
  8
6_SURFACES-PATINS-SPEC
100
AcDbPolyline
 62
7
  6
CONTINUOUS
 90
25
 70
0
 10
112.3055976711
 20
19.0676203375
 10
112.6451978949
 20
19.0659585773
 10
112.8076519272
 20
19.0647500991
 10
112.9631239475
 20
19.063305416
 10
113.110580737
 20
19.0616345076
 10
113.2495013124
 20
19.0597419656
 10
113.3788445946
 20
19.0576427582
 10
113.4971528482
 20
19.0553607865
 10
113.6035251436
 20
19.0529137199
 10
113.6973095704
 20
19.0503152053
 10
113.7779772896
 20
19.047581042
 10
113.8132407717
 20
19.0461682413
 10
113.8450015768
 20
19.0447294338
 10
113.8731532508
 20
19.0432694702
 10
113.8976234883
 20
19.0417919604
 10
113.9183659513
 20
19.0402995558
 10
113.9353615507
 20
19.0387939588
 10
113.9486010473
 20
19.0372764261
 10
113.9580801011
 20
19.0357479014
 10
113.9614054563
 20
19.0349801978
 10
113.9637838501
 20
19.0342108506
 10
113.9646169234
 20
19.0338257179
 10
113.9652121156
 20
19.033440361
 10
113.9655417259
 20
19.0330923639
 10
113.9656883766
 20
19.0326691998
  0
LWPOLYLINE
  5
34E
100
AcDbEntity
  8
0
100
AcDbPolyline
 62
7
  6
CONTINUOUS
 90
29
 70
0
 10
106.8346758379
 20
18.9113352413
 10
106.7748788516
 20
18.911834866
 10
106.7150858688
 20
18.9133607975
 10
106.6553201273
 20
18.9159309405
 10
106.5956048646
 20
18.9195631996
 10
106.5359633185
 20
18.9242754794
 10
106.4764187267
 20
18.9300856847
 10
106.4254974257
 20
18.9359505711
 10
106.3746799117
 20
18.9426457564
 10
106.3239817436
 20
18.9501824543
 10
106.2734184802
 20
18.9585718782
 10
106.2230056805
 20
18.9678252415
 10
106.1727589033
 20
18.9779537578
 10
106.1226937077
 20
18.9889686406
 10
106.0728440516
 20
19.0008766422
 10
106.0232159648
 20
19.0136912387
 10
105.97383401
 20
19.0274220541
 10
105.92472275
 20
19.0420787128
 10
105.8759067473
 20
19.057670839
 10
105.8274105649
 20
19.0742080569
 10
105.7792587653
 20
19.0916999908
 10
105.7374043172
 20
19.1078054102
 10
105.6958485186
 20
19.1246566115
 10
105.6546072286
 20
19.142260227
 10
105.6136963065
 20
19.1606228889
 10
105.5731282667
 20
19.1797522914
 10
105.532929324
 20
19.1996475051
 10
105.4931222712
 20
19.2203084921
 10
105.4537299011
 20
19.2417352142
  0
LWPOLYLINE
  5
34F
100
AcDbEntity
  8
0
100
AcDbPolyline
 62
7
  6
CONTINUOUS
 90
33
 70
0
 10
116.8043640385
 20
31.5828665952
 10
116.8300163283
 20
31.5826383584
 10
116.855664803
 20
31.5820307396
 10
116.8813014729
 20
31.5810246149
 10
116.9069183481
 20
31.5796008603
 10
116.932484922
 20
31.5777447182
 10
116.9580157029
 20
31.575448707
 10
116.9835026333
 20
31.572708943
 10
117.0089376557
 20
31.5695215425
 10
117.0342645976
 20
31.5658895028
 10
117.0595219814
 20
31.5618013089
 10
117.0846999885
 20
31.5572506249
 10
117.1097888
 20
31.5522311145
 10
117.1347035665
 20
31.546754193
 10
117.1595092545
 20
31.5408018933
 10
117.1841952062
 20
31.5343711504
 10
117.2087507637
 20
31.5274588995
 10
117.2330641928
 20
31.5200940954
 10
117.2572265876
 20
31.512247686
 10
117.2812267978
 20
31.5039186272
 10
117.3050536733
 20
31.4951058748
 10
117.3285734855
 20
31.485858673
 10
117.3519001919
 20
31.4761343532
 10
117.3750232545
 20
31.4659354984
 10
117.3979321355
 20
31.4552646919
 10
117.4204791536
 20
31.4441938274
 10
117.4427943798
 20
31.4326627672
 10
117.4648680174
 20
31.4206749935
 10
117.4866902696
 20
31.4082339886
 10
117.5081092359
 20
31.3954318828
 10
117.5292638277
 20
31.3821977303
 10
117.5501473879
 20
31.3685432675
 10
117.5707532598
 20
31.3544802308
  0
LINE
  5
350
100
AcDbEntity
  8
0
100
AcDbLine
 62
7
  6
CONTINUOUS
 10
102.6877202218
 20
37.2679145961
 11
102.5567286071
 21
37.2693903501
  0
LINE
  5
351
100
AcDbEntity
  8
0
100
AcDbLine
 62
7
  6
CONTINUOUS
 10
106.1587194781
 20
27.6611459806
 11
106.8863907125
 21
27.6493777324
  0
LINE
  5
352
100
AcDbEntity
  8
0
100
AcDbLine
 62
7
  6
CONTINUOUS
 10
105.4017040919
 20
27.6736454507
 11
106.1587194781
 21
27.6611459806
  0
LINE
  5
353
100
AcDbEntity
  8
0
100
AcDbLine
 62
7
  6
CONTINUOUS
 10
104.6376741474
 20
27.6865141133
 11
105.4017040919
 21
27.6736454507
  0
LINE
  5
354
100
AcDbEntity
  8
0
100
AcDbLine
 62
7
  6
CONTINUOUS
 10
102.5567923795
 20
37.2693893784
 11
102.431526054
 21
37.2717857787
  0
LINE
  5
355
100
AcDbEntity
  8
0
100
AcDbLine
 62
7
  6
CONTINUOUS
 10
104.5409713465
 20
27.6887842045
 11
104.6376741536
 21
27.686513861
  0
LINE
  5
356
100
AcDbEntity
  8
0
100
AcDbLine
 62
7
  6
CONTINUOUS
 10
102.4316172504
 20
37.271783674
 11
102.3123631761
 21
37.2749988861
  0
LWPOLYLINE
  5
357
100
AcDbEntity
  8
0
100
AcDbPolyline
 62
7
  6
CONTINUOUS
 90
32
 70
0
 10
120.9532366225
 20
19.1616315676
 10
120.9198222299
 20
19.1627109386
 10
120.8864244845
 20
19.1644858561
 10
120.8530620174
 20
19.1669625567
 10
120.8197534597
 20
19.1701472769
 10
120.7865174426
 20
19.1740462535
 10
120.7533725971
 20
19.1786657228
 10
120.7203375544
 20
19.1840119216
 10
120.6915572175
 20
19.1892861116
 10
120.6628865034
 20
19.195120258
 10
120.634336845
 20
19.2015139511
 10
120.605919675
 20
19.2084667812
 10
120.5776464262
 20
19.2159783384
 10
120.5495285313
 20
19.2240482131
 10
120.5215774232
 20
19.2326759953
 10
120.4938045346
 20
19.2418612755
 10
120.4657931168
 20
19.2517592782
 10
120.4379890448
 20
19.2622281871
 10
120.4104040569
 20
19.2732643277
 10
120.3830498917
 20
19.284864026
 10
120.3559382877
 20
19.2970236074
 10
120.3290809833
 20
19.3097393978
 10
120.3024897169
 20
19.3230077229
 10
120.2761762271
 20
19.3368249083
 10
120.2493038164
 20
19.3516660597
 10
120.2227516777
 20
19.3670769089
 10
120.1965312724
 20
19.3830456325
 10
120.1706540623
 20
19.3995604071
 10
120.1451315087
 20
19.4166094092
 10
120.1199750732
 20
19.4341808155
 10
120.0951962175
 20
19.4522628024
 10
120.0708064029
 20
19.4708435466
  0
LINE
  5
358
100
AcDbEntity
  8
0
100
AcDbLine
 62
7
  6
CONTINUOUS
 10
102.3124786366
 20
37.2749953168
 11
102.1993942007
 21
37.2789321347
  0
LINE
  5
359
100
AcDbEntity
  8
0
100
AcDbLine
 62
7
  6
CONTINUOUS
 10
104.4377264937
 20
27.6926165924
 11
104.5409713465
 21
27.6887842045
  0
LINE
  5
35A
100
AcDbEntity
  8
0
100
AcDbLine
 62
7
  6
CONTINUOUS
 10
102.1995307429
 20
37.2789268373
 11
102.0928401765
 21
37.2834863824
  0
LINE
  5
35B
100
AcDbEntity
  8
0
100
AcDbLine
 62
7
  6
CONTINUOUS
 10
102.1993942007
 20
37.2789321347
 11
102.0926856886
 21
37.2834936103
  0
LWPOLYLINE
  5
35C
100
AcDbEntity
  8
0
100
AcDbPolyline
 62
7
  6
CONTINUOUS
 90
33
 70
0
 10
119.2325788151
 20
19.1785306948
 10
119.2168027869
 20
19.1792233986
 10
119.2010379514
 20
19.1802600537
 10
119.1852934642
 20
19.1816407414
 10
119.169578481
 20
19.1833655432
 10
119.1539021574
 20
19.1854345402
 10
119.1382736489
 20
19.1878478139
 10
119.1227021113
 20
19.1906054455
 10
119.1071967002
 20
19.1937075164
 10
119.0915992402
 20
19.1971926116
 10
119.0760852479
 20
19.2010253097
 10
119.0606612679
 20
19.2052011822
 10
119.0453338445
 20
19.2097158003
 10
119.0301095222
 20
19.2145647355
 10
119.0149948453
 20
19.219743559
 10
118.9999963584
 20
19.2252478423
 10
118.9851206059
 20
19.2310731567
 10
118.9698537553
 20
19.2374379782
 10
118.9547298835
 20
19.2441348858
 10
118.9397533695
 20
19.2511565365
 10
118.9249285924
 20
19.2584955876
 10
118.9102599315
 20
19.2661446961
 10
118.8957517657
 20
19.2740965191
 10
118.8814084743
 20
19.2823437136
 10
118.8672344364
 20
19.2908789369
 10
118.8524554101
 20
19.3001959714
 10
118.8378720335
 20
19.309815738
 10
118.823486351
 20
19.3197279958
 10
118.8093004067
 20
19.3299225039
 10
118.795316245
 20
19.3403890212
 10
118.78153591
 20
19.3511173069
 10
118.767961446
 20
19.36209712
 10
118.7545948973
 20
19.3733182195
  0
LINE
  5
35D
100
AcDbEntity
  8
6_SURFACES-PATINS-SPEC
100
AcDbLine
 62
7
  6
CONTINUOUS
 10
110.7855990304
 20
15.9311900913
 11
110.8685923645
 21
15.9274799117
  0
LINE
  5
35E
100
AcDbEntity
  8
6_SURFACES-PATINS-SPEC
100
AcDbLine
 62
7
  6
CONTINUOUS
 10
121.5974349838
 20
15.9311900913
 11
121.6804283178
 21
15.9274799117
  0
LINE
  5
35F
100
AcDbEntity
  8
0
100
AcDbLine
 62
7
  6
CONTINUOUS
 10
106.8863906762
 20
27.6493776297
 11
106.921500091
 21
27.6476368145
  0
LINE
  5
360
100
AcDbEntity
  8
0
100
AcDbLine
 62
7
  6
CONTINUOUS
 10
102.0928401765
 20
37.2834863824
 11
101.9924052529
 21
37.2885882081
  0
LINE
  5
361
100
AcDbEntity
  8
0
100
AcDbLine
 62
7
  6
CONTINUOUS
 10
102.0926856886
 20
37.2834936103
 11
101.9922358635
 21
37.288597514
  0
LINE
  5
362
100
AcDbEntity
  8
0
100
AcDbLine
 62
7
  6
CONTINUOUS
 10
104.3364240385
 20
27.6978573009
 11
104.4377264937
 21
27.6926165924
  0
LINE
  5
363
100
AcDbEntity
  8
0
100
AcDbLine
 62
7
  6
CONTINUOUS
 10
100.9071392698
 20
38.7746661459
 11
100.8541696632
 21
38.777479842
  0
LINE
  5
364
100
AcDbEntity
  8
0
100
AcDbLine
 62
7
  6
CONTINUOUS
 10
101.9924052529
 20
37.2885882081
 11
101.8981695292
 21
37.2941529287
  0
LINE
  5
365
100
AcDbEntity
  8
0
100
AcDbLine
 62
7
  6
CONTINUOUS
 10
101.9922358635
 20
37.288597514
 11
101.8979881527
 21
37.2941644123
  0
LINE
  5
366
100
AcDbEntity
  8
0
100
AcDbLine
 62
7
  6
CONTINUOUS
 10
114.8271945697
 20
17.1585010574
 11
113.0718202599
 21
17.2659729539
  0
LINE
  5
367
100
AcDbEntity
  8
0
100
AcDbLine
 62
7
  6
CONTINUOUS
 10
109.6489281716
 20
17.4755377756
 11
106.4542909293
 21
17.6711278109
  0
LINE
  5
368
100
AcDbEntity
  8
DEFAULT_3
100
AcDbLine
 62
7
  6
PHANTOM
 10
114.8348333276
 20
17.2832674366
 11
106.4619297062
 21
17.7958941889
  0
LWPOLYLINE
  5
369
100
AcDbEntity
  8
0
100
AcDbPolyline
 62
7
  6
CONTINUOUS
 90
16
 70
0
 10
124.2906177453
 20
19.1518970914
 10
124.5463453086
 20
19.1346786227
 10
124.8020133143
 20
19.1165892288
 10
125.0576063053
 20
19.0974783829
 10
125.2279573209
 20
19.0840890116
 10
125.3982595592
 20
19.0700948449
 10
125.5540036253
 20
19.0566863792
 10
125.7096883132
 20
19.0426054649
 10
125.8505942886
 20
19.0291871131
 10
125.9914268525
 20
19.0150186827
 10
126.117283837
 20
19.0016048678
 10
126.2430472511
 20
18.9873434355
 10
126.3536643548
 20
18.9739509528
 10
126.464160496
 20
18.9595887647
 10
126.5593695807
 20
18.9462444073
 10
126.6544100006
 20
18.9317647192
  0
LINE
  5
36A
100
AcDbEntity
  8
0
100
AcDbLine
 62
7
  6
CONTINUOUS
 10
104.236521226
 20
27.7045680067
 11
104.3364240385
 21
27.6978573009
  0
LINE
  5
36B
100
AcDbEntity
  8
0
100
AcDbLine
 62
7
  6
CONTINUOUS
 10
101.8981695292
 20
37.2941529287
 11
101.8100353198
 21
37.3001073918
  0
LINE
  5
36C
100
AcDbEntity
  8
0
100
AcDbLine
 62
7
  6
CONTINUOUS
 10
101.8979881527
 20
37.2941644123
 11
101.8098447426
 21
37.3001211097
  0
LWPOLYLINE
  5
36D
100
AcDbEntity
  8
6_SURFACES-PATINS-SPEC
100
AcDbPolyline
 62
7
  6
CONTINUOUS
 90
34
 70
0
 10
108.932117313
 20
18.8939213804
 10
108.9245225727
 20
18.8944441793
 10
108.9169304868
 20
18.8950046139
 10
108.9125361735
 20
18.8953494326
 10
108.9081433163
 20
18.8957121083
 10
108.9037522529
 20
18.8960954071
 10
108.9000283883
 20
18.8964392344
 10
108.8963064758
 20
18.8968039272
 10
108.8925869329
 20
18.8971935145
 10
108.8895335529
 20
18.8975354937
 10
108.8864831605
 20
18.8979020709
 10
108.8834368624
 20
18.8982983247
 10
108.8810547243
 20
18.8986339371
 10
108.8786769192
 20
18.8990008636
 10
108.8763045899
 20
18.8994091002
 10
108.8748975416
 20
18.8996760812
 10
108.8734975144
 20
18.899966364
 10
108.8723471859
 20
18.900229288
 10
108.8711983574
 20
18.9005246363
 10
108.8705913884
 20
18.9006979242
 10
108.8699918417
 20
18.9008841892
 10
108.8694085347
 20
18.9010837349
 10
108.8690918676
 20
18.9012020753
 10
108.8687770773
 20
18.9013307485
 10
108.8684582255
 20
18.9014758506
 10
108.8681293739
 20
18.9016434777
 10
108.8679456165
 20
18.9017461744
 10
108.8677640317
 20
18.90185807
 10
108.8675915017
 20
18.9019799065
 10
108.8674349084
 20
18.9021124259
 10
108.8673011337
 20
18.9022563703
 10
108.8671970599
 20
18.9024124817
 10
108.8671295688
 20
18.9025815022
 10
108.8671055424
 20
18.9027641738
  0
LINE
  5
36E
100
AcDbEntity
  8
0
100
AcDbLine
 62
7
  6
CONTINUOUS
 10
101.8100353198
 20
37.3001073918
 11
101.7278857353
 21
37.3063834915
  0
LINE
  5
36F
100
AcDbEntity
  8
0
100
AcDbLine
 62
7
  6
CONTINUOUS
 10
101.8098447426
 20
37.3001211097
 11
101.727688647
 21
37.3063994583
  0
LINE
  5
370
100
AcDbEntity
  8
0
100
AcDbLine
 62
7
  6
CONTINUOUS
 10
104.137592639
 20
27.7128781756
 11
104.236521226
 21
27.7045680067
  0
LINE
  5
371
100
AcDbEntity
  8
0
100
AcDbLine
 62
7
  6
CONTINUOUS
 10
101.7278857353
 20
37.3063834915
 11
101.6515860068
 21
37.3129178873
  0
LINE
  5
372
100
AcDbEntity
  8
0
100
AcDbLine
 62
7
  6
CONTINUOUS
 10
101.727688647
 20
37.3063994583
 11
101.6513849903
 21
37.3129360784
  0
LINE
  5
373
100
AcDbEntity
  8
6_SURFACES-PATINS-SPEC
100
AcDbLine
 62
7
  6
CONTINUOUS
 10
119.7276225466
 20
18.9903810541
 11
119.6802048336
 21
18.9946509607
  0
LWPOLYLINE
  5
374
100
AcDbEntity
  8
6_SURFACES-PATINS-SPEC
100
AcDbPolyline
 62
7
  6
CONTINUOUS
 90
37
 70
0
 10
119.6802048336
 20
18.9946509649
 10
119.6769542664
 20
18.9949507559
 10
119.6737051602
 20
18.9952660921
 10
119.6704577983
 20
18.9955992557
 10
119.6672124644
 20
18.9959525288
 10
119.6639694418
 20
18.9963281937
 10
119.6623039944
 20
18.9965310396
 10
119.6606396584
 20
18.9967427994
 10
119.6589768603
 20
18.9969658715
 10
119.6573160263
 20
18.9972026541
 10
119.6556575827
 20
18.9974555456
 10
119.6540019558
 20
18.9977269443
 10
119.652349572
 20
18.9980192486
 10
119.6513271649
 20
18.9982123003
 10
119.6503070855
 20
18.9984166515
 10
119.6492902513
 20
18.9986346461
 10
119.6482775799
 20
18.9988686276
 10
119.6476894335
 20
18.9990138239
 10
119.6471036826
 20
18.9991683893
 10
119.6465209954
 20
18.9993354598
 10
119.6459420399
 20
18.9995181715
 10
119.6453674842
 20
18.9997196603
 10
119.6450217379
 20
18.9998524493
 10
119.6446811204
 20
18.9999941437
 10
119.6443488941
 20
19.0001455779
 10
119.644163432
 20
19.0002376016
 10
119.643980942
 20
19.0003368104
 10
119.6438005742
 20
19.0004469214
 10
119.6436214791
 20
19.0005716519
 10
119.6435127211
 20
19.0006566216
 10
119.6434075008
 20
19.000748225
 10
119.6433091971
 20
19.0008462267
 10
119.6432211894
 20
19.0009503911
 10
119.6431468567
 20
19.0010604829
 10
119.6430895782
 20
19.0011762665
 10
119.643052733
 20
19.0012975066
 10
119.6430397004
 20
19.0014239676
  0
LINE
  5
375
100
AcDbEntity
  8
0
100
AcDbLine
 62
7
  6
CONTINUOUS
 10
101.6515860068
 20
37.3129178873
 11
101.580987613
 21
37.3196515842
  0
LINE
  5
376
100
AcDbEntity
  8
0
100
AcDbLine
 62
7
  6
CONTINUOUS
 10
101.6513849903
 20
37.3129360784
 11
101.5807851436
 21
37.3196719378
  0
LINE
  5
377
100
AcDbEntity
  8
6_SURFACES-PATINS-SPEC
100
AcDbLine
 62
7
  6
CONTINUOUS
 10
123.6860618289
 20
19.0077527887
 11
124.7097135766
 21
18.9089874574
  0
LINE
  5
378
100
AcDbEntity
  8
6_SURFACES-PATINS-SPEC
100
AcDbLine
 62
7
  6
CONTINUOUS
 10
123.6860618165
 20
19.0389980292
 11
124.7097135643
 21
18.9402326979
  0
LWPOLYLINE
  5
379
100
AcDbEntity
  8
6_SURFACES-PATINS-SPEC
100
AcDbPolyline
 62
7
  6
CONTINUOUS
 90
37
 70
0
 10
124.7097135733
 20
18.9089874604
 10
124.7125055674
 20
18.9087116084
 10
124.7152961059
 20
18.9084215288
 10
124.7180849432
 20
18.9081151066
 10
124.7208718334
 20
18.9077902268
 10
124.7236565309
 20
18.9074447747
 10
124.7250870291
 20
18.9072581813
 10
124.7265164452
 20
18.9070634164
 10
124.727944341
 20
18.9068583039
 10
124.7293702788
 20
18.9066406674
 10
124.7307938207
 20
18.9064083308
 10
124.7322145287
 20
18.9061591179
 10
124.733631965
 20
18.9058908524
 10
124.7345098364
 20
18.9057135205
 10
124.735385477
 20
18.9055258359
 10
124.7362580853
 20
18.9053256252
 10
124.7371268597
 20
18.9051107147
 10
124.7376325954
 20
18.9049770013
 10
124.7381359833
 20
18.904834756
 10
124.7386362601
 20
18.9046812143
 10
124.7391326624
 20
18.9045136118
 10
124.7396244269
 20
18.9043291844
 10
124.7399213853
 20
18.9042072089
 10
124.7402137003
 20
18.904077115
 10
124.7404987382
 20
18.9039380733
 10
124.7406590026
 20
18.9038529565
 10
124.7408162839
 20
18.9037614596
 10
124.7409708987
 20
18.9036604575
 10
124.7411231633
 20
18.9035468251
 10
124.7412175435
 20
18.9034675342
 10
124.741308342
 20
18.9033823093
 10
124.7413927841
 20
18.9032914688
 10
124.7414680951
 20
18.9031953309
 10
124.7415315003
 20
18.9030942141
 10
124.7415802251
 20
18.9029884367
 10
124.7416114948
 20
18.9028783171
 10
124.7416225346
 20
18.9027641737
  0
LWPOLYLINE
  5
37A
100
AcDbEntity
  8
6_SURFACES-PATINS-SPEC
100
AcDbPolyline
 62
7
  6
CONTINUOUS
 90
37
 70
0
 10
124.7097135744
 20
18.9402327012
 10
124.712505601
 20
18.9399568504
 10
124.7152961719
 20
18.9396667698
 10
124.7180850412
 20
18.9393603447
 10
124.7208719634
 20
18.9390354603
 10
124.7236566927
 20
18.9386900019
 10
124.7250872006
 20
18.9385034056
 10
124.7265166262
 20
18.9383086374
 10
124.7279445316
 20
18.938103521
 10
124.7293704788
 20
18.9378858802
 10
124.7307940298
 20
18.9376535386
 10
124.7322147468
 20
18.9374043201
 10
124.7336321918
 20
18.9371360483
 10
124.7345100599
 20
18.9369587137
 10
124.735385697
 20
18.9367710263
 10
124.7362583018
 20
18.9365708125
 10
124.7371270727
 20
18.9363558987
 10
124.7376328004
 20
18.9362221847
 10
124.7381361802
 20
18.9360799384
 10
124.7386364484
 20
18.935926395
 10
124.7391328416
 20
18.9357587898
 10
124.7396245963
 20
18.935574358
 10
124.739921544
 20
18.9354523808
 10
124.7402138481
 20
18.935322285
 10
124.740498875
 20
18.9351832417
 10
124.7406591309
 20
18.9350981252
 10
124.7408164031
 20
18.935006628
 10
124.7409710077
 20
18.9349056242
 10
124.7411232607
 20
18.9347919882
 10
124.7412176319
 20
18.9347126941
 10
124.7413084205
 20
18.9346274655
 10
124.7413928518
 20
18.9345366212
 10
124.741468151
 20
18.9344404801
 10
124.7415315434
 20
18.934339361
 10
124.7415802544
 20
18.934233583
 10
124.741611509
 20
18.9341234648
 10
124.7416225327
 20
18.9340093254
  0
LINE
  5
37B
100
AcDbEntity
  8
0
100
AcDbLine
 62
7
  6
CONTINUOUS
 10
104.0400671138
 20
27.7229138257
 11
104.137592639
 21
27.7128781756
  0
LINE
  5
37C
100
AcDbEntity
  8
0
100
AcDbLine
 62
7
  6
CONTINUOUS
 10
101.580987613
 20
37.3196515842
 11
101.5159369483
 21
37.3265289436
  0
LINE
  5
37D
100
AcDbEntity
  8
0
100
AcDbLine
 62
7
  6
CONTINUOUS
 10
101.5807851436
 20
37.3196719378
 11
101.5157354048
 21
37.3265513602
  0
LINE
  5
37E
100
AcDbEntity
  8
6_SURFACES-PATINS-SPEC
100
AcDbLine
 62
7
  6
CONTINUOUS
 10
108.9329611634
 20
18.8950719048
 11
108.9326201614
 21
18.8951099432
  0
LINE
  5
37F
100
AcDbEntity
  8
0
100
AcDbLine
 62
7
  6
CONTINUOUS
 10
101.5159369483
 20
37.3265289436
 11
101.4560956086
 21
37.3335194296
  0
LINE
  5
380
100
AcDbEntity
  8
6_SURFACES-PATINS-SPEC
100
AcDbLine
 62
7
  6
CONTINUOUS
 10
119.708938928
 20
18.9936792028
 11
119.708949625
 21
18.9936779373
  0
LWPOLYLINE
  5
381
100
AcDbEntity
  8
6_SURFACES-PATINS-SPEC
100
AcDbPolyline
 62
7
  6
CONTINUOUS
 90
40
 70
0
 10
124.3633559813
 20
18.6623022072
 10
124.3654625615
 20
18.6620477194
 10
124.3675676711
 20
18.6617812297
 10
124.3696710288
 20
18.6615010594
 10
124.3714841925
 20
18.6612468429
 10
124.3732953606
 20
18.6609789402
 10
124.3751040516
 20
18.6606950996
 10
124.3762441021
 20
18.660506617
 10
124.3773827233
 20
18.6603096351
 10
124.3785196648
 20
18.6601029004
 10
124.3796546757
 20
18.6598851596
 10
124.3805755495
 20
18.6596989825
 10
124.3814942907
 20
18.6595027258
 10
124.3824102078
 20
18.6592944092
 10
124.3833226093
 20
18.6590720528
 10
124.3840245919
 20
18.6588891112
 10
124.3847233358
 20
18.6586939619
 10
124.3854181137
 20
18.6584839586
 10
124.3861081979
 20
18.6582564553
 10
124.3864345906
 20
18.6581410519
 10
124.3867587255
 20
18.6580194682
 10
124.3870795726
 20
18.6578900866
 10
124.3873961017
 20
18.6577512895
 10
124.387707283
 20
18.6576014592
 10
124.3880120863
 20
18.6574389782
 10
124.3882261899
 20
18.657313241
 10
124.3884341374
 20
18.6571776531
 10
124.3886335949
 20
18.6570297257
 10
124.3887438445
 20
18.6569375391
 10
124.3888486798
 20
18.6568392969
 10
124.388946301
 20
18.656733895
 10
124.3890349082
 20
18.6566202293
 10
124.3890964214
 20
18.6565251363
 10
124.3891488043
 20
18.6564248259
 10
124.3891895267
 20
18.6563197983
 10
124.3892160588
 20
18.6562105538
 10
124.3892261734
 20
18.6561071833
 10
124.3892226955
 20
18.6560029263
 10
124.3892061526
 20
18.6559000352
 10
124.3891770727
 20
18.6558007622
  0
LINE
  5
382
100
AcDbEntity
  8
0
100
AcDbLine
 62
7
  6
CONTINUOUS
 10
103.947630508
 20
27.7344086151
 11
104.0400671138
 21
27.7229138257
  0
LINE
  5
383
100
AcDbEntity
  8
0
100
AcDbLine
 62
7
  6
CONTINUOUS
 10
106.921500091
 20
27.6476368145
 11
106.9611893054
 21
27.6427002424
  0
LINE
  5
384
100
AcDbEntity
  8
6_SURFACES-PATINS-SPEC
100
AcDbLine
 62
7
  6
CONTINUOUS
 10
108.9326201614
 20
18.8951099432
 11
108.933355854
 21
18.8950172383
  0
LINE
  5
385
100
AcDbEntity
  8
6_SURFACES-PATINS-SPEC
100
AcDbLine
 62
7
  6
CONTINUOUS
 10
119.708949625
 20
18.9936779373
 11
119.7099502496
 21
18.9935494383
  0
LINE
  5
386
100
AcDbEntity
  8
0
100
AcDbLine
 62
7
  6
CONTINUOUS
 10
101.4560956086
 20
37.3335194296
 11
101.4018208705
 21
37.3405096241
  0
LINE
  5
387
100
AcDbEntity
  8
6_SURFACES-PATINS-SPEC
100
AcDbLine
 62
7
  6
CONTINUOUS
 10
110.7033723081
 20
15.942196262
 11
110.7855990304
 21
15.9311900913
  0
LINE
  5
388
100
AcDbEntity
  8
6_SURFACES-PATINS-SPEC
100
AcDbLine
 62
7
  6
CONTINUOUS
 10
121.5152082615
 20
15.942196262
 11
121.5974349838
 21
15.9311900913
  0
LINE
  5
389
100
AcDbEntity
  8
6_SURFACES-PATINS-SPEC
100
AcDbLine
 62
7
  6
CONTINUOUS
 10
108.933355854
 20
18.8950172383
 11
108.9356953733
 21
18.8946903805
  0
LINE
  5
38A
100
AcDbEntity
  8
0
100
AcDbLine
 62
7
  6
CONTINUOUS
 10
132.4586847641
 20
37.3885091579
 11
132.4586560237
 21
37.3885132213
  0
LINE
  5
38B
100
AcDbEntity
  8
0
100
AcDbLine
 62
7
  6
CONTINUOUS
 10
101.4018208705
 20
37.3405096241
 11
101.352902454
 21
37.347445617
  0
LINE
  5
38C
100
AcDbEntity
  8
6_SURFACES-PATINS-SPEC
100
AcDbLine
 62
7
  6
CONTINUOUS
 10
119.7099502496
 20
18.9935494383
 11
119.7127460182
 21
18.9931475856
  0
LWPOLYLINE
  5
38D
100
AcDbEntity
  8
DEFAULT_3
100
AcDbPolyline
 62
7
  6
PHANTOM
 90
20
 70
0
 10
131.6583769909
 20
32.6308859261
 10
131.4460908971
 20
32.6619569621
 10
131.2424863422
 20
32.6925532683
 10
131.0478232633
 20
32.7225333604
 10
130.8623494598
 20
32.7517586867
 10
130.6862980902
 20
32.7800946222
 10
130.5198897574
 20
32.8074105144
 10
130.3633302198
 20
32.8335811848
 10
130.2168097532
 20
32.8584870933
 10
130.0804972528
 20
32.8820161775
 10
129.9545502705
 20
32.9040626551
 10
129.8391112024
 20
32.9245281832
 10
129.7343060965
 20
32.9433221191
 10
129.6402461337
 20
32.9603622931
 10
129.5570316052
 20
32.9755739721
 10
129.4847499169
 20
32.9888908801
 10
129.4234770056
 20
33.0002550405
 10
129.3732762275
 20
33.0096173012
 10
129.3341947436
 20
33.0169379583
 10
129.3062655211
 20
33.0221868664
  0
LINE
  5
38E
100
AcDbEntity
  8
0
100
AcDbLine
 62
7
  6
CONTINUOUS
 10
103.8639670163
 20
27.7468236568
 11
103.947630508
 21
27.7344086151
  0
LINE
  5
38F
100
AcDbEntity
  8
0
100
AcDbLine
 62
7
  6
CONTINUOUS
 10
101.352902454
 20
37.347445617
 11
101.3093157052
 21
37.3542453705
  0
LINE
  5
390
100
AcDbEntity
  8
6_SURFACES-PATINS-SPEC
100
AcDbLine
 62
7
  6
CONTINUOUS
 10
108.9356953733
 20
18.8946903805
 11
108.939803899
 21
18.8940427826
  0
LINE
  5
391
100
AcDbEntity
  8
DEFAULT_3
100
AcDbLine
 62
7
  6
PHANTOM
 10
104.4102484961
 20
33.0276496076
 11
105.4596673581
 21
32.8614379884
  0
LINE
  5
392
100
AcDbEntity
  8
0
100
AcDbLine
 62
7
  6
CONTINUOUS
 10
100.9596418286
 20
38.7662288802
 11
100.9071392698
 21
38.7746661459
  0
LINE
  5
393
100
AcDbEntity
  8
6_SURFACES-PATINS-SPEC
100
AcDbLine
 62
7
  6
CONTINUOUS
 10
119.7127460182
 20
18.9931475856
 11
119.7175150113
 21
18.9923683335
  0
LINE
  5
394
100
AcDbEntity
  8
0
100
AcDbLine
 62
7
  6
CONTINUOUS
 10
101.3093157052
 20
37.3542453705
 11
101.2710258923
 21
37.3608187082
  0
LINE
  5
395
100
AcDbEntity
  8
0
100
AcDbLine
 62
7
  6
CONTINUOUS
 10
103.7898795361
 20
27.7597892546
 11
103.8639670163
 21
27.7468236568
  0
LINE
  5
396
100
AcDbEntity
  8
6_SURFACES-PATINS-SPEC
100
AcDbLine
 62
7
  6
CONTINUOUS
 10
108.939803899
 20
18.8940427826
 11
108.9458331003
 21
18.892961062
  0
LINE
  5
397
100
AcDbEntity
  8
6_SURFACES-PATINS-SPEC
100
AcDbLine
 62
7
  6
CONTINUOUS
 10
119.7175150113
 20
18.9923683335
 11
119.7244769637
 21
18.9910629487
  0
LINE
  5
398
100
AcDbEntity
  8
DEFAULT_3
100
AcDbLine
 62
7
  6
PHANTOM
 10
129.3062655211
 20
33.0221868664
 11
129.2839301789
 21
33.0263948212
  0
LINE
  5
399
100
AcDbEntity
  8
0
100
AcDbLine
 62
7
  6
CONTINUOUS
 10
101.2710258923
 20
37.3608187082
 11
101.2379958248
 21
37.3670636206
  0
LWPOLYLINE
  5
39A
100
AcDbEntity
  8
DEFAULT_3
100
AcDbPolyline
 62
7
  6
PHANTOM
 90
23
 70
0
 10
128.7107971459
 20
31.7818243807
 10
128.7363317747
 20
31.7768432971
 10
128.7720640736
 20
31.7698927695
 10
128.8179704998
 20
31.7609971604
 10
128.8740081182
 20
31.7501901525
 10
128.9401346399
 20
31.7375107495
 10
129.0162911617
 20
31.7230064932
 10
129.1024284361
 20
31.7067283228
 10
129.1984691927
 20
31.6887376072
 10
129.3043383359
 20
31.6691002501
 10
129.4199502909
 20
31.6478888289
 10
129.5452082997
 20
31.625182571
 10
129.6799751017
 20
31.6010722625
 10
129.8241836528
 20
31.575640154
 10
129.9776719429
 20
31.5489892451
 10
130.140256043
 20
31.5212293391
 10
130.3118358162
 20
31.4924589154
 10
130.4922222805
 20
31.4627943996
 10
130.6812141615
 20
31.4323560963
 10
130.8786110445
 20
31.4012658302
 10
131.0841945811
 20
31.3696493871
 10
131.297755265
 20
31.3376318847
 10
131.519056802
 20
31.3053428729
  0
LINE
  5
39B
100
AcDbEntity
  8
DEFAULT_3
100
AcDbLine
 62
7
  6
PHANTOM
 10
128.6898212978
 20
31.7859252489
 11
128.7107971459
 21
31.7818243807
  0
LINE
  5
39C
100
AcDbEntity
  8
0
100
AcDbLine
 62
7
  6
CONTINUOUS
 10
103.7235371495
 20
27.7733673741
 11
103.7898795361
 21
27.7597892546
  0
LINE
  5
39D
100
AcDbEntity
  8
6_SURFACES-PATINS-SPEC
100
AcDbLine
 62
7
  6
CONTINUOUS
 10
108.9458331003
 20
18.892961062
 11
108.9539046529
 21
18.8913014784
  0
LINE
  5
39E
100
AcDbEntity
  8
0
100
AcDbLine
 62
7
  6
CONTINUOUS
 10
106.9611893054
 20
27.6427002424
 11
106.9979980826
 21
27.6350448458
  0
LINE
  5
39F
100
AcDbEntity
  8
0
100
AcDbLine
 62
7
  6
CONTINUOUS
 10
101.2379958248
 20
37.3670636206
 11
101.2101951907
 21
37.3728607533
  0
LINE
  5
3A0
100
AcDbEntity
  8
6_SURFACES-PATINS-SPEC
100
AcDbLine
 62
7
  6
CONTINUOUS
 10
119.7244769637
 20
18.9910629487
 11
119.7337537037
 21
18.9890519513
  0
LINE
  5
3A1
100
AcDbEntity
  8
6_SURFACES-PATINS-SPEC
100
AcDbLine
 62
7
  6
CONTINUOUS
 10
110.6225413213
 20
15.9603853306
 11
110.7033723081
 21
15.942196262
  0
LINE
  5
3A2
100
AcDbEntity
  8
6_SURFACES-PATINS-SPEC
100
AcDbLine
 62
7
  6
CONTINUOUS
 10
121.4343772747
 20
15.9603853306
 11
121.5152082615
 21
15.942196262
  0
LINE
  5
3A3
100
AcDbEntity
  8
0
100
AcDbLine
 62
7
  6
CONTINUOUS
 10
101.2101951907
 20
37.3728607533
 11
101.1876173159
 21
37.378063869
  0
LINE
  5
3A4
100
AcDbEntity
  8
6_SURFACES-PATINS-SPEC
100
AcDbLine
 62
7
  6
CONTINUOUS
 10
108.9539046529
 20
18.8913014784
 11
108.9640463272
 21
18.8888999977
  0
LINE
  5
3A5
100
AcDbEntity
  8
0
100
AcDbLine
 62
7
  6
CONTINUOUS
 10
103.6629340949
 20
27.7878191071
 11
103.7235371495
 21
27.7733673741
  0
LINE
  5
3A6
100
AcDbEntity
  8
6_SURFACES-PATINS-SPEC
100
AcDbLine
 62
7
  6
CONTINUOUS
 10
119.7337537037
 20
18.9890519513
 11
119.7451963871
 21
18.9861723784
  0
LINE
  5
3A7
100
AcDbEntity
  8
0
100
AcDbLine
 62
7
  6
CONTINUOUS
 10
101.1876173159
 20
37.378063869
 11
101.1702630779
 21
37.3824948269
  0
LINE
  5
3A8
100
AcDbEntity
  8
0
100
AcDbLine
 62
7
  6
CONTINUOUS
 10
101.0109514212
 20
38.7522634563
 11
100.9596418286
 21
38.7662288802
  0
LINE
  5
3A9
100
AcDbEntity
  8
6_SURFACES-PATINS-SPEC
100
AcDbLine
 62
7
  6
CONTINUOUS
 10
108.9640463272
 20
18.8888999977
 11
108.9763407379
 21
18.8855347421
  0
LINE
  5
3AA
100
AcDbEntity
  8
0
100
AcDbLine
 62
7
  6
CONTINUOUS
 10
103.6066454612
 20
27.8034530636
 11
103.6629340949
 21
27.7878191071
  0
LINE
  5
3AB
100
AcDbEntity
  8
0
100
AcDbLine
 62
7
  6
CONTINUOUS
 10
101.1702630779
 20
37.3824948269
 11
101.1581345193
 21
37.3859353596
  0
LINE
  5
3AC
100
AcDbEntity
  8
6_SURFACES-PATINS-SPEC
100
AcDbLine
 62
7
  6
CONTINUOUS
 10
119.7451963871
 20
18.9861723784
 11
119.7584399508
 21
18.9823043628
  0
LINE
  5
3AD
100
AcDbEntity
  8
0
100
AcDbLine
 62
7
  6
CONTINUOUS
 10
106.9979980826
 20
27.6350448458
 11
107.0317955608
 21
27.6250674394
  0
LINE
  5
3AE
100
AcDbEntity
  8
0
100
AcDbLine
 62
7
  6
CONTINUOUS
 10
101.1581345193
 20
37.3859353596
 11
101.1512447055
 21
37.3881112581
  0
LINE
  5
3AF
100
AcDbEntity
  8
6_SURFACES-PATINS-SPEC
100
AcDbLine
 62
7
  6
CONTINUOUS
 10
108.9763407379
 20
18.8855347421
 11
108.9909228174
 21
18.880903925
  0
LINE
  5
3B0
100
AcDbEntity
  8
6_SURFACES-PATINS-SPEC
100
AcDbLine
 62
7
  6
CONTINUOUS
 10
110.5437196529
 20
15.9856096076
 11
110.6225413213
 21
15.9603853306
  0
LINE
  5
3B1
100
AcDbEntity
  8
6_SURFACES-PATINS-SPEC
100
AcDbLine
 62
7
  6
CONTINUOUS
 10
121.3555556063
 20
15.9856096075
 11
121.4343772747
 21
15.9603853306
  0
LINE
  5
3B2
100
AcDbEntity
  8
0
100
AcDbLine
 62
7
  6
CONTINUOUS
 10
103.5537664733
 20
27.8205773577
 11
103.6066454612
 21
27.8034530636
  0
LINE
  5
3B3
100
AcDbEntity
  8
6_SURFACES-PATINS-SPEC
100
AcDbLine
 62
7
  6
CONTINUOUS
 10
119.7584399508
 20
18.9823043628
 11
119.7733940699
 21
18.9772453965
  0
LINE
  5
3B4
100
AcDbEntity
  8
0
100
AcDbLine
 62
7
  6
CONTINUOUS
 10
101.1512447055
 20
37.3881112581
 11
101.1500563674
 21
37.3885187207
  0
LINE
  5
3B5
100
AcDbEntity
  8
6_SURFACES-PATINS-SPEC
100
AcDbLine
 62
7
  6
CONTINUOUS
 10
108.9909228174
 20
18.880903925
 11
109.0079270366
 21
18.8746133631
  0
LINE
  5
3B6
100
AcDbEntity
  8
0
100
AcDbLine
 62
7
  6
CONTINUOUS
 10
103.5035264114
 20
27.8395666756
 11
103.5537664733
 21
27.8205773577
  0
LINE
  5
3B7
100
AcDbEntity
  8
0
100
AcDbLine
 62
7
  6
CONTINUOUS
 10
107.0317955608
 20
27.6250674394
 11
107.0624411223
 21
27.6131763509
  0
LINE
  5
3B8
100
AcDbEntity
  8
0
100
AcDbLine
 62
7
  6
CONTINUOUS
 10
101.0604876908
 20
38.7329278319
 11
101.0109514212
 21
38.7522634563
  0
LINE
  5
3B9
100
AcDbEntity
  8
6_SURFACES-PATINS-SPEC
100
AcDbLine
 62
7
  6
CONTINUOUS
 10
119.7733940699
 20
18.9772453965
 11
119.7901800968
 21
18.9706715613
  0
LINE
  5
3BA
100
AcDbEntity
  8
6_SURFACES-PATINS-SPEC
100
AcDbLine
 62
7
  6
CONTINUOUS
 10
110.4674930286
 20
16.0176499084
 11
110.5437196529
 21
15.9856096076
  0
LINE
  5
3BB
100
AcDbEntity
  8
6_SURFACES-PATINS-SPEC
100
AcDbLine
 62
7
  6
CONTINUOUS
 10
121.279328982
 20
16.0176499083
 11
121.3555556063
 21
15.9856096075
  0
LINE
  5
3BC
100
AcDbEntity
  8
6_SURFACES-PATINS-SPEC
100
AcDbLine
 62
7
  6
CONTINUOUS
 10
109.0079270366
 20
18.8746133631
 11
109.0273291243
 21
18.8662167773
  0
LINE
  5
3BD
100
AcDbEntity
  8
0
100
AcDbLine
 62
7
  6
CONTINUOUS
 10
103.4555137895
 20
27.860749177
 11
103.5035264114
 21
27.8395666756
  0
LINE
  5
3BE
100
AcDbEntity
  8
6_SURFACES-PATINS-SPEC
100
AcDbLine
 62
7
  6
CONTINUOUS
 10
119.7901800968
 20
18.9706715613
 11
119.8089892567
 21
18.9621278805
  0
LINE
  5
3BF
100
AcDbEntity
  8
0
100
AcDbLine
 62
7
  6
CONTINUOUS
 10
107.0624411223
 20
27.6131763509
 11
107.0726644707
 21
27.6085155254
  0
LINE
  5
3C0
100
AcDbEntity
  8
6_SURFACES-PATINS-SPEC
100
AcDbLine
 62
7
  6
CONTINUOUS
 10
109.0273291243
 20
18.8662167773
 11
109.0485253548
 21
18.8554593922
  0
LINE
  5
3C1
100
AcDbEntity
  8
0
100
AcDbLine
 62
7
  6
CONTINUOUS
 10
103.4096959398
 20
27.8843071582
 11
103.4555137895
 21
27.860749177
  0
LINE
  5
3C2
100
AcDbEntity
  8
0
100
AcDbLine
 62
7
  6
CONTINUOUS
 10
101.1076903374
 20
38.7084407077
 11
101.0604876908
 21
38.7329278319
  0
LINE
  5
3C3
100
AcDbEntity
  8
6_SURFACES-PATINS-SPEC
100
AcDbLine
 62
7
  6
CONTINUOUS
 10
110.3944267525
 20
16.05625218
 11
110.4674930286
 21
16.0176499084
  0
LINE
  5
3C4
100
AcDbEntity
  8
6_SURFACES-PATINS-SPEC
100
AcDbLine
 62
7
  6
CONTINUOUS
 10
121.2062627059
 20
16.05625218
 11
121.279328982
 21
16.0176499083
  0
LINE
  5
3C5
100
AcDbEntity
  8
6_SURFACES-PATINS-SPEC
100
AcDbLine
 62
7
  6
CONTINUOUS
 10
119.8089892567
 20
18.9621278805
 11
119.8295222152
 21
18.9512796274
  0
LWPOLYLINE
  5
3C6
100
AcDbEntity
  8
0
100
AcDbPolyline
 62
7
  6
CONTINUOUS
 90
29
 70
0
 10
105.4537232437
 20
19.2417387752
 10
105.414075771
 20
19.2643440698
 10
105.3748814588
 20
19.2877593031
 10
105.3361649353
 20
19.311979494
 10
105.2979508285
 20
19.3369996617
 10
105.2602637666
 20
19.3628148253
 10
105.2231283779
 20
19.3894200037
 10
105.1865692903
 20
19.4168102162
 10
105.1506057137
 20
19.4449822971
 10
105.1152594749
 20
19.473921173
 10
105.0805468468
 20
19.5036134094
 10
105.0464841024
 20
19.534045572
 10
105.0130875143
 20
19.5652042267
 10
104.9803733554
 20
19.597075939
 10
104.9483578986
 20
19.6296472747
 10
104.9170532417
 20
19.6629065887
 10
104.8864709676
 20
19.6968320712
 10
104.8566183605
 20
19.7314035832
 10
104.8275027047
 20
19.7666009854
 10
104.7991312843
 20
19.8024041387
 10
104.7715113836
 20
19.8387929037
 10
104.7446502869
 20
19.8757471415
 10
104.7185535724
 20
19.9132467878
 10
104.6932229628
 20
19.9512677831
 10
104.6686584457
 20
19.9897861222
 10
104.6448600087
 20
20.0287777996
 10
104.6218276393
 20
20.0682188103
 10
104.5995613252
 20
20.1080851489
 10
104.5780610538
 20
20.1483528101
  0
LINE
  5
3C7
100
AcDbEntity
  8
6_SURFACES-PATINS-SPEC
100
AcDbLine
 62
7
  6
CONTINUOUS
 10
109.0485253548
 20
18.8554593922
 11
109.0707526831
 21
18.8422313992
  0
LINE
  5
3C8
100
AcDbEntity
  8
0
100
AcDbLine
 62
7
  6
CONTINUOUS
 10
103.3656107951
 20
27.9106706736
 11
103.4096959398
 21
27.8843071582
  0
LINE
  5
3C9
100
AcDbEntity
  8
6_SURFACES-PATINS-SPEC
100
AcDbLine
 62
7
  6
CONTINUOUS
 10
119.8295222152
 20
18.9512796274
 11
119.8510618094
 21
18.9380243777
  0
LINE
  5
3CA
100
AcDbEntity
  8
6_SURFACES-PATINS-SPEC
100
AcDbLine
 62
7
  6
CONTINUOUS
 10
110.3251000727
 20
16.1011437752
 11
110.3944267525
 21
16.05625218
  0
LINE
  5
3CB
100
AcDbEntity
  8
6_SURFACES-PATINS-SPEC
100
AcDbLine
 62
7
  6
CONTINUOUS
 10
121.1369360261
 20
16.1011437751
 11
121.2062627059
 21
16.05625218
  0
LINE
  5
3CC
100
AcDbEntity
  8
0
100
AcDbLine
 62
7
  6
CONTINUOUS
 10
101.1520254561
 20
38.6790790536
 11
101.1076903374
 21
38.7084407077
  0
LINE
  5
3CD
100
AcDbEntity
  8
0
100
AcDbLine
 62
7
  6
CONTINUOUS
 10
103.3224301174
 20
27.9407131598
 11
103.3656107951
 21
27.9106706736
  0
LINE
  5
3CE
100
AcDbEntity
  8
6_SURFACES-PATINS-SPEC
100
AcDbLine
 62
7
  6
CONTINUOUS
 10
109.0707526831
 20
18.8422313992
 11
109.0931998336
 21
18.8265909749
  0
LINE
  5
3CF
100
AcDbEntity
  8
6_SURFACES-PATINS-SPEC
100
AcDbLine
 62
7
  6
CONTINUOUS
 10
119.8510618094
 20
18.9380243777
 11
119.8728379848
 21
18.9224185505
  0
LWPOLYLINE
  5
3D0
100
AcDbEntity
  8
0
100
AcDbPolyline
 62
7
  6
CONTINUOUS
 90
39
 70
0
 10
117.5707533141
 20
31.3544802957
 10
117.5985673257
 20
31.3344912149
 10
117.6258348079
 20
31.3137405976
 10
117.652539425
 20
31.2922553675
 10
117.6786648418
 20
31.2700624483
 10
117.7041947226
 20
31.2471887637
 10
117.7297088477
 20
31.2230855522
 10
117.7545791775
 20
31.1983245629
 10
117.7788036711
 20
31.1729337928
 10
117.8023802876
 20
31.1469412386
 10
117.825306986
 20
31.120374897
 10
117.8483865429
 20
31.092259297
 10
117.8707706631
 20
31.0635867204
 10
117.8924645099
 20
31.0343867008
 10
117.9134732467
 20
31.0046887721
 10
117.9338020366
 20
30.9745224681
 10
117.9543486526
 20
30.9424925039
 10
117.9741688241
 20
30.9100095115
 10
117.9932746646
 20
30.8771007794
 10
118.0116782874
 20
30.8437935962
 10
118.029391806
 20
30.8101152503
 10
118.0473086235
 20
30.7742861825
 10
118.0644903169
 20
30.7380998959
 10
118.0809532436
 20
30.7015803198
 10
118.0967137609
 20
30.6647513835
 10
118.1117882263
 20
30.6276370167
 10
118.1269921205
 20
30.5881274039
 10
118.1414667856
 20
30.5483458793
 10
118.155231004
 20
30.5083126134
 10
118.1683035577
 20
30.4680477768
 10
118.1807032293
 20
30.4275715398
 10
118.196111873
 20
30.3737039166
 10
118.2104132403
 20
30.3195324407
 10
118.2236459815
 20
30.2650882777
 10
118.235848747
 20
30.2104025929
 10
118.2476945391
 20
30.1522380262
 10
118.2584657684
 20
30.0938659852
 10
118.2682004781
 20
30.0353150869
 10
118.2769367113
 20
29.9766139487
  0
LINE
  5
3D1
100
AcDbEntity
  8
6_SURFACES-PATINS-SPEC
100
AcDbLine
 62
7
  6
CONTINUOUS
 10
110.2600438645
 20
16.151986858
 11
110.3251000727
 21
16.1011437752
  0
LINE
  5
3D2
100
AcDbEntity
  8
6_SURFACES-PATINS-SPEC
100
AcDbLine
 62
7
  6
CONTINUOUS
 10
121.0718798178
 20
16.151986858
 11
121.1369360261
 21
16.1011437751
  0
LINE
  5
3D3
100
AcDbEntity
  8
0
100
AcDbLine
 62
7
  6
CONTINUOUS
 10
103.2795367709
 20
27.9755914732
 11
103.3224301174
 21
27.9407131598
  0
LINE
  5
3D4
100
AcDbEntity
  8
6_SURFACES-PATINS-SPEC
100
AcDbLine
 62
7
  6
CONTINUOUS
 10
109.0931998336
 20
18.8265909749
 11
109.1153801098
 21
18.8085160092
  0
LINE
  5
3D5
100
AcDbEntity
  8
0
100
AcDbLine
 62
7
  6
CONTINUOUS
 10
101.1929915766
 20
38.6451749753
 11
101.1520254561
 21
38.6790790536
  0
LINE
  5
3D6
100
AcDbEntity
  8
6_SURFACES-PATINS-SPEC
100
AcDbLine
 62
7
  6
CONTINUOUS
 10
119.8728379848
 20
18.9224185505
 11
119.8943562129
 21
18.9044604359
  0
LWPOLYLINE
  5
3D7
100
AcDbEntity
  8
0
100
AcDbPolyline
 62
7
  6
CONTINUOUS
 90
38
 70
0
 10
118.7545948973
 20
19.3733182195
 10
118.7300217223
 20
19.3950433219
 10
118.7061516488
 20
19.4175622237
 10
118.6829814372
 20
19.4408203338
 10
118.660507848
 20
19.4647630611
 10
118.6387276414
 20
19.4893358144
 10
118.6157970091
 20
19.5167453533
 10
118.5936637762
 20
19.5447924518
 10
118.5723073119
 20
19.5734326037
 10
118.5517069856
 20
19.6026213027
 10
118.5318421667
 20
19.6323140427
 10
118.5109655042
 20
19.6652659466
 10
118.4909169559
 20
19.6987273598
 10
118.4716721276
 20
19.7326597851
 10
118.453206625
 20
19.7670247251
 10
118.4354960538
 20
19.8017836826
 10
118.4170279921
 20
19.8400684694
 10
118.3994006682
 20
19.878744963
 10
118.3825872899
 20
19.917782682
 10
118.3665610653
 20
19.9571511447
 10
118.3512952021
 20
19.9968198697
 10
118.3355848138
 20
20.0401023106
 10
118.3207096196
 20
20.0836774191
 10
118.3066438075
 20
20.1275212155
 10
118.2933615657
 20
20.1716097198
 10
118.2808370822
 20
20.2159189525
 10
118.2651698935
 20
20.2757211632
 10
118.2507763542
 20
20.3358414985
 10
118.2376105516
 20
20.3962433822
 10
118.225626573
 20
20.4568902381
 10
118.2141357478
 20
20.5215817793
 10
118.2038887184
 20
20.5864812972
 10
118.1948459925
 20
20.6515613345
 10
118.1869680777
 20
20.7167944338
 10
118.179907206
 20
20.7854433362
 10
118.1740554771
 20
20.8542047841
 10
118.169380702
 20
20.9230527695
 10
118.1658506913
 20
20.9919612843
  0
LINE
  5
3D8
100
AcDbEntity
  8
6_SURFACES-PATINS-SPEC
100
AcDbLine
 62
7
  6
CONTINUOUS
 10
110.1997307423
 20
16.2083224187
 11
110.2600438645
 21
16.151986858
  0
LINE
  5
3D9
100
AcDbEntity
  8
6_SURFACES-PATINS-SPEC
100
AcDbLine
 62
7
  6
CONTINUOUS
 10
121.0115666956
 20
16.2083224187
 11
121.0718798178
 21
16.151986858
  0
LINE
  5
3DA
100
AcDbEntity
  8
6_SURFACES-PATINS-SPEC
100
AcDbLine
 62
7
  6
CONTINUOUS
 10
109.1153801098
 20
18.8085160092
 11
109.1369783771
 21
18.7878973884
  0
LINE
  5
3DB
100
AcDbEntity
  8
0
100
AcDbLine
 62
7
  6
CONTINUOUS
 10
103.2365579373
 20
28.0168604953
 11
103.2795367709
 21
27.9755914732
  0
LINE
  5
3DC
100
AcDbEntity
  8
6_SURFACES-PATINS-SPEC
100
AcDbLine
 62
7
  6
CONTINUOUS
 10
119.8943562129
 20
18.9044604359
 11
119.9153115743
 21
18.8840477368
  0
LINE
  5
3DD
100
AcDbEntity
  8
0
100
AcDbLine
 62
7
  6
CONTINUOUS
 10
115.2677523862
 20
16.7623147991
 11
114.9079441594
 21
17.1221230258
  0
LINE
  5
3DE
100
AcDbEntity
  8
DEFAULT_3
100
AcDbLine
 62
7
  6
PHANTOM
 10
115.3561407338
 20
16.8507031467
 11
114.9963325071
 21
17.2105113735
  0
LINE
  5
3DF
100
AcDbEntity
  8
0
100
AcDbLine
 62
7
  6
CONTINUOUS
 10
101.2301253363
 20
38.6071119581
 11
101.1929915766
 21
38.6451749753
  0
LINE
  5
3E0
100
AcDbEntity
  8
6_SURFACES-PATINS-SPEC
100
AcDbLine
 62
7
  6
CONTINUOUS
 10
110.1446252865
 20
16.269706901
 11
110.1997307423
 21
16.2083224187
  0
LINE
  5
3E1
100
AcDbEntity
  8
6_SURFACES-PATINS-SPEC
100
AcDbLine
 62
7
  6
CONTINUOUS
 10
120.9564612398
 20
16.269706901
 11
121.0115666956
 21
16.2083224187
  0
LINE
  5
3E2
100
AcDbEntity
  8
6_SURFACES-PATINS-SPEC
100
AcDbLine
 62
7
  6
CONTINUOUS
 10
109.1369783771
 20
18.7878973884
 11
109.1576566212
 21
18.7646471262
  0
LINE
  5
3E3
100
AcDbEntity
  8
6_SURFACES-PATINS-SPEC
100
AcDbLine
 62
7
  6
CONTINUOUS
 10
119.9153115743
 20
18.8840477368
 11
119.9353802315
 21
18.8610962536
  0
LINE
  5
3E4
100
AcDbEntity
  8
0
100
AcDbLine
 62
7
  6
CONTINUOUS
 10
103.1935431445
 20
28.0665471944
 11
103.2365579373
 21
28.0168604953
  0
LINE
  5
3E5
100
AcDbEntity
  8
0
100
AcDbLine
 62
7
  6
CONTINUOUS
 10
101.2630067216
 20
38.5653205268
 11
101.2301253363
 21
38.6071119581
  0
LINE
  5
3E6
100
AcDbEntity
  8
6_SURFACES-PATINS-SPEC
100
AcDbLine
 62
7
  6
CONTINUOUS
 10
110.0951843171
 20
16.3357098352
 11
110.1446252865
 21
16.269706901
  0
LINE
  5
3E7
100
AcDbEntity
  8
6_SURFACES-PATINS-SPEC
100
AcDbLine
 62
7
  6
CONTINUOUS
 10
120.9070202705
 20
16.3357098352
 11
120.9564612398
 21
16.269706901
  0
LINE
  5
3E8
100
AcDbEntity
  8
6_SURFACES-PATINS-SPEC
100
AcDbLine
 62
7
  6
CONTINUOUS
 10
109.1576566212
 20
18.7646471262
 11
109.1770447108
 21
18.7387113409
  0
LINE
  5
3E9
100
AcDbEntity
  8
6_SURFACES-PATINS-SPEC
100
AcDbLine
 62
7
  6
CONTINUOUS
 10
119.9353802315
 20
18.8610962536
 11
119.9542076976
 21
18.8355545026
  0
LINE
  5
3EA
100
AcDbEntity
  8
0
100
AcDbLine
 62
7
  6
CONTINUOUS
 10
103.1644532561
 20
28.106666307
 11
103.1935431445
 21
28.0665471944
  0
LINE
  5
3EB
100
AcDbEntity
  8
0
100
AcDbLine
 62
7
  6
CONTINUOUS
 10
103.1644535883
 20
28.106665811
 11
103.1826862488
 21
28.0815169458
  0
LINE
  5
3EC
100
AcDbEntity
  8
0
100
AcDbLine
 62
7
  6
CONTINUOUS
 10
102.9560509988
 20
28.4251295319
 11
103.1644481488
 21
28.1066750687
  0
LINE
  5
3ED
100
AcDbEntity
  8
0
100
AcDbLine
 62
7
  6
CONTINUOUS
 10
101.2912638172
 20
38.5202733771
 11
101.2630067216
 21
38.5653205268
  0
LINE
  5
3EE
100
AcDbEntity
  8
0
100
AcDbLine
 62
7
  6
CONTINUOUS
 10
102.7665933242
 20
28.7285396626
 11
102.9560509988
 21
28.4251295319
  0
LINE
  5
3EF
100
AcDbEntity
  8
6_SURFACES-PATINS-SPEC
100
AcDbLine
 62
7
  6
CONTINUOUS
 10
110.0517420871
 20
16.4057744381
 11
110.0951843171
 21
16.3357098352
  0
LINE
  5
3F0
100
AcDbEntity
  8
6_SURFACES-PATINS-SPEC
100
AcDbLine
 62
7
  6
CONTINUOUS
 10
120.8635780404
 20
16.4057744381
 11
120.9070202705
 21
16.3357098352
  0
LINE
  5
3F1
100
AcDbEntity
  8
6_SURFACES-PATINS-SPEC
100
AcDbLine
 62
7
  6
CONTINUOUS
 10
109.1770447108
 20
18.7387113409
 11
109.1947632171
 21
18.710038987
  0
LINE
  5
3F2
100
AcDbEntity
  8
6_SURFACES-PATINS-SPEC
100
AcDbLine
 62
7
  6
CONTINUOUS
 10
119.9542076976
 20
18.8355545026
 11
119.9714287707
 21
18.807377188
  0
LINE
  5
3F3
100
AcDbEntity
  8
0
100
AcDbLine
 62
7
  6
CONTINUOUS
 10
102.5982753397
 20
29.0115481059
 11
102.7665933242
 21
28.7285396626
  0
LINE
  5
3F4
100
AcDbEntity
  8
0
100
AcDbLine
 62
7
  6
CONTINUOUS
 10
102.4520350319
 20
29.2706533132
 11
102.5982753397
 21
29.0115481059
  0
LINE
  5
3F5
100
AcDbEntity
  8
0
100
AcDbLine
 62
7
  6
CONTINUOUS
 10
102.3286201823
 20
29.5027683475
 11
102.4520350319
 21
29.2706533132
  0
LWPOLYLINE
  5
3F6
100
AcDbEntity
  8
0
100
AcDbPolyline
 62
7
  6
CONTINUOUS
 90
25
 70
0
 10
104.5780667174
 20
20.1483538567
 10
104.5591314389
 20
20.1854011795
 10
104.540813655
 20
20.2227672658
 10
104.5231091402
 20
20.2604360279
 10
104.506013669
 20
20.298391378
 10
104.489523016
 20
20.3366172286
 10
104.4736329556
 20
20.3750974917
 10
104.4583392625
 20
20.4138160799
 10
104.4412539717
 20
20.4592397696
 10
104.4249586647
 20
20.5049476614
 10
104.4094383798
 20
20.5509218525
 10
104.3946781556
 20
20.5971444403
 10
104.3806630305
 20
20.6435975222
 10
104.3673780431
 20
20.6902631954
 10
104.3548203422
 20
20.7370758335
 10
104.3429585259
 20
20.7840689623
 10
104.3317747764
 20
20.8312287848
 10
104.3212512759
 20
20.8785415041
 10
104.3113702065
 20
20.9259933234
 10
104.3021137504
 20
20.9735704457
 10
104.2918149223
 20
21.0307489515
 10
104.2823513011
 20
21.088069953
 10
104.2736861677
 20
21.1455157189
 10
104.2657828031
 20
21.2030685177
 10
104.2586044885
 20
21.2607106182
  0
LINE
  5
3F7
100
AcDbEntity
  8
6_SURFACES-PATINS-SPEC
100
AcDbLine
 62
7
  6
CONTINUOUS
 10
110.0145622204
 20
16.4793194834
 11
110.0517420871
 21
16.4057744381
  0
LINE
  5
3F8
100
AcDbEntity
  8
6_SURFACES-PATINS-SPEC
100
AcDbLine
 62
7
  6
CONTINUOUS
 10
120.8263981737
 20
16.4793194834
 11
120.8635780404
 21
16.4057744381
  0
LINE
  5
3F9
100
AcDbEntity
  8
6_SURFACES-PATINS-SPEC
100
AcDbLine
 62
7
  6
CONTINUOUS
 10
109.1947632171
 20
18.710038987
 11
109.2103924567
 21
18.6786142686
  0
LINE
  5
3FA
100
AcDbEntity
  8
6_SURFACES-PATINS-SPEC
100
AcDbLine
 62
7
  6
CONTINUOUS
 10
119.9714287707
 20
18.807377188
 11
119.9866419805
 21
18.7765530715
  0
LINE
  5
3FB
100
AcDbEntity
  8
0
100
AcDbLine
 62
7
  6
CONTINUOUS
 10
102.2283140616
 20
29.7061867161
 11
102.3286201823
 21
29.5027683475
  0
LINE
  5
3FC
100
AcDbEntity
  8
0
100
AcDbLine
 62
7
  6
CONTINUOUS
 10
101.3145770122
 20
38.4724800296
 11
101.2912638172
 21
38.5202733771
  0
LWPOLYLINE
  5
3FD
100
AcDbEntity
  8
0
100
AcDbPolyline
 62
7
  6
CONTINUOUS
 90
29
 70
0
 10
119.5726747977
 20
20.1207253983
 10
119.5860296298
 20
20.0916805198
 10
119.5998562286
 20
20.0628487554
 10
119.6141558594
 20
20.0342425681
 10
119.6289297875
 20
20.0058744213
 10
119.6441792783
 20
19.9777567781
 10
119.659905597
 20
19.9499021019
 10
119.676110009
 20
19.9223228558
 10
119.6918504699
 20
19.8965459866
 10
119.7080187465
 20
19.8710366619
 10
119.7246152785
 20
19.8458057525
 10
119.7416405056
 20
19.8208641291
 10
119.7590948674
 20
19.7962226626
 10
119.7769788037
 20
19.7718922238
 10
119.7952927541
 20
19.7478836834
 10
119.8130508255
 20
19.725431557
 10
119.8311938264
 20
19.7032883309
 10
119.8497198627
 20
19.6814638651
 10
119.8686270403
 20
19.6599680198
 10
119.8879134653
 20
19.6388106551
 10
119.9075772437
 20
19.6180016311
 10
119.9276164814
 20
19.597550808
 10
119.9470960772
 20
19.5783696062
 10
119.9669105464
 20
19.5595331129
 10
119.987054268
 20
19.5410505595
 10
120.0075216215
 20
19.5229311776
 10
120.0283069861
 20
19.5051841988
 10
120.0494047409
 20
19.4878188543
 10
120.0708092653
 20
19.4708443759
  0
LINE
  5
3FE
100
AcDbEntity
  8
0
100
AcDbLine
 62
7
  6
CONTINUOUS
 10
102.1504202351
 20
29.8831969041
 11
102.2283140616
 21
29.7061867161
  0
LINE
  5
3FF
100
AcDbEntity
  8
6_SURFACES-PATINS-SPEC
100
AcDbLine
 62
7
  6
CONTINUOUS
 10
109.9880470112
 20
16.5443359576
 11
110.0145622204
 21
16.4793194834
  0
LINE
  5
400
100
AcDbEntity
  8
6_SURFACES-PATINS-SPEC
100
AcDbLine
 62
7
  6
CONTINUOUS
 10
120.7998829646
 20
16.5443359576
 11
120.8263981737
 21
16.4793194834
  0
LINE
  5
401
100
AcDbEntity
  8
0
100
AcDbLine
 62
7
  6
CONTINUOUS
 10
102.1504711302
 20
29.8830737343
 11
102.1504212554
 21
29.8831973158
  0
LINE
  5
402
100
AcDbEntity
  8
6_SURFACES-PATINS-SPEC
100
AcDbLine
 62
7
  6
CONTINUOUS
 10
109.2103924567
 20
18.6786142686
 11
109.219551061
 21
18.6558007378
  0
LINE
  5
403
100
AcDbEntity
  8
6_SURFACES-PATINS-SPEC
100
AcDbLine
 62
7
  6
CONTINUOUS
 10
119.9866419805
 20
18.7765530715
 11
119.9954891654
 21
18.7544476643
  0
LWPOLYLINE
  5
404
100
AcDbEntity
  8
0
100
AcDbPolyline
 62
7
  6
CONTINUOUS
 90
22
 70
0
 10
102.1086012963
 20
30.0507447577
 10
102.1068607576
 20
30.0551777604
 10
102.1051647714
 20
30.0596283419
 10
102.103515811
 20
30.0640966964
 10
102.10191635
 20
30.068583018
 10
102.1003688618
 20
30.0730875008
 10
102.0990127705
 20
30.077188278
 10
102.0977046904
 20
30.081304572
 10
102.0964478582
 20
30.0854368048
 10
102.0952455103
 20
30.0895853985
 10
102.0941008833
 20
30.0937507751
 10
102.0932820256
 20
30.0968882775
 10
102.0925009984
 20
30.1000355067
 10
102.0917612949
 20
30.1031924978
 10
102.0910664084
 20
30.1063592861
 10
102.0904198321
 20
30.1095359068
 10
102.0898250594
 20
30.1127223951
 10
102.0892438096
 20
30.1161707792
 10
102.0887210108
 20
30.1196288539
 10
102.0882507586
 20
30.1230947846
 10
102.0878271488
 20
30.1265667368
 10
102.0874442772
 20
30.130042876
  0
LWPOLYLINE
  5
405
100
AcDbEntity
  8
6_SURFACES-PATINS-SPEC
100
AcDbPolyline
 62
7
  6
CONTINUOUS
 90
49
 70
0
 10
110.0030615655
 20
16.5443359576
 10
110.0113522395
 20
16.5220532109
 10
110.020206047
 20
16.4999772115
 10
110.0296154483
 20
16.4781239872
 10
110.0395729033
 20
16.4565095662
 10
110.0500708723
 20
16.4351499764
 10
110.0611018155
 20
16.4140612459
 10
110.0726321795
 20
16.3933047345
 10
110.0846792857
 20
16.3728469703
 10
110.0972367695
 20
16.3527010841
 10
110.1102982665
 20
16.3328802068
 10
110.123857412
 20
16.313397469
 10
110.1379078417
 20
16.2942660018
 10
110.1524053426
 20
16.2755453949
 10
110.1673748772
 20
16.2571987579
 10
110.1828059955
 20
16.2392374901
 10
110.1986882476
 20
16.2216729906
 10
110.2150111837
 20
16.2045166588
 10
110.2317643538
 20
16.1877798938
 10
110.2488919802
 20
16.1715160294
 10
110.2664266369
 20
16.1556922377
 10
110.2843577551
 20
16.1403198688
 10
110.3026747662
 20
16.1254102728
 10
110.3213671015
 20
16.1109747998
 10
110.3404241924
 20
16.0970247998
 10
110.3597863506
 20
16.0836037892
 10
110.3794874399
 20
16.070684763
 10
110.3995139611
 20
16.0582753464
 10
110.4198524147
 20
16.0463831643
 10
110.4404893013
 20
16.0350158416
 10
110.4614111215
 20
16.0241810034
 10
110.4825593555
 20
16.0139073795
 10
110.503963869
 20
16.0041791175
 10
110.5256106495
 20
15.9950037431
 10
110.5474856845
 20
15.9863887816
 10
110.5695749616
 20
15.9783417589
 10
110.5918644684
 20
15.9708702004
 10
110.6143053339
 20
15.9639910073
 10
110.6369171136
 20
15.9576958525
 10
110.6596850772
 20
15.9519875776
 10
110.6825944945
 20
15.9468690243
 10
110.7056306351
 20
15.9423430341
 10
110.7287787688
 20
15.9384124487
 10
110.7520056302
 20
15.9350823895
 10
110.7753112388
 20
15.9323521664
 10
110.7986772286
 20
15.9302242899
 10
110.8220852335
 20
15.9287012701
 10
110.8455168875
 20
15.9277856174
 10
110.8689538246
 20
15.927479842
  0
LINE
  5
406
100
AcDbEntity
  8
6_SURFACES-PATINS-SPEC
100
AcDbLine
 62
7
  6
CONTINUOUS
 10
120.5538086153
 20
17.219519609
 11
120.7998829648
 21
16.5443359576
  0
LINE
  5
407
100
AcDbEntity
  8
6_SURFACES-PATINS-SPEC
100
AcDbLine
 62
7
  6
CONTINUOUS
 10
109.7563093549
 20
17.1804423733
 11
109.9880470113
 21
16.5443359576
  0
LINE
  5
408
100
AcDbEntity
  8
6_SURFACES-PATINS-SPEC
100
AcDbLine
 62
7
  6
CONTINUOUS
 10
109.4968039581
 20
17.8935919876
 11
109.7563093549
 21
17.1804423733
  0
LINE
  5
409
100
AcDbEntity
  8
6_SURFACES-PATINS-SPEC
100
AcDbLine
 62
7
  6
CONTINUOUS
 10
109.2195512034
 20
18.6558002369
 11
109.4968039581
 21
17.8935919876
  0
LINE
  5
40A
100
AcDbEntity
  8
6_SURFACES-PATINS-SPEC
100
AcDbLine
 62
7
  6
CONTINUOUS
 10
120.2786535012
 20
17.9758078826
 11
120.5538086153
 21
17.219519609
  0
LINE
  5
40B
100
AcDbEntity
  8
6_SURFACES-PATINS-SPEC
100
AcDbLine
 62
7
  6
CONTINUOUS
 10
119.9954884938
 20
18.7544494206
 11
120.2786535012
 21
17.9758078826
  0
LINE
  5
40C
100
AcDbEntity
  8
0
100
AcDbLine
 62
7
  6
CONTINUOUS
 10
101.332682615
 20
38.4224810667
 11
101.3145770122
 21
38.4724800296
  0
LINE
  5
40D
100
AcDbEntity
  8
0
100
AcDbLine
 62
7
  6
CONTINUOUS
 10
102.1177276438
 20
29.9769253046
 11
102.1504711302
 21
29.8830737343
  0
LWPOLYLINE
  5
40E
100
AcDbEntity
  8
6_SURFACES-PATINS-SPEC
100
AcDbPolyline
 62
7
  6
CONTINUOUS
 90
40
 70
0
 10
109.2195510071
 20
18.6558007548
 10
109.2195219262
 20
18.6559000278
 10
109.2195053824
 20
18.656002919
 10
109.2195019034
 20
18.6561071761
 10
109.2195120171
 20
18.6562105469
 10
109.2195385482
 20
18.6563197914
 10
109.2195792698
 20
18.6564248191
 10
109.2196316519
 20
18.6565251297
 10
109.2196931643
 20
18.6566202229
 10
109.2197817707
 20
18.6567338887
 10
109.2198793911
 20
18.6568392908
 10
109.2199842258
 20
18.6569375331
 10
109.2200944748
 20
18.6570297198
 10
109.2202939313
 20
18.6571776474
 10
109.2205018781
 20
18.6573132355
 10
109.220715981
 20
18.6574389728
 10
109.2210207836
 20
18.6576014541
 10
109.2213319643
 20
18.6577512845
 10
109.2216484929
 20
18.6578900818
 10
109.2219693395
 20
18.6580194635
 10
109.2222934739
 20
18.6581410473
 10
109.2226198661
 20
18.6582564508
 10
109.22330995
 20
18.6584839543
 10
109.2240047275
 20
18.6586939579
 10
109.2247034712
 20
18.6588891075
 10
109.2254054534
 20
18.6590720492
 10
109.2263178551
 20
18.659294406
 10
109.2272337724
 20
18.6595027228
 10
109.2281525138
 20
18.6596989797
 10
109.2290733877
 20
18.6598851568
 10
109.2302083994
 20
18.6601028979
 10
109.2313453415
 20
18.6603096329
 10
109.2324839635
 20
18.660506615
 10
109.2336240147
 20
18.6606950979
 10
109.2354327073
 20
18.6609789388
 10
109.237243877
 20
18.6612468418
 10
109.2390570423
 20
18.6615010585
 10
109.2411604022
 20
18.6617812291
 10
109.2432655141
 20
18.6620477191
 10
109.2453720965
 20
18.6623022072
  0
LINE
  5
40F
100
AcDbEntity
  8
0
100
AcDbLine
 62
7
  6
CONTINUOUS
 10
101.3453758362
 20
38.3708420176
 11
101.332682615
 21
38.4224810667
  0
LINE
  5
410
100
AcDbEntity
  8
0
100
AcDbLine
 62
7
  6
CONTINUOUS
 10
102.0911883272
 20
30.0993164413
 11
102.1177276438
 21
29.9769253046
  0
LINE
  5
411
100
AcDbEntity
  8
0
100
AcDbLine
 62
7
  6
CONTINUOUS
 10
101.6337758252
 20
35.277479842
 11
101.6778604547
 21
35.0663878378
  0
LINE
  5
412
100
AcDbEntity
  8
0
100
AcDbLine
 62
7
  6
CONTINUOUS
 10
101.6778604547
 20
35.0663878378
 11
101.7528754693
 21
34.7065075964
  0
LWPOLYLINE
  5
413
100
AcDbEntity
  8
DEFAULT_3
100
AcDbPolyline
 62
7
  6
PHANTOM
 90
77
 70
0
 10
128.0881734624
 20
32.4468083441
 10
128.093871575
 20
32.414761794
 10
128.1007726407
 20
32.3829620428
 10
128.1088638383
 20
32.3514632107
 10
128.1181323467
 20
32.3203194178
 10
128.1285640198
 20
32.289584327
 10
128.1401394127
 20
32.259309772
 10
128.1528377558
 20
32.2295471292
 10
128.1666382794
 20
32.2003477751
 10
128.181518985
 20
32.1717623854
 10
128.1974529592
 20
32.1438388332
 10
128.2144120599
 20
32.1166242906
 10
128.2323681448
 20
32.0901659302
 10
128.2512919705
 20
32.0645100117
 10
128.2711498887
 20
32.0396991449
 10
128.2919071497
 20
32.0157750273
 10
128.3135290039
 20
31.9927793561
 10
128.3359797585
 20
31.970752726
 10
128.3592199483
 20
31.9497313203
 10
128.3832091649
 20
31.9297502197
 10
128.4079069997
 20
31.910844505
 10
128.4332722848
 20
31.8930479948
 10
128.4592608146
 20
31.8763894593
 10
128.4858276237
 20
31.8608964069
 10
128.5129277468
 20
31.8465963459
 10
128.5405156637
 20
31.8335153974
 10
128.5685436339
 20
31.8216741336
 10
128.596963362
 20
31.8110917399
 10
128.6257265526
 20
31.8017874013
 10
128.6547845748
 20
31.7937788287
 10
128.6840874557
 20
31.7870778354
 10
128.7135848869
 20
31.7816947602
 10
128.7432265602
 20
31.7776399421
 10
128.7729620605
 20
31.7749221984
 10
128.8027405457
 20
31.7735442612
 10
128.8325110669
 20
31.773507341
 10
128.8622226753
 20
31.7748126482
 10
128.8918245469
 20
31.7774598665
 10
128.921266357
 20
31.7814425719
 10
128.9504979061
 20
31.7867528137
 10
128.9794689944
 20
31.7933826408
 10
129.0081297753
 20
31.8013226118
 10
129.0364318145
 20
31.8105573221
 10
129.0643270308
 20
31.8210698762
 10
129.0917673432
 20
31.8328433789
 10
129.118705242
 20
31.845859521
 10
129.1450955046
 20
31.8600943372
 10
129.1708934796
 20
31.8755224488
 10
129.1960545159
 20
31.8921184766
 10
129.220534737
 20
31.9098557431
 10
129.2442933651
 20
31.9287023766
 10
129.2672903971
 20
31.9486252068
 10
129.2894858298
 20
31.9695910633
 10
129.3108406166
 20
31.9915656281
 10
129.331319537
 20
32.014509992
 10
129.350888327
 20
32.038384098
 10
129.3695127226
 20
32.0631478893
 10
129.3871595722
 20
32.0887603431
 10
129.4038001733
 20
32.1151765746
 10
129.4194069357
 20
32.142350733
 10
129.4339522691
 20
32.1702369679
 10
129.4474098213
 20
32.1987886712
 10
129.4597581907
 20
32.2279562056
 10
129.4709772137
 20
32.2576891763
 10
129.4810467266
 20
32.2879371885
 10
129.4899478952
 20
32.31864932
 10
129.4976672022
 20
32.3497725383
 10
129.5041924601
 20
32.3812532835
 10
129.5095114809
 20
32.4130379955
 10
129.5136134621
 20
32.4450728278
 10
129.5164931416
 20
32.4773027869
 10
129.5181466425
 20
32.5096725929
 10
129.5185700878
 20
32.5421269656
 10
129.5177610018
 20
32.5746105994
 10
129.5157225136
 20
32.6070680865
 10
129.5124591536
 20
32.6394439937
 10
129.507975452
 20
32.6716828876
  0
LINE
  5
414
100
AcDbEntity
  8
DEFAULT_3
100
AcDbLine
 62
7
  6
PHANTOM
 10
128.0451539846
 20
32.7184226377
 11
128.0881734624
 21
32.4468083441
  0
LINE
  5
415
100
AcDbEntity
  8
DEFAULT_3
100
AcDbLine
 62
7
  6
PHANTOM
 10
129.507975452
 20
32.6716828876
 11
129.4845102823
 21
32.8198361387
  0
LINE
  5
416
100
AcDbEntity
  8
0
100
AcDbLine
 62
7
  6
CONTINUOUS
 10
101.3514306732
 20
38.3297434821
 11
101.3453758362
 21
38.3708420176
  0
LINE
  5
417
100
AcDbEntity
  8
0
100
AcDbLine
 62
7
  6
CONTINUOUS
 10
118.2769367113
 20
29.9766139487
 11
119.3939903871
 21
22.0192613588
  0
LWPOLYLINE
  5
418
100
AcDbEntity
  8
0
100
AcDbPolyline
 62
7
  6
CONTINUOUS
 90
29
 70
0
 10
114.2082433694
 20
21.5602559175
 10
114.2154693232
 20
21.5044226559
 10
114.2217326156
 20
21.4484580322
 10
114.2270174164
 20
21.3923816959
 10
114.2313078955
 20
21.3362132964
 10
114.2345882225
 20
21.2799724832
 10
114.2368425672
 20
21.2236789056
 10
114.2380550995
 20
21.1673522131
 10
114.2382220295
 20
21.1129648493
 10
114.2373863717
 20
21.0585854347
 10
114.2355311517
 20
21.0042344666
 10
114.2326393948
 20
20.9499324427
 10
114.2286941266
 20
20.8956998604
 10
114.2236783727
 20
20.8415572172
 10
114.2175751584
 20
20.7875250106
 10
114.2107990129
 20
20.7366317052
 10
114.2030212096
 20
20.685879628
 10
114.1942245988
 20
20.6352932909
 10
114.1843920304
 20
20.5848972057
 10
114.1735063545
 20
20.5347158843
 10
114.1615504211
 20
20.4847738385
 10
114.1485070802
 20
20.4350955801
 10
114.1353911581
 20
20.3891713194
 10
114.1213100951
 20
20.3435295353
 10
114.1062534137
 20
20.2982035287
 10
114.0902106362
 20
20.2532266006
 10
114.0731712851
 20
20.208632052
 10
114.0551248826
 20
20.1644531838
 10
114.0360609511
 20
20.1207232972
  0
LINE
  5
419
100
AcDbEntity
  8
0
100
AcDbLine
 62
7
  6
CONTINUOUS
 10
101.4594804002
 20
37.3331239644
 11
101.456578757
 21
37.3575102857
  0
LINE
  5
41A
100
AcDbEntity
  8
0
100
AcDbLine
 62
7
  6
CONTINUOUS
 10
101.456578757
 20
37.3575102857
 11
101.4352922518
 21
37.5433645121
  0
LINE
  5
41B
100
AcDbEntity
  8
0
100
AcDbLine
 62
7
  6
CONTINUOUS
 10
102.0891950326
 20
30.1169968085
 11
102.0911883272
 21
30.0993164413
  0
LINE
  5
41C
100
AcDbEntity
  8
0
100
AcDbLine
 62
7
  6
CONTINUOUS
 10
101.4352922518
 20
37.5433645121
 11
101.4139433962
 21
37.7358434239
  0
ARC
  5
41D
100
AcDbEntity
  8
6_SURFACES-PATINS-SPEC
100
AcDbCircle
 62
7
  6
CONTINUOUS
 10
111.9278969434
 20
-94.6152118101
 40
113.6834553632
100
AcDbArc
 50
89.8582438538
 51
90.1417559411
  0
ARC
  5
41E
100
AcDbEntity
  8
6_SURFACES-PATINS-SPEC
100
AcDbCircle
 62
7
  6
CONTINUOUS
 10
111.9278969055
 20
-93.3344600774
 40
112.3714624493
100
AcDbArc
 50
89.856588765
 51
90.1434109936
  0
ARC
  5
41F
100
AcDbEntity
  8
0
100
AcDbCircle
 62
7
  6
CONTINUOUS
 10
107.7910947131
 20
13.6707604534
 40
5.3271344238
100
AcDbArc
 50
99.0373453695
 51
100.3428050019
  0
ARC
  5
420
100
AcDbEntity
  8
0
100
AcDbCircle
 62
7
  6
CONTINUOUS
 10
106.6127947318
 20
20.2600302042
 40
2.5937500001
100
AcDbArc
 50
186.0000010879
 51
266.496479786
  0
ARC
  5
421
100
AcDbEntity
  8
DEFAULT_3
100
AcDbCircle
 62
7
  6
PHANTOM
 10
106.6127947318
 20
20.2600302042
 40
2.4687500001
100
AcDbArc
 50
186.0000010184
 51
266.4964786558
  0
ARC
  5
422
100
AcDbEntity
  8
6_SURFACES-PATINS-SPEC
100
AcDbCircle
 62
7
  6
CONTINUOUS
 10
109.0838091973
 20
21.1843985591
 40
2.2954960555
100
AcDbArc
 50
266.374686402
 51
266.5104951845
  0
ARC
  5
423
100
AcDbEntity
  8
6_SURFACES-PATINS-SPEC
100
AcDbCircle
 62
7
  6
CONTINUOUS
 10
109.0671228255
 20
20.9205958781
 40
2.0311661695
100
AcDbArc
 50
266.1889120199
 51
266.3739065886
  0
ARC
  5
424
100
AcDbEntity
  8
0
100
AcDbCircle
 62
7
  6
CONTINUOUS
 10
102.728851591
 20
30.1165673796
 40
0.6237331072
100
AcDbArc
 50
186.0577085276
 51
201.9718118229
  0
ARC
  5
425
100
AcDbEntity
  8
DEFAULT_3
100
AcDbCircle
 62
7
  6
PHANTOM
 10
100.8541620545
 20
38.277479842
 40
0.5
100
AcDbArc
 50
5.9999927388
 51
90.0000036279
  0
ARC
  5
426
100
AcDbEntity
  8
0
100
AcDbCircle
 62
7
  6
CONTINUOUS
 10
100.8541696632
 20
38.277479842
 40
0.5
100
AcDbArc
 50
5.9999318427
 51
90.0
  0
ARC
  5
427
100
AcDbEntity
  8
DEFAULT_3
100
AcDbCircle
 62
7
  6
PHANTOM
 10
102.6997070589
 20
30.2850639247
 40
0.499999999
100
AcDbArc
 50
186.0000162973
 51
268.8192542947
  0
ARC
  5
428
100
AcDbEntity
  8
DEFAULT_3
100
AcDbCircle
 62
7
  6
PHANTOM
 10
102.6791005056
 20
29.2852762688
 40
0.4999999978
100
AcDbArc
 50
6.0000028357
 51
88.8192414819
  0
ARC
  5
429
100
AcDbEntity
  8
0
100
AcDbCircle
 62
7
  6
CONTINUOUS
 10
100.8549915398
 20
38.2586113493
 40
0.4999795987
100
AcDbArc
 50
6.1038956321
 51
90.0028091714
  0
ARC
  5
42A
100
AcDbEntity
  8
0
100
AcDbCircle
 62
7
  6
CONTINUOUS
 10
115.5329174291
 20
17.027479842
 40
0.375
100
AcDbArc
 50
225.0
 51
270.0
  0
ARC
  5
42B
100
AcDbEntity
  8
6_SURFACES-PATINS-SPEC
100
AcDbCircle
 62
7
  6
CONTINUOUS
 10
113.9273139006
 20
18.6330440856
 40
0.3616088973
100
AcDbArc
 50
89.8083831164
 51
94.4682136423
  0
ARC
  5
42C
100
AcDbEntity
  8
6_SURFACES-PATINS-SPEC
100
AcDbCircle
 62
7
  6
CONTINUOUS
 10
112.0458469092
 20
15.9507403698
 40
0.2723477237
100
AcDbArc
 50
89.4109853537
 51
89.999975251
  0
ARC
  5
42D
100
AcDbEntity
  8
DEFAULT_3
100
AcDbCircle
 62
7
  6
PHANTOM
 10
104.3711398844
 20
32.7807275242
 40
0.2500000005
100
AcDbArc
 50
81.0000009542
 51
171.0000005545
  0
ARC
  5
42E
100
AcDbEntity
  8
DEFAULT_3
100
AcDbCircle
 62
7
  6
PHANTOM
 10
115.5329174291
 20
17.027479842
 40
0.25
100
AcDbArc
 50
225.0
 51
270.0
  0
ARC
  5
42F
100
AcDbEntity
  8
DEFAULT_3
100
AcDbCircle
 62
7
  6
PHANTOM
 10
114.8195558118
 20
17.0337346782
 40
0.25
100
AcDbArc
 50
45.0000000094
 51
86.496468347
  0
ARC
  5
430
100
AcDbEntity
  8
0
100
AcDbCircle
 62
7
  6
CONTINUOUS
 10
97.3396571544
 20
38.527479842
 40
0.25
100
AcDbArc
 50
89.9999999998
 51
174.9999999982
  0
ARC
  5
431
100
AcDbEntity
  8
DEFAULT_3
100
AcDbCircle
 62
7
  6
PHANTOM
 10
105.4401130514
 20
32.7379769466
 40
0.125
100
AcDbArc
 50
350.999999574
 51
81.0000006034
  0
ARC
  5
432
100
AcDbEntity
  8
0
100
AcDbCircle
 62
7
  6
CONTINUOUS
 10
114.8195558118
 20
17.0337346782
 40
0.125
100
AcDbArc
 50
45.0
 51
86.4964683552
  0
ARC
  5
433
100
AcDbEntity
  8
0
100
AcDbCircle
 62
7
  6
CONTINUOUS
 10
106.2569118285
 20
277.5892257262
 40
258.5382164209
100
AcDbArc
 50
271.6761466394
 51
271.7996354492
  0
ARC
  5
434
100
AcDbEntity
  8
6_SURFACES-PATINS-SPEC
100
AcDbCircle
 62
7
  6
CONTINUOUS
 10
121.6808311479
 20
-94.6152111455
 40
113.6834546986
100
AcDbArc
 50
89.8582440636
 51
90.1417561527
  0
ARC
  5
435
100
AcDbEntity
  8
6_SURFACES-PATINS-SPEC
100
AcDbCircle
 62
7
  6
CONTINUOUS
 10
121.6808311829
 20
-93.3344596942
 40
112.3714620661
100
AcDbArc
 50
89.8565890116
 51
90.1434112412
  0
ARC
  5
436
100
AcDbEntity
  8
0
100
AcDbCircle
 62
7
  6
CONTINUOUS
 10
119.4993327614
 20
22.1099331825
 40
9.9061268885
100
AcDbArc
 50
352.920380758
 51
353.82325711
  0
ARC
  5
437
100
AcDbEntity
  8
0
100
AcDbCircle
 62
7
  6
CONTINUOUS
 10
125.8176333639
 20
13.6707604534
 40
5.3271344238
100
AcDbArc
 50
79.6571949981
 51
80.9626546305
  0
ARC
  5
438
100
AcDbEntity
  8
0
100
AcDbCircle
 62
7
  6
CONTINUOUS
 10
126.9959333452
 20
20.2600302042
 40
2.5937500001
100
AcDbArc
 50
273.503520214
 51
353.9999989121
  0
ARC
  5
439
100
AcDbEntity
  8
DEFAULT_3
100
AcDbCircle
 62
7
  6
PHANTOM
 10
126.9959333452
 20
20.2600302042
 40
2.4687500001
100
AcDbArc
 50
273.5035213445
 51
353.9999989821
  0
ARC
  5
43A
100
AcDbEntity
  8
6_SURFACES-PATINS-SPEC
100
AcDbCircle
 62
7
  6
CONTINUOUS
 10
124.5275672933
 20
21.1418177106
 40
2.2528329535
100
AcDbArc
 50
273.4905221926
 51
273.6265682688
  0
ARC
  5
43B
100
AcDbEntity
  8
6_SURFACES-PATINS-SPEC
100
AcDbCircle
 62
7
  6
CONTINUOUS
 10
124.5449338413
 20
20.8693693604
 40
1.9798316907
100
AcDbArc
 50
273.6237173037
 51
273.8174480542
  0
ARC
  5
43C
100
AcDbEntity
  8
0
100
AcDbCircle
 62
7
  6
CONTINUOUS
 10
130.8798764861
 20
30.1165673796
 40
0.6237331072
100
AcDbArc
 50
338.028188177
 51
353.9422914724
  0
ARC
  5
43D
100
AcDbEntity
  8
DEFAULT_3
100
AcDbCircle
 62
7
  6
PHANTOM
 10
132.7545660226
 20
38.277479842
 40
0.5
100
AcDbArc
 50
89.9999963683
 51
174.0000072574
  0
ARC
  5
43E
100
AcDbEntity
  8
0
100
AcDbCircle
 62
7
  6
CONTINUOUS
 10
132.7545584139
 20
38.277479842
 40
0.5
100
AcDbArc
 50
90.0
 51
174.0000681573
  0
ARC
  5
43F
100
AcDbEntity
  8
DEFAULT_3
100
AcDbCircle
 62
7
  6
PHANTOM
 10
130.9090210182
 20
30.2850639247
 40
0.499999999
100
AcDbArc
 50
271.1807457068
 51
353.9999837028
  0
ARC
  5
440
100
AcDbEntity
  8
DEFAULT_3
100
AcDbCircle
 62
7
  6
PHANTOM
 10
130.9296275714
 20
29.2852762688
 40
0.4999999978
100
AcDbArc
 50
91.1807585165
 51
173.9999971676
  0
ARC
  5
441
100
AcDbEntity
  8
0
100
AcDbCircle
 62
7
  6
CONTINUOUS
 10
132.753736519
 20
38.2586113696
 40
0.4999795987
100
AcDbArc
 50
89.9971887343
 51
173.8961064634
  0
ARC
  5
442
100
AcDbEntity
  8
0
100
AcDbCircle
 62
7
  6
CONTINUOUS
 10
118.0758106479
 20
17.027479842
 40
0.375
100
AcDbArc
 50
270.0
 51
315.0
  0
ARC
  5
443
100
AcDbEntity
  8
6_SURFACES-PATINS-SPEC
100
AcDbCircle
 62
7
  6
CONTINUOUS
 10
119.6814091889
 20
18.6329596287
 40
0.3616934861
100
AcDbArc
 50
85.1814874287
 51
85.6342800458
  0
ARC
  5
444
100
AcDbEntity
  8
6_SURFACES-PATINS-SPEC
100
AcDbCircle
 62
7
  6
CONTINUOUS
 10
119.6814145939
 20
18.6330564697
 40
0.3615965146
100
AcDbArc
 50
85.6339659179
 51
90.1916895821
  0
ARC
  5
445
100
AcDbEntity
  8
DEFAULT_3
100
AcDbCircle
 62
7
  6
PHANTOM
 10
129.2375881927
 20
32.7807275242
 40
0.2500000005
100
AcDbArc
 50
8.9999994455
 51
98.9999990458
  0
ARC
  5
446
100
AcDbEntity
  8
DEFAULT_3
100
AcDbCircle
 62
7
  6
PHANTOM
 10
118.7891722653
 20
17.0337346782
 40
0.25
100
AcDbArc
 50
93.5035316542
 51
134.9999999918
  0
ARC
  5
447
100
AcDbEntity
  8
DEFAULT_3
100
AcDbCircle
 62
7
  6
PHANTOM
 10
118.0758106479
 20
17.027479842
 40
0.25
100
AcDbArc
 50
270.0
 51
315.0
  0
ARC
  5
448
100
AcDbEntity
  8
0
100
AcDbCircle
 62
7
  6
CONTINUOUS
 10
136.2690709227
 20
38.527479842
 40
0.25
100
AcDbArc
 50
5.0000000018
 51
90.0000000002
  0
ARC
  5
449
100
AcDbEntity
  8
DEFAULT_3
100
AcDbCircle
 62
7
  6
PHANTOM
 10
128.1686150257
 20
32.7379769466
 40
0.125
100
AcDbArc
 50
98.9999993966
 51
189.000000426
  0
ARC
  5
44A
100
AcDbEntity
  8
0
100
AcDbCircle
 62
7
  6
CONTINUOUS
 10
118.7891722653
 20
17.0337346782
 40
0.125
100
AcDbArc
 50
93.5035316448
 51
135.0
  0
ARC
  5
44B
100
AcDbEntity
  8
0
100
AcDbCircle
 62
7
  6
CONTINUOUS
 10
127.3518162486
 20
277.589225727
 40
258.5382164217
100
AcDbArc
 50
268.2003645508
 51
268.3238533606
  0
ENDSEC
  0
SECTION
  2
OBJECTS
  0
DICTIONARY
  5
44C
100
AcDbDictionary
  3
ACAD_GROUP
350
44D
  3
ACAD_MLINESTYLE
350
44E
  0
DICTIONARY
  5
44D
102
{ACAD_REACTORS
330
44C
102
}
100
AcDbDictionary
  0
DICTIONARY
  5
44E
102
{ACAD_REACTORS
330
44C
102
}
100
AcDbDictionary
  3
STANDARD
350
44F
  0
MLINESTYLE
  5
44F
102
{ACAD_REACTORS
330
44E
102
}
100
AcDbMlineStyle
  2
STANDARD
 70
0
  3

 62
256
 51
90.0
 52
90.0
 71
2
 49
0.5
 62
256
  6
BYLAYER
 49
-0.5
 62
256
  6
BYLAYER
  0
ENDSEC
  0
EOF
