  0
SECTION
  2
HEADER
  9
$ACADVER
  1
AC1014
  9
$ACADMAINTVER
 70
     9
  9
$DWGCODEPAGE
  3
ANSI_1252
  9
$INSBASE
 10
142.8450426817401
 20
59.06099198785674
 30
0.0
  9
$EXTMIN
 10
124.4840631659734
 20
40.42601178250499
 30
-0.0000000349181948
  9
$EXTMAX
 10
161.2084357546335
 20
62.93505519699142
 30
0.0000000814935746
  9
$LIMMIN
 10
0.0
 20
0.0
  9
$LIMMAX
 10
100.5024158491978
 20
51.69854817198938
  9
$ORTHOMODE
 70
     1
  9
$REGENMODE
 70
     1
  9
$FILLMODE
 70
     1
  9
$QTEXTMODE
 70
     0
  9
$MIRRTEXT
 70
     1
  9
$DRAGMODE
 70
     2
  9
$LTSCALE
 40
2.0
  9
$OSMODE
 70
    55
  9
$ATTMODE
 70
     1
  9
$TEXTSIZE
 40
0.06
  9
$TRACEWID
 40
1.0
  9
$TEXTSTYLE
  7
CARTOUCHE
  9
$CLAYER
  8
0
  9
$CELTYPE
  6
BYLAYER
  9
$CECOLOR
 62
   256
  9
$CELTSCALE
 40
1.0
  9
$DELOBJ
 70
     1
  9
$DISPSILH
 70
     0
  9
$DIMSCALE
 40
16.0
  9
$DIMASZ
 40
0.1
  9
$DIMEXO
 40
0.0625
  9
$DIMDLI
 40
0.25
  9
$DIMRND
 40
0.0
  9
$DIMDLE
 40
0.0
  9
$DIMEXE
 40
0.1
  9
$DIMTP
 40
0.0
  9
$DIMTM
 40
0.0
  9
$DIMTXT
 40
0.1
  9
$DIMCEN
 40
0.09
  9
$DIMTSZ
 40
0.0
  9
$DIMTOL
 70
     0
  9
$DIMLIM
 70
     0
  9
$DIMTIH
 70
     1
  9
$DIMTOH
 70
     1
  9
$DIMSE1
 70
     0
  9
$DIMSE2
 70
     0
  9
$DIMTAD
 70
     0
  9
$DIMZIN
 70
     4
  9
$DIMBLK
  1

  9
$DIMASO
 70
     1
  9
$DIMSHO
 70
     1
  9
$DIMPOST
  1
\X
  9
$DIMAPOST
  1
cm
  9
$DIMALT
 70
     1
  9
$DIMALTD
 70
     1
  9
$DIMALTF
 40
2.54
  9
$DIMLFAC
 40
1.0
  9
$DIMTOFL
 70
     0
  9
$DIMTVP
 40
0.0
  9
$DIMTIX
 70
     0
  9
$DIMSOXD
 70
     0
  9
$DIMSAH
 70
     0
  9
$DIMBLK1
  1

  9
$DIMBLK2
  1

  9
$DIMSTYLE
  2
STANDARD
  9
$DIMCLRD
 70
     0
  9
$DIMCLRE
 70
     0
  9
$DIMCLRT
 70
     0
  9
$DIMTFAC
 40
1.0
  9
$DIMGAP
 40
0.08
  9
$DIMJUST
 70
     0
  9
$DIMSD1
 70
     0
  9
$DIMSD2
 70
     0
  9
$DIMTOLJ
 70
     1
  9
$DIMTZIN
 70
     4
  9
$DIMALTZ
 70
     4
  9
$DIMALTTZ
 70
     4
  9
$DIMFIT
 70
     1
  9
$DIMUPT
 70
     0
  9
$DIMUNIT
 70
     5
  9
$DIMDEC
 70
     3
  9
$DIMTDEC
 70
     3
  9
$DIMALTU
 70
     2
  9
$DIMALTTD
 70
     1
  9
$DIMTXSTY
  7
ROMANS
  9
$DIMAUNIT
 70
     0
  9
$LUNITS
 70
     2
  9
$LUPREC
 70
     2
  9
$SKETCHINC
 40
1.0
  9
$FILLETRAD
 40
3.0
  9
$AUNITS
 70
     0
  9
$AUPREC
 70
     0
  9
$MENU
  1
.
  9
$ELEVATION
 40
0.0
  9
$PELEVATION
 40
0.0
  9
$THICKNESS
 40
0.0
  9
$LIMCHECK
 70
     0
  9
$BLIPMODE
 70
     0
  9
$CHAMFERA
 40
10.0
  9
$CHAMFERB
 40
10.0
  9
$CHAMFERC
 40
20.0
  9
$CHAMFERD
 40
0.0
  9
$SKPOLY
 70
     0
  9
$TDCREATE
 40
2452062.343093518
  9
$TDUPDATE
 40
2453689.544043009
  9
$TDINDWG
 40
0.6833139005
  9
$TDUSRTIMER
 40
0.6833139005
  9
$USRTIMER
 70
     1
  9
$ANGBASE
 50
0.0
  9
$ANGDIR
 70
     0
  9
$PDMODE
 70
    33
  9
$PDSIZE
 40
0.25
  9
$PLINEWID
 40
0.0
  9
$COORDS
 70
     1
  9
$SPLFRAME
 70
     0
  9
$SPLINETYPE
 70
     6
  9
$SPLINESEGS
 70
     8
  9
$ATTDIA
 70
     0
  9
$ATTREQ
 70
     1
  9
$HANDLING
 70
 22529
  9
$HANDSEED
  5
174
  9
$SURFTAB1
 70
     6
  9
$SURFTAB2
 70
     6
  9
$SURFTYPE
 70
     6
  9
$SURFU
 70
     6
  9
$SURFV
 70
     6
  9
$UCSNAME
  2

  9
$UCSORG
 10
0.0
 20
0.0
 30
0.0
  9
$UCSXDIR
 10
1.0
 20
0.0
 30
0.0
  9
$UCSYDIR
 10
0.0
 20
1.0
 30
0.0
  9
$PUCSNAME
  2

  9
$PUCSORG
 10
0.0
 20
0.0
 30
0.0
  9
$PUCSXDIR
 10
1.0
 20
0.0
 30
0.0
  9
$PUCSYDIR
 10
0.0
 20
1.0
 30
0.0
  9
$USERI1
 70
     0
  9
$USERI2
 70
     0
  9
$USERI3
 70
     0
  9
$USERI4
 70
     0
  9
$USERI5
 70
     0
  9
$USERR1
 40
0.0
  9
$USERR2
 40
0.0
  9
$USERR3
 40
0.0
  9
$USERR4
 40
0.0
  9
$USERR5
 40
0.0
  9
$WORLDVIEW
 70
     1
  9
$SHADEDGE
 70
     3
  9
$SHADEDIF
 70
    70
  9
$TILEMODE
 70
     1
  9
$MAXACTVP
 70
    48
  9
$PINSBASE
 10
0.0
 20
0.0
 30
0.0
  9
$PLIMCHECK
 70
     0
  9
$PEXTMIN
 10
139.7227980178599
 20
98.6723118469515
 30
0.0
  9
$PEXTMAX
 10
161.4038990686352
 20
109.9548859123456
 30
0.0
  9
$PLIMMIN
 10
139.636131190996
 20
99.02904798008858
  9
$PLIMMAX
 10
156.6361307104042
 20
110.0290477397926
  9
$UNITMODE
 70
     0
  9
$VISRETAIN
 70
     1
  9
$PLINEGEN
 70
     0
  9
$PSLTSCALE
 70
     1
  9
$TREEDEPTH
 70
  3020
  9
$PICKSTYLE
 70
     1
  9
$CMLSTYLE
  2
STANDARD
  9
$CMLJUST
 70
     0
  9
$CMLSCALE
 40
20.0
  9
$PROXYGRAPHICS
 70
     1
  9
$MEASUREMENT
 70
     0
  0
ENDSEC
  0
SECTION
  2
CLASSES
  0
CLASS
  1
ACDBDICTIONARYWDFLT
  2
AcDbDictionaryWithDefault
  3
AutoCAD 2000
 90
        0
280
     0
281
     0
  0
CLASS
  1
ACDBPLACEHOLDER
  2
AcDbPlaceHolder
  3
AutoCAD 2000
 90
        0
280
     0
281
     0
  0
CLASS
  1
LAYOUT
  2
AcDbLayout
  3
AutoCAD 2000
 90
        0
280
     0
281
     0
  0
CLASS
  1
DICTIONARYVAR
  2
AcDbDictionaryVar
  3
AutoCAD 2000
 90
        0
280
     0
281
     0
  0
CLASS
  1
IMAGEDEF
  2
AcDbRasterImageDef
  3
ISM
 90
        0
280
     0
281
     0
  0
CLASS
  1
LONG_TRANSACTION
  2
AcDbLongTransaction
  3
AutoCAD 2000
 90
        0
280
     0
281
     0
  0
CLASS
  1
LWPOLYLINE
  2
AcDbPolyline
  3
AutoCAD 2000
 90
        0
280
     0
281
     1
  0
CLASS
  1
HATCH
  2
AcDbHatch
  3
AutoCAD 2000
 90
        0
280
     0
281
     1
  0
CLASS
  1
XRECORD
  2
AcDbXrecord
  3
AutoCAD 2000
 90
        0
280
     0
281
     0
  0
CLASS
  1
LONG_TRANSACTION
  2
AcDbLongTransaction
  3
AutoCAD 2000
 90
        0
280
     0
281
     0
  0
CLASS
  1
LWPOLYLINE
  2
AcDbPolyline
  3
AutoCAD 2000
 90
        0
280
     0
281
     1
  0
CLASS
  1
HATCH
  2
AcDbHatch
  3
AutoCAD 2000
 90
        0
280
     0
281
     1
  0
CLASS
  1
XRECORD
  2
AcDbXrecord
  3
AutoCAD 2000
 90
        0
280
     0
281
     0
  0
CLASS
  1
LONG_TRANSACTION
  2
AcDbLongTransaction
  3
AutoCAD 2000
 90
        0
280
     0
281
     0
  0
CLASS
  1
LWPOLYLINE
  2
AcDbPolyline
  3
AutoCAD 2000
 90
        0
280
     0
281
     1
  0
CLASS
  1
HATCH
  2
AcDbHatch
  3
AutoCAD 2000
 90
        0
280
     0
281
     1
  0
CLASS
  1
XRECORD
  2
AcDbXrecord
  3
AutoCAD 2000
 90
        0
280
     0
281
     0
  0
ENDSEC
  0
SECTION
  2
TABLES
  0
TABLE
  2
VPORT
  5
1D
330
0
100
AcDbSymbolTable
 70
     3
  0
VPORT
  5
150
330
1D
100
AcDbSymbolTableRecord
100
AcDbViewportTableRecord
  2
*ACTIVE
 70
     0
 10
0.0
 20
0.0
 11
1.0
 21
1.0
 12
142.8462494059848
 22
51.68053345555285
 13
0.0
 23
0.0
 14
10.0
 24
10.0
 15
10.0
 25
10.0
 16
0.0
 26
0.0
 36
1.0
 17
0.0
 27
0.0
 37
0.0
 40
26.63315802742806
 41
1.786792452830188
 42
50.0
 43
0.0
 44
0.0
 50
0.0
 51
0.0
 71
     0
 72
   100
 73
     1
 74
     3
 75
     0
 76
     0
 77
     0
 78
     2
  0
ENDTAB
  0
TABLE
  2
LTYPE
  5
18
330
0
100
AcDbSymbolTable
 70
     2
  0
LTYPE
  5
19
330
18
100
AcDbSymbolTableRecord
100
AcDbLinetypeTableRecord
  2
BYBLOCK
 70
     0
  3

 72
    65
 73
     0
 40
0.0
  0
LTYPE
  5
1A
330
18
100
AcDbSymbolTableRecord
100
AcDbLinetypeTableRecord
  2
BYLAYER
 70
     0
  3

 72
    65
 73
     0
 40
0.0
  0
LTYPE
  5
8
330
18
100
AcDbSymbolTableRecord
100
AcDbLinetypeTableRecord
  2
CONTINUOUS
 70
     0
  3
Solid line
 72
    65
 73
     0
 40
0.0
  0
LTYPE
  5
40
330
18
100
AcDbSymbolTableRecord
100
AcDbLinetypeTableRecord
  2
CENTERX2
 70
     0
  3
Center (2x) ________  __  ________  __  _____
 72
    65
 73
     4
 40
4.0
 49
2.5
 74
     0
 49
-0.5
 74
     0
 49
0.5
 74
     0
 49
-0.5
 74
     0
  0
ENDTAB
  0
TABLE
  2
LAYER
  5
10
102
{ACAD_XDICTIONARY
360
11
102
}
330
0
100
AcDbSymbolTable
 70
     2
  0
LAYER
  5
4
330
10
100
AcDbSymbolTableRecord
100
AcDbLayerTableRecord
  2
0
 70
     0
 62
     7
  6
CONTINUOUS
  0
LAYER
  5
3F
330
10
100
AcDbSymbolTableRecord
100
AcDbLayerTableRecord
  2
CENTER
 70
     0
 62
     1
  6
CENTERX2
  0
ENDTAB
  0
TABLE
  2
STYLE
  5
15
330
0
100
AcDbSymbolTable
 70
     3
  0
STYLE
  5
16
330
15
100
AcDbSymbolTableRecord
100
AcDbTextStyleTableRecord
  2
STANDARD
 70
     0
 40
0.0
 41
1.0
 50
0.0
 71
     0
 42
0.125
  3
txt
  4

  0
STYLE
  5
2C
330
15
100
AcDbSymbolTableRecord
100
AcDbTextStyleTableRecord
  2
CARTOUCHE
 70
     0
 40
0.0
 41
1.0
 50
0.0
 71
     0
 42
0.06
  3
romans.shx
  4

  0
STYLE
  5
23
330
15
100
AcDbSymbolTableRecord
100
AcDbTextStyleTableRecord
  2
ROMANS
 70
     0
 40
0.0
 41
1.0
 50
0.0
 71
     0
 42
1.0
  3
romans.shx
  4

  0
ENDTAB
  0
TABLE
  2
VIEW
  5
1B
330
0
100
AcDbSymbolTable
 70
     0
  0
ENDTAB
  0
TABLE
  2
UCS
  5
1C
330
0
100
AcDbSymbolTable
 70
     0
  0
ENDTAB
  0
TABLE
  2
APPID
  5
1F
330
0
100
AcDbSymbolTable
 70
     1
  0
APPID
  5
20
330
1F
100
AcDbSymbolTableRecord
100
AcDbRegAppTableRecord
  2
ACAD
 70
     0
  0
ENDTAB
  0
TABLE
  2
DIMSTYLE
  5
21
330
0
100
AcDbSymbolTable
 70
     1
  0
DIMSTYLE
105
22
330
21
100
AcDbSymbolTableRecord
100
AcDbDimStyleTableRecord
  2
STANDARD
 70
     0
  3
\X
  4
cm
  5

  6

  7

 40
16.0
 41
0.1
 42
0.0625
 43
0.25
 44
0.1
 45
0.0
 46
0.0
 47
0.0
 48
0.0
140
0.1
141
0.09
142
0.0
143
2.54
144
1.0
145
0.0
146
1.0
147
0.08
 71
     0
 72
     0
 73
     1
 74
     1
 75
     0
 76
     0
 77
     0
 78
     4
170
     1
171
     1
172
     0
173
     0
174
     0
175
     0
176
     0
177
     0
178
     0
270
     5
271
     3
272
     3
273
     2
274
     1
340
23
275
     0
280
     0
281
     0
282
     0
283
     1
284
     4
285
     4
286
     4
287
     1
288
     0
  0
ENDTAB
  0
TABLE
  2
BLOCK_RECORD
  5
1
330
0
100
AcDbSymbolTable
 70
     0
  0
BLOCK_RECORD
  5
2
102
{ACAD_XDICTIONARY
360
78
102
}
330
1
100
AcDbSymbolTableRecord
100
AcDbBlockTableRecord
  2
*MODEL_SPACE
  0
BLOCK_RECORD
  5
C
102
{ACAD_XDICTIONARY
360
7A
102
}
330
1
100
AcDbSymbolTableRecord
100
AcDbBlockTableRecord
  2
*PAPER_SPACE
  0
ENDTAB
  0
ENDSEC
  0
SECTION
  2
BLOCKS
  0
BLOCK
  5
3
330
2
100
AcDbEntity
  8
0
100
AcDbBlockBegin
  2
*MODEL_SPACE
 70
     0
 10
0.0
 20
0.0
 30
0.0
  3
*MODEL_SPACE
  1

  0
ENDBLK
  5
9
330
2
100
AcDbEntity
  8
0
100
AcDbBlockEnd
  0
BLOCK
  5
D
330
C
100
AcDbEntity
 67
     1
  8
0
100
AcDbBlockBegin
  2
*PAPER_SPACE
 70
     0
 10
0.0
 20
0.0
 30
0.0
  3
*PAPER_SPACE
  1

  0
ENDBLK
  5
E
330
C
100
AcDbEntity
 67
     1
  8
0
100
AcDbBlockEnd
  0
ENDSEC
  0
SECTION
  2
ENTITIES
  0
LINE
  5
2E
330
2
100
AcDbEntity
  8
0
 48
0.1
100
AcDbLine
 10
134.5452904477084
 20
43.56099198785673
 30
0.0
 11
142.8746061136635
 21
43.56099198785673
 31
0.0
  0
LINE
  5
2F
330
2
100
AcDbEntity
  8
0
 48
0.1
100
AcDbLine
 10
124.5950426817401
 20
61.32766043826009
 30
0.0
 11
142.8450426817401
 21
61.32766043826009
 31
0.0
  0
LINE
  5
30
330
2
100
AcDbEntity
  8
0
 48
0.1
100
AcDbLine
 10
125.0950426817401
 20
62.8276604382601
 30
0.0
 11
142.84504268174
 21
62.8276604382601
 31
0.0
  0
LINE
  5
31
330
2
100
AcDbEntity
  8
0
 48
0.1
100
AcDbLine
 10
132.1348184974626
 20
45.93401952039153
 30
0.0
 11
128.8450426817401
 21
61.32766043826009
 31
0.0
  0
ARC
  5
32
330
2
100
AcDbEntity
  8
0
 48
0.1
100
AcDbCircle
 10
135.0685713031776
 20
46.56099198785674
 30
0.0
 40
3.0
100
AcDbArc
 50
192.0632184284148
 51
270.0000000000002
  0
LINE
  5
33
330
2
100
AcDbEntity
  8
0
 48
0.1
100
AcDbLine
 10
134.5479982816803
 20
43.5609919878567
 30
0.0
 11
134.8749246440537
 21
42.86506478523929
 31
0.0
  0
ARC
  5
34
330
2
100
AcDbEntity
  8
0
 48
0.1
100
AcDbCircle
 10
136.2668150094023
 20
43.07766043826009
 30
0.0
 40
0.5
100
AcDbArc
 50
270.0000000000008
 51
334.8372269395658
  0
ARC
  5
35
330
2
100
AcDbEntity
  8
0
 48
0.1
100
AcDbCircle
 10
135.3274763961403
 20
43.0776604382601
 30
0.0
 40
0.5
100
AcDbArc
 50
205.1627730604341
 51
269.9999999999992
  0
LINE
  5
36
330
2
100
AcDbEntity
  8
0
 48
0.1
100
AcDbLine
 10
136.2668150094023
 20
42.57766043826009
 30
0.0
 11
135.3274763961403
 21
42.57766043826009
 31
0.0
  0
LINE
  5
37
330
2
100
AcDbEntity
  8
0
 48
0.1
100
AcDbLine
 10
135.3274763961403
 20
42.57766043826009
 30
0.0
 11
136.2668150094023
 21
42.57766043826009
 31
0.0
  0
LINE
  5
38
330
2
100
AcDbEntity
  8
0
 48
0.1
100
AcDbLine
 10
135.3274763961403
 20
42.57766043826009
 30
0.0
 11
136.2668150094023
 21
42.57766043826009
 31
0.0
  0
LINE
  5
39
330
2
100
AcDbEntity
  8
0
 48
0.1
100
AcDbLine
 10
137.0462931238623
 20
43.5609919878567
 30
0.0
 11
136.7193667614889
 21
42.86506478523929
 31
0.0
  0
ARC
  5
3A
330
2
100
AcDbEntity
  8
0
 48
0.1
100
AcDbCircle
 10
125.0950426817401
 20
62.32766043826011
 30
0.0
 40
0.5
100
AcDbArc
 50
89.99999999999998
 51
180.0
  0
LINE
  5
3B
330
2
100
AcDbEntity
  8
0
 48
0.1
100
AcDbLine
 10
124.5950426817401
 20
61.32766043826009
 30
0.0
 11
124.5950426817401
 21
62.3276604382601
 31
0.0
  0
LINE
  5
3C
330
2
100
AcDbEntity
  8
0
 48
0.1
100
AcDbLine
 10
153.5552668660175
 20
45.93401952039153
 30
0.0
 11
156.84504268174
 21
61.32766043826009
 31
0.0
  0
CIRCLE
  5
3D
330
2
100
AcDbEntity
  8
0
 48
0.1
100
AcDbCircle
 10
142.8450426817401
 20
59.06099198785674
 30
0.0
 40
1.3125
  0
LINE
  5
3E
330
2
100
AcDbEntity
  8
CENTER
 48
0.5
100
AcDbLine
 10
142.8450426817401
 20
61.41574426383904
 30
0.0
 11
142.8450426817401
 21
56.70623971187443
 31
0.0
  0
ARC
  5
41
330
2
100
AcDbEntity
  8
0
 48
0.1
100
AcDbCircle
 10
150.6215140603025
 20
46.56099198785674
 30
0.0
 40
3.0
100
AcDbArc
 50
269.9999999999997
 51
347.9367815715852
  0
ARC
  5
42
330
2
100
AcDbEntity
  8
0
 48
0.1
100
AcDbCircle
 10
144.9168577503067
 20
43.12392357994025
 30
0.0
 40
0.5
100
AcDbArc
 50
119.057017896663
 51
134.9999999999988
  0
LINE
  5
43
330
2
100
AcDbEntity
  8
0
 48
0.1
100
AcDbLine
 10
150.6215140603025
 20
43.56099198785673
 30
0.0
 11
142.84504268174
 21
43.56099198785673
 31
0.0
  0
LINE
  5
44
330
2
100
AcDbEntity
  8
0
 48
0.1
100
AcDbLine
 10
141.3968193770367
 20
43.20743859726346
 30
0.0
 11
141.1267810037666
 21
43.47747697053352
 31
0.0
  0
LINE
  5
45
330
2
100
AcDbEntity
  8
0
 48
0.1
100
AcDbLine
 10
141.3968193770367
 20
43.20743859726346
 30
0.0
 11
141.1267810037666
 21
43.47747697053352
 31
0.0
  0
ARC
  5
46
330
2
100
AcDbEntity
  8
0
 48
0.1
100
AcDbCircle
 10
140.7732276131733
 20
43.12392357994025
 30
0.0
 40
0.5
100
AcDbArc
 50
45.00000000000112
 51
60.94298210333627
  0
LINE
  5
47
330
2
100
AcDbEntity
  8
0
 48
0.1
100
AcDbLine
 10
142.3753733751091
 20
42.57766043826006
 30
0.0
 11
143.3147119883711
 21
42.57766043826006
 31
0.0
  0
ARC
  5
48
330
2
100
AcDbEntity
  8
0
 48
0.1
100
AcDbCircle
 10
143.314711988371
 20
43.07766043826009
 30
0.0
 40
0.5
100
AcDbArc
 50
270.0000000000008
 51
334.8372269395658
  0
ARC
  5
49
330
2
100
AcDbEntity
  8
0
 48
0.1
100
AcDbCircle
 10
144.1164892911467
 20
43.38421529256012
 30
0.0
 40
0.25
100
AcDbArc
 50
270.0
 51
314.9999999999995
  0
LINE
  5
4A
330
2
100
AcDbEntity
  8
0
 48
0.1
100
AcDbLine
 10
143.893702821957
 20
43.1342152925601
 30
0.0
 11
143.7672637404577
 21
42.86506478523927
 31
0.0
  0
ARC
  5
4B
330
2
100
AcDbEntity
  8
0
 48
0.1
100
AcDbCircle
 10
144.1164892911467
 20
43.38421529256012
 30
0.0
 40
0.25
100
AcDbArc
 50
270.0
 51
314.9999999999995
  0
ARC
  5
4F
330
2
100
AcDbEntity
  8
0
 48
0.1
100
AcDbCircle
 10
141.5735960723333
 20
43.38421529256012
 30
0.0
 40
0.25
100
AcDbArc
 50
225.0000000000005
 51
270.0
  0
LINE
  5
50
330
2
100
AcDbEntity
  8
0
 48
0.1
100
AcDbLine
 10
141.7963825415232
 20
43.1342152925601
 30
0.0
 11
141.9228216230225
 21
42.86506478523927
 31
0.0
  0
ARC
  5
51
330
2
100
AcDbEntity
  8
0
 48
0.1
100
AcDbCircle
 10
141.5735960723333
 20
43.38421529256012
 30
0.0
 40
0.25
100
AcDbArc
 50
225.0000000000005
 51
270.0
  0
ARC
  5
53
330
2
100
AcDbEntity
  8
0
 48
0.1
100
AcDbCircle
 10
142.3753733751091
 20
43.07766043826009
 30
0.0
 40
0.5
100
AcDbArc
 50
205.1627730604341
 51
270.0000000000021
  0
LINE
  5
54
330
2
100
AcDbEntity
  8
0
 48
0.1
100
AcDbLine
 10
141.5735960723333
 20
43.1342152925601
 30
0.0
 11
144.1164892911468
 21
43.1342152925601
 31
0.0
  0
LINE
  5
55
330
2
100
AcDbEntity
  8
0
 48
0.1
100
AcDbLine
 10
144.1164892911468
 20
43.1342152925601
 30
0.0
 11
141.5735960723333
 21
43.1342152925601
 31
0.0
  0
LINE
  5
57
330
2
100
AcDbEntity
  8
0
 48
0.1
100
AcDbLine
 10
144.2932659864434
 20
43.20743859726346
 30
0.0
 11
144.5633043597135
 21
43.47747697053352
 31
0.0
  0
ARC
  5
58
330
2
100
AcDbEntity
  8
0
 48
0.1
100
AcDbCircle
 10
150.4217358311866
 20
43.07766043826009
 30
0.0
 40
0.5
100
AcDbArc
 50
270.0000000000008
 51
334.8372269395658
  0
ARC
  5
59
330
2
100
AcDbEntity
  8
0
 48
0.1
100
AcDbCircle
 10
149.4823972179247
 20
43.07766043826009
 30
0.0
 40
0.5
100
AcDbArc
 50
205.1627730604341
 51
269.9999999999992
  0
LINE
  5
5A
330
2
100
AcDbEntity
  8
0
 48
0.1
100
AcDbLine
 10
150.4217358311866
 20
42.57766043826009
 30
0.0
 11
149.4823972179246
 21
42.57766043826009
 31
0.0
  0
LINE
  5
5B
330
2
100
AcDbEntity
  8
0
 48
0.1
100
AcDbLine
 10
149.4823972179246
 20
42.57766043826009
 30
0.0
 11
150.4217358311866
 21
42.57766043826009
 31
0.0
  0
LINE
  5
5C
330
2
100
AcDbEntity
  8
0
 48
0.1
100
AcDbLine
 10
150.4217358311866
 20
42.57766043826009
 30
0.0
 11
149.4823972179246
 21
42.57766043826009
 31
0.0
  0
LINE
  5
5D
330
2
100
AcDbEntity
  8
0
 48
0.1
100
AcDbLine
 10
148.7029191034646
 20
43.5609919878567
 30
0.0
 11
149.029845465838
 21
42.86506478523929
 31
0.0
  0
LINE
  5
5E
330
2
100
AcDbEntity
  8
0
 48
0.1
100
AcDbLine
 10
151.2012139456466
 20
43.5609919878567
 30
0.0
 11
150.8742875832732
 21
42.86506478523929
 31
0.0
  0
LINE
  5
5F
330
2
100
AcDbEntity
  8
0
 48
0.1
100
AcDbLine
 10
161.09504268174
 20
61.32766043826009
 30
0.0
 11
142.84504268174
 21
61.32766043826009
 31
0.0
  0
LINE
  5
60
330
2
100
AcDbEntity
  8
0
 48
0.1
100
AcDbLine
 10
160.59504268174
 20
62.8276604382601
 30
0.0
 11
142.84504268174
 21
62.8276604382601
 31
0.0
  0
LINE
  5
61
330
2
100
AcDbEntity
  8
CENTER
 48
0.5
100
AcDbLine
 10
145.2861995359463
 20
59.06099198785674
 30
0.0
 11
140.4038858275339
 21
59.06099198785674
 31
0.0
  0
LINE
  5
62
330
2
100
AcDbEntity
  8
0
 48
0.1
100
AcDbLine
 10
161.09504268174
 20
61.32766043826009
 30
0.0
 11
161.09504268174
 21
62.3276604382601
 31
0.0
  0
ARC
  5
63
330
2
100
AcDbEntity
  8
0
 48
0.1
100
AcDbCircle
 10
160.59504268174
 20
62.3276604382601
 30
0.0
 40
0.5
100
AcDbArc
 50
0.0
 51
89.99999999999998
  0
LINE
  5
6C
330
2
100
AcDbEntity
  8
CENTER
 48
0.5
100
AcDbLine
 10
142.84504268174
 20
44.72873859707671
 30
0.0
 11
142.84504268174
 21
40.42658227944342
 31
0.0
  0
ENDSEC
  0
SECTION
  2
OBJECTS
  0
DICTIONARY
  5
7
330
0
100
AcDbDictionary
  3
ACAD_GROUP
350
28
  3
ACAD_LAYOUT
350
B
  3
ACAD_MLINESTYLE
350
29
  3
ACAD_PLOTSETTINGS
350
2A
  3
ACAD_PLOTSTYLENAME
350
6
  3
ACDBHEADERROUNDTRIPXREC
350
151
  3
ACDBVARIABLEDICTIONARY
350
64
  0
DICTIONARY
  5
11
330
10
100
AcDbDictionary
280
     1
  3
ACAD_LAYERFILTERS
360
12
  0
DICTIONARY
  5
78
330
2
100
AcDbDictionary
280
     1
  3
ACAD_LAYOUTSELFREF
360
172
  0
DICTIONARY
  5
7A
330
C
100
AcDbDictionary
280
     1
  3
ACAD_LAYOUTSELFREF
360
173
  0
DICTIONARY
  5
28
102
{ACAD_REACTORS
330
7
102
}
330
7
100
AcDbDictionary
  0
DICTIONARY
  5
B
102
{ACAD_REACTORS
330
7
102
}
330
7
100
AcDbDictionary
  0
DICTIONARY
  5
29
102
{ACAD_REACTORS
330
7
102
}
330
7
100
AcDbDictionary
  3
STANDARD
350
2D
  0
DICTIONARY
  5
2A
102
{ACAD_REACTORS
330
7
102
}
330
7
100
AcDbDictionary
  0
ACDBDICTIONARYWDFLT
  5
6
102
{ACAD_REACTORS
330
7
102
}
330
7
100
AcDbDictionary
281
     1
  3
Normal
350
5
100
AcDbDictionaryWithDefault
340
5
  0
DICTIONARY
  5
151
102
{ACAD_REACTORS
330
7
102
}
330
7
100
AcDbDictionary
  3
CEPSNTYPE
350
15B
  3
DIMSTYLEDATA
350
15F
  3
FINGERPRINTGUID
350
15C
  3
HYPERLINKBASE
350
154
  3
INSUNITS
350
15A
  3
LAYOUTDICT
350
156
  3
LWETCUNION
350
159
  3
PLOTSETDICT
350
157
  3
PLOTSTYLNAMDICT
350
158
  3
PSVPSCALE
350
15E
  3
PUCSBASE
350
162
  3
PUCSORGBACK
350
168
  3
PUCSORGBOTTOM
350
164
  3
PUCSORGFRONT
350
167
  3
PUCSORGLEFT
350
165
  3
PUCSORGRIGHT
350
166
  3
PUCSORGTOP
350
163
  3
PUCSORTHOREF
350
160
  3
PUCSORTHOVIEW
350
161
  3
STYLESHEET
350
155
  3
TSTACKALIGN
350
152
  3
TSTACKSIZE
350
153
  3
UCSBASE
350
16B
  3
UCSORGBACK
350
171
  3
UCSORGBOTTOM
350
16D
  3
UCSORGFRONT
350
170
  3
UCSORGLEFT
350
16E
  3
UCSORGRIGHT
350
16F
  3
UCSORGTOP
350
16C
  3
UCSORTHOREF
350
169
  3
UCSORTHOVIEW
350
16A
  3
VERSIONGUID
350
15D
  0
DICTIONARY
  5
64
102
{ACAD_REACTORS
330
7
102
}
330
7
100
AcDbDictionary
  3
DIMASSOC
350
66
  3
HIDETEXT
350
65
  0
DICTIONARY
  5
12
102
{ACAD_REACTORS
330
11
102
}
330
11
100
AcDbDictionary
280
     1
  3
DIM-1_12
360
13
  3
DIM-1_16
360
14
  0
XRECORD
  5
172
102
{ACAD_REACTORS
330
78
102
}
330
78
100
AcDbXrecord
340
2
  0
XRECORD
  5
173
102
{ACAD_REACTORS
330
7A
102
}
330
7A
100
AcDbXrecord
340
C
  0
MLINESTYLE
  5
2D
102
{ACAD_REACTORS
330
29
102
}
330
29
100
AcDbMlineStyle
  2
STANDARD
 70
     0
  3

 62
   256
 51
90.0
 52
90.0
 71
     2
 49
0.5
 62
   256
  6
BYLAYER
 49
-0.5
 62
   256
  6
BYLAYER
  0
ACDBPLACEHOLDER
  5
5
102
{ACAD_REACTORS
330
6
102
}
330
6
100
AcDbPlaceHolder
280
     0
  0
XRECORD
  5
15B
102
{ACAD_REACTORS
330
151
102
}
330
151
100
AcDbXrecord
 90
        0
  0
XRECORD
  5
15F
102
{ACAD_REACTORS
330
151
102
}
330
151
100
AcDbXrecord
1000
DSTYLE
1002
{
1070
    79
 70
     1
1070
   276
 70
     1
1070
   277
 70
     5
1070
   289
 70
     1
1002
}
  0
XRECORD
  5
15C
102
{ACAD_REACTORS
330
151
102
}
330
151
100
AcDbXrecord
  1
{6A4AC8E0-4F58-11D5-8420-0003476D26AB}
  0
XRECORD
  5
154
102
{ACAD_REACTORS
330
151
102
}
330
151
100
AcDbXrecord
  1

  0
XRECORD
  5
15A
102
{ACAD_REACTORS
330
151
102
}
330
151
100
AcDbXrecord
 90
        1
  0
XRECORD
  5
156
102
{ACAD_REACTORS
330
151
102
}
330
151
100
AcDbXrecord
340
B
  0
XRECORD
  5
159
102
{ACAD_REACTORS
330
151
102
}
330
151
100
AcDbXrecord
 90
    10781
  0
XRECORD
  5
157
102
{ACAD_REACTORS
330
151
102
}
330
151
100
AcDbXrecord
340
2A
  0
XRECORD
  5
158
102
{ACAD_REACTORS
330
151
102
}
330
151
100
AcDbXrecord
340
6
  0
XRECORD
  5
15E
102
{ACAD_REACTORS
330
151
102
}
330
151
100
AcDbXrecord
 40
0.0
  0
XRECORD
  5
162
102
{ACAD_REACTORS
330
151
102
}
330
151
100
AcDbXrecord
340
0
  0
XRECORD
  5
168
102
{ACAD_REACTORS
330
151
102
}
330
151
100
AcDbXrecord
 10
0.0
 20
0.0
 30
0.0
  0
XRECORD
  5
164
102
{ACAD_REACTORS
330
151
102
}
330
151
100
AcDbXrecord
 10
0.0
 20
0.0
 30
0.0
  0
XRECORD
  5
167
102
{ACAD_REACTORS
330
151
102
}
330
151
100
AcDbXrecord
 10
0.0
 20
0.0
 30
0.0
  0
XRECORD
  5
165
102
{ACAD_REACTORS
330
151
102
}
330
151
100
AcDbXrecord
 10
0.0
 20
0.0
 30
0.0
  0
XRECORD
  5
166
102
{ACAD_REACTORS
330
151
102
}
330
151
100
AcDbXrecord
 10
0.0
 20
0.0
 30
0.0
  0
XRECORD
  5
163
102
{ACAD_REACTORS
330
151
102
}
330
151
100
AcDbXrecord
 10
0.0
 20
0.0
 30
0.0
  0
XRECORD
  5
160
102
{ACAD_REACTORS
330
151
102
}
330
151
100
AcDbXrecord
340
0
  0
XRECORD
  5
161
102
{ACAD_REACTORS
330
151
102
}
330
151
100
AcDbXrecord
 70
     0
  0
XRECORD
  5
155
102
{ACAD_REACTORS
330
151
102
}
330
151
100
AcDbXrecord
  1

  0
XRECORD
  5
152
102
{ACAD_REACTORS
330
151
102
}
330
151
100
AcDbXrecord
 90
        1
  0
XRECORD
  5
153
102
{ACAD_REACTORS
330
151
102
}
330
151
100
AcDbXrecord
 90
       70
  0
XRECORD
  5
16B
102
{ACAD_REACTORS
330
151
102
}
330
151
100
AcDbXrecord
340
0
  0
XRECORD
  5
171
102
{ACAD_REACTORS
330
151
102
}
330
151
100
AcDbXrecord
 10
0.0
 20
0.0
 30
0.0
  0
XRECORD
  5
16D
102
{ACAD_REACTORS
330
151
102
}
330
151
100
AcDbXrecord
 10
0.0
 20
0.0
 30
0.0
  0
XRECORD
  5
170
102
{ACAD_REACTORS
330
151
102
}
330
151
100
AcDbXrecord
 10
0.0
 20
0.0
 30
0.0
  0
XRECORD
  5
16E
102
{ACAD_REACTORS
330
151
102
}
330
151
100
AcDbXrecord
 10
0.0
 20
0.0
 30
0.0
  0
XRECORD
  5
16F
102
{ACAD_REACTORS
330
151
102
}
330
151
100
AcDbXrecord
 10
0.0
 20
0.0
 30
0.0
  0
XRECORD
  5
16C
102
{ACAD_REACTORS
330
151
102
}
330
151
100
AcDbXrecord
 10
0.0
 20
0.0
 30
0.0
  0
XRECORD
  5
169
102
{ACAD_REACTORS
330
151
102
}
330
151
100
AcDbXrecord
340
0
  0
XRECORD
  5
16A
102
{ACAD_REACTORS
330
151
102
}
330
151
100
AcDbXrecord
 70
     1
  0
XRECORD
  5
15D
102
{ACAD_REACTORS
330
151
102
}
330
151
100
AcDbXrecord
  1
{40B324EF-63A6-47D4-AAA4-68CC4301D408}
  0
DICTIONARYVAR
  5
66
102
{ACAD_REACTORS
330
64
102
}
330
64
100
DictionaryVariables
280
     0
  1
1
  0
DICTIONARYVAR
  5
65
102
{ACAD_REACTORS
330
64
102
}
330
64
100
DictionaryVariables
280
     0
  1
1
  0
XRECORD
  5
13
102
{ACAD_REACTORS
330
12
102
}
330
12
100
AcDbXrecord
  1
DIM-1_12
  1
DIM-1_12
  1
*
  1
*
 70
     0
  1
*
  1
*
  0
XRECORD
  5
14
102
{ACAD_REACTORS
330
12
102
}
330
12
100
AcDbXrecord
  1
dim-1_16
  1
*
  1
*
  1
*
 70
     0
  1
*
  1
*
  0
ENDSEC
  0
EOF
