  0
SECTION
  2
HEADER
  9
$ACADVER
  1
AC1014
  9
$ACADMAINTVER
 70
     9
  9
$DWGCODEPAGE
  3
ANSI_1252
  9
$INSBASE
 10
109.679787949982
 20
103.1769348096147
 30
0.0
  9
$EXTMIN
 10
60.54834383377011
 20
84.92066540735299
 30
-0.0015258207003612
  9
$EXTMAX
 10
120.5593844232575
 20
121.4306407483077
 30
0.0000000349246008
  9
$LIMMIN
 10
0.0
 20
0.0
  9
$LIMMAX
 10
100.5024158491978
 20
51.69854817198938
  9
$ORTHOMODE
 70
     1
  9
$REGENMODE
 70
     1
  9
$FILLMODE
 70
     1
  9
$QTEXTMODE
 70
     0
  9
$MIRRTEXT
 70
     1
  9
$DRAGMODE
 70
     2
  9
$LTSCALE
 40
2.0
  9
$OSMODE
 70
    55
  9
$ATTMODE
 70
     1
  9
$TEXTSIZE
 40
0.06
  9
$TRACEWID
 40
1.0
  9
$TEXTSTYLE
  7
CARTOUCHE
  9
$CLAYER
  8
0
  9
$CELTYPE
  6
BYLAYER
  9
$CECOLOR
 62
   256
  9
$CELTSCALE
 40
1.0
  9
$DELOBJ
 70
     1
  9
$DISPSILH
 70
     0
  9
$DIMSCALE
 40
16.0
  9
$DIMASZ
 40
0.1
  9
$DIMEXO
 40
0.0625
  9
$DIMDLI
 40
0.25
  9
$DIMRND
 40
0.0
  9
$DIMDLE
 40
0.0
  9
$DIMEXE
 40
0.1
  9
$DIMTP
 40
0.0
  9
$DIMTM
 40
0.0
  9
$DIMTXT
 40
0.1
  9
$DIMCEN
 40
0.09
  9
$DIMTSZ
 40
0.0
  9
$DIMTOL
 70
     0
  9
$DIMLIM
 70
     0
  9
$DIMTIH
 70
     1
  9
$DIMTOH
 70
     1
  9
$DIMSE1
 70
     0
  9
$DIMSE2
 70
     0
  9
$DIMTAD
 70
     0
  9
$DIMZIN
 70
     4
  9
$DIMBLK
  1

  9
$DIMASO
 70
     1
  9
$DIMSHO
 70
     1
  9
$DIMPOST
  1
\X
  9
$DIMAPOST
  1
cm
  9
$DIMALT
 70
     1
  9
$DIMALTD
 70
     1
  9
$DIMALTF
 40
2.54
  9
$DIMLFAC
 40
1.0
  9
$DIMTOFL
 70
     0
  9
$DIMTVP
 40
0.0
  9
$DIMTIX
 70
     0
  9
$DIMSOXD
 70
     0
  9
$DIMSAH
 70
     0
  9
$DIMBLK1
  1

  9
$DIMBLK2
  1

  9
$DIMSTYLE
  2
STANDARD
  9
$DIMCLRD
 70
     0
  9
$DIMCLRE
 70
     0
  9
$DIMCLRT
 70
     0
  9
$DIMTFAC
 40
1.0
  9
$DIMGAP
 40
0.08
  9
$DIMJUST
 70
     0
  9
$DIMSD1
 70
     0
  9
$DIMSD2
 70
     0
  9
$DIMTOLJ
 70
     1
  9
$DIMTZIN
 70
     4
  9
$DIMALTZ
 70
     4
  9
$DIMALTTZ
 70
     4
  9
$DIMFIT
 70
     1
  9
$DIMUPT
 70
     0
  9
$DIMUNIT
 70
     5
  9
$DIMDEC
 70
     3
  9
$DIMTDEC
 70
     3
  9
$DIMALTU
 70
     2
  9
$DIMALTTD
 70
     1
  9
$DIMTXSTY
  7
ROMANS
  9
$DIMAUNIT
 70
     0
  9
$LUNITS
 70
     2
  9
$LUPREC
 70
     2
  9
$SKETCHINC
 40
1.0
  9
$FILLETRAD
 40
3.0
  9
$AUNITS
 70
     0
  9
$AUPREC
 70
     0
  9
$MENU
  1
.
  9
$ELEVATION
 40
0.0
  9
$PELEVATION
 40
0.0
  9
$THICKNESS
 40
0.0
  9
$LIMCHECK
 70
     0
  9
$BLIPMODE
 70
     0
  9
$CHAMFERA
 40
10.0
  9
$CHAMFERB
 40
10.0
  9
$CHAMFERC
 40
20.0
  9
$CHAMFERD
 40
0.0
  9
$SKPOLY
 70
     0
  9
$TDCREATE
 40
2452062.343093518
  9
$TDUPDATE
 40
2453689.545473067
  9
$TDINDWG
 40
0.6783898148
  9
$TDUSRTIMER
 40
0.6783898148
  9
$USRTIMER
 70
     1
  9
$ANGBASE
 50
0.0
  9
$ANGDIR
 70
     0
  9
$PDMODE
 70
    33
  9
$PDSIZE
 40
0.25
  9
$PLINEWID
 40
0.0
  9
$COORDS
 70
     1
  9
$SPLFRAME
 70
     0
  9
$SPLINETYPE
 70
     6
  9
$SPLINESEGS
 70
     8
  9
$ATTDIA
 70
     0
  9
$ATTREQ
 70
     1
  9
$HANDLING
 70
 22529
  9
$HANDSEED
  5
10B
  9
$SURFTAB1
 70
     6
  9
$SURFTAB2
 70
     6
  9
$SURFTYPE
 70
     6
  9
$SURFU
 70
     6
  9
$SURFV
 70
     6
  9
$UCSNAME
  2

  9
$UCSORG
 10
0.0
 20
0.0
 30
0.0
  9
$UCSXDIR
 10
1.0
 20
0.0
 30
0.0
  9
$UCSYDIR
 10
0.0
 20
1.0
 30
0.0
  9
$PUCSNAME
  2

  9
$PUCSORG
 10
0.0
 20
0.0
 30
0.0
  9
$PUCSXDIR
 10
1.0
 20
0.0
 30
0.0
  9
$PUCSYDIR
 10
0.0
 20
1.0
 30
0.0
  9
$USERI1
 70
     0
  9
$USERI2
 70
     0
  9
$USERI3
 70
     0
  9
$USERI4
 70
     0
  9
$USERI5
 70
     0
  9
$USERR1
 40
0.0
  9
$USERR2
 40
0.0
  9
$USERR3
 40
0.0
  9
$USERR4
 40
0.0
  9
$USERR5
 40
0.0
  9
$WORLDVIEW
 70
     1
  9
$SHADEDGE
 70
     3
  9
$SHADEDIF
 70
    70
  9
$TILEMODE
 70
     1
  9
$MAXACTVP
 70
    48
  9
$PINSBASE
 10
0.0
 20
0.0
 30
0.0
  9
$PLIMCHECK
 70
     0
  9
$PEXTMIN
 10
139.7227980178599
 20
98.6723118469515
 30
0.0
  9
$PEXTMAX
 10
161.4038990686352
 20
109.9548859123456
 30
0.0
  9
$PLIMMIN
 10
139.636131190996
 20
99.02904798008858
  9
$PLIMMAX
 10
156.6361307104042
 20
110.0290477397926
  9
$UNITMODE
 70
     0
  9
$VISRETAIN
 70
     1
  9
$PLINEGEN
 70
     0
  9
$PSLTSCALE
 70
     1
  9
$TREEDEPTH
 70
  3020
  9
$PICKSTYLE
 70
     1
  9
$CMLSTYLE
  2
STANDARD
  9
$CMLJUST
 70
     0
  9
$CMLSCALE
 40
20.0
  9
$PROXYGRAPHICS
 70
     1
  9
$MEASUREMENT
 70
     0
  0
ENDSEC
  0
SECTION
  2
CLASSES
  0
CLASS
  1
ACDBDICTIONARYWDFLT
  2
AcDbDictionaryWithDefault
  3
AutoCAD 2000
 90
        0
280
     0
281
     0
  0
CLASS
  1
ACDBPLACEHOLDER
  2
AcDbPlaceHolder
  3
AutoCAD 2000
 90
        0
280
     0
281
     0
  0
CLASS
  1
LAYOUT
  2
AcDbLayout
  3
AutoCAD 2000
 90
        0
280
     0
281
     0
  0
CLASS
  1
DICTIONARYVAR
  2
AcDbDictionaryVar
  3
AutoCAD 2000
 90
        0
280
     0
281
     0
  0
CLASS
  1
IMAGEDEF
  2
AcDbRasterImageDef
  3
ISM
 90
        0
280
     0
281
     0
  0
CLASS
  1
LONG_TRANSACTION
  2
AcDbLongTransaction
  3
AutoCAD 2000
 90
        0
280
     0
281
     0
  0
CLASS
  1
LWPOLYLINE
  2
AcDbPolyline
  3
AutoCAD 2000
 90
        0
280
     0
281
     1
  0
CLASS
  1
HATCH
  2
AcDbHatch
  3
AutoCAD 2000
 90
        0
280
     0
281
     1
  0
CLASS
  1
XRECORD
  2
AcDbXrecord
  3
AutoCAD 2000
 90
        0
280
     0
281
     0
  0
CLASS
  1
LONG_TRANSACTION
  2
AcDbLongTransaction
  3
AutoCAD 2000
 90
        0
280
     0
281
     0
  0
CLASS
  1
LWPOLYLINE
  2
AcDbPolyline
  3
AutoCAD 2000
 90
        0
280
     0
281
     1
  0
CLASS
  1
HATCH
  2
AcDbHatch
  3
AutoCAD 2000
 90
        0
280
     0
281
     1
  0
CLASS
  1
XRECORD
  2
AcDbXrecord
  3
AutoCAD 2000
 90
        0
280
     0
281
     0
  0
ENDSEC
  0
SECTION
  2
TABLES
  0
TABLE
  2
VPORT
  5
1D
330
0
100
AcDbSymbolTable
 70
     3
  0
VPORT
  5
E7
330
1D
100
AcDbSymbolTableRecord
100
AcDbViewportTableRecord
  2
*ACTIVE
 70
     0
 10
0.0
 20
0.0
 11
1.0
 21
1.0
 12
90.55386407921687
 22
103.1756530361668
 13
0.0
 23
0.0
 14
10.0
 24
10.0
 15
10.0
 25
10.0
 16
0.0
 26
0.0
 36
1.0
 17
0.0
 27
0.0
 37
0.0
 40
43.56857067678535
 41
1.786792452830188
 42
50.0
 43
0.0
 44
0.0
 50
0.0
 51
0.0
 71
     0
 72
   100
 73
     1
 74
     3
 75
     0
 76
     0
 77
     0
 78
     2
  0
ENDTAB
  0
TABLE
  2
LTYPE
  5
18
330
0
100
AcDbSymbolTable
 70
     2
  0
LTYPE
  5
19
330
18
100
AcDbSymbolTableRecord
100
AcDbLinetypeTableRecord
  2
BYBLOCK
 70
     0
  3

 72
    65
 73
     0
 40
0.0
  0
LTYPE
  5
1A
330
18
100
AcDbSymbolTableRecord
100
AcDbLinetypeTableRecord
  2
BYLAYER
 70
     0
  3

 72
    65
 73
     0
 40
0.0
  0
LTYPE
  5
8
330
18
100
AcDbSymbolTableRecord
100
AcDbLinetypeTableRecord
  2
CONTINUOUS
 70
     0
  3
Solid line
 72
    65
 73
     0
 40
0.0
  0
LTYPE
  5
31
330
18
100
AcDbSymbolTableRecord
100
AcDbLinetypeTableRecord
  2
CENTERX2
 70
     0
  3
Center (2x) ________  __  ________  __  _____
 72
    65
 73
     4
 40
4.0
 49
2.5
 74
     0
 49
-0.5
 74
     0
 49
0.5
 74
     0
 49
-0.5
 74
     0
  0
ENDTAB
  0
TABLE
  2
LAYER
  5
10
102
{ACAD_XDICTIONARY
360
11
102
}
330
0
100
AcDbSymbolTable
 70
     2
  0
LAYER
  5
4
330
10
100
AcDbSymbolTableRecord
100
AcDbLayerTableRecord
  2
0
 70
     0
 62
     7
  6
CONTINUOUS
  0
LAYER
  5
30
330
10
100
AcDbSymbolTableRecord
100
AcDbLayerTableRecord
  2
CENTER
 70
     0
 62
     1
  6
CENTERX2
  0
ENDTAB
  0
TABLE
  2
STYLE
  5
15
330
0
100
AcDbSymbolTable
 70
     3
  0
STYLE
  5
16
330
15
100
AcDbSymbolTableRecord
100
AcDbTextStyleTableRecord
  2
STANDARD
 70
     0
 40
0.0
 41
1.0
 50
0.0
 71
     0
 42
0.125
  3
txt
  4

  0
STYLE
  5
2C
330
15
100
AcDbSymbolTableRecord
100
AcDbTextStyleTableRecord
  2
CARTOUCHE
 70
     0
 40
0.0
 41
1.0
 50
0.0
 71
     0
 42
0.06
  3
romans.shx
  4

  0
STYLE
  5
23
330
15
100
AcDbSymbolTableRecord
100
AcDbTextStyleTableRecord
  2
ROMANS
 70
     0
 40
0.0
 41
1.0
 50
0.0
 71
     0
 42
1.0
  3
romans.shx
  4

  0
ENDTAB
  0
TABLE
  2
VIEW
  5
1B
330
0
100
AcDbSymbolTable
 70
     0
  0
ENDTAB
  0
TABLE
  2
UCS
  5
1C
330
0
100
AcDbSymbolTable
 70
     0
  0
ENDTAB
  0
TABLE
  2
APPID
  5
1F
330
0
100
AcDbSymbolTable
 70
     1
  0
APPID
  5
20
330
1F
100
AcDbSymbolTableRecord
100
AcDbRegAppTableRecord
  2
ACAD
 70
     0
  0
ENDTAB
  0
TABLE
  2
DIMSTYLE
  5
21
330
0
100
AcDbSymbolTable
 70
     1
  0
DIMSTYLE
105
22
330
21
100
AcDbSymbolTableRecord
100
AcDbDimStyleTableRecord
  2
STANDARD
 70
     0
  3
\X
  4
cm
  5

  6

  7

 40
16.0
 41
0.1
 42
0.0625
 43
0.25
 44
0.1
 45
0.0
 46
0.0
 47
0.0
 48
0.0
140
0.1
141
0.09
142
0.0
143
2.54
144
1.0
145
0.0
146
1.0
147
0.08
 71
     0
 72
     0
 73
     1
 74
     1
 75
     0
 76
     0
 77
     0
 78
     4
170
     1
171
     1
172
     0
173
     0
174
     0
175
     0
176
     0
177
     0
178
     0
270
     5
271
     3
272
     3
273
     2
274
     1
340
23
275
     0
280
     0
281
     0
282
     0
283
     1
284
     4
285
     4
286
     4
287
     1
288
     0
  0
ENDTAB
  0
TABLE
  2
BLOCK_RECORD
  5
1
330
0
100
AcDbSymbolTable
 70
     0
  0
BLOCK_RECORD
  5
2
102
{ACAD_XDICTIONARY
360
60
102
}
330
1
100
AcDbSymbolTableRecord
100
AcDbBlockTableRecord
  2
*MODEL_SPACE
  0
BLOCK_RECORD
  5
C
102
{ACAD_XDICTIONARY
360
62
102
}
330
1
100
AcDbSymbolTableRecord
100
AcDbBlockTableRecord
  2
*PAPER_SPACE
  0
ENDTAB
  0
ENDSEC
  0
SECTION
  2
BLOCKS
  0
BLOCK
  5
3
330
2
100
AcDbEntity
  8
0
100
AcDbBlockBegin
  2
*MODEL_SPACE
 70
     0
 10
0.0
 20
0.0
 30
0.0
  3
*MODEL_SPACE
  1

  0
ENDBLK
  5
9
330
2
100
AcDbEntity
  8
0
100
AcDbBlockEnd
  0
BLOCK
  5
D
330
C
100
AcDbEntity
 67
     1
  8
0
100
AcDbBlockBegin
  2
*PAPER_SPACE
 70
     0
 10
0.0
 20
0.0
 30
0.0
  3
*PAPER_SPACE
  1

  0
ENDBLK
  5
E
330
C
100
AcDbEntity
 67
     1
  8
0
100
AcDbBlockEnd
  0
ENDSEC
  0
SECTION
  2
ENTITIES
  0
ARC
  5
2E
330
2
100
AcDbEntity
  8
0
 48
0.1
100
AcDbCircle
 10
111.1482777117246
 20
111.5519348096147
 30
0.0
 40
3.0
100
AcDbArc
 50
13.73068210154217
 51
89.99999999999998
  0
LINE
  5
2F
330
2
100
AcDbEntity
  8
CENTER
 48
0.5
100
AcDbLine
 10
113.4429826726685
 20
103.1769348096147
 30
0.0
 11
105.9165932272955
 21
103.1769348096147
 31
0.0
  0
ARC
  5
32
330
2
100
AcDbEntity
  8
0
 48
0.1
100
AcDbCircle
 10
111.1482777117246
 20
94.80193480961474
 30
0.0
 40
3.0
100
AcDbArc
 50
270.0
 51
346.2693178984578
  0
CIRCLE
  5
33
330
2
100
AcDbEntity
  8
0
 48
0.1
100
AcDbCircle
 10
109.679787949982
 20
103.1769348096147
 30
0.0
 40
1.89014635623478
  0
LINE
  5
34
330
2
100
AcDbEntity
  8
0
 48
0.1
100
AcDbLine
 10
112.7998098807882
 20
89.80193480961728
 30
0.0
 11
70.661728884951
 21
89.80193480961068
 31
0.0
  0
LINE
  5
35
330
2
100
AcDbEntity
  8
0
 48
0.1
100
AcDbLine
 10
113.109626636264
 20
89.17693480961474
 30
0.0
 11
70.53604724862939
 21
89.17693480961105
 31
0.0
  0
LWPOLYLINE
  5
36
330
2
100
AcDbEntity
  8
0
 48
0.1
100
AcDbPolyline
 90
        4
 70
     1
 43
0.0
 10
120.554787949982
 20
84.92693480961476
 10
60.55478794998203
 20
84.92693480961476
 10
60.55478794998203
 20
121.4269348096147
 10
120.554787949982
 20
121.4269348096147
  0
LINE
  5
37
330
2
100
AcDbEntity
  8
0
 48
0.1
100
AcDbLine
 10
112.7998098807292
 20
116.5519348096122
 30
0.0
 11
70.66172888495064
 21
116.5519348096188
 31
0.0
  0
LINE
  5
38
330
2
100
AcDbEntity
  8
0
 48
0.1
100
AcDbLine
 10
113.109626636264
 20
117.1769348096147
 30
0.0
 11
70.53604724862937
 21
117.1769348096184
 31
0.0
  0
LINE
  5
39
330
2
100
AcDbEntity
  8
0
 48
0.1
100
AcDbLine
 10
111.1482777117245
 20
91.80193480961476
 30
0.0
 11
77.04214444321189
 21
91.80193480961566
 31
0.0
  0
LINE
  5
3A
330
2
100
AcDbEntity
  8
0
 48
0.1
100
AcDbLine
 10
111.1482777117245
 20
114.5519348096147
 30
0.0
 11
77.04214444321189
 21
114.5519348096138
 31
0.0
  0
SPLINE
  5
3B
330
2
100
AcDbEntity
  8
0
 48
0.1
100
AcDbSpline
210
0.0
220
0.0
230
1.0
 70
     8
 71
     3
 72
    16
 73
    12
 74
     0
 42
0.0000000001
 43
0.0000000001
 40
0.0
 40
0.0
 40
0.0
 40
0.0
 40
1.39606198420296
 40
1.39606198420296
 40
4.188185952608881
 40
4.188185952608881
 40
9.772433889420723
 40
9.772433889420723
 40
12.00488566745104
 40
12.00488566745104
 40
13.1651924355091
 40
13.1651924355091
 40
13.1651924355091
 40
13.1651924355091
 10
65.30478794998202
 20
103.1769348096188
 30
0.0
 10
65.30478794998202
 20
103.6399057499196
 30
0.0
 10
65.30810107436875
 20
104.1015917291859
 30
0.0
 10
65.33652951410592
 20
105.4830277668154
 30
0.0
 10
65.38016518623885
 20
106.3991165179084
 30
0.0
 10
65.65222189432865
 20
109.1354974579646
 30
0.0
 10
66.02740332573496
 20
110.9589767759697
 30
0.0
 10
66.97799595707381
 20
113.2822863692854
 30
0.0
 10
67.29635455402084
 20
113.9191427893883
 30
0.0
 10
67.87133550641849
 20
114.8301169687076
 30
0.0
 10
68.08448561929704
 20
115.1318981022499
 30
0.0
 10
68.31654091100268
 20
115.4227884561797
 30
0.0
  0
SPLINE
  5
3C
330
2
100
AcDbEntity
  8
0
 48
0.1
100
AcDbSpline
210
0.0
220
0.0
230
1.0
 70
     8
 71
     3
 72
    10
 73
     6
 74
     0
 42
0.0000000001
 43
0.0000000001
 40
0.0
 40
0.0
 40
0.0
 40
0.0
 40
4.660710278438863
 40
10.44039310431356
 40
13.74144245540581
 40
13.74144245540581
 40
13.74144245540581
 40
13.74144245540581
 10
64.80478794998203
 20
103.1769348096188
 30
0.0
 10
64.80478794998203
 20
104.7305049024317
 30
0.0
 10
64.88784915349969
 20
108.2046967025272
 30
0.0
 10
65.95827880883035
 20
112.7781698033721
 30
0.0
 10
67.55103832245653
 20
115.3434053246463
 30
0.0
 10
68.30450701686686
 20
116.1819854808051
 30
0.0
  0
SPLINE
  5
3D
330
2
100
AcDbEntity
  8
0
 48
0.1
100
AcDbSpline
210
0.0
220
0.0
230
1.0
 70
     8
 71
     3
 72
    11
 73
     7
 74
     0
 42
0.0000000001
 43
0.0000000001
 40
0.0
 40
0.0
 40
0.0
 40
0.0
 40
3.228493884629176
 40
7.201376138627399
 40
10.42286495953719
 40
10.66779575624108
 40
10.66779575624108
 40
10.66779575624108
 40
10.66779575624108
 10
72.21073797923114
 20
103.1769348096147
 30
0.0
 10
72.21073797923114
 20
104.2530994378244
 30
0.0
 10
72.28065262352348
 20
106.63846015993
 30
0.0
 10
72.76065049500153
 20
110.1735524027835
 30
0.0
 10
73.86245416883003
 20
112.3132845453291
 30
0.0
 10
74.61233509575942
 20
113.3137222479012
 30
0.0
 10
74.66650472315343
 20
113.3839653553417
 30
0.0
  0
SPLINE
  5
3E
330
2
100
AcDbEntity
  8
0
 48
0.1
100
AcDbSpline
210
0.0
220
0.0
230
1.0
 70
     8
 71
     3
 72
    10
 73
     6
 74
     0
 42
0.0000000001
 43
0.0000000001
 40
0.0
 40
0.0
 40
0.0
 40
0.0
 40
4.660710278438863
 40
10.44039310431356
 40
13.74144245540583
 40
13.74144245540583
 40
13.74144245540583
 40
13.74144245540583
 10
64.80478794998203
 20
103.1769348096106
 30
0.0
 10
64.80478794998203
 20
101.6233647167977
 30
0.0
 10
64.88784915349969
 20
98.14917291670225
 30
0.0
 10
65.95827880883035
 20
93.57569981585731
 30
0.0
 10
67.55103832245655
 20
91.0104642945831
 30
0.0
 10
68.3045070168669
 20
90.17188413842431
 30
0.0
  0
SPLINE
  5
3F
330
2
100
AcDbEntity
  8
0
 48
0.1
100
AcDbSpline
210
0.0
220
0.0
230
1.0
 70
     8
 71
     3
 72
    16
 73
    12
 74
     0
 42
0.0000000001
 43
0.0000000001
 40
0.0
 40
0.0
 40
0.0
 40
0.0
 40
1.39606198420296
 40
1.39606198420296
 40
4.188185952608881
 40
4.188185952608881
 40
9.772433889420723
 40
9.772433889420723
 40
12.00488566745104
 40
12.00488566745104
 40
13.16519243550953
 40
13.16519243550953
 40
13.16519243550953
 40
13.16519243550953
 10
65.30478794998202
 20
103.1769348096106
 30
0.0
 10
65.30478794998202
 20
102.7139638693098
 30
0.0
 10
65.30810107436875
 20
102.2522778900435
 30
0.0
 10
65.33652951410592
 20
100.870841852414
 30
0.0
 10
65.38016518623885
 20
99.95475310132107
 30
0.0
 10
65.65222189432865
 20
97.21837216126486
 30
0.0
 10
66.02740332573496
 20
95.3948928432597
 30
0.0
 10
66.97799595707381
 20
93.07158324994409
 30
0.0
 10
67.29635455402084
 20
92.43472682984119
 30
0.0
 10
67.87133550641856
 20
91.52375265052175
 30
0.0
 10
68.08448561929719
 20
91.2219715169793
 30
0.0
 10
68.31654091100294
 20
90.93108116304941
 30
0.0
  0
ARC
  5
40
330
2
100
AcDbEntity
  8
0
 48
0.1
100
AcDbCircle
 10
70.53604724862911
 20
92.17693480961102
 30
0.0
 40
3.0
100
AcDbArc
 50
221.9398616267691
 51
270.0000000000053
  0
ARC
  5
41
330
2
100
AcDbEntity
  8
0
 48
0.1
100
AcDbCircle
 10
70.66172888495055
 20
92.80193480961065
 30
0.0
 40
3.0
100
AcDbArc
 50
218.5808154301975
 51
270.0000000000086
  0
ARC
  5
42
330
2
100
AcDbEntity
  8
0
 48
0.1
100
AcDbCircle
 10
77.04214444321197
 20
94.80193480961569
 30
0.0
 40
3.0
100
AcDbArc
 50
217.638459629209
 51
270.0000000000045
  0
SPLINE
  5
43
330
2
100
AcDbEntity
  8
0
 48
0.1
100
AcDbSpline
210
0.0
220
0.0
230
1.0
 70
     8
 71
     3
 72
    11
 73
     7
 74
     0
 42
0.0000000001
 43
0.0000000001
 40
0.0
 40
0.0
 40
0.0
 40
0.0
 40
3.228493884629176
 40
7.201376138627399
 40
10.42286495953719
 40
10.66779575624108
 40
10.66779575624108
 40
10.66779575624108
 40
10.66779575624108
 10
72.21073797923114
 20
103.1769348096147
 30
0.0
 10
72.21073797923114
 20
102.100770181405
 30
0.0
 10
72.28065262352348
 20
99.71540945929948
 30
0.0
 10
72.76065049500153
 20
96.18031721644596
 30
0.0
 10
73.86245416883003
 20
94.04058507390036
 30
0.0
 10
74.61233509575942
 20
93.04014737132829
 30
0.0
 10
74.66650472315343
 20
92.96990426388772
 30
0.0
  0
ARC
  5
44
330
2
100
AcDbEntity
  8
0
 48
0.1
100
AcDbCircle
 10
70.53604724862913
 20
114.1769348096184
 30
0.0
 40
3.0
100
AcDbArc
 50
89.99999999999539
 51
138.0601383732311
  0
ARC
  5
45
330
2
100
AcDbEntity
  8
0
 48
0.1
100
AcDbCircle
 10
70.66172888495032
 20
113.5519348096186
 30
0.0
 40
3.0
100
AcDbArc
 50
89.99999999999429
 51
141.4191845698041
  0
ARC
  5
46
330
2
100
AcDbEntity
  8
0
 48
0.1
100
AcDbCircle
 10
77.04214444321197
 20
111.5519348096138
 30
0.0
 40
3.0
100
AcDbArc
 50
89.99999999999554
 51
142.3615403707909
  0
CIRCLE
  5
47
330
2
100
AcDbEntity
  8
0
 48
0.1
100
AcDbCircle
 10
109.679787949982
 20
103.1769348096147
 30
0.0
 40
1.25
  0
LINE
  5
48
330
2
100
AcDbEntity
  8
CENTER
 48
0.5
100
AcDbLine
 10
109.679787949982
 20
99.41374008692827
 30
0.0
 11
109.679787949982
 21
106.9401295323012
 31
0.0
  0
SPLINE
  5
49
330
2
100
AcDbEntity
  8
0
 48
0.1
100
AcDbSpline
210
0.0
220
0.0
230
1.0
 70
     8
 71
     3
 72
    14
 73
    10
 74
     0
 42
0.0000000001
 43
0.0000000001
 40
0.0
 40
0.0
 40
0.0
 40
0.0
 40
1.320344749255177
 40
1.320344749255177
 40
3.961034247765533
 40
3.961034247765533
 40
6.592351689391822
 40
6.592351689391822
 40
9.130165142374226
 40
9.130165142374226
 40
9.130165142374226
 40
9.130165142374226
 10
114.6444134047312
 20
103.1769348096147
 30
0.0
 10
114.6444134047312
 20
103.6715112661145
 30
0.0
 10
114.6428238837831
 20
104.1523034589227
 30
0.0
 10
114.6304624144657
 20
105.5620404308277
 30
0.0
 10
114.6120869055702
 20
106.4582398168617
 30
0.0
 10
114.5405046844575
 20
108.2088530052262
 30
0.0
 10
114.4873855739199
 20
109.0642749815195
 30
0.0
 10
114.3348893110047
 20
110.7538802750351
 30
0.0
 10
114.2375474425883
 20
111.5477847427437
 30
0.0
 10
114.0625441707216
 20
112.264009950288
 30
0.0
  0
SPLINE
  5
4A
330
2
100
AcDbEntity
  8
0
 48
0.1
100
AcDbSpline
210
0.0
220
0.0
230
1.0
 70
     8
 71
     3
 72
    16
 73
    12
 74
     0
 42
0.0000000001
 43
0.0000000001
 40
0.0
 40
0.0
 40
0.0
 40
0.0
 40
1.326997960402524
 40
1.326997960402524
 40
3.980993881207572
 40
3.980993881207572
 40
7.145939480635002
 40
7.145939480635002
 40
10.31088508006243
 40
10.31088508006243
 40
11.57573016555843
 40
11.57573016555843
 40
11.57573016555843
 40
11.57573016555843
 10
116.804787949982
 20
103.1769348096147
 30
0.0
 10
116.804787949982
 20
103.6209691318602
 30
0.0
 10
116.80705106749
 20
104.063292975116
 30
0.0
 10
116.8117574953246
 20
105.3866340878909
 30
0.0
 10
116.8120753616249
 20
106.2639992978796
 30
0.0
 10
116.7558697578742
 20
108.1862124138499
 30
0.0
 10
116.6851003642009
 20
109.2359531085561
 30
0.0
 10
116.4284550926506
 20
111.3130052238947
 30
0.0
 10
116.243555569374
 20
112.3379705595785
 30
0.0
 10
115.8868654171267
 20
113.7210188264119
 30
0.0
 10
115.7745162017111
 20
114.1103603150758
 30
0.0
 10
115.6490134716656
 20
114.4911040687944
 30
0.0
  0
SPLINE
  5
4B
330
2
100
AcDbEntity
  8
0
 48
0.1
100
AcDbSpline
210
0.0
220
0.0
230
1.0
 70
     8
 71
     3
 72
    10
 73
     6
 74
     0
 42
0.0000000001
 43
0.0000000001
 40
0.0
 40
0.0
 40
0.0
 40
0.0
 40
4.690692544776133
 40
11.20587861573677
 40
12.21395477503809
 40
12.21395477503809
 40
12.21395477503809
 40
12.21395477503809
 10
117.304787949982
 20
103.1769348096147
 30
0.0
 10
117.304787949982
 20
104.7404989912068
 30
0.0
 10
117.3721922583354
 20
108.4577633038209
 30
0.0
 10
116.8118947014009
 20
112.6019493044184
 30
0.0
 10
116.0325203597485
 20
114.9290192729863
 30
0.0
 10
115.9158094509208
 20
115.2377543092108
 30
0.0
  0
SPLINE
  5
4C
330
2
100
AcDbEntity
  8
0
 48
0.1
100
AcDbSpline
210
0.0
220
0.0
230
1.0
 70
     8
 71
     3
 72
    16
 73
    12
 74
     0
 42
0.0000000001
 43
0.0000000001
 40
0.0
 40
0.0
 40
0.0
 40
0.0
 40
1.326997960402524
 40
1.326997960402524
 40
3.980993881207572
 40
3.980993881207572
 40
7.145939480635002
 40
7.145939480635002
 40
10.31088508006243
 40
10.31088508006243
 40
11.57573016545061
 40
11.57573016545061
 40
11.57573016545061
 40
11.57573016545061
 10
116.804787949982
 20
103.1769348096147
 30
0.0
 10
116.804787949982
 20
102.7329004873692
 30
0.0
 10
116.80705106749
 20
102.2905766441134
 30
0.0
 10
116.8117574953246
 20
100.9672355313385
 30
0.0
 10
116.8120753616249
 20
100.0898703213498
 30
0.0
 10
116.7558697578742
 20
98.16765720537956
 30
0.0
 10
116.6851003642009
 20
97.11791651067336
 30
0.0
 10
116.4284550926506
 20
95.04086439533471
 30
0.0
 10
116.243555569374
 20
94.01589905965094
 30
0.0
 10
115.8868654171354
 20
92.63285079285124
 30
0.0
 10
115.7745162017303
 20
92.24350930422003
 30
0.0
 10
115.6490134716976
 20
91.86276555053243
 30
0.0
  0
SPLINE
  5
4D
330
2
100
AcDbEntity
  8
0
 48
0.1
100
AcDbSpline
210
0.0
220
0.0
230
1.0
 70
     8
 71
     3
 72
    10
 73
     6
 74
     0
 42
0.0000000001
 43
0.0000000001
 40
0.0
 40
0.0
 40
0.0
 40
0.0
 40
4.690692544776133
 40
11.20587861573677
 40
12.21395477503809
 40
12.21395477503809
 40
12.21395477503809
 40
12.21395477503809
 10
117.304787949982
 20
103.1769348096147
 30
0.0
 10
117.304787949982
 20
101.6133706280226
 30
0.0
 10
117.3721922583354
 20
97.89610631540856
 30
0.0
 10
116.8118947014009
 20
93.75192031481109
 30
0.0
 10
116.0325203597485
 20
91.42485034624318
 30
0.0
 10
115.9158094509208
 20
91.11611531001861
 30
0.0
  0
ARC
  5
4E
330
2
100
AcDbEntity
  8
0
 48
0.1
100
AcDbCircle
 10
113.1096266362637
 20
92.17693480961475
 30
0.0
 40
3.0
100
AcDbArc
 50
270.0000000000049
 51
339.2919358738166
  0
ARC
  5
4F
330
2
100
AcDbEntity
  8
0
 48
0.1
100
AcDbCircle
 10
112.7998098807713
 20
92.80193480965678
 30
0.0
 40
3.0
100
AcDbArc
 50
270.0000000003235
 51
341.7564785719934
  0
SPLINE
  5
50
330
2
100
AcDbEntity
  8
0
 48
0.1
100
AcDbSpline
210
0.0
220
0.0
230
1.0
 70
     8
 71
     3
 72
    14
 73
    10
 74
     0
 42
0.0000000001
 43
0.0000000001
 40
0.0
 40
0.0
 40
0.0
 40
0.0
 40
1.320344749255177
 40
1.320344749255177
 40
3.961034247765533
 40
3.961034247765533
 40
6.592351689391822
 40
6.592351689391822
 40
9.130165142374226
 40
9.130165142374226
 40
9.130165142374226
 40
9.130165142374226
 10
114.6444134047312
 20
103.1769348096147
 30
0.0
 10
114.6444134047312
 20
102.6823583531149
 30
0.0
 10
114.6428238837831
 20
102.2015661603067
 30
0.0
 10
114.6304624144657
 20
100.7918291884017
 30
0.0
 10
114.6120869055702
 20
99.89562980236776
 30
0.0
 10
114.5405046844575
 20
98.14501661400326
 30
0.0
 10
114.4873855739199
 20
97.28959463770991
 30
0.0
 10
114.3348893110047
 20
95.59998934419434
 30
0.0
 10
114.2375474425883
 20
94.80608487648579
 30
0.0
 10
114.0625441707216
 20
94.08985966894148
 30
0.0
  0
ARC
  5
51
330
2
100
AcDbEntity
  8
0
 48
0.1
100
AcDbCircle
 10
113.1096266362637
 20
114.1769348096147
 30
0.0
 40
3.0
100
AcDbArc
 50
20.70806412618347
 51
89.99999999999506
  0
ARC
  5
52
330
2
100
AcDbEntity
  8
0
 48
0.1
100
AcDbCircle
 10
112.7998098807288
 20
113.5519348096122
 30
0.0
 40
3.0
100
AcDbArc
 50
18.24352142899403
 51
89.99999999999092
  0
ENDSEC
  0
SECTION
  2
OBJECTS
  0
DICTIONARY
  5
7
330
0
100
AcDbDictionary
  3
ACAD_GROUP
350
28
  3
ACAD_LAYOUT
350
B
  3
ACAD_MLINESTYLE
350
29
  3
ACAD_PLOTSETTINGS
350
2A
  3
ACAD_PLOTSTYLENAME
350
6
  3
ACDBHEADERROUNDTRIPXREC
350
E8
  3
ACDBVARIABLEDICTIONARY
350
53
  0
DICTIONARY
  5
11
330
10
100
AcDbDictionary
280
     1
  3
ACAD_LAYERFILTERS
360
12
  0
DICTIONARY
  5
60
330
2
100
AcDbDictionary
280
     1
  3
ACAD_LAYOUTSELFREF
360
109
  0
DICTIONARY
  5
62
330
C
100
AcDbDictionary
280
     1
  3
ACAD_LAYOUTSELFREF
360
10A
  0
DICTIONARY
  5
28
102
{ACAD_REACTORS
330
7
102
}
330
7
100
AcDbDictionary
  0
DICTIONARY
  5
B
102
{ACAD_REACTORS
330
7
102
}
330
7
100
AcDbDictionary
  0
DICTIONARY
  5
29
102
{ACAD_REACTORS
330
7
102
}
330
7
100
AcDbDictionary
  3
STANDARD
350
2D
  0
DICTIONARY
  5
2A
102
{ACAD_REACTORS
330
7
102
}
330
7
100
AcDbDictionary
  0
ACDBDICTIONARYWDFLT
  5
6
102
{ACAD_REACTORS
330
7
102
}
330
7
100
AcDbDictionary
281
     1
  3
Normal
350
5
100
AcDbDictionaryWithDefault
340
5
  0
DICTIONARY
  5
E8
102
{ACAD_REACTORS
330
7
102
}
330
7
100
AcDbDictionary
  3
CEPSNTYPE
350
F2
  3
DIMSTYLEDATA
350
F6
  3
FINGERPRINTGUID
350
F3
  3
HYPERLINKBASE
350
EB
  3
INSUNITS
350
F1
  3
LAYOUTDICT
350
ED
  3
LWETCUNION
350
F0
  3
PLOTSETDICT
350
EE
  3
PLOTSTYLNAMDICT
350
EF
  3
PSVPSCALE
350
F5
  3
PUCSBASE
350
F9
  3
PUCSORGBACK
350
FF
  3
PUCSORGBOTTOM
350
FB
  3
PUCSORGFRONT
350
FE
  3
PUCSORGLEFT
350
FC
  3
PUCSORGRIGHT
350
FD
  3
PUCSORGTOP
350
FA
  3
PUCSORTHOREF
350
F7
  3
PUCSORTHOVIEW
350
F8
  3
STYLESHEET
350
EC
  3
TSTACKALIGN
350
E9
  3
TSTACKSIZE
350
EA
  3
UCSBASE
350
102
  3
UCSORGBACK
350
108
  3
UCSORGBOTTOM
350
104
  3
UCSORGFRONT
350
107
  3
UCSORGLEFT
350
105
  3
UCSORGRIGHT
350
106
  3
UCSORGTOP
350
103
  3
UCSORTHOREF
350
100
  3
UCSORTHOVIEW
350
101
  3
VERSIONGUID
350
F4
  0
DICTIONARY
  5
53
102
{ACAD_REACTORS
330
7
102
}
330
7
100
AcDbDictionary
  3
DIMASSOC
350
55
  3
HIDETEXT
350
54
  0
DICTIONARY
  5
12
102
{ACAD_REACTORS
330
11
102
}
330
11
100
AcDbDictionary
280
     1
  3
DIM-1_12
360
13
  3
DIM-1_16
360
14
  0
XRECORD
  5
109
102
{ACAD_REACTORS
330
60
102
}
330
60
100
AcDbXrecord
340
2
  0
XRECORD
  5
10A
102
{ACAD_REACTORS
330
62
102
}
330
62
100
AcDbXrecord
340
C
  0
MLINESTYLE
  5
2D
102
{ACAD_REACTORS
330
29
102
}
330
29
100
AcDbMlineStyle
  2
STANDARD
 70
     0
  3

 62
   256
 51
90.0
 52
90.0
 71
     2
 49
0.5
 62
   256
  6
BYLAYER
 49
-0.5
 62
   256
  6
BYLAYER
  0
ACDBPLACEHOLDER
  5
5
102
{ACAD_REACTORS
330
6
102
}
330
6
100
AcDbPlaceHolder
280
     0
  0
XRECORD
  5
F2
102
{ACAD_REACTORS
330
E8
102
}
330
E8
100
AcDbXrecord
 90
        0
  0
XRECORD
  5
F6
102
{ACAD_REACTORS
330
E8
102
}
330
E8
100
AcDbXrecord
1000
DSTYLE
1002
{
1070
    79
 70
     1
1070
   276
 70
     1
1070
   277
 70
     5
1070
   289
 70
     1
1002
}
  0
XRECORD
  5
F3
102
{ACAD_REACTORS
330
E8
102
}
330
E8
100
AcDbXrecord
  1
{6A4AC8E0-4F58-11D5-8420-0003476D26AB}
  0
XRECORD
  5
EB
102
{ACAD_REACTORS
330
E8
102
}
330
E8
100
AcDbXrecord
  1

  0
XRECORD
  5
F1
102
{ACAD_REACTORS
330
E8
102
}
330
E8
100
AcDbXrecord
 90
        1
  0
XRECORD
  5
ED
102
{ACAD_REACTORS
330
E8
102
}
330
E8
100
AcDbXrecord
340
B
  0
XRECORD
  5
F0
102
{ACAD_REACTORS
330
E8
102
}
330
E8
100
AcDbXrecord
 90
    10781
  0
XRECORD
  5
EE
102
{ACAD_REACTORS
330
E8
102
}
330
E8
100
AcDbXrecord
340
2A
  0
XRECORD
  5
EF
102
{ACAD_REACTORS
330
E8
102
}
330
E8
100
AcDbXrecord
340
6
  0
XRECORD
  5
F5
102
{ACAD_REACTORS
330
E8
102
}
330
E8
100
AcDbXrecord
 40
0.0
  0
XRECORD
  5
F9
102
{ACAD_REACTORS
330
E8
102
}
330
E8
100
AcDbXrecord
340
0
  0
XRECORD
  5
FF
102
{ACAD_REACTORS
330
E8
102
}
330
E8
100
AcDbXrecord
 10
0.0
 20
0.0
 30
0.0
  0
XRECORD
  5
FB
102
{ACAD_REACTORS
330
E8
102
}
330
E8
100
AcDbXrecord
 10
0.0
 20
0.0
 30
0.0
  0
XRECORD
  5
FE
102
{ACAD_REACTORS
330
E8
102
}
330
E8
100
AcDbXrecord
 10
0.0
 20
0.0
 30
0.0
  0
XRECORD
  5
FC
102
{ACAD_REACTORS
330
E8
102
}
330
E8
100
AcDbXrecord
 10
0.0
 20
0.0
 30
0.0
  0
XRECORD
  5
FD
102
{ACAD_REACTORS
330
E8
102
}
330
E8
100
AcDbXrecord
 10
0.0
 20
0.0
 30
0.0
  0
XRECORD
  5
FA
102
{ACAD_REACTORS
330
E8
102
}
330
E8
100
AcDbXrecord
 10
0.0
 20
0.0
 30
0.0
  0
XRECORD
  5
F7
102
{ACAD_REACTORS
330
E8
102
}
330
E8
100
AcDbXrecord
340
0
  0
XRECORD
  5
F8
102
{ACAD_REACTORS
330
E8
102
}
330
E8
100
AcDbXrecord
 70
     0
  0
XRECORD
  5
EC
102
{ACAD_REACTORS
330
E8
102
}
330
E8
100
AcDbXrecord
  1

  0
XRECORD
  5
E9
102
{ACAD_REACTORS
330
E8
102
}
330
E8
100
AcDbXrecord
 90
        1
  0
XRECORD
  5
EA
102
{ACAD_REACTORS
330
E8
102
}
330
E8
100
AcDbXrecord
 90
       70
  0
XRECORD
  5
102
102
{ACAD_REACTORS
330
E8
102
}
330
E8
100
AcDbXrecord
340
0
  0
XRECORD
  5
108
102
{ACAD_REACTORS
330
E8
102
}
330
E8
100
AcDbXrecord
 10
0.0
 20
0.0
 30
0.0
  0
XRECORD
  5
104
102
{ACAD_REACTORS
330
E8
102
}
330
E8
100
AcDbXrecord
 10
0.0
 20
0.0
 30
0.0
  0
XRECORD
  5
107
102
{ACAD_REACTORS
330
E8
102
}
330
E8
100
AcDbXrecord
 10
0.0
 20
0.0
 30
0.0
  0
XRECORD
  5
105
102
{ACAD_REACTORS
330
E8
102
}
330
E8
100
AcDbXrecord
 10
0.0
 20
0.0
 30
0.0
  0
XRECORD
  5
106
102
{ACAD_REACTORS
330
E8
102
}
330
E8
100
AcDbXrecord
 10
0.0
 20
0.0
 30
0.0
  0
XRECORD
  5
103
102
{ACAD_REACTORS
330
E8
102
}
330
E8
100
AcDbXrecord
 10
0.0
 20
0.0
 30
0.0
  0
XRECORD
  5
100
102
{ACAD_REACTORS
330
E8
102
}
330
E8
100
AcDbXrecord
340
0
  0
XRECORD
  5
101
102
{ACAD_REACTORS
330
E8
102
}
330
E8
100
AcDbXrecord
 70
     1
  0
XRECORD
  5
F4
102
{ACAD_REACTORS
330
E8
102
}
330
E8
100
AcDbXrecord
  1
{4A3B777D-6828-411F-92A6-8B8640F771D1}
  0
DICTIONARYVAR
  5
55
102
{ACAD_REACTORS
330
53
102
}
330
53
100
DictionaryVariables
280
     0
  1
1
  0
DICTIONARYVAR
  5
54
102
{ACAD_REACTORS
330
53
102
}
330
53
100
DictionaryVariables
280
     0
  1
1
  0
XRECORD
  5
13
102
{ACAD_REACTORS
330
12
102
}
330
12
100
AcDbXrecord
  1
DIM-1_12
  1
DIM-1_12
  1
*
  1
*
 70
     0
  1
*
  1
*
  0
XRECORD
  5
14
102
{ACAD_REACTORS
330
12
102
}
330
12
100
AcDbXrecord
  1
dim-1_16
  1
*
  1
*
  1
*
 70
     0
  1
*
  1
*
  0
ENDSEC
  0
EOF
