  0
SECTION
  2
HEADER
  9
$ACADVER
  1
AC1014
  9
$ACADMAINTVER
 70
     9
  9
$DWGCODEPAGE
  3
ANSI_1252
  9
$INSBASE
 10
-47.74036765085748
 20
10.20267373578725
 30
0.0
  9
$EXTMIN
 10
-80.49589069086776
 20
-1.173571616698426
 30
-0.0015258207003612
  9
$EXTMAX
 10
-14.98763849649304
 20
34.57864413877118
 30
0.0000000349246008
  9
$LIMMIN
 10
0.0
 20
0.0
  9
$LIMMAX
 10
100.5024158491978
 20
51.69854817198938
  9
$ORTHOMODE
 70
     1
  9
$REGENMODE
 70
     1
  9
$FILLMODE
 70
     1
  9
$QTEXTMODE
 70
     0
  9
$MIRRTEXT
 70
     1
  9
$DRAGMODE
 70
     2
  9
$LTSCALE
 40
2.0
  9
$OSMODE
 70
    55
  9
$ATTMODE
 70
     1
  9
$TEXTSIZE
 40
0.06
  9
$TRACEWID
 40
1.0
  9
$TEXTSTYLE
  7
CARTOUCHE
  9
$CLAYER
  8
0
  9
$CELTYPE
  6
BYLAYER
  9
$CECOLOR
 62
   256
  9
$CELTSCALE
 40
1.0
  9
$DELOBJ
 70
     1
  9
$DISPSILH
 70
     0
  9
$DIMSCALE
 40
16.0
  9
$DIMASZ
 40
0.1
  9
$DIMEXO
 40
0.0625
  9
$DIMDLI
 40
0.25
  9
$DIMRND
 40
0.0
  9
$DIMDLE
 40
0.0
  9
$DIMEXE
 40
0.1
  9
$DIMTP
 40
0.0
  9
$DIMTM
 40
0.0
  9
$DIMTXT
 40
0.1
  9
$DIMCEN
 40
0.09
  9
$DIMTSZ
 40
0.0
  9
$DIMTOL
 70
     0
  9
$DIMLIM
 70
     0
  9
$DIMTIH
 70
     1
  9
$DIMTOH
 70
     1
  9
$DIMSE1
 70
     0
  9
$DIMSE2
 70
     0
  9
$DIMTAD
 70
     0
  9
$DIMZIN
 70
     4
  9
$DIMBLK
  1

  9
$DIMASO
 70
     1
  9
$DIMSHO
 70
     1
  9
$DIMPOST
  1
\X
  9
$DIMAPOST
  1
cm
  9
$DIMALT
 70
     1
  9
$DIMALTD
 70
     1
  9
$DIMALTF
 40
2.54
  9
$DIMLFAC
 40
1.0
  9
$DIMTOFL
 70
     0
  9
$DIMTVP
 40
0.0
  9
$DIMTIX
 70
     0
  9
$DIMSOXD
 70
     0
  9
$DIMSAH
 70
     0
  9
$DIMBLK1
  1

  9
$DIMBLK2
  1

  9
$DIMSTYLE
  2
STANDARD
  9
$DIMCLRD
 70
     0
  9
$DIMCLRE
 70
     0
  9
$DIMCLRT
 70
     0
  9
$DIMTFAC
 40
1.0
  9
$DIMGAP
 40
0.08
  9
$DIMJUST
 70
     0
  9
$DIMSD1
 70
     0
  9
$DIMSD2
 70
     0
  9
$DIMTOLJ
 70
     1
  9
$DIMTZIN
 70
     4
  9
$DIMALTZ
 70
     4
  9
$DIMALTTZ
 70
     4
  9
$DIMFIT
 70
     1
  9
$DIMUPT
 70
     0
  9
$DIMUNIT
 70
     5
  9
$DIMDEC
 70
     3
  9
$DIMTDEC
 70
     3
  9
$DIMALTU
 70
     2
  9
$DIMALTTD
 70
     1
  9
$DIMTXSTY
  7
ROMANS
  9
$DIMAUNIT
 70
     0
  9
$LUNITS
 70
     2
  9
$LUPREC
 70
     2
  9
$SKETCHINC
 40
1.0
  9
$FILLETRAD
 40
3.0
  9
$AUNITS
 70
     0
  9
$AUPREC
 70
     0
  9
$MENU
  1
.
  9
$ELEVATION
 40
0.0
  9
$PELEVATION
 40
0.0
  9
$THICKNESS
 40
0.0
  9
$LIMCHECK
 70
     0
  9
$BLIPMODE
 70
     0
  9
$CHAMFERA
 40
10.0
  9
$CHAMFERB
 40
10.0
  9
$CHAMFERC
 40
20.0
  9
$CHAMFERD
 40
0.0
  9
$SKPOLY
 70
     0
  9
$TDCREATE
 40
2452062.343093518
  9
$TDUPDATE
 40
2453689.551796863
  9
$TDINDWG
 40
1.6171078819
  9
$TDUSRTIMER
 40
1.6171078819
  9
$USRTIMER
 70
     1
  9
$ANGBASE
 50
0.0
  9
$ANGDIR
 70
     0
  9
$PDMODE
 70
    33
  9
$PDSIZE
 40
0.25
  9
$PLINEWID
 40
0.0
  9
$COORDS
 70
     1
  9
$SPLFRAME
 70
     0
  9
$SPLINETYPE
 70
     6
  9
$SPLINESEGS
 70
     8
  9
$ATTDIA
 70
     0
  9
$ATTREQ
 70
     1
  9
$HANDLING
 70
 22529
  9
$HANDSEED
  5
158
  9
$SURFTAB1
 70
     6
  9
$SURFTAB2
 70
     6
  9
$SURFTYPE
 70
     6
  9
$SURFU
 70
     6
  9
$SURFV
 70
     6
  9
$UCSNAME
  2

  9
$UCSORG
 10
0.0
 20
0.0
 30
0.0
  9
$UCSXDIR
 10
1.0
 20
0.0
 30
0.0
  9
$UCSYDIR
 10
0.0
 20
1.0
 30
0.0
  9
$PUCSNAME
  2

  9
$PUCSORG
 10
0.0
 20
0.0
 30
0.0
  9
$PUCSXDIR
 10
1.0
 20
0.0
 30
0.0
  9
$PUCSYDIR
 10
0.0
 20
1.0
 30
0.0
  9
$USERI1
 70
     0
  9
$USERI2
 70
     0
  9
$USERI3
 70
     0
  9
$USERI4
 70
     0
  9
$USERI5
 70
     0
  9
$USERR1
 40
0.0
  9
$USERR2
 40
0.0
  9
$USERR3
 40
0.0
  9
$USERR4
 40
0.0
  9
$USERR5
 40
0.0
  9
$WORLDVIEW
 70
     1
  9
$SHADEDGE
 70
     3
  9
$SHADEDIF
 70
    70
  9
$TILEMODE
 70
     1
  9
$MAXACTVP
 70
    48
  9
$PINSBASE
 10
0.0
 20
0.0
 30
0.0
  9
$PLIMCHECK
 70
     0
  9
$PEXTMIN
 10
0.0
 20
0.0
 30
0.0
  9
$PEXTMAX
 10
0.0
 20
0.0
 30
0.0
  9
$PLIMMIN
 10
0.0
 20
0.0
  9
$PLIMMAX
 10
12.0
 20
9.0
  9
$UNITMODE
 70
     0
  9
$VISRETAIN
 70
     1
  9
$PLINEGEN
 70
     0
  9
$PSLTSCALE
 70
     1
  9
$TREEDEPTH
 70
  3020
  9
$PICKSTYLE
 70
     1
  9
$CMLSTYLE
  2
STANDARD
  9
$CMLJUST
 70
     0
  9
$CMLSCALE
 40
20.0
  9
$PROXYGRAPHICS
 70
     1
  9
$MEASUREMENT
 70
     0
  0
ENDSEC
  0
SECTION
  2
CLASSES
  0
CLASS
  1
ACDBDICTIONARYWDFLT
  2
AcDbDictionaryWithDefault
  3
AutoCAD 2000
 90
        0
280
     0
281
     0
  0
CLASS
  1
ACDBPLACEHOLDER
  2
AcDbPlaceHolder
  3
AutoCAD 2000
 90
        0
280
     0
281
     0
  0
CLASS
  1
LAYOUT
  2
AcDbLayout
  3
AutoCAD 2000
 90
        0
280
     0
281
     0
  0
CLASS
  1
DICTIONARYVAR
  2
AcDbDictionaryVar
  3
AutoCAD 2000
 90
        0
280
     0
281
     0
  0
CLASS
  1
IMAGEDEF
  2
AcDbRasterImageDef
  3
ISM
 90
        0
280
     0
281
     0
  0
CLASS
  1
LONG_TRANSACTION
  2
AcDbLongTransaction
  3
AutoCAD 2000
 90
        0
280
     0
281
     0
  0
CLASS
  1
LWPOLYLINE
  2
AcDbPolyline
  3
AutoCAD 2000
 90
        0
280
     0
281
     1
  0
CLASS
  1
HATCH
  2
AcDbHatch
  3
AutoCAD 2000
 90
        0
280
     0
281
     1
  0
CLASS
  1
XRECORD
  2
AcDbXrecord
  3
AutoCAD 2000
 90
        0
280
     0
281
     0
  0
CLASS
  1
LONG_TRANSACTION
  2
AcDbLongTransaction
  3
AutoCAD 2000
 90
        0
280
     0
281
     0
  0
CLASS
  1
LWPOLYLINE
  2
AcDbPolyline
  3
AutoCAD 2000
 90
        0
280
     0
281
     1
  0
CLASS
  1
HATCH
  2
AcDbHatch
  3
AutoCAD 2000
 90
        0
280
     0
281
     1
  0
CLASS
  1
XRECORD
  2
AcDbXrecord
  3
AutoCAD 2000
 90
        0
280
     0
281
     0
  0
ENDSEC
  0
SECTION
  2
TABLES
  0
TABLE
  2
VPORT
  5
1D
330
0
100
AcDbSymbolTable
 70
     4
  0
VPORT
  5
134
330
1D
100
AcDbSymbolTableRecord
100
AcDbViewportTableRecord
  2
*ACTIVE
 70
     0
 10
0.0
 20
0.0
 11
1.0
 21
1.0
 12
-47.74176466974991
 22
16.70253621824393
 13
0.0
 23
0.0
 14
10.0
 24
10.0
 15
10.0
 25
10.0
 16
0.0
 26
0.0
 36
1.0
 17
0.0
 27
0.0
 37
0.0
 40
43.5353141345283
 41
1.786792452830188
 42
50.0
 43
0.0
 44
0.0
 50
0.0
 51
0.0
 71
     0
 72
   100
 73
     1
 74
     3
 75
     0
 76
     0
 77
     0
 78
     2
  0
ENDTAB
  0
TABLE
  2
LTYPE
  5
18
330
0
100
AcDbSymbolTable
 70
     2
  0
LTYPE
  5
19
330
18
100
AcDbSymbolTableRecord
100
AcDbLinetypeTableRecord
  2
BYBLOCK
 70
     0
  3

 72
    65
 73
     0
 40
0.0
  0
LTYPE
  5
1A
330
18
100
AcDbSymbolTableRecord
100
AcDbLinetypeTableRecord
  2
BYLAYER
 70
     0
  3

 72
    65
 73
     0
 40
0.0
  0
LTYPE
  5
8
330
18
100
AcDbSymbolTableRecord
100
AcDbLinetypeTableRecord
  2
CONTINUOUS
 70
     0
  3
Solid line
 72
    65
 73
     0
 40
0.0
  0
LTYPE
  5
42
330
18
100
AcDbSymbolTableRecord
100
AcDbLinetypeTableRecord
  2
CENTER
 70
     0
  3
Center ____ _ ____ _ ____ _ ____ _ ____ _ ____
 72
    65
 73
     4
 40
50.8
 49
31.75
 74
     0
 49
-6.349999999999999
 74
     0
 49
6.349999999999999
 74
     0
 49
-6.349999999999999
 74
     0
  0
ENDTAB
  0
TABLE
  2
LAYER
  5
10
102
{ACAD_XDICTIONARY
360
11
102
}
330
0
100
AcDbSymbolTable
 70
     2
  0
LAYER
  5
4
330
10
100
AcDbSymbolTableRecord
100
AcDbLayerTableRecord
  2
0
 70
     0
 62
     7
  6
CONTINUOUS
  0
LAYER
  5
41
330
10
100
AcDbSymbolTableRecord
100
AcDbLayerTableRecord
  2
CENTER
 70
     0
 62
     1
  6
CENTER
  0
ENDTAB
  0
TABLE
  2
STYLE
  5
15
330
0
100
AcDbSymbolTable
 70
     3
  0
STYLE
  5
16
330
15
100
AcDbSymbolTableRecord
100
AcDbTextStyleTableRecord
  2
STANDARD
 70
     0
 40
0.0
 41
1.0
 50
0.0
 71
     0
 42
0.125
  3
txt
  4

  0
STYLE
  5
2B
330
15
100
AcDbSymbolTableRecord
100
AcDbTextStyleTableRecord
  2
CARTOUCHE
 70
     0
 40
0.0
 41
1.0
 50
0.0
 71
     0
 42
0.06
  3
romans.shx
  4

  0
STYLE
  5
23
330
15
100
AcDbSymbolTableRecord
100
AcDbTextStyleTableRecord
  2
ROMANS
 70
     0
 40
0.0
 41
1.0
 50
0.0
 71
     0
 42
1.0
  3
romans.shx
  4

  0
ENDTAB
  0
TABLE
  2
VIEW
  5
1B
330
0
100
AcDbSymbolTable
 70
     0
  0
ENDTAB
  0
TABLE
  2
UCS
  5
1C
330
0
100
AcDbSymbolTable
 70
     0
  0
ENDTAB
  0
TABLE
  2
APPID
  5
1F
330
0
100
AcDbSymbolTable
 70
     1
  0
APPID
  5
20
330
1F
100
AcDbSymbolTableRecord
100
AcDbRegAppTableRecord
  2
ACAD
 70
     0
  0
ENDTAB
  0
TABLE
  2
DIMSTYLE
  5
21
330
0
100
AcDbSymbolTable
 70
     1
  0
DIMSTYLE
105
22
330
21
100
AcDbSymbolTableRecord
100
AcDbDimStyleTableRecord
  2
STANDARD
 70
     0
  3
\X
  4
cm
  5

  6

  7

 40
16.0
 41
0.1
 42
0.0625
 43
0.25
 44
0.1
 45
0.0
 46
0.0
 47
0.0
 48
0.0
140
0.1
141
0.09
142
0.0
143
2.54
144
1.0
145
0.0
146
1.0
147
0.08
 71
     0
 72
     0
 73
     1
 74
     1
 75
     0
 76
     0
 77
     0
 78
     4
170
     1
171
     1
172
     0
173
     0
174
     0
175
     0
176
     0
177
     0
178
     0
270
     5
271
     3
272
     3
273
     2
274
     1
340
23
275
     0
280
     0
281
     0
282
     0
283
     1
284
     4
285
     4
286
     4
287
     1
288
     0
  0
ENDTAB
  0
TABLE
  2
BLOCK_RECORD
  5
1
330
0
100
AcDbSymbolTable
 70
     0
  0
BLOCK_RECORD
  5
2
102
{ACAD_XDICTIONARY
360
6F
102
}
330
1
100
AcDbSymbolTableRecord
100
AcDbBlockTableRecord
  2
*MODEL_SPACE
  0
BLOCK_RECORD
  5
64
102
{ACAD_XDICTIONARY
360
71
102
}
330
1
100
AcDbSymbolTableRecord
100
AcDbBlockTableRecord
  2
*PAPER_SPACE
  0
ENDTAB
  0
ENDSEC
  0
SECTION
  2
BLOCKS
  0
BLOCK
  5
3
330
2
100
AcDbEntity
  8
0
100
AcDbBlockBegin
  2
*MODEL_SPACE
 70
     0
 10
0.0
 20
0.0
 30
0.0
  3
*MODEL_SPACE
  1

  0
ENDBLK
  5
9
330
2
100
AcDbEntity
  8
0
100
AcDbBlockEnd
  0
BLOCK
  5
66
330
64
100
AcDbEntity
 67
     1
  8
0
100
AcDbBlockBegin
  2
*PAPER_SPACE
 70
     0
 10
0.0
 20
0.0
 30
0.0
  3
*PAPER_SPACE
  1

  0
ENDBLK
  5
67
330
64
100
AcDbEntity
 67
     1
  8
0
100
AcDbBlockEnd
  0
ENDSEC
  0
SECTION
  2
ENTITIES
  0
LINE
  5
2D
330
2
100
AcDbEntity
  8
0
 48
0.1
100
AcDbLine
 10
-50.74036765085748
 20
5.233923735787241
 30
0.0
 11
-26.90232514144088
 21
5.233923735791043
 31
0.0
  0
LINE
  5
2E
330
2
100
AcDbEntity
  8
0
 48
0.1
100
AcDbLine
 10
-50.74036765085747
 20
2.358923735787241
 30
0.0
 11
-23.93842891345947
 21
2.358923735787241
 31
0.0
  0
LINE
  5
2F
330
2
100
AcDbEntity
  8
0
 48
0.1
100
AcDbLine
 10
-50.74036765085748
 20
2.858923735787248
 30
0.0
 11
-24.19658162926713
 21
2.858923735787248
 31
0.0
  0
LINE
  5
30
330
2
100
AcDbEntity
  8
0
 48
0.1
100
AcDbLine
 10
-50.74036765085748
 20
28.23392373578725
 30
0.0
 11
-26.90232514144088
 21
28.23392373578345
 31
0.0
  0
LINE
  5
31
330
2
100
AcDbEntity
  8
0
 48
0.1
100
AcDbLine
 10
-50.74036765085748
 20
30.60892373578724
 30
0.0
 11
-24.19658162926713
 21
30.60892373578724
 31
0.0
  0
LINE
  5
32
330
2
100
AcDbEntity
  8
0
 48
0.1
100
AcDbLine
 10
-50.74036765085747
 20
31.10892373578725
 30
0.0
 11
-23.93842891345947
 21
31.10892373578725
 31
0.0
  0
LWPOLYLINE
  5
33
330
2
100
AcDbEntity
  8
0
 48
0.1
100
AcDbPolyline
 90
        4
 70
     1
 43
0.0
 10
-80.49036765085748
 20
-1.172326264212756
 10
-14.99036765085747
 20
-1.172326264212754
 10
-14.99036765085747
 20
34.57767373578724
 10
-80.49036765085748
 20
34.57767373578724
  0
SPLINE
  5
34
330
2
100
AcDbEntity
  8
0
 48
0.1
100
AcDbSpline
210
0.0
220
0.0
230
1.0
 70
     8
 71
     3
 72
     9
 73
     5
 74
     0
 42
0.0000000001
 43
0.0000000001
 40
0.0
 40
0.0
 40
0.0
 40
0.0
 40
5.304735533680826
 40
9.658303475330558
 40
9.658303475330558
 40
9.658303475330558
 40
9.658303475330558
 10
-69.26866473063642
 20
16.73392373578724
 30
0.0
 10
-69.27378477161465
 20
18.50274132499448
 30
0.0
 10
-69.28310680270556
 20
21.72321800297359
 30
0.0
 10
-68.59104981319834
 20
24.92596779552672
 30
0.0
 10
-68.08043708807365
 20
26.28741840821928
 30
0.0
  0
SPLINE
  5
35
330
2
100
AcDbEntity
  8
0
 48
0.1
100
AcDbSpline
210
0.0
220
0.0
230
1.0
 70
     8
 71
     3
 72
    18
 73
    14
 74
     0
 42
0.0000000001
 43
0.0000000001
 40
0.0
 40
0.0
 40
0.0
 40
0.0
 40
1.296584706444643
 40
1.296584706444643
 40
3.889754119333931
 40
3.889754119333931
 40
6.400785241656511
 40
6.400785241656511
 40
8.911816363979092
 40
8.911816363979092
 40
11.43891940772361
 40
11.43891940772361
 40
13.42828519932348
 40
13.42828519932348
 40
13.42828519932348
 40
13.42828519932348
 10
-76.61536136695058
 20
16.7382655938586
 30
0.0
 10
-76.61661280857035
 20
17.17060040491469
 30
0.0
 10
-76.61785654418799
 20
17.60174446031586
 30
0.0
 10
-76.61237272523384
 20
18.89136666018134
 30
0.0
 10
-76.59638017903183
 20
19.74601378802474
 30
0.0
 10
-76.49357205733348
 20
21.41713628784683
 30
0.0
 10
-76.40791254179373
 20
22.23502918235663
 30
0.0
 10
-76.13255359260993
 20
23.85560532729341
 30
0.0
 10
-75.94443573161597
 20
24.65576878636253
 30
0.0
 10
-75.4466900489698
 20
26.21056093145379
 30
0.0
 10
-75.13607100566433
 20
26.96189628170033
 30
0.0
 10
-74.45613574929133
 20
28.24617081171862
 30
0.0
 10
-74.11541923361607
 20
28.79417632836941
 30
0.0
 10
-73.74406603321017
 20
29.32613984838594
 30
0.0
  0
SPLINE
  5
36
330
2
100
AcDbEntity
  8
0
 48
0.1
100
AcDbSpline
210
0.0
220
0.0
230
1.0
 70
     8
 71
     3
 72
    10
 73
     6
 74
     0
 42
0.0000000001
 43
0.0000000001
 40
0.0
 40
0.0
 40
0.0
 40
0.0
 40
5.304735533680826
 40
10.8440190007309
 40
13.73696105836431
 40
13.73696105836431
 40
13.73696105836431
 40
13.73696105836431
 10
-77.11535927226879
 20
16.7368182938205
 30
0.0
 10
-77.12047931324703
 20
18.50563588302774
 30
0.0
 10
-77.13094577690013
 20
22.12147901496256
 30
0.0
 10
-76.02416837753513
 20
26.67364016860082
 30
0.0
 10
-74.54215723605464
 20
29.07915965886901
 30
0.0
 10
-73.97437895851405
 20
29.86534709392042
 30
0.0
  0
LINE
  5
37
330
2
100
AcDbEntity
  8
0
 48
0.1
100
AcDbLine
 10
-50.74036765085747
 20
5.233923735787245
 30
0.0
 11
-65.27149618888097
 21
5.233923735787248
 31
0.0
  0
LINE
  5
38
330
2
100
AcDbEntity
  8
0
 48
0.1
100
AcDbLine
 10
-50.74036765085747
 20
2.858923735787248
 30
0.0
 11
-71.28415367244781
 21
2.858923735787248
 31
0.0
  0
LINE
  5
39
330
2
100
AcDbEntity
  8
0
 48
0.1
100
AcDbLine
 10
-50.74036765085747
 20
2.358923735787241
 30
0.0
 11
-71.54230638825548
 21
2.358923735787241
 31
0.0
  0
SPLINE
  5
3A
330
2
100
AcDbEntity
  8
0
 48
0.1
100
AcDbSpline
210
0.0
220
0.0
230
1.0
 70
     8
 71
     3
 72
     9
 73
     5
 74
     0
 42
0.0000000001
 43
0.0000000001
 40
0.0
 40
0.0
 40
0.0
 40
0.0
 40
5.304735533680826
 40
9.658303475330558
 40
9.658303475330558
 40
9.658303475330558
 40
9.658303475330558
 10
-69.26866473063642
 20
16.73392373578724
 30
0.0
 10
-69.27378477161465
 20
14.96510614658
 30
0.0
 10
-69.28310680270556
 20
11.74462946860089
 30
0.0
 10
-68.59104981319834
 20
8.541879676047765
 30
0.0
 10
-68.08043708807365
 20
7.180429063355211
 30
0.0
  0
SPLINE
  5
3B
330
2
100
AcDbEntity
  8
0
 48
0.1
100
AcDbSpline
210
0.0
220
0.0
230
1.0
 70
     8
 71
     3
 72
    10
 73
     6
 74
     0
 42
0.0000000001
 43
0.0000000001
 40
0.0
 40
0.0
 40
0.0
 40
0.0
 40
5.304735533680826
 40
10.8440190007309
 40
13.73696105836431
 40
13.73696105836431
 40
13.73696105836431
 40
13.73696105836431
 10
-77.11535927226879
 20
16.73102917775398
 30
0.0
 10
-77.12047931324703
 20
14.96221158854674
 30
0.0
 10
-77.13094577690013
 20
11.34636845661193
 30
0.0
 10
-76.02416837753513
 20
6.794207302973669
 30
0.0
 10
-74.54215723605464
 20
4.388687812705478
 30
0.0
 10
-73.97437895851405
 20
3.602500377654072
 30
0.0
  0
SPLINE
  5
3C
330
2
100
AcDbEntity
  8
0
 48
0.1
100
AcDbSpline
210
0.0
220
0.0
230
1.0
 70
     8
 71
     3
 72
    18
 73
    14
 74
     0
 42
0.0000000001
 43
0.0000000001
 40
0.0
 40
0.0
 40
0.0
 40
0.0
 40
1.296584706444643
 40
1.296584706444643
 40
3.889754119333931
 40
3.889754119333931
 40
6.400785241656511
 40
6.400785241656511
 40
8.911816363979092
 40
8.911816363979092
 40
11.43891940772361
 40
11.43891940772361
 40
13.42828519932348
 40
13.42828519932348
 40
13.42828519932348
 40
13.42828519932348
 10
-76.61536136695058
 20
16.72958187771588
 30
0.0
 10
-76.61661280857035
 20
16.2972470666598
 30
0.0
 10
-76.61785654418799
 20
15.86610301125862
 30
0.0
 10
-76.61237272523384
 20
14.57648081139314
 30
0.0
 10
-76.59638017903183
 20
13.72183368354974
 30
0.0
 10
-76.49357205733348
 20
12.05071118372766
 30
0.0
 10
-76.40791254179373
 20
11.23281828921785
 30
0.0
 10
-76.13255359260993
 20
9.61224214428107
 30
0.0
 10
-75.94443573161597
 20
8.812078685211952
 30
0.0
 10
-75.4466900489698
 20
7.2572865401207
 30
0.0
 10
-75.13607100566433
 20
6.505951189874155
 30
0.0
 10
-74.45613574929133
 20
5.221676659855868
 30
0.0
 10
-74.11541923361607
 20
4.673671143205078
 30
0.0
 10
-73.74406603321017
 20
4.141707623188549
 30
0.0
  0
ARC
  5
3D
330
2
100
AcDbEntity
  8
0
 48
0.1
100
AcDbCircle
 10
-65.27149618888095
 20
8.233923735787291
 30
0.0
 40
3.0
100
AcDbArc
 50
200.5585815981048
 51
269.9999999999997
  0
ARC
  5
3E
330
2
100
AcDbEntity
  8
0
 48
0.1
100
AcDbCircle
 10
-71.2841536724478
 20
5.858923735787273
 30
0.0
 40
3.0
100
AcDbArc
 50
214.9181304815973
 51
269.9999999999997
  0
ARC
  5
3F
330
2
100
AcDbEntity
  8
0
 48
0.1
100
AcDbCircle
 10
-71.54230638825549
 20
5.358923735787223
 30
0.0
 40
3.0
100
AcDbArc
 50
215.8365149944848
 51
270.0000000000002
  0
LINE
  5
40
330
2
100
AcDbEntity
  8
CENTER
 48
0.05
100
AcDbLine
 10
-47.74036765085749
 20
13.13710606497671
 30
0.0
 11
-47.74036765085747
 21
7.268241406597788
 31
0.0
  0
CIRCLE
  5
43
330
2
100
AcDbEntity
  8
0
 48
0.1
100
AcDbCircle
 10
-47.74036765085748
 20
10.20267373578724
 30
0.0
 40
1.89014635623478
  0
LINE
  5
44
330
2
100
AcDbEntity
  8
CENTER
 48
0.05
100
AcDbLine
 10
-44.80593532166797
 20
10.20267373578725
 30
0.0
 11
-50.6747999800469
 21
10.20267373578724
 31
0.0
  0
CIRCLE
  5
45
330
2
100
AcDbEntity
  8
0
 48
0.1
100
AcDbCircle
 10
-47.74036765085748
 20
10.20267373578724
 30
0.0
 40
1.25
  0
LINE
  5
46
330
2
100
AcDbEntity
  8
0
 48
0.1
100
AcDbLine
 10
-50.74036765085747
 20
28.23392373578724
 30
0.0
 11
-65.27149618888097
 21
28.23392373578724
 31
0.0
  0
LINE
  5
47
330
2
100
AcDbEntity
  8
0
 48
0.1
100
AcDbLine
 10
-50.74036765085747
 20
30.60892373578724
 30
0.0
 11
-71.28415367244781
 21
30.60892373578724
 31
0.0
  0
LINE
  5
48
330
2
100
AcDbEntity
  8
0
 48
0.1
100
AcDbLine
 10
-50.74036765085747
 20
31.10892373578725
 30
0.0
 11
-71.54230638825548
 21
31.10892373578725
 31
0.0
  0
ARC
  5
49
330
2
100
AcDbEntity
  8
0
 48
0.1
100
AcDbCircle
 10
-65.27149618888095
 20
25.2339237357872
 30
0.0
 40
3.0
100
AcDbArc
 50
90.00000000000026
 51
159.4414184018952
  0
ARC
  5
4A
330
2
100
AcDbEntity
  8
0
 48
0.1
100
AcDbCircle
 10
-71.54230638825549
 20
28.10892373578726
 30
0.0
 40
3.0
100
AcDbArc
 50
89.99999999999973
 51
144.1634850055151
  0
ARC
  5
4B
330
2
100
AcDbEntity
  8
0
 48
0.1
100
AcDbCircle
 10
-71.2841536724478
 20
27.60892373578721
 30
0.0
 40
3.0
100
AcDbArc
 50
90.00000000000026
 51
145.0818695184026
  0
SPLINE
  5
4C
330
2
100
AcDbEntity
  8
0
 48
0.1
100
AcDbSpline
210
0.0
220
0.0
230
1.0
 70
     8
 71
     3
 72
    10
 73
     6
 74
     0
 42
0.0000000001
 43
0.0000000001
 40
0.0
 40
0.0
 40
0.0
 40
0.0
 40
5.304735533680826
 40
10.8440190007309
 40
13.7369610583611
 40
13.7369610583611
 40
13.7369610583611
 40
13.7369610583611
 10
-18.36537602944616
 20
16.7368182938205
 30
0.0
 10
-18.36025598846794
 20
18.50563588302774
 30
0.0
 10
-18.34978952481481
 20
22.12147901496256
 30
0.0
 10
-19.45656692417958
 20
26.67364016859976
 30
0.0
 10
-20.93857806565918
 20
29.07915965886718
 30
0.0
 10
-21.506356343199
 20
29.86534709391779
 30
0.0
  0
SPLINE
  5
4D
330
2
100
AcDbEntity
  8
0
 48
0.1
100
AcDbSpline
210
0.0
220
0.0
230
1.0
 70
     8
 71
     3
 72
    18
 73
    14
 74
     0
 42
0.0000000001
 43
0.0000000001
 40
0.0
 40
0.0
 40
0.0
 40
0.0
 40
1.296584706444643
 40
1.296584706444643
 40
3.889754119333931
 40
3.889754119333931
 40
6.400785241656511
 40
6.400785241656511
 40
8.911816363979092
 40
8.911816363979092
 40
11.43891940772361
 40
11.43891940772361
 40
13.42828519932356
 40
13.42828519932356
 40
13.42828519932356
 40
13.42828519932356
 10
-18.86537393476436
 20
16.7382655938586
 30
0.0
 10
-18.8641224931446
 20
17.17060040491469
 30
0.0
 10
-18.86287875752697
 20
17.60174446031586
 30
0.0
 10
-18.8683625764811
 20
18.89136666018134
 30
0.0
 10
-18.88435512268313
 20
19.74601378802474
 30
0.0
 10
-18.98716324438146
 20
21.41713628784683
 30
0.0
 10
-19.07282275992122
 20
22.23502918235663
 30
0.0
 10
-19.348181709105
 20
23.85560532729341
 30
0.0
 10
-19.536299570099
 20
24.65576878636253
 30
0.0
 10
-20.03404525274516
 20
26.21056093145379
 30
0.0
 10
-20.3446642960506
 20
26.96189628170033
 30
0.0
 10
-21.02459955242363
 20
28.24617081171865
 30
0.0
 10
-21.3653160680989
 20
28.79417632836946
 30
0.0
 10
-21.73666926850481
 20
29.326139848386
 30
0.0
  0
SPLINE
  5
4E
330
2
100
AcDbEntity
  8
0
 48
0.1
100
AcDbSpline
210
0.0
220
0.0
230
1.0
 70
     8
 71
     3
 72
     9
 73
     5
 74
     0
 42
0.0000000001
 43
0.0000000001
 40
0.0
 40
0.0
 40
0.0
 40
0.0
 40
5.304735533680826
 40
9.658303475325482
 40
9.658303475325482
 40
9.658303475325482
 40
9.658303475325482
 10
-22.90515659968736
 20
16.73392373578724
 30
0.0
 10
-22.9000365587091
 20
18.50274132499448
 30
0.0
 10
-22.89071452761823
 20
21.7232180029719
 30
0.0
 10
-23.58277151712471
 20
24.92596779552335
 30
0.0
 10
-24.09338424224833
 20
26.2874184082145
 30
0.0
  0
SPLINE
  5
4F
330
2
100
AcDbEntity
  8
0
 48
0.1
100
AcDbSpline
210
0.0
220
0.0
230
1.0
 70
     8
 71
     3
 72
    18
 73
    14
 74
     0
 42
0.0000000001
 43
0.0000000001
 40
0.0
 40
0.0
 40
0.0
 40
0.0
 40
1.296584706444643
 40
1.296584706444643
 40
3.889754119333931
 40
3.889754119333931
 40
6.400785241656511
 40
6.400785241656511
 40
8.911816363979092
 40
8.911816363979092
 40
11.43891940772361
 40
11.43891940772361
 40
13.42828519932356
 40
13.42828519932356
 40
13.42828519932356
 40
13.42828519932356
 10
-18.86537393476436
 20
16.72958187771588
 30
0.0
 10
-18.8641224931446
 20
16.2972470666598
 30
0.0
 10
-18.86287875752697
 20
15.86610301125862
 30
0.0
 10
-18.8683625764811
 20
14.57648081139314
 30
0.0
 10
-18.88435512268313
 20
13.72183368354974
 30
0.0
 10
-18.98716324438146
 20
12.05071118372766
 30
0.0
 10
-19.07282275992122
 20
11.23281828921785
 30
0.0
 10
-19.348181709105
 20
9.61224214428107
 30
0.0
 10
-19.536299570099
 20
8.812078685211952
 30
0.0
 10
-20.03404525274516
 20
7.2572865401207
 30
0.0
 10
-20.3446642960506
 20
6.505951189874155
 30
0.0
 10
-21.02459955242363
 20
5.221676659855843
 30
0.0
 10
-21.3653160680989
 20
4.673671143205028
 30
0.0
 10
-21.73666926850481
 20
4.141707623188482
 30
0.0
  0
SPLINE
  5
50
330
2
100
AcDbEntity
  8
0
 48
0.1
100
AcDbSpline
210
0.0
220
0.0
230
1.0
 70
     8
 71
     3
 72
    10
 73
     6
 74
     0
 42
0.0000000001
 43
0.0000000001
 40
0.0
 40
0.0
 40
0.0
 40
0.0
 40
5.304735533680826
 40
10.8440190007309
 40
13.7369610583611
 40
13.7369610583611
 40
13.7369610583611
 40
13.7369610583611
 10
-18.36537602944616
 20
16.73102917775398
 30
0.0
 10
-18.36025598846794
 20
14.96221158854674
 30
0.0
 10
-18.34978952481481
 20
11.34636845661193
 30
0.0
 10
-19.45656692417958
 20
6.794207302974731
 30
0.0
 10
-20.93857806565918
 20
4.388687812707305
 30
0.0
 10
-21.506356343199
 20
3.60250037765669
 30
0.0
  0
SPLINE
  5
51
330
2
100
AcDbEntity
  8
0
 48
0.1
100
AcDbSpline
210
0.0
220
0.0
230
1.0
 70
     8
 71
     3
 72
     9
 73
     5
 74
     0
 42
0.0000000001
 43
0.0000000001
 40
0.0
 40
0.0
 40
0.0
 40
0.0
 40
5.304735533680826
 40
9.658303475325482
 40
9.658303475325482
 40
9.658303475325482
 40
9.658303475325482
 10
-22.90515659968736
 20
16.73392373578724
 30
0.0
 10
-22.9000365587091
 20
14.96510614658
 30
0.0
 10
-22.89071452761823
 20
11.74462946860259
 30
0.0
 10
-23.58277151712471
 20
8.541879676051133
 30
0.0
 10
-24.09338424224833
 20
7.180429063359985
 30
0.0
  0
ARC
  5
52
330
2
100
AcDbEntity
  8
0
 48
0.1
100
AcDbCircle
 10
-26.90232514144136
 20
8.233923735791053
 30
0.0
 40
3.0
100
AcDbArc
 50
270.0000000000092
 51
339.4414184019156
  0
ARC
  5
53
330
2
100
AcDbEntity
  8
0
 48
0.1
100
AcDbCircle
 10
-24.19658162926714
 20
5.858923735787223
 30
0.0
 40
3.0
100
AcDbArc
 50
270.0000000000001
 51
325.0818695184018
  0
ARC
  5
54
330
2
100
AcDbEntity
  8
0
 48
0.1
100
AcDbCircle
 10
-23.93842891345865
 20
5.358923735788343
 30
0.0
 40
3.0
100
AcDbArc
 50
269.9999999999844
 51
324.1634850055506
  0
ARC
  5
55
330
2
100
AcDbEntity
  8
0
 48
0.1
100
AcDbCircle
 10
-26.90232514144136
 20
25.23392373578343
 30
0.0
 40
3.0
100
AcDbArc
 50
20.55858159808433
 51
89.99999999999078
  0
ARC
  5
56
330
2
100
AcDbEntity
  8
0
 48
0.1
100
AcDbCircle
 10
-24.19658162926714
 20
27.60892373578726
 30
0.0
 40
3.0
100
AcDbArc
 50
34.91813048159824
 51
89.99999999999987
  0
ARC
  5
57
330
2
100
AcDbEntity
  8
0
 48
0.1
100
AcDbCircle
 10
-23.93842891345865
 20
28.10892373578615
 30
0.0
 40
3.0
100
AcDbArc
 50
35.83651499444939
 51
90.00000000001559
  0
ENDSEC
  0
SECTION
  2
OBJECTS
  0
DICTIONARY
  5
7
330
0
100
AcDbDictionary
  3
ACAD_GROUP
350
28
  3
ACAD_LAYOUT
350
B
  3
ACAD_MLINESTYLE
350
29
  3
ACAD_PLOTSETTINGS
350
2A
  3
ACAD_PLOTSTYLENAME
350
6
  3
ACDBHEADERROUNDTRIPXREC
350
135
  3
ACDBVARIABLEDICTIONARY
350
58
  0
DICTIONARY
  5
11
330
10
100
AcDbDictionary
280
     1
  3
ACAD_LAYERFILTERS
360
12
  0
DICTIONARY
  5
6F
330
2
100
AcDbDictionary
280
     1
  3
ACAD_LAYOUTSELFREF
360
156
  0
DICTIONARY
  5
71
330
64
100
AcDbDictionary
280
     1
  3
ACAD_LAYOUTSELFREF
360
157
  0
DICTIONARY
  5
28
102
{ACAD_REACTORS
330
7
102
}
330
7
100
AcDbDictionary
  0
DICTIONARY
  5
B
102
{ACAD_REACTORS
330
7
102
}
330
7
100
AcDbDictionary
  0
DICTIONARY
  5
29
102
{ACAD_REACTORS
330
7
102
}
330
7
100
AcDbDictionary
  3
STANDARD
350
2C
  0
DICTIONARY
  5
2A
102
{ACAD_REACTORS
330
7
102
}
330
7
100
AcDbDictionary
  0
ACDBDICTIONARYWDFLT
  5
6
102
{ACAD_REACTORS
330
7
102
}
330
7
100
AcDbDictionary
281
     1
  3
Normal
350
5
100
AcDbDictionaryWithDefault
340
5
  0
DICTIONARY
  5
135
102
{ACAD_REACTORS
330
7
102
}
330
7
100
AcDbDictionary
  3
CEPSNTYPE
350
13F
  3
DIMSTYLEDATA
350
143
  3
FINGERPRINTGUID
350
140
  3
HYPERLINKBASE
350
138
  3
INSUNITS
350
13E
  3
LAYOUTDICT
350
13A
  3
LWETCUNION
350
13D
  3
PLOTSETDICT
350
13B
  3
PLOTSTYLNAMDICT
350
13C
  3
PSVPSCALE
350
142
  3
PUCSBASE
350
146
  3
PUCSORGBACK
350
14C
  3
PUCSORGBOTTOM
350
148
  3
PUCSORGFRONT
350
14B
  3
PUCSORGLEFT
350
149
  3
PUCSORGRIGHT
350
14A
  3
PUCSORGTOP
350
147
  3
PUCSORTHOREF
350
144
  3
PUCSORTHOVIEW
350
145
  3
STYLESHEET
350
139
  3
TSTACKALIGN
350
136
  3
TSTACKSIZE
350
137
  3
UCSBASE
350
14F
  3
UCSORGBACK
350
155
  3
UCSORGBOTTOM
350
151
  3
UCSORGFRONT
350
154
  3
UCSORGLEFT
350
152
  3
UCSORGRIGHT
350
153
  3
UCSORGTOP
350
150
  3
UCSORTHOREF
350
14D
  3
UCSORTHOVIEW
350
14E
  3
VERSIONGUID
350
141
  0
DICTIONARY
  5
58
102
{ACAD_REACTORS
330
7
102
}
330
7
100
AcDbDictionary
  3
DIMASSOC
350
5A
  3
HIDETEXT
350
59
  0
DICTIONARY
  5
12
102
{ACAD_REACTORS
330
11
102
}
330
11
100
AcDbDictionary
280
     1
  3
DIM-1_12
360
13
  3
DIM-1_16
360
14
  0
XRECORD
  5
156
102
{ACAD_REACTORS
330
6F
102
}
330
6F
100
AcDbXrecord
340
2
  0
XRECORD
  5
157
102
{ACAD_REACTORS
330
71
102
}
330
71
100
AcDbXrecord
340
64
  0
MLINESTYLE
  5
2C
102
{ACAD_REACTORS
330
29
102
}
330
29
100
AcDbMlineStyle
  2
STANDARD
 70
     0
  3

 62
   256
 51
90.0
 52
90.0
 71
     2
 49
0.5
 62
   256
  6
BYLAYER
 49
-0.5
 62
   256
  6
BYLAYER
  0
ACDBPLACEHOLDER
  5
5
102
{ACAD_REACTORS
330
6
102
}
330
6
100
AcDbPlaceHolder
280
     0
  0
XRECORD
  5
13F
102
{ACAD_REACTORS
330
135
102
}
330
135
100
AcDbXrecord
 90
        0
  0
XRECORD
  5
143
102
{ACAD_REACTORS
330
135
102
}
330
135
100
AcDbXrecord
1000
DSTYLE
1002
{
1070
    79
 70
     1
1070
   276
 70
     1
1070
   277
 70
     5
1070
   289
 70
     1
1002
}
  0
XRECORD
  5
140
102
{ACAD_REACTORS
330
135
102
}
330
135
100
AcDbXrecord
  1
{6A4AC8E0-4F58-11D5-8420-0003476D26AB}
  0
XRECORD
  5
138
102
{ACAD_REACTORS
330
135
102
}
330
135
100
AcDbXrecord
  1

  0
XRECORD
  5
13E
102
{ACAD_REACTORS
330
135
102
}
330
135
100
AcDbXrecord
 90
        1
  0
XRECORD
  5
13A
102
{ACAD_REACTORS
330
135
102
}
330
135
100
AcDbXrecord
340
B
  0
XRECORD
  5
13D
102
{ACAD_REACTORS
330
135
102
}
330
135
100
AcDbXrecord
 90
    10781
  0
XRECORD
  5
13B
102
{ACAD_REACTORS
330
135
102
}
330
135
100
AcDbXrecord
340
2A
  0
XRECORD
  5
13C
102
{ACAD_REACTORS
330
135
102
}
330
135
100
AcDbXrecord
340
6
  0
XRECORD
  5
142
102
{ACAD_REACTORS
330
135
102
}
330
135
100
AcDbXrecord
 40
0.0
  0
XRECORD
  5
146
102
{ACAD_REACTORS
330
135
102
}
330
135
100
AcDbXrecord
340
0
  0
XRECORD
  5
14C
102
{ACAD_REACTORS
330
135
102
}
330
135
100
AcDbXrecord
 10
0.0
 20
0.0
 30
0.0
  0
XRECORD
  5
148
102
{ACAD_REACTORS
330
135
102
}
330
135
100
AcDbXrecord
 10
0.0
 20
0.0
 30
0.0
  0
XRECORD
  5
14B
102
{ACAD_REACTORS
330
135
102
}
330
135
100
AcDbXrecord
 10
0.0
 20
0.0
 30
0.0
  0
XRECORD
  5
149
102
{ACAD_REACTORS
330
135
102
}
330
135
100
AcDbXrecord
 10
0.0
 20
0.0
 30
0.0
  0
XRECORD
  5
14A
102
{ACAD_REACTORS
330
135
102
}
330
135
100
AcDbXrecord
 10
0.0
 20
0.0
 30
0.0
  0
XRECORD
  5
147
102
{ACAD_REACTORS
330
135
102
}
330
135
100
AcDbXrecord
 10
0.0
 20
0.0
 30
0.0
  0
XRECORD
  5
144
102
{ACAD_REACTORS
330
135
102
}
330
135
100
AcDbXrecord
340
0
  0
XRECORD
  5
145
102
{ACAD_REACTORS
330
135
102
}
330
135
100
AcDbXrecord
 70
     0
  0
XRECORD
  5
139
102
{ACAD_REACTORS
330
135
102
}
330
135
100
AcDbXrecord
  1

  0
XRECORD
  5
136
102
{ACAD_REACTORS
330
135
102
}
330
135
100
AcDbXrecord
 90
        1
  0
XRECORD
  5
137
102
{ACAD_REACTORS
330
135
102
}
330
135
100
AcDbXrecord
 90
       70
  0
XRECORD
  5
14F
102
{ACAD_REACTORS
330
135
102
}
330
135
100
AcDbXrecord
340
0
  0
XRECORD
  5
155
102
{ACAD_REACTORS
330
135
102
}
330
135
100
AcDbXrecord
 10
0.0
 20
0.0
 30
0.0
  0
XRECORD
  5
151
102
{ACAD_REACTORS
330
135
102
}
330
135
100
AcDbXrecord
 10
0.0
 20
0.0
 30
0.0
  0
XRECORD
  5
154
102
{ACAD_REACTORS
330
135
102
}
330
135
100
AcDbXrecord
 10
0.0
 20
0.0
 30
0.0
  0
XRECORD
  5
152
102
{ACAD_REACTORS
330
135
102
}
330
135
100
AcDbXrecord
 10
0.0
 20
0.0
 30
0.0
  0
XRECORD
  5
153
102
{ACAD_REACTORS
330
135
102
}
330
135
100
AcDbXrecord
 10
0.0
 20
0.0
 30
0.0
  0
XRECORD
  5
150
102
{ACAD_REACTORS
330
135
102
}
330
135
100
AcDbXrecord
 10
0.0
 20
0.0
 30
0.0
  0
XRECORD
  5
14D
102
{ACAD_REACTORS
330
135
102
}
330
135
100
AcDbXrecord
340
0
  0
XRECORD
  5
14E
102
{ACAD_REACTORS
330
135
102
}
330
135
100
AcDbXrecord
 70
     1
  0
XRECORD
  5
141
102
{ACAD_REACTORS
330
135
102
}
330
135
100
AcDbXrecord
  1
{E2BAC71E-45FD-4EC3-A4AA-D349516BA7A2}
  0
DICTIONARYVAR
  5
5A
102
{ACAD_REACTORS
330
58
102
}
330
58
100
DictionaryVariables
280
     0
  1
1
  0
DICTIONARYVAR
  5
59
102
{ACAD_REACTORS
330
58
102
}
330
58
100
DictionaryVariables
280
     0
  1
1
  0
XRECORD
  5
13
102
{ACAD_REACTORS
330
12
102
}
330
12
100
AcDbXrecord
  1
DIM-1_12
  1
DIM-1_12
  1
*
  1
*
 70
     0
  1
*
  1
*
  0
XRECORD
  5
14
102
{ACAD_REACTORS
330
12
102
}
330
12
100
AcDbXrecord
  1
dim-1_16
  1
*
  1
*
  1
*
 70
     0
  1
*
  1
*
  0
ENDSEC
  0
EOF
