  0
SECTION
  2
HEADER
  9
$ACADVER
  1
AC1014
  9
$ACADMAINTVER
 70
     9
  9
$DWGCODEPAGE
  3
ANSI_1252
  9
$INSBASE
 10
-50.74036765085748
 20
9.952673735787243
 30
0.0
  9
$EXTMIN
 10
-86.43629476270735
 20
-0.6745214481358279
 30
-0.0015258207003612
  9
$EXTMAX
 10
-15.04480967021482
 20
35.08076754895562
 30
0.0000000349246008
  9
$LIMMIN
 10
0.0
 20
0.0
  9
$LIMMAX
 10
100.5024158491978
 20
51.69854817198938
  9
$ORTHOMODE
 70
     1
  9
$REGENMODE
 70
     1
  9
$FILLMODE
 70
     1
  9
$QTEXTMODE
 70
     0
  9
$MIRRTEXT
 70
     1
  9
$DRAGMODE
 70
     2
  9
$LTSCALE
 40
2.0
  9
$OSMODE
 70
    55
  9
$ATTMODE
 70
     1
  9
$TEXTSIZE
 40
0.06
  9
$TRACEWID
 40
1.0
  9
$TEXTSTYLE
  7
CARTOUCHE
  9
$CLAYER
  8
0
  9
$CELTYPE
  6
BYLAYER
  9
$CECOLOR
 62
   256
  9
$CELTSCALE
 40
1.0
  9
$DELOBJ
 70
     1
  9
$DISPSILH
 70
     0
  9
$DIMSCALE
 40
16.0
  9
$DIMASZ
 40
0.1
  9
$DIMEXO
 40
0.0625
  9
$DIMDLI
 40
0.25
  9
$DIMRND
 40
0.0
  9
$DIMDLE
 40
0.0
  9
$DIMEXE
 40
0.1
  9
$DIMTP
 40
0.0
  9
$DIMTM
 40
0.0
  9
$DIMTXT
 40
0.1
  9
$DIMCEN
 40
0.09
  9
$DIMTSZ
 40
0.0
  9
$DIMTOL
 70
     0
  9
$DIMLIM
 70
     0
  9
$DIMTIH
 70
     1
  9
$DIMTOH
 70
     1
  9
$DIMSE1
 70
     0
  9
$DIMSE2
 70
     0
  9
$DIMTAD
 70
     0
  9
$DIMZIN
 70
     4
  9
$DIMBLK
  1

  9
$DIMASO
 70
     1
  9
$DIMSHO
 70
     1
  9
$DIMPOST
  1
\X
  9
$DIMAPOST
  1
cm
  9
$DIMALT
 70
     1
  9
$DIMALTD
 70
     1
  9
$DIMALTF
 40
2.54
  9
$DIMLFAC
 40
1.0
  9
$DIMTOFL
 70
     0
  9
$DIMTVP
 40
0.0
  9
$DIMTIX
 70
     0
  9
$DIMSOXD
 70
     0
  9
$DIMSAH
 70
     0
  9
$DIMBLK1
  1

  9
$DIMBLK2
  1

  9
$DIMSTYLE
  2
STANDARD
  9
$DIMCLRD
 70
     0
  9
$DIMCLRE
 70
     0
  9
$DIMCLRT
 70
     0
  9
$DIMTFAC
 40
1.0
  9
$DIMGAP
 40
0.08
  9
$DIMJUST
 70
     0
  9
$DIMSD1
 70
     0
  9
$DIMSD2
 70
     0
  9
$DIMTOLJ
 70
     1
  9
$DIMTZIN
 70
     4
  9
$DIMALTZ
 70
     4
  9
$DIMALTTZ
 70
     4
  9
$DIMFIT
 70
     1
  9
$DIMUPT
 70
     0
  9
$DIMUNIT
 70
     5
  9
$DIMDEC
 70
     3
  9
$DIMTDEC
 70
     3
  9
$DIMALTU
 70
     2
  9
$DIMALTTD
 70
     1
  9
$DIMTXSTY
  7
ROMANS
  9
$DIMAUNIT
 70
     0
  9
$LUNITS
 70
     2
  9
$LUPREC
 70
     2
  9
$SKETCHINC
 40
1.0
  9
$FILLETRAD
 40
1.0
  9
$AUNITS
 70
     0
  9
$AUPREC
 70
     0
  9
$MENU
  1
.
  9
$ELEVATION
 40
0.0
  9
$PELEVATION
 40
0.0
  9
$THICKNESS
 40
0.0
  9
$LIMCHECK
 70
     0
  9
$BLIPMODE
 70
     0
  9
$CHAMFERA
 40
10.0
  9
$CHAMFERB
 40
10.0
  9
$CHAMFERC
 40
20.0
  9
$CHAMFERD
 40
0.0
  9
$SKPOLY
 70
     0
  9
$TDCREATE
 40
2452062.343093518
  9
$TDUPDATE
 40
2453689.560808090
  9
$TDINDWG
 40
1.5991393634
  9
$TDUSRTIMER
 40
1.5991393634
  9
$USRTIMER
 70
     1
  9
$ANGBASE
 50
0.0
  9
$ANGDIR
 70
     0
  9
$PDMODE
 70
    33
  9
$PDSIZE
 40
0.25
  9
$PLINEWID
 40
0.0
  9
$COORDS
 70
     1
  9
$SPLFRAME
 70
     0
  9
$SPLINETYPE
 70
     6
  9
$SPLINESEGS
 70
     8
  9
$ATTDIA
 70
     0
  9
$ATTREQ
 70
     1
  9
$HANDLING
 70
 22529
  9
$HANDSEED
  5
117
  9
$SURFTAB1
 70
     6
  9
$SURFTAB2
 70
     6
  9
$SURFTYPE
 70
     6
  9
$SURFU
 70
     6
  9
$SURFV
 70
     6
  9
$UCSNAME
  2

  9
$UCSORG
 10
0.0
 20
0.0
 30
0.0
  9
$UCSXDIR
 10
1.0
 20
0.0
 30
0.0
  9
$UCSYDIR
 10
0.0
 20
1.0
 30
0.0
  9
$PUCSNAME
  2

  9
$PUCSORG
 10
0.0
 20
0.0
 30
0.0
  9
$PUCSXDIR
 10
1.0
 20
0.0
 30
0.0
  9
$PUCSYDIR
 10
0.0
 20
1.0
 30
0.0
  9
$USERI1
 70
     0
  9
$USERI2
 70
     0
  9
$USERI3
 70
     0
  9
$USERI4
 70
     0
  9
$USERI5
 70
     0
  9
$USERR1
 40
0.0
  9
$USERR2
 40
0.0
  9
$USERR3
 40
0.0
  9
$USERR4
 40
0.0
  9
$USERR5
 40
0.0
  9
$WORLDVIEW
 70
     1
  9
$SHADEDGE
 70
     3
  9
$SHADEDIF
 70
    70
  9
$TILEMODE
 70
     1
  9
$MAXACTVP
 70
    48
  9
$PINSBASE
 10
0.0
 20
0.0
 30
0.0
  9
$PLIMCHECK
 70
     0
  9
$PEXTMIN
 10
0.0
 20
0.0
 30
0.0
  9
$PEXTMAX
 10
0.0
 20
0.0
 30
0.0
  9
$PLIMMIN
 10
0.0
 20
0.0
  9
$PLIMMAX
 10
12.0
 20
9.0
  9
$UNITMODE
 70
     0
  9
$VISRETAIN
 70
     1
  9
$PLINEGEN
 70
     0
  9
$PSLTSCALE
 70
     1
  9
$TREEDEPTH
 70
  3020
  9
$PICKSTYLE
 70
     1
  9
$CMLSTYLE
  2
STANDARD
  9
$CMLJUST
 70
     0
  9
$CMLSCALE
 40
20.0
  9
$PROXYGRAPHICS
 70
     1
  9
$MEASUREMENT
 70
     0
  0
ENDSEC
  0
SECTION
  2
CLASSES
  0
CLASS
  1
ACDBDICTIONARYWDFLT
  2
AcDbDictionaryWithDefault
  3
AutoCAD 2000
 90
        0
280
     0
281
     0
  0
CLASS
  1
ACDBPLACEHOLDER
  2
AcDbPlaceHolder
  3
AutoCAD 2000
 90
        0
280
     0
281
     0
  0
CLASS
  1
LAYOUT
  2
AcDbLayout
  3
AutoCAD 2000
 90
        0
280
     0
281
     0
  0
CLASS
  1
DICTIONARYVAR
  2
AcDbDictionaryVar
  3
AutoCAD 2000
 90
        0
280
     0
281
     0
  0
CLASS
  1
IMAGEDEF
  2
AcDbRasterImageDef
  3
ISM
 90
        0
280
     0
281
     0
  0
CLASS
  1
LONG_TRANSACTION
  2
AcDbLongTransaction
  3
AutoCAD 2000
 90
        0
280
     0
281
     0
  0
CLASS
  1
LWPOLYLINE
  2
AcDbPolyline
  3
AutoCAD 2000
 90
        0
280
     0
281
     1
  0
CLASS
  1
HATCH
  2
AcDbHatch
  3
AutoCAD 2000
 90
        0
280
     0
281
     1
  0
CLASS
  1
XRECORD
  2
AcDbXrecord
  3
AutoCAD 2000
 90
        0
280
     0
281
     0
  0
CLASS
  1
LONG_TRANSACTION
  2
AcDbLongTransaction
  3
AutoCAD 2000
 90
        0
280
     0
281
     0
  0
CLASS
  1
LWPOLYLINE
  2
AcDbPolyline
  3
AutoCAD 2000
 90
        0
280
     0
281
     1
  0
CLASS
  1
HATCH
  2
AcDbHatch
  3
AutoCAD 2000
 90
        0
280
     0
281
     1
  0
CLASS
  1
XRECORD
  2
AcDbXrecord
  3
AutoCAD 2000
 90
        0
280
     0
281
     0
  0
ENDSEC
  0
SECTION
  2
TABLES
  0
TABLE
  2
VPORT
  5
1D
330
0
100
AcDbSymbolTable
 70
     3
  0
VPORT
  5
F3
330
1D
100
AcDbSymbolTableRecord
100
AcDbViewportTableRecord
  2
*ACTIVE
 70
     0
 10
0.0
 20
0.0
 11
1.0
 21
1.0
 12
-50.74055194752937
 22
17.20312298733129
 13
0.0
 23
0.0
 14
10.0
 24
10.0
 15
10.0
 25
10.0
 16
0.0
 26
0.0
 36
1.0
 17
0.0
 27
0.0
 37
0.0
 40
47.44517885913423
 41
1.786792452830188
 42
50.0
 43
0.0
 44
0.0
 50
0.0
 51
0.0
 71
     0
 72
   100
 73
     1
 74
     3
 75
     0
 76
     0
 77
     0
 78
     2
  0
ENDTAB
  0
TABLE
  2
LTYPE
  5
18
330
0
100
AcDbSymbolTable
 70
     2
  0
LTYPE
  5
19
330
18
100
AcDbSymbolTableRecord
100
AcDbLinetypeTableRecord
  2
BYBLOCK
 70
     0
  3

 72
    65
 73
     0
 40
0.0
  0
LTYPE
  5
1A
330
18
100
AcDbSymbolTableRecord
100
AcDbLinetypeTableRecord
  2
BYLAYER
 70
     0
  3

 72
    65
 73
     0
 40
0.0
  0
LTYPE
  5
8
330
18
100
AcDbSymbolTableRecord
100
AcDbLinetypeTableRecord
  2
CONTINUOUS
 70
     0
  3
Solid line
 72
    65
 73
     0
 40
0.0
  0
LTYPE
  5
43
330
18
100
AcDbSymbolTableRecord
100
AcDbLinetypeTableRecord
  2
CENTER
 70
     0
  3
Center ____ _ ____ _ ____ _ ____ _ ____ _ ____
 72
    65
 73
     4
 40
50.8
 49
31.75
 74
     0
 49
-6.349999999999999
 74
     0
 49
6.349999999999999
 74
     0
 49
-6.349999999999999
 74
     0
  0
ENDTAB
  0
TABLE
  2
LAYER
  5
10
102
{ACAD_XDICTIONARY
360
11
102
}
330
0
100
AcDbSymbolTable
 70
     2
  0
LAYER
  5
4
330
10
100
AcDbSymbolTableRecord
100
AcDbLayerTableRecord
  2
0
 70
     0
 62
     7
  6
CONTINUOUS
  0
LAYER
  5
42
330
10
100
AcDbSymbolTableRecord
100
AcDbLayerTableRecord
  2
CENTER
 70
     0
 62
     1
  6
CENTER
  0
ENDTAB
  0
TABLE
  2
STYLE
  5
15
330
0
100
AcDbSymbolTable
 70
     3
  0
STYLE
  5
16
330
15
100
AcDbSymbolTableRecord
100
AcDbTextStyleTableRecord
  2
STANDARD
 70
     0
 40
0.0
 41
1.0
 50
0.0
 71
     0
 42
0.125
  3
txt
  4

  0
STYLE
  5
2B
330
15
100
AcDbSymbolTableRecord
100
AcDbTextStyleTableRecord
  2
CARTOUCHE
 70
     0
 40
0.0
 41
1.0
 50
0.0
 71
     0
 42
0.06
  3
romans.shx
  4

  0
STYLE
  5
23
330
15
100
AcDbSymbolTableRecord
100
AcDbTextStyleTableRecord
  2
ROMANS
 70
     0
 40
0.0
 41
1.0
 50
0.0
 71
     0
 42
1.0
  3
romans.shx
  4

  0
ENDTAB
  0
TABLE
  2
VIEW
  5
1B
330
0
100
AcDbSymbolTable
 70
     0
  0
ENDTAB
  0
TABLE
  2
UCS
  5
1C
330
0
100
AcDbSymbolTable
 70
     0
  0
ENDTAB
  0
TABLE
  2
APPID
  5
1F
330
0
100
AcDbSymbolTable
 70
     1
  0
APPID
  5
20
330
1F
100
AcDbSymbolTableRecord
100
AcDbRegAppTableRecord
  2
ACAD
 70
     0
  0
ENDTAB
  0
TABLE
  2
DIMSTYLE
  5
21
330
0
100
AcDbSymbolTable
 70
     1
  0
DIMSTYLE
105
22
330
21
100
AcDbSymbolTableRecord
100
AcDbDimStyleTableRecord
  2
STANDARD
 70
     0
  3
\X
  4
cm
  5

  6

  7

 40
16.0
 41
0.1
 42
0.0625
 43
0.25
 44
0.1
 45
0.0
 46
0.0
 47
0.0
 48
0.0
140
0.1
141
0.09
142
0.0
143
2.54
144
1.0
145
0.0
146
1.0
147
0.08
 71
     0
 72
     0
 73
     1
 74
     1
 75
     0
 76
     0
 77
     0
 78
     4
170
     1
171
     1
172
     0
173
     0
174
     0
175
     0
176
     0
177
     0
178
     0
270
     5
271
     3
272
     3
273
     2
274
     1
340
23
275
     0
280
     0
281
     0
282
     0
283
     1
284
     4
285
     4
286
     4
287
     1
288
     0
  0
ENDTAB
  0
TABLE
  2
BLOCK_RECORD
  5
1
330
0
100
AcDbSymbolTable
 70
     0
  0
BLOCK_RECORD
  5
2
102
{ACAD_XDICTIONARY
360
6A
102
}
330
1
100
AcDbSymbolTableRecord
100
AcDbBlockTableRecord
  2
*MODEL_SPACE
  0
BLOCK_RECORD
  5
5F
102
{ACAD_XDICTIONARY
360
6C
102
}
330
1
100
AcDbSymbolTableRecord
100
AcDbBlockTableRecord
  2
*PAPER_SPACE
  0
ENDTAB
  0
ENDSEC
  0
SECTION
  2
BLOCKS
  0
BLOCK
  5
3
330
2
100
AcDbEntity
  8
0
100
AcDbBlockBegin
  2
*MODEL_SPACE
 70
     0
 10
0.0
 20
0.0
 30
0.0
  3
*MODEL_SPACE
  1

  0
ENDBLK
  5
9
330
2
100
AcDbEntity
  8
0
100
AcDbBlockEnd
  0
BLOCK
  5
61
330
5F
100
AcDbEntity
 67
     1
  8
0
100
AcDbBlockBegin
  2
*PAPER_SPACE
 70
     0
 10
0.0
 20
0.0
 30
0.0
  3
*PAPER_SPACE
  1

  0
ENDBLK
  5
62
330
5F
100
AcDbEntity
 67
     1
  8
0
100
AcDbBlockEnd
  0
ENDSEC
  0
SECTION
  2
ENTITIES
  0
LWPOLYLINE
  5
2D
330
2
100
AcDbEntity
  8
0
 48
0.1
100
AcDbPolyline
 90
        4
 70
     1
 43
0.0
 10
-86.42786765085748
 20
-0.6723262642127566
 10
-15.05286765085747
 20
-0.6723262642127548
 10
-15.05286765085747
 20
35.07767373578724
 10
-86.42786765085748
 20
35.07767373578724
  0
LINE
  5
2E
330
2
100
AcDbEntity
  8
0
 48
0.1
100
AcDbLine
 10
-50.74036765085748
 20
31.20267373578724
 30
0.0
 11
-24.19306193364327
 21
31.20267373578724
 31
0.0
  0
LINE
  5
2F
330
2
100
AcDbEntity
  8
0
 48
0.1
100
AcDbLine
 10
-50.74036765085748
 20
31.70267373578725
 30
0.0
 11
-23.93794002827017
 21
31.70267373578725
 31
0.0
  0
LINE
  5
30
330
2
100
AcDbEntity
  8
0
 48
0.1
100
AcDbLine
 10
-50.74036765085748
 20
29.32767373578724
 30
0.0
 11
-31.5245968665869
 21
29.32767373578724
 31
0.0
  0
LINE
  5
31
330
2
100
AcDbEntity
  8
0
 48
0.1
100
AcDbLine
 10
-50.74036765085748
 20
3.202673735787248
 30
0.0
 11
-24.19306193364327
 21
3.202673735787248
 31
0.0
  0
LINE
  5
32
330
2
100
AcDbEntity
  8
0
 48
0.1
100
AcDbLine
 10
-50.74036765085748
 20
2.702673735787241
 30
0.0
 11
-23.93794002827017
 21
2.702673735787241
 31
0.0
  0
LINE
  5
33
330
2
100
AcDbEntity
  8
0
 48
0.1
100
AcDbLine
 10
-50.74036765085748
 20
5.077673735787245
 30
0.0
 11
-31.5245968665869
 21
5.077673735787248
 31
0.0
  0
SPLINE
  5
34
330
2
100
AcDbEntity
  8
0
 48
0.1
100
AcDbSpline
210
0.0
220
0.0
230
1.0
 70
     8
 71
     3
 72
     9
 73
     5
 74
     0
 42
0.0000000001
 43
0.0000000001
 40
0.0
 40
0.0
 40
0.0
 40
0.0
 40
5.304735533680826
 40
10.51379614302359
 40
10.51379614302359
 40
10.51379614302359
 40
10.51379614302359
 10
-74.20911765085749
 20
17.20267373578724
 30
0.0
 10
-74.21423769183573
 20
18.97149132499448
 30
0.0
 10
-74.22438542997412
 20
22.47722453809123
 30
0.0
 10
-73.40340082945572
 20
25.96195143747102
 30
0.0
 10
-72.69643867962111
 20
27.54863834216667
 30
0.0
  0
SPLINE
  5
35
330
2
100
AcDbEntity
  8
0
 48
0.1
100
AcDbSpline
210
0.0
220
0.0
230
1.0
 70
     8
 71
     3
 72
    18
 73
    14
 74
     0
 42
0.0000000001
 43
0.0000000001
 40
0.609932498895185
 40
0.609932498895185
 40
0.609932498895185
 40
0.609932498895185
 40
1.296584706444643
 40
1.296584706444643
 40
3.889754119333931
 40
3.889754119333931
 40
6.400785241656511
 40
6.400785241656511
 40
8.911816363979092
 40
8.911816363979092
 40
11.43891940772361
 40
11.43891940772361
 40
13.61874469294057
 40
13.61874469294057
 40
13.61874469294057
 40
13.61874469294057
 10
-82.71002126989378
 20
16.87217253930165
 30
0.0
 10
-82.71086159920656
 20
18.0418078095142
 30
0.0
 10
-82.71075503310354
 20
18.26981898011605
 30
0.0
 10
-82.70613110382253
 20
19.35722210215218
 30
0.0
 10
-82.69013855762052
 20
20.21186922999557
 30
0.0
 10
-82.58733043592217
 20
21.88299172981766
 30
0.0
 10
-82.50167092038243
 20
22.70088462432747
 30
0.0
 10
-82.22631197119863
 20
24.32146076926425
 30
0.0
 10
-82.03819411020466
 20
25.12162422833337
 30
0.0
 10
-81.54044842755849
 20
26.67641637342462
 30
0.0
 10
-81.22982938425302
 20
27.42775172367117
 30
0.0
 10
-80.52122125769264
 20
28.76618411142522
 30
0.0
 10
-80.1435601581142
 20
29.36480051666032
 30
0.0
 10
-79.73033253487796
 20
29.94434425423134
 30
0.0
  0
SPLINE
  5
36
330
2
100
AcDbEntity
  8
0
 48
0.1
100
AcDbSpline
210
0.0
220
0.0
230
1.0
 70
     8
 71
     3
 72
    10
 73
     6
 74
     0
 42
0.0000000001
 43
0.0000000001
 40
0.8070741553536262
 40
0.8070741553536262
 40
0.8070741553536262
 40
0.8070741553536262
 40
5.304735533680826
 40
10.8440190007309
 40
13.92181648140944
 40
13.92181648140944
 40
13.92181648140944
 40
13.92181648140944
 10
-83.21043643582775
 20
16.67534308778825
 30
0.0
 10
-83.2108981008626
 20
19.50959115570209
 30
0.0
 10
-83.15967875205629
 20
22.85478310168798
 30
0.0
 10
-82.10303308324325
 20
27.20075309483255
 30
0.0
 10
-80.57055110871557
 20
29.65029824513287
 30
0.0
 10
-79.95857880492909
 20
30.48143452043742
 30
0.0
  0
LINE
  5
37
330
2
100
AcDbEntity
  8
0
 48
0.1
100
AcDbLine
 10
-50.74036765085747
 20
5.077673735787245
 30
0.0
 11
-69.95613843512805
 21
5.077673735787248
 31
0.0
  0
LINE
  5
38
330
2
100
AcDbEntity
  8
0
 48
0.1
100
AcDbLine
 10
-50.74036765085747
 20
2.702673735787241
 30
0.0
 11
-77.54279527344478
 21
2.702673735787241
 31
0.0
  0
LINE
  5
39
330
2
100
AcDbEntity
  8
0
 48
0.1
100
AcDbLine
 10
-50.74036765085747
 20
3.202673735787248
 30
0.0
 11
-77.28767336807168
 21
3.202673735787248
 31
0.0
  0
SPLINE
  5
3A
330
2
100
AcDbEntity
  8
0
 48
0.1
100
AcDbSpline
210
0.0
220
0.0
230
1.0
 70
     8
 71
     3
 72
    10
 73
     6
 74
     0
 42
0.0000000001
 43
0.0000000001
 40
0.5271652437204142
 40
0.5271652437204142
 40
0.5271652437204142
 40
0.5271652437204142
 40
5.304735533680826
 40
10.8440190007309
 40
13.92181648140944
 40
13.92181648140944
 40
13.92181648140944
 40
13.92181648140944
 10
-83.21043643582775
 20
16.67534308778825
 30
0.0
 10
-83.21316580300667
 20
15.08235169345733
 30
0.0
 10
-83.18223081840926
 20
11.64332072761949
 30
0.0
 10
-82.10303308324325
 20
7.204594376741932
 30
0.0
 10
-80.57055110871557
 20
4.755049226441615
 30
0.0
 10
-79.95857880492909
 20
3.92391295113707
 30
0.0
  0
SPLINE
  5
3B
330
2
100
AcDbEntity
  8
0
 48
0.1
100
AcDbSpline
210
0.0
220
0.0
230
1.0
 70
     8
 71
     3
 72
    18
 73
    14
 74
     0
 42
0.0000000001
 43
0.0000000001
 40
0.3291788855741972
 40
0.3291788855741972
 40
0.3291788855741972
 40
0.3291788855741972
 40
1.296584706444643
 40
1.296584706444643
 40
3.889754119333931
 40
3.889754119333931
 40
6.400785241656511
 40
6.400785241656511
 40
8.911816363979092
 40
8.911816363979092
 40
11.43891940772361
 40
11.43891940772361
 40
13.61874469294057
 40
13.61874469294057
 40
13.61874469294057
 40
13.61874469294057
 10
-82.71002126989378
 20
16.87217253930165
 30
0.0
 10
-82.7108047227624
 20
16.55005447359879
 30
0.0
 10
-82.71115084269432
 20
16.22861049132869
 30
0.0
 10
-82.70613110382253
 20
15.0481253694223
 30
0.0
 10
-82.69013855762052
 20
14.19347824157891
 30
0.0
 10
-82.58733043592217
 20
12.52235574175682
 30
0.0
 10
-82.50167092038243
 20
11.70446284724702
 30
0.0
 10
-82.22631197119863
 20
10.08388670231023
 30
0.0
 10
-82.03819411020466
 20
9.283723243241118
 30
0.0
 10
-81.54044842755849
 20
7.728931098149866
 30
0.0
 10
-81.22982938425302
 20
6.97759574790332
 30
0.0
 10
-80.52122125769264
 20
5.639163360149266
 30
0.0
 10
-80.1435601581142
 20
5.040546954914164
 30
0.0
 10
-79.73033253487796
 20
4.461003217343153
 30
0.0
  0
SPLINE
  5
3C
330
2
100
AcDbEntity
  8
0
 48
0.1
100
AcDbSpline
210
0.0
220
0.0
230
1.0
 70
     8
 71
     3
 72
     9
 73
     5
 74
     0
 42
0.0000000001
 43
0.0000000001
 40
0.0
 40
0.0
 40
0.0
 40
0.0
 40
5.304735533680826
 40
10.51379614302359
 40
10.51379614302359
 40
10.51379614302359
 40
10.51379614302359
 10
-74.20911765085749
 20
17.20267373578724
 30
0.0
 10
-74.21423769183573
 20
15.43385614658
 30
0.0
 10
-74.22438542997412
 20
11.92812293348325
 30
0.0
 10
-73.40340082945572
 20
8.44339603410347
 30
0.0
 10
-72.69643867962111
 20
6.856709129407819
 30
0.0
  0
ARC
  5
3D
330
2
100
AcDbEntity
  8
0
 48
0.1
100
AcDbCircle
 10
-77.54279527344479
 20
5.702673735787216
 30
0.0
 40
3.0
100
AcDbArc
 50
216.3645138378945
 51
270.0000000000002
  0
ARC
  5
3E
330
2
100
AcDbEntity
  8
0
 48
0.1
100
AcDbCircle
 10
-77.28767336807141
 20
6.202673735786722
 30
0.0
 40
3.0
100
AcDbArc
 50
215.4897172977029
 51
269.9999999999949
  0
ARC
  5
3F
330
2
100
AcDbEntity
  8
0
 48
0.1
100
AcDbCircle
 10
-69.95613843512803
 20
8.077673735787262
 30
0.0
 40
3.0
100
AcDbArc
 50
204.0157782577874
 51
269.9999999999994
  0
CIRCLE
  5
40
330
2
100
AcDbEntity
  8
0
 48
0.1
100
AcDbCircle
 10
-50.74036765085748
 20
9.952673735787243
 30
0.0
 40
1.89014635623478
  0
LINE
  5
41
330
2
100
AcDbEntity
  8
CENTER
 48
0.05
100
AcDbLine
 10
-50.74036765085748
 20
12.8871060649767
 30
0.0
 11
-50.74036765085747
 21
7.01824140659778
 31
0.0
  0
LINE
  5
44
330
2
100
AcDbEntity
  8
CENTER
 48
0.05
100
AcDbLine
 10
-47.80593532166801
 20
9.952673735787257
 30
0.0
 11
-53.67479998004694
 21
9.952673735787243
 31
0.0
  0
CIRCLE
  5
45
330
2
100
AcDbEntity
  8
0
 48
0.1
100
AcDbCircle
 10
-50.74036765085748
 20
9.952673735787243
 30
0.0
 40
1.25
  0
LINE
  5
46
330
2
100
AcDbEntity
  8
0
 48
0.1
100
AcDbLine
 10
-50.74036765085747
 20
29.32767373578724
 30
0.0
 11
-69.95613843512805
 21
29.32767373578724
 31
0.0
  0
LINE
  5
47
330
2
100
AcDbEntity
  8
0
 48
0.1
100
AcDbLine
 10
-50.74036765085747
 20
31.70267373578725
 30
0.0
 11
-77.54279527344478
 21
31.70267373578725
 31
0.0
  0
LINE
  5
48
330
2
100
AcDbEntity
  8
0
 48
0.1
100
AcDbLine
 10
-50.74036765085747
 20
31.20267373578724
 30
0.0
 11
-77.28767336807168
 21
31.20267373578724
 31
0.0
  0
ARC
  5
49
330
2
100
AcDbEntity
  8
0
 48
0.1
100
AcDbCircle
 10
-77.54279527344479
 20
28.70267373578727
 30
0.0
 40
3.0
100
AcDbArc
 50
89.99999999999973
 51
143.6354861621054
  0
ARC
  5
4A
330
2
100
AcDbEntity
  8
0
 48
0.1
100
AcDbCircle
 10
-77.28767336807141
 20
28.20267373578777
 30
0.0
 40
3.0
100
AcDbArc
 50
90.00000000000516
 51
144.510282702297
  0
ARC
  5
4B
330
2
100
AcDbEntity
  8
0
 48
0.1
100
AcDbCircle
 10
-69.95613843512803
 20
26.32767373578722
 30
0.0
 40
3.0
100
AcDbArc
 50
90.00000000000055
 51
155.9842217422125
  0
SPLINE
  5
4C
330
2
100
AcDbEntity
  8
0
 48
0.1
100
AcDbSpline
210
0.0
220
0.0
230
1.0
 70
     8
 71
     3
 72
    10
 73
     6
 74
     0
 42
0.0000000001
 43
0.0000000001
 40
0.0
 40
0.0
 40
0.0
 40
0.0
 40
5.304735533680826
 40
10.8440190007309
 40
13.92181648140944
 40
13.92181648140944
 40
13.92181648140944
 40
13.92181648140944
 10
-18.27161765085747
 20
17.20267373579133
 30
0.0
 10
-18.26649760987923
 20
18.97149132499858
 30
0.0
 10
-18.25603114622613
 20
22.58733445693339
 30
0.0
 10
-19.37770221847171
 20
27.20075309483255
 30
0.0
 10
-20.91018419299938
 20
29.65029824513287
 30
0.0
 10
-21.52215649678586
 20
30.48143452043742
 30
0.0
  0
SPLINE
  5
4D
330
2
100
AcDbEntity
  8
0
 48
0.1
100
AcDbSpline
210
0.0
220
0.0
230
1.0
 70
     8
 71
     3
 72
    18
 73
    14
 74
     0
 42
0.0000000001
 43
0.0000000001
 40
0.0
 40
0.0
 40
0.0
 40
0.0
 40
1.296584706444643
 40
1.296584706444643
 40
3.889754119333931
 40
3.889754119333931
 40
6.400785241656511
 40
6.400785241656511
 40
8.911816363979092
 40
8.911816363979092
 40
11.43891940772361
 40
11.43891940772361
 40
13.61874469294057
 40
13.61874469294057
 40
13.61874469294057
 40
13.61874469294057
 10
-18.77161555617568
 20
17.20412103582944
 30
0.0
 10
-18.77036411455591
 20
17.63645584688552
 30
0.0
 10
-18.76912037893828
 20
18.06759990228669
 30
0.0
 10
-18.77460419789243
 20
19.35722210215218
 30
0.0
 10
-18.79059674409442
 20
20.21186922999557
 30
0.0
 10
-18.89340486579278
 20
21.88299172981766
 30
0.0
 10
-18.97906438133253
 20
22.70088462432747
 30
0.0
 10
-19.25442333051633
 20
24.32146076926425
 30
0.0
 10
-19.4425411915103
 20
25.12162422833337
 30
0.0
 10
-19.94028687415647
 20
26.67641637342462
 30
0.0
 10
-20.25090591746193
 20
27.42775172367117
 30
0.0
 10
-20.95951404402231
 20
28.76618411142522
 30
0.0
 10
-21.33717514360076
 20
29.36480051666032
 30
0.0
 10
-21.750402766837
 20
29.94434425423134
 30
0.0
  0
SPLINE
  5
4E
330
2
100
AcDbEntity
  8
0
 48
0.1
100
AcDbSpline
210
0.0
220
0.0
230
1.0
 70
     8
 71
     3
 72
     9
 73
     5
 74
     0
 42
0.0000000001
 43
0.0000000001
 40
0.0
 40
0.0
 40
0.0
 40
0.0
 40
5.304735533680826
 40
10.51379614302359
 40
10.51379614302359
 40
10.51379614302359
 40
10.51379614302359
 10
-27.27161765085746
 20
17.20267373578724
 30
0.0
 10
-27.26649760987922
 20
18.97149132499448
 30
0.0
 10
-27.25634987174084
 20
22.47722453809123
 30
0.0
 10
-28.07733447225924
 20
25.96195143747102
 30
0.0
 10
-28.78429662209384
 20
27.54863834216667
 30
0.0
  0
SPLINE
  5
4F
330
2
100
AcDbEntity
  8
0
 48
0.1
100
AcDbSpline
210
0.0
220
0.0
230
1.0
 70
     8
 71
     3
 72
    10
 73
     6
 74
     0
 42
0.0000000001
 43
0.0000000001
 40
0.0
 40
0.0
 40
0.0
 40
0.0
 40
5.304735533680826
 40
10.8440190007309
 40
13.92181648140944
 40
13.92181648140944
 40
13.92181648140944
 40
13.92181648140944
 10
-18.27161765085747
 20
17.20267373578315
 30
0.0
 10
-18.26649760987923
 20
15.43385614657591
 30
0.0
 10
-18.25603114622613
 20
11.81801301464109
 30
0.0
 10
-19.37770221847171
 20
7.204594376741932
 30
0.0
 10
-20.91018419299938
 20
4.755049226441615
 30
0.0
 10
-21.52215649678586
 20
3.92391295113707
 30
0.0
  0
SPLINE
  5
50
330
2
100
AcDbEntity
  8
0
 48
0.1
100
AcDbSpline
210
0.0
220
0.0
230
1.0
 70
     8
 71
     3
 72
    18
 73
    14
 74
     0
 42
0.0000000001
 43
0.0000000001
 40
0.0
 40
0.0
 40
0.0
 40
0.0
 40
1.296584706444643
 40
1.296584706444643
 40
3.889754119333931
 40
3.889754119333931
 40
6.400785241656511
 40
6.400785241656511
 40
8.911816363979092
 40
8.911816363979092
 40
11.43891940772361
 40
11.43891940772361
 40
13.61874469294057
 40
13.61874469294057
 40
13.61874469294057
 40
13.61874469294057
 10
-18.77161555617568
 20
17.20122643574504
 30
0.0
 10
-18.77036411455591
 20
16.76889162468896
 30
0.0
 10
-18.76912037893828
 20
16.33774756928779
 30
0.0
 10
-18.77460419789243
 20
15.0481253694223
 30
0.0
 10
-18.79059674409442
 20
14.19347824157891
 30
0.0
 10
-18.89340486579278
 20
12.52235574175682
 30
0.0
 10
-18.97906438133253
 20
11.70446284724702
 30
0.0
 10
-19.25442333051633
 20
10.08388670231023
 30
0.0
 10
-19.4425411915103
 20
9.283723243241118
 30
0.0
 10
-19.94028687415647
 20
7.728931098149866
 30
0.0
 10
-20.25090591746193
 20
6.97759574790332
 30
0.0
 10
-20.95951404402231
 20
5.639163360149266
 30
0.0
 10
-21.33717514360076
 20
5.040546954914164
 30
0.0
 10
-21.750402766837
 20
4.461003217343153
 30
0.0
  0
SPLINE
  5
51
330
2
100
AcDbEntity
  8
0
 48
0.1
100
AcDbSpline
210
0.0
220
0.0
230
1.0
 70
     8
 71
     3
 72
     9
 73
     5
 74
     0
 42
0.0000000001
 43
0.0000000001
 40
0.0
 40
0.0
 40
0.0
 40
0.0
 40
5.304735533680826
 40
10.51379614302359
 40
10.51379614302359
 40
10.51379614302359
 40
10.51379614302359
 10
-27.27161765085746
 20
17.20267373578724
 30
0.0
 10
-27.26649760987922
 20
15.43385614658
 30
0.0
 10
-27.25634987174084
 20
11.92812293348325
 30
0.0
 10
-28.07733447225924
 20
8.44339603410347
 30
0.0
 10
-28.78429662209384
 20
6.856709129407819
 30
0.0
  0
ARC
  5
52
330
2
100
AcDbEntity
  8
0
 48
0.1
100
AcDbCircle
 10
-31.52459686658693
 20
8.077673735787262
 30
0.0
 40
3.0
100
AcDbArc
 50
270.0000000000005
 51
335.9842217422125
  0
ARC
  5
53
330
2
100
AcDbEntity
  8
0
 48
0.1
100
AcDbCircle
 10
-24.19306193364354
 20
6.202673735786722
 30
0.0
 40
3.0
100
AcDbArc
 50
270.0000000000051
 51
324.510282702297
  0
ARC
  5
54
330
2
100
AcDbEntity
  8
0
 48
0.1
100
AcDbCircle
 10
-23.93794002827016
 20
5.702673735787216
 30
0.0
 40
3.0
100
AcDbArc
 50
269.9999999999997
 51
323.6354861621054
  0
ARC
  5
55
330
2
100
AcDbEntity
  8
0
 48
0.1
100
AcDbCircle
 10
-31.52459686658693
 20
26.32767373578722
 30
0.0
 40
3.0
100
AcDbArc
 50
24.01577825778748
 51
89.99999999999948
  0
ARC
  5
56
330
2
100
AcDbEntity
  8
0
 48
0.1
100
AcDbCircle
 10
-24.19306193364354
 20
28.20267373578777
 30
0.0
 40
3.0
100
AcDbArc
 50
35.48971729770296
 51
89.99999999999486
  0
ARC
  5
57
330
2
100
AcDbEntity
  8
0
 48
0.1
100
AcDbCircle
 10
-23.93794002827016
 20
28.70267373578727
 30
0.0
 40
3.0
100
AcDbArc
 50
36.36451383789452
 51
90.00000000000026
  0
ENDSEC
  0
SECTION
  2
OBJECTS
  0
DICTIONARY
  5
7
330
0
100
AcDbDictionary
  3
ACAD_GROUP
350
28
  3
ACAD_LAYOUT
350
B
  3
ACAD_MLINESTYLE
350
29
  3
ACAD_PLOTSETTINGS
350
2A
  3
ACAD_PLOTSTYLENAME
350
6
  3
ACDBHEADERROUNDTRIPXREC
350
F4
  3
ACDBVARIABLEDICTIONARY
350
58
  0
DICTIONARY
  5
11
330
10
100
AcDbDictionary
280
     1
  3
ACAD_LAYERFILTERS
360
12
  0
DICTIONARY
  5
6A
330
2
100
AcDbDictionary
280
     1
  3
ACAD_LAYOUTSELFREF
360
115
  0
DICTIONARY
  5
6C
330
5F
100
AcDbDictionary
280
     1
  3
ACAD_LAYOUTSELFREF
360
116
  0
DICTIONARY
  5
28
102
{ACAD_REACTORS
330
7
102
}
330
7
100
AcDbDictionary
  0
DICTIONARY
  5
B
102
{ACAD_REACTORS
330
7
102
}
330
7
100
AcDbDictionary
  0
DICTIONARY
  5
29
102
{ACAD_REACTORS
330
7
102
}
330
7
100
AcDbDictionary
  3
STANDARD
350
2C
  0
DICTIONARY
  5
2A
102
{ACAD_REACTORS
330
7
102
}
330
7
100
AcDbDictionary
  0
ACDBDICTIONARYWDFLT
  5
6
102
{ACAD_REACTORS
330
7
102
}
330
7
100
AcDbDictionary
281
     1
  3
Normal
350
5
100
AcDbDictionaryWithDefault
340
5
  0
DICTIONARY
  5
F4
102
{ACAD_REACTORS
330
7
102
}
330
7
100
AcDbDictionary
  3
CEPSNTYPE
350
FE
  3
DIMSTYLEDATA
350
102
  3
FINGERPRINTGUID
350
FF
  3
HYPERLINKBASE
350
F7
  3
INSUNITS
350
FD
  3
LAYOUTDICT
350
F9
  3
LWETCUNION
350
FC
  3
PLOTSETDICT
350
FA
  3
PLOTSTYLNAMDICT
350
FB
  3
PSVPSCALE
350
101
  3
PUCSBASE
350
105
  3
PUCSORGBACK
350
10B
  3
PUCSORGBOTTOM
350
107
  3
PUCSORGFRONT
350
10A
  3
PUCSORGLEFT
350
108
  3
PUCSORGRIGHT
350
109
  3
PUCSORGTOP
350
106
  3
PUCSORTHOREF
350
103
  3
PUCSORTHOVIEW
350
104
  3
STYLESHEET
350
F8
  3
TSTACKALIGN
350
F5
  3
TSTACKSIZE
350
F6
  3
UCSBASE
350
10E
  3
UCSORGBACK
350
114
  3
UCSORGBOTTOM
350
110
  3
UCSORGFRONT
350
113
  3
UCSORGLEFT
350
111
  3
UCSORGRIGHT
350
112
  3
UCSORGTOP
350
10F
  3
UCSORTHOREF
350
10C
  3
UCSORTHOVIEW
350
10D
  3
VERSIONGUID
350
100
  0
DICTIONARY
  5
58
102
{ACAD_REACTORS
330
7
102
}
330
7
100
AcDbDictionary
  3
DIMASSOC
350
5A
  3
HIDETEXT
350
59
  0
DICTIONARY
  5
12
102
{ACAD_REACTORS
330
11
102
}
330
11
100
AcDbDictionary
280
     1
  3
DIM-1_12
360
13
  3
DIM-1_16
360
14
  0
XRECORD
  5
115
102
{ACAD_REACTORS
330
6A
102
}
330
6A
100
AcDbXrecord
340
2
  0
XRECORD
  5
116
102
{ACAD_REACTORS
330
6C
102
}
330
6C
100
AcDbXrecord
340
5F
  0
MLINESTYLE
  5
2C
102
{ACAD_REACTORS
330
29
102
}
330
29
100
AcDbMlineStyle
  2
STANDARD
 70
     0
  3

 62
   256
 51
90.0
 52
90.0
 71
     2
 49
0.5
 62
   256
  6
BYLAYER
 49
-0.5
 62
   256
  6
BYLAYER
  0
ACDBPLACEHOLDER
  5
5
102
{ACAD_REACTORS
330
6
102
}
330
6
100
AcDbPlaceHolder
280
     0
  0
XRECORD
  5
FE
102
{ACAD_REACTORS
330
F4
102
}
330
F4
100
AcDbXrecord
 90
        0
  0
XRECORD
  5
102
102
{ACAD_REACTORS
330
F4
102
}
330
F4
100
AcDbXrecord
1000
DSTYLE
1002
{
1070
    79
 70
     1
1070
   276
 70
     1
1070
   277
 70
     5
1070
   289
 70
     1
1002
}
  0
XRECORD
  5
FF
102
{ACAD_REACTORS
330
F4
102
}
330
F4
100
AcDbXrecord
  1
{6A4AC8E0-4F58-11D5-8420-0003476D26AB}
  0
XRECORD
  5
F7
102
{ACAD_REACTORS
330
F4
102
}
330
F4
100
AcDbXrecord
  1

  0
XRECORD
  5
FD
102
{ACAD_REACTORS
330
F4
102
}
330
F4
100
AcDbXrecord
 90
        1
  0
XRECORD
  5
F9
102
{ACAD_REACTORS
330
F4
102
}
330
F4
100
AcDbXrecord
340
B
  0
XRECORD
  5
FC
102
{ACAD_REACTORS
330
F4
102
}
330
F4
100
AcDbXrecord
 90
    10781
  0
XRECORD
  5
FA
102
{ACAD_REACTORS
330
F4
102
}
330
F4
100
AcDbXrecord
340
2A
  0
XRECORD
  5
FB
102
{ACAD_REACTORS
330
F4
102
}
330
F4
100
AcDbXrecord
340
6
  0
XRECORD
  5
101
102
{ACAD_REACTORS
330
F4
102
}
330
F4
100
AcDbXrecord
 40
0.0
  0
XRECORD
  5
105
102
{ACAD_REACTORS
330
F4
102
}
330
F4
100
AcDbXrecord
340
0
  0
XRECORD
  5
10B
102
{ACAD_REACTORS
330
F4
102
}
330
F4
100
AcDbXrecord
 10
0.0
 20
0.0
 30
0.0
  0
XRECORD
  5
107
102
{ACAD_REACTORS
330
F4
102
}
330
F4
100
AcDbXrecord
 10
0.0
 20
0.0
 30
0.0
  0
XRECORD
  5
10A
102
{ACAD_REACTORS
330
F4
102
}
330
F4
100
AcDbXrecord
 10
0.0
 20
0.0
 30
0.0
  0
XRECORD
  5
108
102
{ACAD_REACTORS
330
F4
102
}
330
F4
100
AcDbXrecord
 10
0.0
 20
0.0
 30
0.0
  0
XRECORD
  5
109
102
{ACAD_REACTORS
330
F4
102
}
330
F4
100
AcDbXrecord
 10
0.0
 20
0.0
 30
0.0
  0
XRECORD
  5
106
102
{ACAD_REACTORS
330
F4
102
}
330
F4
100
AcDbXrecord
 10
0.0
 20
0.0
 30
0.0
  0
XRECORD
  5
103
102
{ACAD_REACTORS
330
F4
102
}
330
F4
100
AcDbXrecord
340
0
  0
XRECORD
  5
104
102
{ACAD_REACTORS
330
F4
102
}
330
F4
100
AcDbXrecord
 70
     0
  0
XRECORD
  5
F8
102
{ACAD_REACTORS
330
F4
102
}
330
F4
100
AcDbXrecord
  1

  0
XRECORD
  5
F5
102
{ACAD_REACTORS
330
F4
102
}
330
F4
100
AcDbXrecord
 90
        1
  0
XRECORD
  5
F6
102
{ACAD_REACTORS
330
F4
102
}
330
F4
100
AcDbXrecord
 90
       70
  0
XRECORD
  5
10E
102
{ACAD_REACTORS
330
F4
102
}
330
F4
100
AcDbXrecord
340
0
  0
XRECORD
  5
114
102
{ACAD_REACTORS
330
F4
102
}
330
F4
100
AcDbXrecord
 10
0.0
 20
0.0
 30
0.0
  0
XRECORD
  5
110
102
{ACAD_REACTORS
330
F4
102
}
330
F4
100
AcDbXrecord
 10
0.0
 20
0.0
 30
0.0
  0
XRECORD
  5
113
102
{ACAD_REACTORS
330
F4
102
}
330
F4
100
AcDbXrecord
 10
0.0
 20
0.0
 30
0.0
  0
XRECORD
  5
111
102
{ACAD_REACTORS
330
F4
102
}
330
F4
100
AcDbXrecord
 10
0.0
 20
0.0
 30
0.0
  0
XRECORD
  5
112
102
{ACAD_REACTORS
330
F4
102
}
330
F4
100
AcDbXrecord
 10
0.0
 20
0.0
 30
0.0
  0
XRECORD
  5
10F
102
{ACAD_REACTORS
330
F4
102
}
330
F4
100
AcDbXrecord
 10
0.0
 20
0.0
 30
0.0
  0
XRECORD
  5
10C
102
{ACAD_REACTORS
330
F4
102
}
330
F4
100
AcDbXrecord
340
0
  0
XRECORD
  5
10D
102
{ACAD_REACTORS
330
F4
102
}
330
F4
100
AcDbXrecord
 70
     1
  0
XRECORD
  5
100
102
{ACAD_REACTORS
330
F4
102
}
330
F4
100
AcDbXrecord
  1
{574FB116-FA84-430D-8E85-726CBF9D318D}
  0
DICTIONARYVAR
  5
5A
102
{ACAD_REACTORS
330
58
102
}
330
58
100
DictionaryVariables
280
     0
  1
1
  0
DICTIONARYVAR
  5
59
102
{ACAD_REACTORS
330
58
102
}
330
58
100
DictionaryVariables
280
     0
  1
1
  0
XRECORD
  5
13
102
{ACAD_REACTORS
330
12
102
}
330
12
100
AcDbXrecord
  1
DIM-1_12
  1
DIM-1_12
  1
*
  1
*
 70
     0
  1
*
  1
*
  0
XRECORD
  5
14
102
{ACAD_REACTORS
330
12
102
}
330
12
100
AcDbXrecord
  1
dim-1_16
  1
*
  1
*
  1
*
 70
     0
  1
*
  1
*
  0
ENDSEC
  0
EOF
