  0
SECTION
  2
HEADER
  9
$ACADVER
  1
AC1015
  9
$DWGCODEPAGE
  3
ANSI_1252
  9
$EXTMAX
 10
17.0
 20
11.0
 30
0.0
  9
$EXTMIN
 10
0.0
 20
0.0
 30
0.0
  9
$LIMMIN
 10
0.0
 20
0.0
  9
$LIMMAX
 10
17.0
 20
11.0
  9
$VIEWCTR
 10
8.5
 20
5.5
  9
$VIEWSIZE
 40
11.0
  9
$CLAYER
  8
0
  9
$LTSCALE
 40
0.935
  9
$CELTYPE
  6
BYLAYER
  9
$DIMSCALE
 40
1.0
  9
$DIMASZ
 40
0.1875
  9
$DIMEXO
 40
0.10625
  9
$DIMDLI
 40
0.646
  9
$DIMEXE
 40
0.306
  9
$DIMCEN
 40
0.153
  9
$DIMLFAC
 40
1.0
  9
$DIMBLK
  1
_FILLED
  9
$DIMTXT
 40
0.125
  9
$DIMTOL
 70
0
  9
$DIMLIM
 70
0
  9
$DIMTFAC
 40
1.0
  9
$PDMODE
 70
3
  9
$PDSIZE
 40
0.03125
  9
$HANDSEED
  5
9D5
  9
$TILEMODE
 70
1
  9
$MEASUREMENT
 70
0
  9
$INSUNITS
 70
1
  0
ENDSEC
  0
SECTION
  2
CLASSES
  0
CLASS
  1
ACDBDICTIONARYWDFLT
  2
AcDbDictionaryWithDefault
  3
AutoCAD 2000
 90
0
280
0
281
0
  0
CLASS
  1
ACDBPLACEHOLDER
  2
AcDbPlaceHolder
  3
AutoCAD 2000
 90
0
280
0
281
0
  0
CLASS
  1
LAYOUT
  2
AcDbLayout
  3
AutoCAD 2000
 90
0
280
0
281
0
  0
ENDSEC
  0
SECTION
  2
TABLES
  0
TABLE
  2
VPORT
  5
8
100
AcDbSymbolTable
 70
2
  0
VPORT
  5
1F4
100
AcDbSymbolTableRecord
100
AcDbViewportTableRecord
  2
*ACTIVE
 70
0
 10
0.0
 20
0.0
 11
1.0
 21
1.0
 12
8.5
 22
5.5
 13
0.0
 23
0.0
 14
1.0
 24
1.0
 15
0.0
 25
0.0
 16
0.0
 26
0.0
 36
1.0
 17
0.0
 27
0.0
 37
0.0
 40
11.0
 41
1.5454545455
 42
50.0
 43
0.0
 44
0.0
 50
0.0
 51
0.0
 71
0
 72
100
 73
1
 74
1
 75
0
 76
0
 77
0
 78
0
  0
ENDTAB
  0
TABLE
  2
LTYPE
  5
5
100
AcDbSymbolTable
 70
6
  0
LTYPE
  5
14
100
AcDbSymbolTableRecord
100
AcDbLinetypeTableRecord
  2
BYBLOCK
 70
0
  3

 72
65
 73
0
 40
0.0
  0
LTYPE
  5
15
100
AcDbSymbolTableRecord
100
AcDbLinetypeTableRecord
  2
BYLAYER
 70
0
  3

 72
65
 73
0
 40
0.0
  0
LTYPE
  5
16
100
AcDbSymbolTableRecord
100
AcDbLinetypeTableRecord
  2
CONTINUOUS
 70
64
  3
Solid line
 72
65
 73
0
 40
0.0
  0
LTYPE
  5
1F5
100
AcDbSymbolTableRecord
100
AcDbLinetypeTableRecord
  2
CENTER
 70
64
  3
____ _ ____ _ ____ _ ____ _ ____ _ ____ _ ____
 72
65
 73
4
 40
0.6
 49
0.375
 74
0
 49
-0.075
 74
0
 49
0.075
 74
0
 49
-0.075
 74
0
  0
LTYPE
  5
1F6
100
AcDbSymbolTableRecord
100
AcDbLinetypeTableRecord
  2
HIDDEN
 70
64
  3
- - - - - - - - - - - - - - - - - - - -
 72
65
 73
2
 40
0.2
 49
0.1
 74
0
 49
-0.1
 74
0
  0
LTYPE
  5
1F7
100
AcDbSymbolTableRecord
100
AcDbLinetypeTableRecord
  2
PHANTOM
 70
64
  3
_____ _ _ _____ _ _ _____ _ _ _____
 72
65
 73
6
 40
0.8
 49
0.45
 74
0
 49
-0.05
 74
0
 49
0.1
 74
0
 49
-0.05
 74
0
 49
0.1
 74
0
 49
-0.05
 74
0
  0
LTYPE
  5
1F8
100
AcDbSymbolTableRecord
100
AcDbLinetypeTableRecord
  2
DOT
 70
64
  3
. . . . . . . . . . . . . . . . . . . .
 72
65
 73
2
 40
0.2
 49
0.1
 74
0
 49
-0.1
 74
0
  0
LTYPE
  5
1F9
100
AcDbSymbolTableRecord
100
AcDbLinetypeTableRecord
  2
DASHED
 70
64
  3
- - - - - - - - - - - - - - - - - - - -
 72
65
 73
2
 40
0.2
 49
0.1
 74
0
 49
-0.1
 74
0
  0
ENDTAB
  0
TABLE
  2
LAYER
  5
2
100
AcDbSymbolTable
 70
36
  0
LAYER
  5
10
100
AcDbSymbolTableRecord
100
AcDbLayerTableRecord
  2
0
 70
0
 62
7
  6
CONTINUOUS
370
-3
390
F
  0
LAYER
  5
1FA
100
AcDbSymbolTableRecord
100
AcDbLayerTableRecord
  2
DEFAULT_1
 70
0
 62
7
  6
CENTER
370
-3
390
F
  0
LAYER
  5
1FB
100
AcDbSymbolTableRecord
100
AcDbLayerTableRecord
  2
DEFAULT_2
 70
0
 62
8
  6
HIDDEN
370
-3
390
F
  0
LAYER
  5
1FC
100
AcDbSymbolTableRecord
100
AcDbLayerTableRecord
  2
DEFAULT_3
 70
0
 62
7
  6
PHANTOM
370
-3
390
F
  0
LAYER
  5
1FD
100
AcDbSymbolTableRecord
100
AcDbLayerTableRecord
  2
1_CURVES
 70
0
 62
7
  6
CONTINUOUS
370
-3
390
F
  0
LAYER
  5
1FE
100
AcDbSymbolTableRecord
100
AcDbLayerTableRecord
  2
1_CURVES-DEGAGEMENT-COIL
 70
0
 62
7
  6
CONTINUOUS
370
-3
390
F
  0
LAYER
  5
1FF
100
AcDbSymbolTableRecord
100
AcDbLayerTableRecord
  2
1_CURVES-JETS
 70
0
 62
7
  6
CONTINUOUS
370
-3
390
F
  0
LAYER
  5
200
100
AcDbSymbolTableRecord
100
AcDbLayerTableRecord
  2
1_CURVES-TRAJECTOIRE-COIL
 70
0
 62
7
  6
CONTINUOUS
370
-3
390
F
  0
LAYER
  5
201
100
AcDbSymbolTableRecord
100
AcDbLayerTableRecord
  2
1_CURVES_CONTROLES
 70
0
 62
7
  6
CONTINUOUS
370
-3
390
F
  0
LAYER
  5
202
100
AcDbSymbolTableRecord
100
AcDbLayerTableRecord
  2
1_CURVES_IMPORT
 70
0
 62
7
  6
CONTINUOUS
370
-3
390
F
  0
LAYER
  5
203
100
AcDbSymbolTableRecord
100
AcDbLayerTableRecord
  2
1_CURVES_JETS
 70
0
 62
7
  6
CONTINUOUS
370
-3
390
F
  0
LAYER
  5
204
100
AcDbSymbolTableRecord
100
AcDbLayerTableRecord
  2
2_PLANES
 70
0
 62
7
  6
CONTINUOUS
370
-3
390
F
  0
LAYER
  5
205
100
AcDbSymbolTableRecord
100
AcDbLayerTableRecord
  2
2_PLANES-JETS
 70
0
 62
7
  6
CONTINUOUS
370
-3
390
F
  0
LAYER
  5
206
100
AcDbSymbolTableRecord
100
AcDbLayerTableRecord
  2
3_POINTS
 70
0
 62
7
  6
CONTINUOUS
370
-3
390
F
  0
LAYER
  5
207
100
AcDbSymbolTableRecord
100
AcDbLayerTableRecord
  2
3_POINTS-JETS
 70
0
 62
7
  6
CONTINUOUS
370
-3
390
F
  0
LAYER
  5
208
100
AcDbSymbolTableRecord
100
AcDbLayerTableRecord
  2
4_CSYS
 70
0
 62
7
  6
CONTINUOUS
370
-3
390
F
  0
LAYER
  5
209
100
AcDbSymbolTableRecord
100
AcDbLayerTableRecord
  2
5_AXIS
 70
0
 62
7
  6
CONTINUOUS
370
-3
390
F
  0
LAYER
  5
20A
100
AcDbSymbolTableRecord
100
AcDbLayerTableRecord
  2
6_SURFACES
 70
0
 62
7
  6
CONTINUOUS
370
-3
390
F
  0
LAYER
  5
20B
100
AcDbSymbolTableRecord
100
AcDbLayerTableRecord
  2
6_SURFACES-OFFSET-FIBRE-ACRYLIQ
 70
0
 62
7
  6
CONTINUOUS
370
-3
390
F
  0
LAYER
  5
20C
100
AcDbSymbolTableRecord
100
AcDbLayerTableRecord
  2
6_SURFACES-POUR-CADRES
 70
0
 62
7
  6
CONTINUOUS
370
-3
390
F
  0
LAYER
  5
20D
100
AcDbSymbolTableRecord
100
AcDbLayerTableRecord
  2
6_SURFACES-TOOLING
 70
0
 62
7
  6
CONTINUOUS
370
-3
390
F
  0
LAYER
  5
20E
100
AcDbSymbolTableRecord
100
AcDbLayerTableRecord
  2
6_SURFACES_AIRE
 70
0
 62
7
  6
CONTINUOUS
370
-3
390
F
  0
LAYER
  5
20F
100
AcDbSymbolTableRecord
100
AcDbLayerTableRecord
  2
6_SURFACES_OFFSET_CONDUIT
 70
0
 62
7
  6
CONTINUOUS
370
-3
390
F
  0
LAYER
  5
210
100
AcDbSymbolTableRecord
100
AcDbLayerTableRecord
  2
6_SURFACES_OFFSET_CONDUIT-PREPA
 70
0
 62
7
  6
CONTINUOUS
370
-3
390
F
  0
LAYER
  5
211
100
AcDbSymbolTableRecord
100
AcDbLayerTableRecord
  2
6_SURFACES_OFFSET_FIBRE
 70
0
 62
7
  6
CONTINUOUS
370
-3
390
F
  0
LAYER
  5
212
100
AcDbSymbolTableRecord
100
AcDbLayerTableRecord
  2
6_SURFACES_TOOLING
 70
0
 62
7
  6
CONTINUOUS
370
-3
390
F
  0
LAYER
  5
213
100
AcDbSymbolTableRecord
100
AcDbLayerTableRecord
  2
7_NOTES
 70
0
 62
7
  6
CONTINUOUS
370
-3
390
F
  0
LAYER
  5
214
100
AcDbSymbolTableRecord
100
AcDbLayerTableRecord
  2
8_ZONE-ROBINETERIE
 70
0
 62
7
  6
CONTINUOUS
370
-3
390
F
  0
LAYER
  5
215
100
AcDbSymbolTableRecord
100
AcDbLayerTableRecord
  2
XSEC_DATUMS
 70
0
 62
7
  6
CONTINUOUS
370
-3
390
F
  0
ENDTAB
  0
TABLE
  2
STYLE
  5
3
100
AcDbSymbolTable
 70
1
  0
STYLE
  5
11
100
AcDbSymbolTableRecord
100
AcDbTextStyleTableRecord
  2
STANDARD
 70
0
 40
0.0
 41
0.8
 50
0.0
 71
0
 42
0.2
  3
txt
  4

  0
STYLE
  5
216
100
AcDbSymbolTableRecord
100
AcDbTextStyleTableRecord
  2
TEXTSTYLE_1
 70
0
 40
0.0
 41
0.8
 50
0.0
 71
0
 42
0.2
  3
gdt
  4

  0
ENDTAB
  0
TABLE
  2
VIEW
  5
6
100
AcDbSymbolTable
 70
0
  0
ENDTAB
  0
TABLE
  2
UCS
  5
7
100
AcDbSymbolTable
 70
0
  0
ENDTAB
  0
TABLE
  2
APPID
  5
9
100
AcDbSymbolTable
 70
1
  0
APPID
  5
217
100
AcDbSymbolTableRecord
100
AcDbRegAppTableRecord
  2
ACAD
 70
0
  0
ENDTAB
  0
TABLE
  2
BLOCK_RECORD
  5
1
100
AcDbSymbolTable
 70
0
  0
BLOCK_RECORD
  5
218
100
AcDbSymbolTableRecord
100
AcDbBlockTableRecord
  2
*Model_Space
  0
BLOCK_RECORD
  5
219
100
AcDbSymbolTableRecord
100
AcDbBlockTableRecord
  2
*Paper_Space
  0
ENDTAB
  0
TABLE
  2
DIMSTYLE
  5
A
100
AcDbSymbolTable
 70
1
100
AcDbDimStyleTable
 71
0
  0
DIMSTYLE
105
21A
100
AcDbSymbolTableRecord
100
AcDbDimStyleTableRecord
  2
STANDARD
 70
0
  3

  4

 40
1.0
 41
0.1875
 42
0.0625
 43
0.38
 44
0.18
 45
0.0
 46
0.0
 47
0.00001
 48
0.00001
140
0.125
141
0.09
142
0.0
143
25.4
144
1.0
145
0.0
146
1.0
147
0.09
 71
0.0
 72
0.0
 73
1
 74
1
 75
0
 76
0
 77
0
 78
4
170
0
171
2
172
0
173
0
174
0
175
0
176
0
177
0
178
0
270
2
271
5
272
5
273
2
274
2
275
0
280
0
281
0
282
0
283
1
284
4
285
0
286
0
287
3
288
0
340
11
  0
ENDTAB
  0
ENDSEC
  0
SECTION
  2
BLOCKS
  0
BLOCK
  5
20
100
AcDbEntity
  8
0
100
AcDbBlockBegin
  2
*Model_Space
 70
0
 10
0.0
 20
0.0
 30
0.0
  3
*Model_Space
  1

  0
ENDBLK
  5
21
100
AcDbEntity
  8
0
100
AcDbBlockEnd
  0
BLOCK
  5
1C
100
AcDbEntity
  8
0
100
AcDbBlockBegin
  2
*Paper_Space
 70
0
 10
0.0
 20
0.0
 30
0.0
  3
*Paper_Space
  1

  0
ENDBLK
  5
1D
100
AcDbEntity
  8
0
100
AcDbBlockEnd
  0
ENDSEC
  0
SECTION
  2
ENTITIES
  0
LINE
  5
21B
100
AcDbEntity
  8
0
100
AcDbLine
 62
7
  6
CONTINUOUS
 10
25.1363456606
 20
101.3598319759
 11
25.0708567738
 21
101.1184044399
  0
LINE
  5
21C
100
AcDbEntity
  8
0
100
AcDbLine
 62
7
  6
CONTINUOUS
 10
25.1051139027
 20
101.2458749444
 11
25.1739858214
 21
101.4944850538
  0
LINE
  5
21D
100
AcDbEntity
  8
0
100
AcDbLine
 62
7
  6
CONTINUOUS
 10
25.2002536794
 20
101.5869292918
 11
25.1363456606
 21
101.3598319759
  0
LINE
  5
21E
100
AcDbEntity
  8
0
100
AcDbLine
 62
7
  6
CONTINUOUS
 10
25.1739858214
 20
101.4944850538
 11
25.2412952828
 21
101.7289834079
  0
LINE
  5
21F
100
AcDbEntity
  8
0
100
AcDbLine
 62
7
  6
CONTINUOUS
 10
25.2624554891
 20
101.8010240268
 11
25.2002536794
 21
101.5869292918
  0
LINE
  5
220
100
AcDbEntity
  8
0
100
AcDbLine
 62
7
  6
CONTINUOUS
 10
25.2412952828
 20
101.7289834079
 11
25.3070055928
 21
101.9502607648
  0
LINE
  5
221
100
AcDbEntity
  8
0
100
AcDbLine
 62
7
  6
CONTINUOUS
 10
25.322946642
 20
102.0029237424
 11
25.2624554891
 21
101.8010240268
  0
LINE
  5
222
100
AcDbEntity
  8
0
100
AcDbLine
 62
7
  6
CONTINUOUS
 10
25.3816714483
 20
102.1936711709
 11
25.3070055928
 21
101.9502607648
  0
LINE
  5
223
100
AcDbEntity
  8
0
100
AcDbLine
 62
7
  6
CONTINUOUS
 10
25.4386582927
 20
102.3738884386
 11
25.3710089365
 21
102.1594399184
  0
LINE
  5
224
100
AcDbEntity
  8
0
100
AcDbLine
 62
7
  6
CONTINUOUS
 10
25.4333175016
 20
102.3571857351
 11
25.4939192024
 21
102.5443438507
  0
LINE
  5
225
100
AcDbEntity
  8
0
100
AcDbLine
 62
7
  6
CONTINUOUS
 10
25.4939163271
 20
102.5443598214
 11
25.5527790439
 21
102.721494751
  0
LINE
  5
226
100
AcDbEntity
  8
0
100
AcDbLine
 62
7
  6
CONTINUOUS
 10
25.5474475594
 20
102.7056416021
 11
25.6099058122
 21
102.8892744698
  0
LINE
  5
227
100
AcDbEntity
  8
0
100
AcDbLine
 62
7
  6
CONTINUOUS
 10
25.5992802404
 20
102.8583197336
 11
25.6651560786
 21
103.0483619996
  0
LINE
  5
228
100
AcDbEntity
  8
0
100
AcDbLine
 62
7
  6
CONTINUOUS
 10
25.6493447931
 20
103.0030894818
 11
25.7182741864
 21
103.1997386226
  0
LINE
  5
229
100
AcDbEntity
  8
0
100
AcDbLine
 62
7
  6
CONTINUOUS
 10
25.6975549098
 20
103.1408639629
 11
25.7696056059
 21
103.3431335043
  0
LINE
  5
22A
100
AcDbEntity
  8
0
100
AcDbLine
 62
9
  6
CONTINUOUS
 10
32.8274226059
 20
100.4930627101
 11
32.8533781914
 21
100.5655292573
  0
LINE
  5
22B
100
AcDbEntity
  8
0
100
AcDbLine
 62
7
  6
CONTINUOUS
 10
25.788543196
 20
103.3957596725
 11
25.7439890338
 21
103.2715755783
  0
LINE
  5
22C
100
AcDbEntity
  8
0
100
AcDbLine
 62
9
  6
CONTINUOUS
 10
32.8533781914
 20
100.5655292573
 11
32.8784224569
 21
100.6345366305
  0
LINE
  5
22D
100
AcDbEntity
  8
0
100
AcDbLine
 62
7
  6
CONTINUOUS
 10
25.7696056059
 20
103.3431335043
 11
25.8189598281
 21
103.4784992145
  0
LINE
  5
22E
100
AcDbEntity
  8
0
100
AcDbLine
 62
9
  6
CONTINUOUS
 10
32.8784224569
 20
100.6345366305
 11
32.9026610991
 21
100.7005191667
  0
LINE
  5
22F
100
AcDbEntity
  8
0
100
AcDbLine
 62
7
  6
CONTINUOUS
 10
25.8316783259
 20
103.5125205318
 11
25.788543196
 21
103.3957596725
  0
LINE
  5
230
100
AcDbEntity
  8
0
100
AcDbLine
 62
9
  6
CONTINUOUS
 10
32.9026610991
 20
100.7005191667
 11
32.9260211176
 21
100.7633985285
  0
LINE
  5
231
100
AcDbEntity
  8
0
100
AcDbLine
 62
9
  6
CONTINUOUS
 10
32.9260211176
 20
100.7633985285
 11
32.9484593978
 21
100.8231375545
  0
LINE
  5
232
100
AcDbEntity
  8
0
100
AcDbLine
 62
9
  6
CONTINUOUS
 10
34.8149825245
 20
100.0663959638
 11
34.8542012043
 21
100.1695171873
  0
LINE
  5
233
100
AcDbEntity
  8
0
100
AcDbLine
 62
9
  6
CONTINUOUS
 10
32.9484593978
 20
100.8231375545
 11
32.9907773994
 21
100.9341188216
  0
LINE
  5
234
100
AcDbEntity
  8
0
100
AcDbLine
 62
7
  6
CONTINUOUS
 10
25.8189598281
 20
103.4784992145
 11
25.8676891347
 21
103.6061468228
  0
LINE
  5
235
100
AcDbEntity
  8
0
100
AcDbLine
 62
7
  6
CONTINUOUS
 10
25.8732602871
 20
103.6199616362
 11
25.8316783259
 21
103.5125205318
  0
LINE
  5
236
100
AcDbEntity
  8
0
100
AcDbLine
 62
9
  6
CONTINUOUS
 10
34.8542012043
 20
100.1695171873
 11
34.8904446593
 21
100.2630365133
  0
LINE
  5
237
100
AcDbEntity
  8
0
100
AcDbLine
 62
9
  6
CONTINUOUS
 10
32.9907773994
 20
100.9341188216
 11
33.0300676744
 21
101.0352599142
  0
LINE
  5
238
100
AcDbEntity
  8
0
100
AcDbLine
 62
9
  6
CONTINUOUS
 10
34.8904446593
 20
100.2630365133
 11
34.9242633852
 21
100.3488170808
  0
LINE
  5
239
100
AcDbEntity
  8
0
100
AcDbLine
 62
9
  6
CONTINUOUS
 10
33.0300676744
 20
101.0352599142
 11
33.0667173778
 21
101.128032306
  0
LINE
  5
23A
100
AcDbEntity
  8
0
100
AcDbLine
 62
9
  6
CONTINUOUS
 10
34.9242633852
 20
100.3488170808
 11
34.9557747989
 21
100.4275195736
  0
LINE
  5
23B
100
AcDbEntity
  8
0
100
AcDbLine
 62
9
  6
CONTINUOUS
 10
33.0667173778
 20
101.128032306
 11
33.1005516149
 21
101.2124141846
  0
LINE
  5
23C
100
AcDbEntity
  8
0
100
AcDbLine
 62
9
  6
CONTINUOUS
 10
34.9557747989
 20
100.4275195736
 11
34.9844567027
 21
100.4981696802
  0
LINE
  5
23D
100
AcDbEntity
  8
0
100
AcDbLine
 62
9
  6
CONTINUOUS
 10
33.1005516149
 20
101.2124141846
 11
33.1313043285
 21
101.2881051101
  0
LINE
  5
23E
100
AcDbEntity
  8
0
100
AcDbLine
 62
9
  6
CONTINUOUS
 10
34.9844567027
 20
100.4981696802
 11
35.0103376684
 21
100.561109375
  0
LINE
  5
23F
100
AcDbEntity
  8
0
100
AcDbLine
 62
7
  6
CONTINUOUS
 10
25.8676891347
 20
103.6061468228
 11
25.9166636864
 21
103.7252391277
  0
LINE
  5
240
100
AcDbEntity
  8
0
100
AcDbLine
 62
9
  6
CONTINUOUS
 10
33.1313043285
 20
101.2881051101
 11
33.1593967961
 21
101.3564166464
  0
LINE
  5
241
100
AcDbEntity
  8
0
100
AcDbLine
 62
9
  6
CONTINUOUS
 10
33.1593967961
 20
101.3564166464
 11
33.185626464
 21
101.4194423188
  0
LINE
  5
242
100
AcDbEntity
  8
0
100
AcDbLine
 62
9
  6
CONTINUOUS
 10
35.0103376684
 20
100.561109375
 11
35.0456266675
 21
100.6456687304
  0
LINE
  5
243
100
AcDbEntity
  8
0
100
AcDbLine
 62
9
  6
CONTINUOUS
 10
33.185626464
 20
101.4194423188
 11
33.2223975303
 21
101.5065644119
  0
LINE
  5
244
100
AcDbEntity
  8
0
100
AcDbLine
 62
9
  6
CONTINUOUS
 10
35.0456266675
 20
100.6456687304
 11
35.0796643684
 21
100.7260999822
  0
LINE
  5
245
100
AcDbEntity
  8
0
100
AcDbLine
 62
9
  6
CONTINUOUS
 10
33.2223975303
 20
101.5065644119
 11
33.2621174926
 21
101.5999631246
  0
LINE
  5
246
100
AcDbEntity
  8
0
100
AcDbLine
 62
9
  6
CONTINUOUS
 10
35.0796643684
 20
100.7260999822
 11
35.1021509448
 21
100.7787494877
  0
LINE
  5
247
100
AcDbEntity
  8
0
100
AcDbLine
 62
9
  6
CONTINUOUS
 10
33.2621174926
 20
101.5999631246
 11
33.2781097323
 21
101.6372223128
  0
LINE
  5
248
100
AcDbEntity
  8
0
100
AcDbLine
 62
9
  6
CONTINUOUS
 10
35.1021509448
 20
100.7787494877
 11
35.1132992243
 21
100.8044953172
  0
LINE
  5
249
100
AcDbEntity
  8
0
100
AcDbLine
 62
9
  6
CONTINUOUS
 10
33.2781097323
 20
101.6372223128
 11
33.2962086523
 21
101.6788608432
  0
LINE
  5
24A
100
AcDbEntity
  8
0
100
AcDbLine
 62
9
  6
CONTINUOUS
 10
35.1132992243
 20
100.8044953172
 11
35.1243874349
 21
100.8297069134
  0
LINE
  5
24B
100
AcDbEntity
  8
0
100
AcDbLine
 62
7
  6
CONTINUOUS
 10
25.9582734454
 20
103.8199165785
 11
25.9149703081
 21
103.7216207483
  0
LINE
  5
24C
100
AcDbEntity
  8
0
100
AcDbLine
 62
7
  6
CONTINUOUS
 10
25.9166636864
 20
103.7252391277
 11
25.9671393378
 21
103.8391735131
  0
LINE
  5
24D
100
AcDbEntity
  8
0
100
AcDbLine
 62
9
  6
CONTINUOUS
 10
33.2962086523
 20
101.6788608432
 11
33.316877047
 21
101.7254134128
  0
LINE
  5
24E
100
AcDbEntity
  8
0
100
AcDbLine
 62
9
  6
CONTINUOUS
 10
35.1243874349
 20
100.8297069134
 11
35.1354156968
 21
100.8542338745
  0
LINE
  5
24F
100
AcDbEntity
  8
0
100
AcDbLine
 62
9
  6
CONTINUOUS
 10
33.316877047
 20
101.7254134128
 11
33.3405693608
 21
101.7772208455
  0
LINE
  5
250
100
AcDbEntity
  8
0
100
AcDbLine
 62
9
  6
CONTINUOUS
 10
35.1354156968
 20
100.8542338745
 11
35.1465882761
 21
100.8783478082
  0
LINE
  5
251
100
AcDbEntity
  8
0
100
AcDbLine
 62
7
  6
CONTINUOUS
 10
26.00368408
 20
103.9163097634
 11
25.9582734454
 21
103.8199165785
  0
LINE
  5
252
100
AcDbEntity
  8
0
100
AcDbLine
 62
9
  6
CONTINUOUS
 10
33.3405693608
 20
101.7772208455
 11
33.3671507193
 21
101.8332705179
  0
LINE
  5
253
100
AcDbEntity
  8
0
100
AcDbLine
 62
7
  6
CONTINUOUS
 10
25.9671393378
 20
103.8391735131
 11
26.0208798283
 21
103.9513826379
  0
LINE
  5
254
100
AcDbEntity
  8
0
100
AcDbLine
 62
9
  6
CONTINUOUS
 10
35.1465882761
 20
100.8783478082
 11
35.1583072077
 21
100.9026835696
  0
LINE
  5
255
100
AcDbEntity
  8
0
100
AcDbLine
 62
9
  6
CONTINUOUS
 10
33.3671507193
 20
101.8332705179
 11
33.3963328547
 21
101.8924079244
  0
LINE
  5
256
100
AcDbEntity
  8
0
100
AcDbLine
 62
7
  6
CONTINUOUS
 10
26.052625454
 20
104.0139235128
 11
26.00368408
 21
103.9163097634
  0
LINE
  5
257
100
AcDbEntity
  8
0
100
AcDbLine
 62
9
  6
CONTINUOUS
 10
35.1583072077
 20
100.9026835696
 11
35.171214912
 21
100.9283645435
  0
LINE
  5
258
100
AcDbEntity
  8
0
100
AcDbLine
 62
9
  6
CONTINUOUS
 10
33.3963328547
 20
101.8924079244
 11
33.4280809017
 21
101.9542186766
  0
LINE
  5
259
100
AcDbEntity
  8
0
100
AcDbLine
 62
7
  6
CONTINUOUS
 10
26.0208798283
 20
103.9513826379
 11
26.077231664
 21
104.0609234744
  0
LINE
  5
25A
100
AcDbEntity
  8
0
100
AcDbLine
 62
9
  6
CONTINUOUS
 10
35.171214912
 20
100.9283645435
 11
35.1861780875
 21
100.9569701914
  0
LINE
  5
25B
100
AcDbEntity
  8
0
100
AcDbLine
 62
7
  6
CONTINUOUS
 10
26.1038360405
 20
104.1101888181
 11
26.052625454
 21
104.0139235128
  0
LINE
  5
25C
100
AcDbEntity
  8
0
100
AcDbLine
 62
9
  6
CONTINUOUS
 10
33.4280809017
 20
101.9542186766
 11
33.4630561817
 21
102.0195738111
  0
LINE
  5
25D
100
AcDbEntity
  8
0
100
AcDbLine
 62
9
  6
CONTINUOUS
 10
35.1861780875
 20
100.9569701914
 11
35.2030172136
 21
100.9879109321
  0
LINE
  5
25E
100
AcDbEntity
  8
0
100
AcDbLine
 62
7
  6
CONTINUOUS
 10
26.077231664
 20
104.0609234744
 11
26.1361227391
 21
104.1680052854
  0
LINE
  5
25F
100
AcDbEntity
  8
0
100
AcDbLine
 62
9
  6
CONTINUOUS
 10
33.4630561817
 20
102.0195738111
 11
33.5015170716
 21
102.0885300586
  0
LINE
  5
260
100
AcDbEntity
  8
0
100
AcDbLine
 62
7
  6
CONTINUOUS
 10
26.1563301436
 20
104.2031864129
 11
26.1038360405
 21
104.1101888181
  0
LINE
  5
261
100
AcDbEntity
  8
0
100
AcDbLine
 62
9
  6
CONTINUOUS
 10
35.2030172136
 20
100.9879109321
 11
35.2212878536
 21
101.0200397542
  0
LINE
  5
262
100
AcDbEntity
  8
0
100
AcDbLine
 62
9
  6
CONTINUOUS
 10
33.5015170716
 20
102.0885300586
 11
33.5432589965
 21
102.1602238761
  0
LINE
  5
263
100
AcDbEntity
  8
0
100
AcDbLine
 62
7
  6
CONTINUOUS
 10
26.1361227391
 20
104.1680052854
 11
26.1975726275
 21
104.2726038585
  0
LINE
  5
264
100
AcDbEntity
  8
0
100
AcDbLine
 62
9
  6
CONTINUOUS
 10
35.2212878536
 20
101.0200397542
 11
35.2410744384
 21
101.0532579427
  0
LINE
  5
265
100
AcDbEntity
  8
0
100
AcDbLine
 62
7
  6
CONTINUOUS
 10
26.2107035129
 20
104.2940902806
 11
26.1563301436
 21
104.2031864129
  0
LINE
  5
266
100
AcDbEntity
  8
0
100
AcDbLine
 62
9
  6
CONTINUOUS
 10
33.5432589965
 20
102.1602238761
 11
33.5889678638
 21
102.2352480696
  0
LINE
  5
267
100
AcDbEntity
  8
0
100
AcDbLine
 62
9
  6
CONTINUOUS
 10
35.2410744384
 20
101.0532579427
 11
35.2625229632
 21
101.0876209655
  0
LINE
  5
268
100
AcDbEntity
  8
0
100
AcDbLine
 62
7
  6
CONTINUOUS
 10
26.1975726275
 20
104.2726038585
 11
26.2614270949
 21
104.3745268748
  0
LINE
  5
269
100
AcDbEntity
  8
0
100
AcDbLine
 62
7
  6
CONTINUOUS
 10
26.2671569782
 20
104.3833476006
 11
26.2107035129
 21
104.2940902806
  0
LINE
  5
26A
100
AcDbEntity
  8
0
100
AcDbLine
 62
9
  6
CONTINUOUS
 10
33.5889678638
 20
102.2352480696
 11
33.6394164889
 21
102.314193297
  0
LINE
  5
26B
100
AcDbEntity
  8
0
100
AcDbLine
 62
9
  6
CONTINUOUS
 10
35.2625229632
 20
101.0876209655
 11
35.286054704
 21
101.1235418371
  0
LINE
  5
26C
100
AcDbEntity
  8
0
100
AcDbLine
 62
7
  6
CONTINUOUS
 10
26.2614270949
 20
104.3745268748
 11
26.3281354605
 21
104.4744879171
  0
LINE
  5
26D
100
AcDbEntity
  8
0
100
AcDbLine
 62
9
  6
CONTINUOUS
 10
33.6394164889
 20
102.314193297
 11
33.6947947594
 21
102.3966937108
  0
LINE
  5
26E
100
AcDbEntity
  8
0
100
AcDbLine
 62
9
  6
CONTINUOUS
 10
35.286054704
 20
101.1235418371
 11
35.3120861545
 21
101.1613089409
  0
LINE
  5
26F
100
AcDbEntity
  8
0
100
AcDbLine
 62
7
  6
CONTINUOUS
 10
26.3872452845
 20
104.558239678
 11
26.3258896031
 21
104.471219519
  0
LINE
  5
270
100
AcDbEntity
  8
0
100
AcDbLine
 62
9
  6
CONTINUOUS
 10
33.6947947594
 20
102.3966937108
 11
33.7556581137
 21
102.4828311477
  0
LINE
  5
271
100
AcDbEntity
  8
0
100
AcDbLine
 62
7
  6
CONTINUOUS
 10
26.3281354605
 20
104.4744879171
 11
26.3982085883
 21
104.5733154363
  0
LINE
  5
272
100
AcDbEntity
  8
0
100
AcDbLine
 62
9
  6
CONTINUOUS
 10
35.3120861545
 20
101.1613089409
 11
35.340615682
 21
101.2005656722
  0
LINE
  5
273
100
AcDbEntity
  8
0
100
AcDbLine
 62
7
  6
CONTINUOUS
 10
26.4509903519
 20
104.6440377687
 11
26.3872452845
 21
104.558239678
  0
LINE
  5
274
100
AcDbEntity
  8
0
100
AcDbLine
 62
9
  6
CONTINUOUS
 10
33.7556581137
 20
102.4828311477
 11
33.8219387446
 21
102.5717391281
  0
LINE
  5
275
100
AcDbEntity
  8
0
100
AcDbLine
 62
7
  6
CONTINUOUS
 10
26.3982085883
 20
104.5733154363
 11
26.4713076102
 21
104.6704725087
  0
LINE
  5
276
100
AcDbEntity
  8
0
100
AcDbLine
 62
9
  6
CONTINUOUS
 10
35.340615682
 20
101.2005656722
 11
35.3717976168
 21
101.2411690777
  0
LINE
  5
277
100
AcDbEntity
  8
0
100
AcDbLine
 62
7
  6
CONTINUOUS
 10
26.517077153
 20
104.7285101862
 11
26.4509903519
 21
104.6440377687
  0
LINE
  5
278
100
AcDbEntity
  8
0
100
AcDbLine
 62
9
  6
CONTINUOUS
 10
33.8219387446
 20
102.5717391281
 11
33.8937836701
 21
102.6628957114
  0
LINE
  5
279
100
AcDbEntity
  8
0
100
AcDbLine
 62
7
  6
CONTINUOUS
 10
26.4713076102
 20
104.6704725087
 11
26.5473332608
 21
104.7657845541
  0
LINE
  5
27A
100
AcDbEntity
  8
0
100
AcDbLine
 62
9
  6
CONTINUOUS
 10
35.3717976168
 20
101.2411690777
 11
35.4055417382
 21
101.282650342
  0
LINE
  5
27B
100
AcDbEntity
  8
0
100
AcDbLine
 62
9
  6
CONTINUOUS
 10
68.3578268708
 20
95.526424419
 11
68.3211186936
 21
95.4813142322
  0
LINE
  5
27C
100
AcDbEntity
  8
0
100
AcDbLine
 62
7
  6
CONTINUOUS
 10
26.5852915304
 20
104.8113904613
 11
26.517077153
 21
104.7285101862
  0
LINE
  5
27D
100
AcDbEntity
  8
0
100
AcDbLine
 62
9
  6
CONTINUOUS
 10
33.8937836701
 20
102.6628957114
 11
33.9707583262
 21
102.7551084507
  0
LINE
  5
27E
100
AcDbEntity
  8
0
100
AcDbLine
 62
7
  6
CONTINUOUS
 10
26.5473332608
 20
104.7657845541
 11
26.6260775965
 21
104.8589929922
  0
LINE
  5
27F
100
AcDbEntity
  8
0
100
AcDbLine
 62
9
  6
CONTINUOUS
 10
35.4055417382
 20
101.282650342
 11
35.4418904048
 21
101.3247410665
  0
LINE
  5
280
100
AcDbEntity
  8
0
100
AcDbLine
 62
7
  6
CONTINUOUS
 10
26.6553863667
 20
104.892350214
 11
26.5852915304
 21
104.8113904613
  0
LINE
  5
281
100
AcDbEntity
  8
0
100
AcDbLine
 62
9
  6
CONTINUOUS
 10
68.3956696728
 20
95.5700088802
 11
68.3578268708
 21
95.526424419
  0
LINE
  5
282
100
AcDbEntity
  8
0
100
AcDbLine
 62
9
  6
CONTINUOUS
 10
33.9707583262
 20
102.7551084507
 11
34.0526309758
 21
102.8476103867
  0
LINE
  5
283
100
AcDbEntity
  8
0
100
AcDbLine
 62
9
  6
CONTINUOUS
 10
71.1479691424
 20
93.1627154446
 11
71.1849500004
 21
93.2044374578
  0
LINE
  5
284
100
AcDbEntity
  8
0
100
AcDbLine
 62
7
  6
CONTINUOUS
 10
26.6260775965
 20
104.8589929922
 11
26.7073015535
 21
104.9497725782
  0
LINE
  5
285
100
AcDbEntity
  8
0
100
AcDbLine
 62
7
  6
CONTINUOUS
 10
26.7274128894
 20
104.9714715719
 11
26.6553863667
 21
104.892350214
  0
LINE
  5
286
100
AcDbEntity
  8
0
100
AcDbLine
 62
9
  6
CONTINUOUS
 10
35.4418904048
 20
101.3247410665
 11
35.4806025145
 21
101.3668964028
  0
LINE
  5
287
100
AcDbEntity
  8
0
100
AcDbLine
 62
7
  6
CONTINUOUS
 10
76.7513764132
 20
95.5250411666
 11
76.7580650824
 21
95.5322709022
  0
LINE
  5
288
100
AcDbEntity
  8
0
100
AcDbLine
 62
9
  6
CONTINUOUS
 10
68.4346174242
 20
95.6120920324
 11
68.3956696728
 21
95.5700088802
  0
LINE
  5
289
100
AcDbEntity
  8
0
100
AcDbLine
 62
9
  6
CONTINUOUS
 10
34.0526309758
 20
102.8476103867
 11
34.138497349
 21
102.9389724062
  0
LINE
  5
28A
100
AcDbEntity
  8
0
100
AcDbLine
 62
9
  6
CONTINUOUS
 10
71.9580396085
 20
87.3784314404
 11
71.9185065708
 21
87.3364341831
  0
LINE
  5
28B
100
AcDbEntity
  8
0
100
AcDbLine
 62
9
  6
CONTINUOUS
 10
71.108487008
 20
93.1208408907
 11
71.1479691424
 21
93.1627154446
  0
LINE
  5
28C
100
AcDbEntity
  8
0
100
AcDbLine
 62
7
  6
CONTINUOUS
 10
26.7073015535
 20
104.9497725782
 11
26.7909992269
 21
105.0381487256
  0
LINE
  5
28D
100
AcDbEntity
  8
0
100
AcDbLine
 62
7
  6
CONTINUOUS
 10
26.8013560506
 20
105.0487428222
 11
26.7274128894
 21
104.9714715719
  0
LINE
  5
28E
100
AcDbEntity
  8
0
100
AcDbLine
 62
9
  6
CONTINUOUS
 10
35.4806025145
 20
101.3668964028
 11
35.5215035843
 21
101.4087293314
  0
LINE
  5
28F
100
AcDbEntity
  8
0
100
AcDbLine
 62
7
  6
CONTINUOUS
 10
76.8060139409
 20
93.1826953519
 11
76.7991204653
 21
93.1756513096
  0
LINE
  5
290
100
AcDbEntity
  8
0
100
AcDbLine
 62
9
  6
CONTINUOUS
 10
68.4746428602
 20
95.6526929426
 11
68.4346174242
 21
95.6120920324
  0
LINE
  5
291
100
AcDbEntity
  8
0
100
AcDbLine
 62
9
  6
CONTINUOUS
 10
73.4731892939
 20
85.8911987463
 11
73.3849681415
 21
85.8020066465
  0
LINE
  5
292
100
AcDbEntity
  8
0
100
AcDbLine
 62
9
  6
CONTINUOUS
 10
34.138497349
 20
102.9389724062
 11
34.2272306454
 21
103.0278491857
  0
LINE
  5
293
100
AcDbEntity
  8
0
100
AcDbLine
 62
9
  6
CONTINUOUS
 10
71.9185065708
 20
87.3364341831
 11
71.8778105239
 21
87.2958075752
  0
LINE
  5
294
100
AcDbEntity
  8
0
100
AcDbLine
 62
7
  6
CONTINUOUS
 10
26.7909992269
 20
105.0381487256
 11
26.8770965333
 21
105.1240486814
  0
LINE
  5
295
100
AcDbEntity
  8
0
100
AcDbLine
 62
9
  6
CONTINUOUS
 10
71.0659458294
 20
93.0784815813
 11
71.108487008
 21
93.1208408907
  0
LINE
  5
296
100
AcDbEntity
  8
0
100
AcDbLine
 62
9
  6
CONTINUOUS
 10
35.5215035843
 20
101.4087293314
 11
35.5639235604
 21
101.4494374762
  0
LINE
  5
297
100
AcDbEntity
  8
0
100
AcDbLine
 62
9
  6
CONTINUOUS
 10
68.5157384887
 20
95.6918422571
 11
68.4746428602
 21
95.6526929426
  0
LINE
  5
298
100
AcDbEntity
  8
0
100
AcDbLine
 62
7
  6
CONTINUOUS
 10
75.5777865302
 20
83.5233268764
 11
75.6452928125
 21
83.5875376291
  0
LINE
  5
299
100
AcDbEntity
  8
0
100
AcDbLine
 62
9
  6
CONTINUOUS
 10
73.3849681415
 20
85.8020066465
 11
73.2939177927
 21
85.7154905333
  0
LINE
  5
29A
100
AcDbEntity
  8
0
100
AcDbLine
 62
7
  6
CONTINUOUS
 10
26.8771675587
 20
105.1241171064
 11
26.9655589446
 21
105.2074417001
  0
LINE
  5
29B
100
AcDbEntity
  8
0
100
AcDbLine
 62
9
  6
CONTINUOUS
 10
34.2272306454
 20
103.0278491857
 11
34.3186099885
 21
103.113954783
  0
LINE
  5
29C
100
AcDbEntity
  8
0
100
AcDbLine
 62
9
  6
CONTINUOUS
 10
71.8778105239
 20
87.2958075752
 11
71.8360364134
 21
87.2566311716
  0
LINE
  5
29D
100
AcDbEntity
  8
0
100
AcDbLine
 62
7
  6
CONTINUOUS
 10
75.63337672
 20
83.5760577228
 11
75.54302518
 21
83.4913813625
  0
LINE
  5
29E
100
AcDbEntity
  8
0
100
AcDbLine
 62
9
  6
CONTINUOUS
 10
71.0189315254
 20
93.0346471891
 11
71.0659458294
 21
93.0784815813
  0
LINE
  5
29F
100
AcDbEntity
  8
0
100
AcDbLine
 62
7
  6
CONTINUOUS
 10
75.5088945053
 20
83.4605888804
 11
75.5777865302
 21
83.5233268764
  0
LINE
  5
2A0
100
AcDbEntity
  8
0
100
AcDbLine
 62
7
  6
CONTINUOUS
 10
27.034235693
 20
105.2690224887
 11
26.9548036233
 21
105.1975523429
  0
LINE
  5
2A1
100
AcDbEntity
  8
0
100
AcDbLine
 62
9
  6
CONTINUOUS
 10
35.5639235604
 20
101.4494374762
 11
35.6070671986
 21
101.4882394081
  0
LINE
  5
2A2
100
AcDbEntity
  8
0
100
AcDbLine
 62
9
  6
CONTINUOUS
 10
68.5578929305
 20
95.7295575499
 11
68.5157384887
 21
95.6918422571
  0
LINE
  5
2A3
100
AcDbEntity
  8
0
100
AcDbLine
 62
9
  6
CONTINUOUS
 10
73.2939177927
 20
85.7154905333
 11
73.2002192359
 21
85.6318252239
  0
LINE
  5
2A4
100
AcDbEntity
  8
0
100
AcDbLine
 62
7
  6
CONTINUOUS
 10
26.9655589446
 20
105.2074417001
 11
27.0563560573
 21
105.2882957313
  0
LINE
  5
2A5
100
AcDbEntity
  8
0
100
AcDbLine
 62
9
  6
CONTINUOUS
 10
34.3186099885
 20
103.113954783
 11
34.4117382081
 21
103.1964854967
  0
LINE
  5
2A6
100
AcDbEntity
  8
0
100
AcDbLine
 62
7
  6
CONTINUOUS
 10
75.54302518
 20
83.4913813625
 11
75.4502596564
 21
83.4093365096
  0
LINE
  5
2A7
100
AcDbEntity
  8
0
100
AcDbLine
 62
9
  6
CONTINUOUS
 10
71.8360364134
 20
87.2566311716
 11
71.793051215
 21
87.2187830688
  0
LINE
  5
2A8
100
AcDbEntity
  8
0
100
AcDbLine
 62
7
  6
CONTINUOUS
 10
75.4386470805
 20
83.3993525977
 11
75.5088945053
 21
83.4605888804
  0
LINE
  5
2A9
100
AcDbEntity
  8
0
100
AcDbLine
 62
9
  6
CONTINUOUS
 10
70.9691256627
 20
92.9913869234
 11
71.0189315254
 21
93.0346471891
  0
LINE
  5
2AA
100
AcDbEntity
  8
0
100
AcDbLine
 62
7
  6
CONTINUOUS
 10
27.1154411581
 20
105.3385033515
 11
27.034235693
 21
105.2690224887
  0
LINE
  5
2AB
100
AcDbEntity
  8
0
100
AcDbLine
 62
9
  6
CONTINUOUS
 10
35.6070671986
 20
101.4882394081
 11
35.651062332
 21
101.5252903054
  0
LINE
  5
2AC
100
AcDbEntity
  8
0
100
AcDbLine
 62
7
  6
CONTINUOUS
 10
27.0563560573
 20
105.2882957313
 11
27.1494014137
 21
105.366541937
  0
LINE
  5
2AD
100
AcDbEntity
  8
0
100
AcDbLine
 62
9
  6
CONTINUOUS
 10
68.6011254394
 20
95.7658739032
 11
68.5578929305
 21
95.7295575499
  0
LINE
  5
2AE
100
AcDbEntity
  8
0
100
AcDbLine
 62
9
  6
CONTINUOUS
 10
73.2002192359
 20
85.6318252239
 11
73.1040705157
 21
85.5511958045
  0
LINE
  5
2AF
100
AcDbEntity
  8
0
100
AcDbLine
 62
7
  6
CONTINUOUS
 10
75.3670849037
 20
83.3396525531
 11
75.4386470805
 21
83.3993525977
  0
LINE
  5
2B0
100
AcDbEntity
  8
0
100
AcDbLine
 62
7
  6
CONTINUOUS
 10
75.4502596564
 20
83.4093365096
 11
75.3551555779
 21
83.3299954035
  0
LINE
  5
2B1
100
AcDbEntity
  8
0
100
AcDbLine
 62
9
  6
CONTINUOUS
 10
34.4117382081
 20
103.1964854967
 11
34.5067168633
 21
103.275601334
  0
LINE
  5
2B2
100
AcDbEntity
  8
0
100
AcDbLine
 62
9
  6
CONTINUOUS
 10
71.793051215
 20
87.2187830688
 11
71.7487140918
 21
87.1821365224
  0
LINE
  5
2B3
100
AcDbEntity
  8
0
100
AcDbLine
 62
7
  6
CONTINUOUS
 10
27.1983584027
 20
105.4059472983
 11
27.1154411581
 21
105.3385033515
  0
LINE
  5
2B4
100
AcDbEntity
  8
0
100
AcDbLine
 62
9
  6
CONTINUOUS
 10
70.9182539913
 20
92.9503028124
 11
70.9691256627
 21
92.9913869234
  0
LINE
  5
2B5
100
AcDbEntity
  8
0
100
AcDbLine
 62
7
  6
CONTINUOUS
 10
75.2942466997
 20
83.281524074
 11
75.3670849037
 21
83.3396525531
  0
LINE
  5
2B6
100
AcDbEntity
  8
0
100
AcDbLine
 62
7
  6
CONTINUOUS
 10
27.1494014137
 20
105.366541937
 11
27.2446150592
 21
105.4421146116
  0
LINE
  5
2B7
100
AcDbEntity
  8
0
100
AcDbLine
 62
9
  6
CONTINUOUS
 10
35.651062332
 20
101.5252903054
 11
35.6957584164
 21
101.560536216
  0
LINE
  5
2B8
100
AcDbEntity
  8
0
100
AcDbLine
 62
9
  6
CONTINUOUS
 10
68.6454534607
 20
95.800812798
 11
68.6011254394
 21
95.7658739032
  0
LINE
  5
2B9
100
AcDbEntity
  8
0
100
AcDbLine
 62
9
  6
CONTINUOUS
 10
73.1040705157
 20
85.5511958045
 11
73.0054640659
 21
85.4735718716
  0
LINE
  5
2BA
100
AcDbEntity
  8
0
100
AcDbLine
 62
7
  6
CONTINUOUS
 10
75.3551555779
 20
83.3299954035
 11
75.2578050142
 21
83.2534303692
  0
LINE
  5
2BB
100
AcDbEntity
  8
0
100
AcDbLine
 62
9
  6
CONTINUOUS
 10
34.5067168633
 20
103.275601334
 11
34.6035518325
 21
103.3513626196
  0
LINE
  5
2BC
100
AcDbEntity
  8
0
100
AcDbLine
 62
9
  6
CONTINUOUS
 10
71.7487140918
 20
87.1821365224
 11
71.7031196326
 21
87.1467733994
  0
LINE
  5
2BD
100
AcDbEntity
  8
0
100
AcDbLine
 62
7
  6
CONTINUOUS
 10
27.2829361408
 20
105.4713128662
 11
27.1983584027
 21
105.4059472983
  0
LINE
  5
2BE
100
AcDbEntity
  8
0
100
AcDbLine
 62
7
  6
CONTINUOUS
 10
76.7580650824
 20
95.5322709022
 11
76.7648360414
 21
95.5374504303
  0
LINE
  5
2BF
100
AcDbEntity
  8
0
100
AcDbLine
 62
7
  6
CONTINUOUS
 10
75.22016858
 20
83.2249937086
 11
75.2942466997
 21
83.281524074
  0
LINE
  5
2C0
100
AcDbEntity
  8
0
100
AcDbLine
 62
9
  6
CONTINUOUS
 10
70.8656289391
 20
92.9108713998
 11
70.9182539913
 21
92.9503028124
  0
LINE
  5
2C1
100
AcDbEntity
  8
0
100
AcDbLine
 62
7
  6
CONTINUOUS
 10
27.2446150592
 20
105.4421146116
 11
27.3419470804
 21
105.5149723069
  0
LINE
  5
2C2
100
AcDbEntity
  8
0
100
AcDbLine
 62
7
  6
CONTINUOUS
 10
75.2578050142
 20
83.2534303692
 11
75.1583011015
 21
83.1797224604
  0
LINE
  5
2C3
100
AcDbEntity
  8
0
100
AcDbLine
 62
9
  6
CONTINUOUS
 10
68.6909079374
 20
95.8343947664
 11
68.6454534607
 21
95.800812798
  0
LINE
  5
2C4
100
AcDbEntity
  8
0
100
AcDbLine
 62
9
  6
CONTINUOUS
 10
35.6957584164
 20
101.560536216
 11
35.7409590151
 21
101.5939078407
  0
LINE
  5
2C5
100
AcDbEntity
  8
0
100
AcDbLine
 62
9
  6
CONTINUOUS
 10
73.0054640659
 20
85.4735718716
 11
72.9044992125
 21
85.3990135377
  0
LINE
  5
2C6
100
AcDbEntity
  8
0
100
AcDbLine
 62
9
  6
CONTINUOUS
 10
34.6035518325
 20
103.3513626196
 11
34.7021929887
 21
103.4237750924
  0
LINE
  5
2C7
100
AcDbEntity
  8
0
100
AcDbLine
 62
7
  6
CONTINUOUS
 10
27.3691207731
 20
105.5345573532
 11
27.2829361408
 21
105.4713128662
  0
LINE
  5
2C8
100
AcDbEntity
  8
0
100
AcDbLine
 62
7
  6
CONTINUOUS
 10
76.7991204653
 20
93.1756513096
 11
76.7922382907
 21
93.1706203332
  0
LINE
  5
2C9
100
AcDbEntity
  8
0
100
AcDbLine
 62
7
  6
CONTINUOUS
 10
75.1448902883
 20
83.1700938729
 11
75.22016858
 21
83.2249937086
  0
LINE
  5
2CA
100
AcDbEntity
  8
0
100
AcDbLine
 62
9
  6
CONTINUOUS
 10
71.7031196326
 20
87.1467733994
 11
71.6563870529
 21
87.1127960059
  0
LINE
  5
2CB
100
AcDbEntity
  8
0
100
AcDbLine
 62
7
  6
CONTINUOUS
 10
27.3419470804
 20
105.5149723069
 11
27.4413630741
 21
105.5850791352
  0
LINE
  5
2CC
100
AcDbEntity
  8
0
100
AcDbLine
 62
7
  6
CONTINUOUS
 10
75.1583011015
 20
83.1797224604
 11
75.0567160676
 21
83.1089177305
  0
LINE
  5
2CD
100
AcDbEntity
  8
0
100
AcDbLine
 62
7
  6
CONTINUOUS
 10
75.0684396524
 20
83.1168422904
 11
75.1448902883
 21
83.1700938729
  0
LINE
  5
2CE
100
AcDbEntity
  8
0
100
AcDbLine
 62
7
  6
CONTINUOUS
 10
27.4568625273
 20
105.595636527
 11
27.3691207731
 21
105.5345573532
  0
LINE
  5
2CF
100
AcDbEntity
  8
0
100
AcDbLine
 62
9
  6
CONTINUOUS
 10
72.9044992125
 20
85.3990135377
 11
72.8012124995
 21
85.3275725159
  0
LINE
  5
2D0
100
AcDbEntity
  8
0
100
AcDbLine
 62
9
  6
CONTINUOUS
 10
68.7375362901
 20
95.8666397838
 11
68.6909079374
 21
95.8343947664
  0
LINE
  5
2D1
100
AcDbEntity
  8
0
100
AcDbLine
 62
9
  6
CONTINUOUS
 10
70.8115703172
 20
92.8735292735
 11
70.8656289391
 21
92.9108713998
  0
LINE
  5
2D2
100
AcDbEntity
  8
0
100
AcDbLine
 62
9
  6
CONTINUOUS
 10
35.7409590151
 20
101.5939078407
 11
35.7864047019
 21
101.6252730275
  0
LINE
  5
2D3
100
AcDbEntity
  8
0
100
AcDbLine
 62
9
  6
CONTINUOUS
 10
34.7021929887
 20
103.4237750924
 11
34.8028625267
 21
103.493004839
  0
LINE
  5
2D4
100
AcDbEntity
  8
0
100
AcDbLine
 62
9
  6
CONTINUOUS
 10
71.6563870529
 20
87.1127960059
 11
71.6087261345
 21
87.0803534906
  0
LINE
  5
2D5
100
AcDbEntity
  8
0
100
AcDbLine
 62
7
  6
CONTINUOUS
 10
74.9908468442
 20
83.0652601776
 11
75.0684396524
 21
83.1168422904
  0
LINE
  5
2D6
100
AcDbEntity
  8
0
100
AcDbLine
 62
7
  6
CONTINUOUS
 10
27.4413630741
 20
105.5850791352
 11
27.5427365553
 21
105.6523527098
  0
LINE
  5
2D7
100
AcDbEntity
  8
0
100
AcDbLine
 62
7
  6
CONTINUOUS
 10
27.5460986368
 20
105.654513515
 11
27.4568625273
 21
105.595636527
  0
LINE
  5
2D8
100
AcDbEntity
  8
0
100
AcDbLine
 62
7
  6
CONTINUOUS
 10
75.0567160676
 20
83.1089177305
 11
74.9531255176
 21
83.0410721566
  0
LINE
  5
2D9
100
AcDbEntity
  8
0
100
AcDbLine
 62
9
  6
CONTINUOUS
 10
72.8012124995
 20
85.3275725159
 11
72.6957049189
 21
85.2593395234
  0
LINE
  5
2DA
100
AcDbEntity
  8
0
100
AcDbLine
 62
9
  6
CONTINUOUS
 10
68.7853382526
 20
95.8975243586
 11
68.7375362901
 21
95.8666397838
  0
LINE
  5
2DB
100
AcDbEntity
  8
0
100
AcDbLine
 62
9
  6
CONTINUOUS
 10
35.7864047019
 20
101.6252730275
 11
35.8321590331
 21
101.6547322865
  0
LINE
  5
2DC
100
AcDbEntity
  8
0
100
AcDbLine
 62
9
  6
CONTINUOUS
 10
34.8028625267
 20
103.493004839
 11
34.9041615488
 21
103.5581301638
  0
LINE
  5
2DD
100
AcDbEntity
  8
0
100
AcDbLine
 62
9
  6
CONTINUOUS
 10
70.7547541934
 20
92.8371120096
 11
70.8115703172
 21
92.8735292735
  0
LINE
  5
2DE
100
AcDbEntity
  8
0
100
AcDbLine
 62
9
  6
CONTINUOUS
 10
71.6087261345
 20
87.0803534906
 11
71.5603039023
 21
87.0495526124
  0
LINE
  5
2DF
100
AcDbEntity
  8
0
100
AcDbLine
 62
7
  6
CONTINUOUS
 10
74.9121445746
 20
83.0153694729
 11
74.9908468442
 21
83.0652601776
  0
LINE
  5
2E0
100
AcDbEntity
  8
0
100
AcDbLine
 62
7
  6
CONTINUOUS
 10
27.5427365553
 20
105.6523527098
 11
27.6459625431
 21
105.716716445
  0
LINE
  5
2E1
100
AcDbEntity
  8
0
100
AcDbLine
 62
7
  6
CONTINUOUS
 10
74.9531255176
 20
83.0410721566
 11
74.8476124549
 21
82.9762370212
  0
LINE
  5
2E2
100
AcDbEntity
  8
0
100
AcDbLine
 62
7
  6
CONTINUOUS
 10
74.8323570301
 20
82.9671888949
 11
74.9121445746
 21
83.0153694729
  0
LINE
  5
2E3
100
AcDbEntity
  8
0
100
AcDbLine
 62
9
  6
CONTINUOUS
 10
72.6957049189
 20
85.2593395234
 11
72.5882696588
 21
85.1944987129
  0
LINE
  5
2E4
100
AcDbEntity
  8
0
100
AcDbLine
 62
9
  6
CONTINUOUS
 10
68.8343298079
 20
95.9270302942
 11
68.7853382526
 21
95.8975243586
  0
LINE
  5
2E5
100
AcDbEntity
  8
0
100
AcDbLine
 62
9
  6
CONTINUOUS
 10
34.9041615488
 20
103.5581301638
 11
35.0049846883
 21
103.6186649924
  0
LINE
  5
2E6
100
AcDbEntity
  8
0
100
AcDbLine
 62
9
  6
CONTINUOUS
 10
35.8321590331
 20
101.6547322865
 11
35.8785207908
 21
101.682530674
  0
LINE
  5
2E7
100
AcDbEntity
  8
0
100
AcDbLine
 62
9
  6
CONTINUOUS
 10
70.6931096083
 20
92.8004837255
 11
70.7547541934
 21
92.8371120096
  0
LINE
  5
2E8
100
AcDbEntity
  8
0
100
AcDbLine
 62
9
  6
CONTINUOUS
 10
71.5603039023
 20
87.0495526124
 11
71.5110612992
 21
87.0203472228
  0
LINE
  5
2E9
100
AcDbEntity
  8
0
100
AcDbLine
 62
7
  6
CONTINUOUS
 10
27.7288158505
 20
105.7655060835
 11
27.6367730099
 21
105.7111502016
  0
LINE
  5
2EA
100
AcDbEntity
  8
0
100
AcDbLine
 62
7
  6
CONTINUOUS
 10
27.6459625431
 20
105.716716445
 11
27.7509421221
 21
105.7781170489
  0
LINE
  5
2EB
100
AcDbEntity
  8
0
100
AcDbLine
 62
7
  6
CONTINUOUS
 10
74.8476124549
 20
82.9762370212
 11
74.7402343045
 21
82.9144567243
  0
LINE
  5
2EC
100
AcDbEntity
  8
0
100
AcDbLine
 62
7
  6
CONTINUOUS
 10
74.7515399555
 20
82.92074932
 11
74.8323570301
 21
82.9671888949
  0
LINE
  5
2ED
100
AcDbEntity
  8
0
100
AcDbLine
 62
9
  6
CONTINUOUS
 10
72.5882696588
 20
85.1944987129
 11
72.4790783838
 21
85.1331466425
  0
LINE
  5
2EE
100
AcDbEntity
  8
0
100
AcDbLine
 62
9
  6
CONTINUOUS
 10
35.0049846883
 20
103.6186649924
 11
35.1047064416
 21
103.674534968
  0
LINE
  5
2EF
100
AcDbEntity
  8
0
100
AcDbLine
 62
9
  6
CONTINUOUS
 10
68.8845211985
 20
95.9551294096
 11
68.8343298079
 21
95.9270302942
  0
LINE
  5
2F0
100
AcDbEntity
  8
0
100
AcDbLine
 62
9
  6
CONTINUOUS
 10
35.8785207908
 20
101.682530674
 11
35.9247226484
 21
101.7082897749
  0
LINE
  5
2F1
100
AcDbEntity
  8
0
100
AcDbLine
 62
7
  6
CONTINUOUS
 10
27.8221524368
 20
105.8175352219
 11
27.7288158505
 21
105.7655060835
  0
LINE
  5
2F2
100
AcDbEntity
  8
0
100
AcDbLine
 62
9
  6
CONTINUOUS
 10
71.5110612992
 20
87.0203472228
 11
71.4609565132
 21
86.9926985089
  0
LINE
  5
2F3
100
AcDbEntity
  8
0
100
AcDbLine
 62
9
  6
CONTINUOUS
 10
70.6285205406
 20
92.7649278601
 11
70.6931096083
 21
92.8004837255
  0
LINE
  5
2F4
100
AcDbEntity
  8
0
100
AcDbLine
 62
7
  6
CONTINUOUS
 10
27.7509421221
 20
105.7781170489
 11
27.8575481973
 21
105.8364789654
  0
LINE
  5
2F5
100
AcDbEntity
  8
0
100
AcDbLine
 62
7
  6
CONTINUOUS
 10
74.6697344844
 20
82.8760772215
 11
74.7515399555
 21
82.92074932
  0
LINE
  5
2F6
100
AcDbEntity
  8
0
100
AcDbLine
 62
7
  6
CONTINUOUS
 10
74.7402343045
 20
82.9144567243
 11
74.6311434072
 21
82.8558078904
  0
LINE
  5
2F7
100
AcDbEntity
  8
0
100
AcDbLine
 62
7
  6
CONTINUOUS
 10
27.9167414534
 20
105.8672158077
 11
27.8221524368
 21
105.8175352219
  0
LINE
  5
2F8
100
AcDbEntity
  8
0
100
AcDbLine
 62
9
  6
CONTINUOUS
 10
35.1047064416
 20
103.674534968
 11
35.2023896812
 21
103.7255732654
  0
LINE
  5
2F9
100
AcDbEntity
  8
0
100
AcDbLine
 62
9
  6
CONTINUOUS
 10
72.4790783838
 20
85.1331466425
 11
72.368233116
 21
85.0753157225
  0
LINE
  5
2FA
100
AcDbEntity
  8
0
100
AcDbLine
 62
9
  6
CONTINUOUS
 10
68.9359094847
 20
95.9817814776
 11
68.8845211985
 21
95.9551294096
  0
LINE
  5
2FB
100
AcDbEntity
  8
0
100
AcDbLine
 62
7
  6
CONTINUOUS
 10
74.5870086368
 20
82.8332045268
 11
74.6697344844
 21
82.8760772215
  0
LINE
  5
2FC
100
AcDbEntity
  8
0
100
AcDbLine
 62
9
  6
CONTINUOUS
 10
35.9247226484
 20
101.7082897749
 11
35.9700397856
 21
101.7317516319
  0
LINE
  5
2FD
100
AcDbEntity
  8
0
100
AcDbLine
 62
9
  6
CONTINUOUS
 10
70.5615560094
 20
92.7304902628
 11
70.6285205406
 21
92.7649278601
  0
LINE
  5
2FE
100
AcDbEntity
  8
0
100
AcDbLine
 62
9
  6
CONTINUOUS
 10
71.4609565132
 20
86.9926985089
 11
71.4100462042
 21
86.9666287831
  0
LINE
  5
2FF
100
AcDbEntity
  8
0
100
AcDbLine
 62
7
  6
CONTINUOUS
 10
27.8575481973
 20
105.8364789654
 11
27.9657603259
 21
105.8917924021
  0
LINE
  5
300
100
AcDbEntity
  8
0
100
AcDbLine
 62
7
  6
CONTINUOUS
 10
74.6311434072
 20
82.8558078904
 11
74.5204843968
 21
82.8003709349
  0
LINE
  5
301
100
AcDbEntity
  8
0
100
AcDbLine
 62
7
  6
CONTINUOUS
 10
28.0125088438
 20
105.9145072843
 11
27.9167414534
 21
105.8672158077
  0
LINE
  5
302
100
AcDbEntity
  8
0
100
AcDbLine
 62
7
  6
CONTINUOUS
 10
74.5034372937
 20
82.7921694182
 11
74.5870086368
 21
82.8332045268
  0
LINE
  5
303
100
AcDbEntity
  8
0
100
AcDbLine
 62
9
  6
CONTINUOUS
 10
35.2023896812
 20
103.7255732654
 11
35.2975374803
 21
103.7718740531
  0
LINE
  5
304
100
AcDbEntity
  8
0
100
AcDbLine
 62
9
  6
CONTINUOUS
 10
72.368233116
 20
85.0753157225
 11
72.2557789906
 21
85.0210046108
  0
LINE
  5
305
100
AcDbEntity
  8
0
100
AcDbLine
 62
9
  6
CONTINUOUS
 10
35.9700397856
 20
101.7317516319
 11
36.0141763227
 21
101.7529417408
  0
LINE
  5
306
100
AcDbEntity
  8
0
100
AcDbLine
 62
9
  6
CONTINUOUS
 10
68.9885547402
 20
96.0069716488
 11
68.9359094847
 21
95.9817814776
  0
LINE
  5
307
100
AcDbEntity
  8
0
100
AcDbLine
 62
7
  6
CONTINUOUS
 10
27.9657603259
 20
105.8917924021
 11
28.0755080739
 21
105.9440213881
  0
LINE
  5
308
100
AcDbEntity
  8
0
100
AcDbLine
 62
9
  6
CONTINUOUS
 10
71.4100462042
 20
86.9666287831
 11
71.3584246137
 21
86.942182251
  0
LINE
  5
309
100
AcDbEntity
  8
0
100
AcDbLine
 62
9
  6
CONTINUOUS
 10
70.4944474415
 20
92.6988544266
 11
70.5615560094
 21
92.7304902628
  0
LINE
  5
30A
100
AcDbEntity
  8
0
100
AcDbLine
 62
7
  6
CONTINUOUS
 10
74.5204843968
 20
82.8003709349
 11
74.4083378197
 21
82.748178885
  0
LINE
  5
30B
100
AcDbEntity
  8
0
100
AcDbLine
 62
7
  6
CONTINUOUS
 10
74.419041007
 20
82.7529796052
 11
74.5034372937
 21
82.7921694182
  0
LINE
  5
30C
100
AcDbEntity
  8
0
100
AcDbLine
 62
7
  6
CONTINUOUS
 10
28.1094781096
 20
105.9594199559
 11
28.0125088438
 21
105.9145072843
  0
LINE
  5
30D
100
AcDbEntity
  8
0
100
AcDbLine
 62
7
  6
CONTINUOUS
 10
76.7648360414
 20
95.5374504303
 11
76.7716740071
 21
95.5405632145
  0
LINE
  5
30E
100
AcDbEntity
  8
0
100
AcDbLine
 62
9
  6
CONTINUOUS
 10
35.2975374803
 20
103.7718740531
 11
35.3894104474
 21
103.8134779305
  0
LINE
  5
30F
100
AcDbEntity
  8
0
100
AcDbLine
 62
9
  6
CONTINUOUS
 10
72.2557789906
 20
85.0210046108
 11
72.1417654658
 21
84.9702312706
  0
LINE
  5
310
100
AcDbEntity
  8
0
100
AcDbLine
 62
9
  6
CONTINUOUS
 10
36.0141763227
 20
101.7529417408
 11
36.0567419359
 21
101.7718614302
  0
LINE
  5
311
100
AcDbEntity
  8
0
100
AcDbLine
 62
7
  6
CONTINUOUS
 10
28.0755080739
 20
105.9440213881
 11
28.1868143196
 21
105.9931689029
  0
LINE
  5
312
100
AcDbEntity
  8
0
100
AcDbLine
 62
7
  6
CONTINUOUS
 10
76.7922382907
 20
93.1706203332
 11
76.7853841972
 21
93.167605605
  0
LINE
  5
313
100
AcDbEntity
  8
0
100
AcDbLine
 62
9
  6
CONTINUOUS
 10
69.042504085
 20
96.0306665637
 11
68.9885547402
 21
96.0069716488
  0
LINE
  5
314
100
AcDbEntity
  8
0
100
AcDbLine
 62
7
  6
CONTINUOUS
 10
74.3338855159
 20
82.7156626537
 11
74.419041007
 21
82.7529796052
  0
LINE
  5
315
100
AcDbEntity
  8
0
100
AcDbLine
 62
9
  6
CONTINUOUS
 10
71.3584246137
 20
86.942182251
 11
71.3061760369
 21
86.9193883987
  0
LINE
  5
316
100
AcDbEntity
  8
0
100
AcDbLine
 62
7
  6
CONTINUOUS
 10
28.207655832
 20
106.0019572497
 11
28.1094781096
 21
105.9594199559
  0
LINE
  5
317
100
AcDbEntity
  8
0
100
AcDbLine
 62
7
  6
CONTINUOUS
 10
74.4083378197
 20
82.748178885
 11
74.2948972122
 21
82.6993142517
  0
LINE
  5
318
100
AcDbEntity
  8
0
100
AcDbLine
 62
9
  6
CONTINUOUS
 10
70.4305179967
 20
92.6714551241
 11
70.4944474415
 21
92.6988544266
  0
LINE
  5
319
100
AcDbEntity
  8
0
100
AcDbLine
 62
9
  6
CONTINUOUS
 10
35.3894104474
 20
103.8134779305
 11
35.4775908279
 21
103.8506265638
  0
LINE
  5
31A
100
AcDbEntity
  8
0
100
AcDbLine
 62
7
  6
CONTINUOUS
 10
74.2479101399
 20
82.6801971764
 11
74.3338855159
 21
82.7156626537
  0
LINE
  5
31B
100
AcDbEntity
  8
0
100
AcDbLine
 62
9
  6
CONTINUOUS
 10
36.0567419359
 20
101.7718614302
 11
36.0976653776
 21
101.7886817044
  0
LINE
  5
31C
100
AcDbEntity
  8
0
100
AcDbLine
 62
9
  6
CONTINUOUS
 10
72.1417654658
 20
84.9702312706
 11
72.0262935223
 21
84.9230398672
  0
LINE
  5
31D
100
AcDbEntity
  8
0
100
AcDbLine
 62
7
  6
CONTINUOUS
 10
28.1868143196
 20
105.9931689029
 11
28.2997482138
 21
106.0392543169
  0
LINE
  5
31E
100
AcDbEntity
  8
0
100
AcDbLine
 62
7
  6
CONTINUOUS
 10
28.3070187156
 20
106.0420992396
 11
28.207655832
 21
106.0019572497
  0
LINE
  5
31F
100
AcDbEntity
  8
0
100
AcDbLine
 62
9
  6
CONTINUOUS
 10
69.0978030673
 20
96.0528210418
 11
69.042504085
 21
96.0306665637
  0
LINE
  5
320
100
AcDbEntity
  8
0
100
AcDbLine
 62
9
  6
CONTINUOUS
 10
71.3061760369
 20
86.9193883987
 11
71.2533627698
 21
86.898265745
  0
LINE
  5
321
100
AcDbEntity
  8
0
100
AcDbLine
 62
7
  6
CONTINUOUS
 10
74.2948972122
 20
82.6993142517
 11
74.1799682392
 21
82.6537089998
  0
LINE
  5
322
100
AcDbEntity
  8
0
100
AcDbLine
 62
9
  6
CONTINUOUS
 10
35.4775908279
 20
103.8506265638
 11
35.5614361806
 21
103.8834806998
  0
LINE
  5
323
100
AcDbEntity
  8
0
100
AcDbLine
 62
9
  6
CONTINUOUS
 10
70.3681108718
 20
92.6472813598
 11
70.4305179967
 21
92.6714551241
  0
LINE
  5
324
100
AcDbEntity
  8
0
100
AcDbLine
 62
7
  6
CONTINUOUS
 10
74.1611099658
 20
82.6465796557
 11
74.2479101399
 21
82.6801971764
  0
LINE
  5
325
100
AcDbEntity
  8
0
100
AcDbLine
 62
9
  6
CONTINUOUS
 10
36.0976653776
 20
101.7886817044
 11
36.1367884888
 21
101.8035433704
  0
LINE
  5
326
100
AcDbEntity
  8
0
100
AcDbLine
 62
7
  6
CONTINUOUS
 10
28.2997482138
 20
106.0392543169
 11
28.4141005043
 21
106.082192486
  0
LINE
  5
327
100
AcDbEntity
  8
0
100
AcDbLine
 62
9
  6
CONTINUOUS
 10
72.0262935223
 20
84.9230398672
 11
71.9095143537
 21
84.8794850599
  0
LINE
  5
328
100
AcDbEntity
  8
0
100
AcDbLine
 62
9
  6
CONTINUOUS
 10
71.2533627698
 20
86.898265745
 11
71.2000205687
 21
86.8788216434
  0
LINE
  5
329
100
AcDbEntity
  8
0
100
AcDbLine
 62
9
  6
CONTINUOUS
 10
35.5614361806
 20
103.8834806998
 11
35.6411759973
 21
103.9125464168
  0
LINE
  5
32A
100
AcDbEntity
  8
0
100
AcDbLine
 62
7
  6
CONTINUOUS
 10
74.1799682392
 20
82.6537089998
 11
74.0634393554
 21
82.6113191347
  0
LINE
  5
32B
100
AcDbEntity
  8
0
100
AcDbLine
 62
9
  6
CONTINUOUS
 10
69.1545108617
 20
96.07338396
 11
69.0978030673
 21
96.0528210418
  0
LINE
  5
32C
100
AcDbEntity
  8
0
100
AcDbLine
 62
7
  6
CONTINUOUS
 10
74.0733834312
 20
82.6147840494
 11
74.1611099658
 21
82.6465796557
  0
LINE
  5
32D
100
AcDbEntity
  8
0
100
AcDbLine
 62
9
  6
CONTINUOUS
 10
36.1367884888
 20
101.8035433704
 11
36.1739656102
 21
101.8165874903
  0
LINE
  5
32E
100
AcDbEntity
  8
0
100
AcDbLine
 62
7
  6
CONTINUOUS
 10
28.5092366608
 20
106.1151409569
 11
28.4076493978
 21
106.0798615463
  0
LINE
  5
32F
100
AcDbEntity
  8
0
100
AcDbLine
 62
9
  6
CONTINUOUS
 10
70.3070937037
 20
92.6262549968
 11
70.3681108718
 21
92.6472813598
  0
LINE
  5
330
100
AcDbEntity
  8
0
100
AcDbLine
 62
7
  6
CONTINUOUS
 10
28.4141005043
 20
106.082192486
 11
28.5299449042
 21
106.1219758825
  0
LINE
  5
331
100
AcDbEntity
  8
0
100
AcDbLine
 62
9
  6
CONTINUOUS
 10
35.6411759973
 20
103.9125464168
 11
35.7167480375
 21
103.9381657679
  0
LINE
  5
332
100
AcDbEntity
  8
0
100
AcDbLine
 62
7
  6
CONTINUOUS
 10
73.9845701102
 20
82.5847614814
 11
74.0733834312
 21
82.6147840494
  0
LINE
  5
333
100
AcDbEntity
  8
0
100
AcDbLine
 62
9
  6
CONTINUOUS
 10
71.9095143537
 20
84.8794850599
 11
71.7915246279
 21
84.8396003217
  0
LINE
  5
334
100
AcDbEntity
  8
0
100
AcDbLine
 62
7
  6
CONTINUOUS
 10
74.0634393554
 20
82.6113191347
 11
73.9452557288
 21
82.5721550452
  0
LINE
  5
335
100
AcDbEntity
  8
0
100
AcDbLine
 62
9
  6
CONTINUOUS
 10
71.2000205687
 20
86.8788216434
 11
71.1461841038
 21
86.8610610407
  0
LINE
  5
336
100
AcDbEntity
  8
0
100
AcDbLine
 62
9
  6
CONTINUOUS
 10
69.2126328413
 20
96.0922747687
 11
69.1545108617
 21
96.07338396
  0
LINE
  5
337
100
AcDbEntity
  8
0
100
AcDbLine
 62
9
  6
CONTINUOUS
 10
36.1739656102
 20
101.8165874903
 11
36.2089256198
 21
101.8279087818
  0
LINE
  5
338
100
AcDbEntity
  8
0
100
AcDbLine
 62
7
  6
CONTINUOUS
 10
28.6116776112
 20
106.1478848726
 11
28.5092366608
 21
106.1151409569
  0
LINE
  5
339
100
AcDbEntity
  8
0
100
AcDbLine
 62
9
  6
CONTINUOUS
 10
35.7167480375
 20
103.9381657679
 11
35.788487789
 21
103.9607766442
  0
LINE
  5
33A
100
AcDbEntity
  8
0
100
AcDbLine
 62
7
  6
CONTINUOUS
 10
73.894841679
 20
82.5565769359
 11
73.9845701102
 21
82.5847614814
  0
LINE
  5
33B
100
AcDbEntity
  8
0
100
AcDbLine
 62
7
  6
CONTINUOUS
 10
28.5299449042
 20
106.1219758825
 11
28.6465016693
 21
106.1583910277
  0
LINE
  5
33C
100
AcDbEntity
  8
0
100
AcDbLine
 62
9
  6
CONTINUOUS
 10
70.2460001724
 20
92.6075850262
 11
70.3070937037
 21
92.6262549968
  0
LINE
  5
33D
100
AcDbEntity
  8
0
100
AcDbLine
 62
9
  6
CONTINUOUS
 10
71.7915246279
 20
84.8396003217
 11
71.6723082436
 21
84.8033860261
  0
LINE
  5
33E
100
AcDbEntity
  8
0
100
AcDbLine
 62
7
  6
CONTINUOUS
 10
73.9452557288
 20
82.5721550452
 11
73.8247826205
 21
82.5360767688
  0
LINE
  5
33F
100
AcDbEntity
  8
0
100
AcDbLine
 62
9
  6
CONTINUOUS
 10
36.2089256198
 20
101.8279087818
 11
36.2418448425
 21
101.8377419918
  0
LINE
  5
340
100
AcDbEntity
  8
0
100
AcDbLine
 62
9
  6
CONTINUOUS
 10
71.1461841038
 20
86.8610610407
 11
71.0919058244
 21
86.8449961331
  0
LINE
  5
341
100
AcDbEntity
  8
0
100
AcDbLine
 62
7
  6
CONTINUOUS
 10
28.7144299141
 20
106.177957072
 11
28.6116776112
 21
106.1478848726
  0
LINE
  5
342
100
AcDbEntity
  8
0
100
AcDbLine
 62
9
  6
CONTINUOUS
 10
35.788487789
 20
103.9607766442
 11
35.8567498718
 21
103.9807601811
  0
LINE
  5
343
100
AcDbEntity
  8
0
100
AcDbLine
 62
7
  6
CONTINUOUS
 10
73.804074523
 20
82.5302232907
 11
73.894841679
 21
82.5565769359
  0
LINE
  5
344
100
AcDbEntity
  8
0
100
AcDbLine
 62
9
  6
CONTINUOUS
 10
69.2721822079
 20
96.1094094468
 11
69.2126328413
 21
96.0922747687
  0
LINE
  5
345
100
AcDbEntity
  8
0
100
AcDbLine
 62
7
  6
CONTINUOUS
 10
25.0348807018
 20
100.9817921066
 11
25.1051139027
 21
101.2458749444
  0
LINE
  5
346
100
AcDbEntity
  8
0
100
AcDbLine
 62
9
  6
CONTINUOUS
 10
32.772545108
 20
100.3365940321
 11
32.8004839498
 21
100.4168274189
  0
LINE
  5
347
100
AcDbEntity
  8
0
100
AcDbLine
 62
9
  6
CONTINUOUS
 10
32.8004839498
 20
100.4168274189
 11
32.8274226059
 21
100.4930627101
  0
LINE
  5
348
100
AcDbEntity
  8
0
100
AcDbLine
 62
9
  6
CONTINUOUS
 10
34.7941356501
 20
100.0107220051
 11
34.8149825245
 21
100.0663959638
  0
LINE
  5
349
100
AcDbEntity
  8
0
100
AcDbLine
 62
7
  6
CONTINUOUS
 10
25.0708567738
 20
101.1184044399
 11
25.0038455145
 21
100.8615880917
  0
LINE
  5
34A
100
AcDbEntity
  8
0
100
AcDbLine
 62
9
  6
CONTINUOUS
 10
32.7435655359
 20
100.2520627543
 11
32.772545108
 21
100.3365940321
  0
LINE
  5
34B
100
AcDbEntity
  8
0
100
AcDbLine
 62
9
  6
CONTINUOUS
 10
34.7501451127
 20
99.8911651528
 11
34.7724971889
 21
99.9522798704
  0
LINE
  5
34C
100
AcDbEntity
  8
0
100
AcDbLine
 62
9
  6
CONTINUOUS
 10
34.7724971889
 20
99.9522798704
 11
34.7941356501
 21
100.0107220051
  0
LINE
  5
34D
100
AcDbEntity
  8
0
100
AcDbLine
 62
9
  6
CONTINUOUS
 10
71.1849500004
 20
93.2044374578
 11
71.2199667405
 21
93.2464105603
  0
LINE
  5
34E
100
AcDbEntity
  8
0
100
AcDbLine
 62
7
  6
CONTINUOUS
 10
75.6452928125
 20
83.5875376291
 11
75.7113768558
 21
83.6531887895
  0
LINE
  5
34F
100
AcDbEntity
  8
0
100
AcDbLine
 62
7
  6
CONTINUOUS
 10
75.7212254312
 20
83.6632883289
 11
75.63337672
 21
83.5760577228
  0
LINE
  5
350
100
AcDbEntity
  8
0
100
AcDbLine
 62
7
  6
CONTINUOUS
 10
25.0038455145
 20
100.8615880917
 11
24.935516866
 21
100.5877682286
  0
LINE
  5
351
100
AcDbEntity
  8
0
100
AcDbLine
 62
7
  6
CONTINUOUS
 10
24.9634006214
 20
100.7011305602
 11
25.0348807018
 21
100.9817921066
  0
LINE
  5
352
100
AcDbEntity
  8
0
100
AcDbLine
 62
9
  6
CONTINUOUS
 10
32.7135760466
 20
100.1631417365
 11
32.7435655359
 21
100.2520627543
  0
LINE
  5
353
100
AcDbEntity
  8
0
100
AcDbLine
 62
9
  6
CONTINUOUS
 10
34.727052085
 20
99.8270406833
 11
34.7501451127
 21
99.8911651528
  0
LINE
  5
354
100
AcDbEntity
  8
0
100
AcDbLine
 62
9
  6
CONTINUOUS
 10
73.5586088261
 20
85.9830748269
 11
73.4731892939
 21
85.8911987463
  0
LINE
  5
355
100
AcDbEntity
  8
0
100
AcDbLine
 62
9
  6
CONTINUOUS
 10
32.6826424513
 20
100.0697916545
 11
32.7135760466
 21
100.1631417365
  0
LINE
  5
356
100
AcDbEntity
  8
0
100
AcDbLine
 62
9
  6
CONTINUOUS
 10
34.7032380191
 20
99.7596741381
 11
34.727052085
 21
99.8270406833
  0
LINE
  5
357
100
AcDbEntity
  8
0
100
AcDbLine
 62
9
  6
CONTINUOUS
 10
68.3211186936
 20
95.4813142322
 11
68.2855798222
 21
95.4346508042
  0
LINE
  5
358
100
AcDbEntity
  8
0
100
AcDbLine
 62
9
  6
CONTINUOUS
 10
71.9962968349
 20
87.4216970548
 11
71.9580396085
 21
87.3784314404
  0
LINE
  5
359
100
AcDbEntity
  8
0
100
AcDbLine
 62
7
  6
CONTINUOUS
 10
24.935516866
 20
100.5877682286
 11
24.8659787093
 21
100.2956778646
  0
LINE
  5
35A
100
AcDbEntity
  8
0
100
AcDbLine
 62
7
  6
CONTINUOUS
 10
24.8909706722
 20
100.4022345692
 11
24.9634006214
 21
100.7011305602
  0
LINE
  5
35B
100
AcDbEntity
  8
0
100
AcDbLine
 62
9
  6
CONTINUOUS
 10
32.6506775634
 20
99.9715023357
 11
32.6826424513
 21
100.0697916545
  0
LINE
  5
35C
100
AcDbEntity
  8
0
100
AcDbLine
 62
9
  6
CONTINUOUS
 10
34.6786064458
 20
99.6888022316
 11
34.7032380191
 21
99.7596741381
  0
LINE
  5
35D
100
AcDbEntity
  8
0
100
AcDbLine
 62
7
  6
CONTINUOUS
 10
24.8177630173
 20
100.0837861936
 11
24.8909706722
 21
100.4022345692
  0
LINE
  5
35E
100
AcDbEntity
  8
0
100
AcDbLine
 62
9
  6
CONTINUOUS
 10
32.6176431317
 20
99.8678768337
 11
32.6506775634
 21
99.9715023357
  0
LINE
  5
35F
100
AcDbEntity
  8
0
100
AcDbLine
 62
9
  6
CONTINUOUS
 10
34.6264985425
 20
99.5354566434
 11
34.6530121266
 21
99.6140850812
  0
LINE
  5
360
100
AcDbEntity
  8
0
100
AcDbLine
 62
9
  6
CONTINUOUS
 10
34.6530121266
 20
99.6140850812
 11
34.6786064458
 21
99.6888022316
  0
LINE
  5
361
100
AcDbEntity
  8
0
100
AcDbLine
 62
7
  6
CONTINUOUS
 10
75.7113768558
 20
83.6531887895
 11
75.7760164724
 21
83.7202560102
  0
LINE
  5
362
100
AcDbEntity
  8
0
100
AcDbLine
 62
7
  6
CONTINUOUS
 10
24.8659787093
 20
100.2956778646
 11
24.7955808463
 21
99.9832152567
  0
LINE
  5
363
100
AcDbEntity
  8
0
100
AcDbLine
 62
9
  6
CONTINUOUS
 10
32.5835220587
 20
99.7585324876
 11
32.6176431317
 21
99.8678768337
  0
LINE
  5
364
100
AcDbEntity
  8
0
100
AcDbLine
 62
9
  6
CONTINUOUS
 10
34.5991574197
 20
99.4529079564
 11
34.6264985425
 21
99.5354566434
  0
LINE
  5
365
100
AcDbEntity
  8
0
100
AcDbLine
 62
9
  6
CONTINUOUS
 10
71.2199667405
 20
93.2464105603
 11
71.2536863263
 21
93.2893587186
  0
LINE
  5
366
100
AcDbEntity
  8
0
100
AcDbLine
 62
7
  6
CONTINUOUS
 10
75.8065194934
 20
83.7530159217
 11
75.7212254312
 21
83.6632883289
  0
LINE
  5
367
100
AcDbEntity
  8
0
100
AcDbLine
 62
9
  6
CONTINUOUS
 10
32.5483341356
 20
99.6431547702
 11
32.5835220587
 21
99.7585324876
  0
LINE
  5
368
100
AcDbEntity
  8
0
100
AcDbLine
 62
9
  6
CONTINUOUS
 10
34.5709090403
 20
99.3659837703
 11
34.5991574197
 21
99.4529079564
  0
LINE
  5
369
100
AcDbEntity
  8
0
100
AcDbLine
 62
7
  6
CONTINUOUS
 10
24.7955808463
 20
99.9832152567
 11
24.7243794359
 21
99.6479864735
  0
LINE
  5
36A
100
AcDbEntity
  8
0
100
AcDbLine
 62
7
  6
CONTINUOUS
 10
24.7442666026
 20
99.7436660656
 11
24.8177630173
 21
100.0837861936
  0
LINE
  5
36B
100
AcDbEntity
  8
0
100
AcDbLine
 62
9
  6
CONTINUOUS
 10
32.5120203669
 20
99.5211156463
 11
32.5483341356
 21
99.6431547702
  0
LINE
  5
36C
100
AcDbEntity
  8
0
100
AcDbLine
 62
9
  6
CONTINUOUS
 10
34.5417094061
 20
99.2743252244
 11
34.5709090403
 21
99.3659837703
  0
LINE
  5
36D
100
AcDbEntity
  8
0
100
AcDbLine
 62
9
  6
CONTINUOUS
 10
73.6412081033
 20
86.0775872164
 11
73.5586088261
 21
85.9830748269
  0
LINE
  5
36E
100
AcDbEntity
  8
0
100
AcDbLine
 62
7
  6
CONTINUOUS
 10
75.7760164724
 20
83.7202560102
 11
75.8391827195
 21
83.7887099666
  0
LINE
  5
36F
100
AcDbEntity
  8
0
100
AcDbLine
 62
9
  6
CONTINUOUS
 10
32.4745855811
 20
99.3919216348
 11
32.5120203669
 21
99.5211156463
  0
LINE
  5
370
100
AcDbEntity
  8
0
100
AcDbLine
 62
9
  6
CONTINUOUS
 10
34.5115422193
 20
99.177594719
 11
34.5417094061
 21
99.2743252244
  0
LINE
  5
371
100
AcDbEntity
  8
0
100
AcDbLine
 62
9
  6
CONTINUOUS
 10
68.2855798222
 20
95.4346508042
 11
68.2512548236
 21
95.3864099651
  0
LINE
  5
372
100
AcDbEntity
  8
0
100
AcDbLine
 62
9
  6
CONTINUOUS
 10
72.0331201501
 20
87.4660574069
 11
71.9962968349
 21
87.4216970548
  0
LINE
  5
373
100
AcDbEntity
  8
0
100
AcDbLine
 62
7
  6
CONTINUOUS
 10
24.7243794359
 20
99.6479864735
 11
24.6533632883
 21
99.2896010939
  0
LINE
  5
374
100
AcDbEntity
  8
0
100
AcDbLine
 62
7
  6
CONTINUOUS
 10
24.670742169
 20
99.3800967676
 11
24.7442666026
 21
99.7436660656
  0
LINE
  5
375
100
AcDbEntity
  8
0
100
AcDbLine
 62
9
  6
CONTINUOUS
 10
32.4359894867
 20
99.2548331085
 11
32.4745855811
 21
99.3919216348
  0
LINE
  5
376
100
AcDbEntity
  8
0
100
AcDbLine
 62
9
  6
CONTINUOUS
 10
34.4804262721
 20
99.0755177862
 11
34.5115422193
 21
99.177594719
  0
LINE
  5
377
100
AcDbEntity
  8
0
100
AcDbLine
 62
9
  6
CONTINUOUS
 10
34.4483104737
 20
98.9675390337
 11
34.4804262721
 21
99.0755177862
  0
LINE
  5
378
100
AcDbEntity
  8
0
100
AcDbLine
 62
7
  6
CONTINUOUS
 10
75.8891931227
 20
83.8451753507
 11
75.8065194934
 21
83.7530159217
  0
LINE
  5
379
100
AcDbEntity
  8
0
100
AcDbLine
 62
7
  6
CONTINUOUS
 10
24.5980464947
 20
98.9907345081
 11
24.670742169
 21
99.3800967676
  0
LINE
  5
37A
100
AcDbEntity
  8
0
100
AcDbLine
 62
9
  6
CONTINUOUS
 10
32.3962753621
 20
99.1092989916
 11
32.4359894867
 21
99.2548331085
  0
LINE
  5
37B
100
AcDbEntity
  8
0
100
AcDbLine
 62
9
  6
CONTINUOUS
 10
71.2536863263
 20
93.2893587186
 11
71.2859176562
 21
93.3330280455
  0
LINE
  5
37C
100
AcDbEntity
  8
0
100
AcDbLine
 62
7
  6
CONTINUOUS
 10
75.8391827195
 20
83.7887099666
 11
75.9008593667
 21
83.8585332408
  0
LINE
  5
37D
100
AcDbEntity
  8
0
100
AcDbLine
 62
7
  6
CONTINUOUS
 10
24.6533632883
 20
99.2896010939
 11
24.5826396729
 21
98.9028897078
  0
LINE
  5
37E
100
AcDbEntity
  8
0
100
AcDbLine
 62
9
  6
CONTINUOUS
 10
32.3553753358
 20
98.9542260023
 11
32.3962753621
 21
99.1092989916
  0
LINE
  5
37F
100
AcDbEntity
  8
0
100
AcDbLine
 62
9
  6
CONTINUOUS
 10
34.4151989057
 20
98.8532184518
 11
34.4483104737
 21
98.9675390337
  0
LINE
  5
380
100
AcDbEntity
  8
0
100
AcDbLine
 62
9
  6
CONTINUOUS
 10
73.7209674732
 20
86.1747439386
 11
73.6412081033
 21
86.0775872164
  0
LINE
  5
381
100
AcDbEntity
  8
0
100
AcDbLine
 62
9
  6
CONTINUOUS
 10
34.3810564722
 20
98.7319061059
 11
34.4151989057
 21
98.8532184518
  0
LINE
  5
382
100
AcDbEntity
  8
0
100
AcDbLine
 62
9
  6
CONTINUOUS
 10
72.0684044277
 20
87.5113856551
 11
72.0331201501
 21
87.4660574069
  0
LINE
  5
383
100
AcDbEntity
  8
0
100
AcDbLine
 62
7
  6
CONTINUOUS
 10
24.5826396729
 20
98.9028897078
 11
24.5149093705
 21
98.4997953514
  0
LINE
  5
384
100
AcDbEntity
  8
0
100
AcDbLine
 62
7
  6
CONTINUOUS
 10
24.5262845593
 20
98.5697733414
 11
24.5980464947
 21
98.9907345081
  0
LINE
  5
385
100
AcDbEntity
  8
0
100
AcDbLine
 62
9
  6
CONTINUOUS
 10
32.3132038865
 20
98.7882358865
 11
32.3553753358
 21
98.9542260023
  0
LINE
  5
386
100
AcDbEntity
  8
0
100
AcDbLine
 62
9
  6
CONTINUOUS
 10
34.3459234463
 20
98.6031256127
 11
34.3810564722
 21
98.7319061059
  0
LINE
  5
387
100
AcDbEntity
  8
0
100
AcDbLine
 62
9
  6
CONTINUOUS
 10
68.2512548236
 20
95.3864099651
 11
68.2181831592
 21
95.3365492423
  0
LINE
  5
388
100
AcDbEntity
  8
0
100
AcDbLine
 62
9
  6
CONTINUOUS
 10
32.2701356581
 20
98.6115764298
 11
32.3132038865
 21
98.7882358865
  0
LINE
  5
389
100
AcDbEntity
  8
0
100
AcDbLine
 62
9
  6
CONTINUOUS
 10
34.3097320538
 20
98.4658856965
 11
34.3459234463
 21
98.6031256127
  0
LINE
  5
38A
100
AcDbEntity
  8
0
100
AcDbLine
 62
7
  6
CONTINUOUS
 10
76.8129027665
 20
93.1917412627
 11
76.8060139409
 21
93.1826953519
  0
LINE
  5
38B
100
AcDbEntity
  8
0
100
AcDbLine
 62
7
  6
CONTINUOUS
 10
75.9008593667
 20
83.8585332408
 11
75.9610315458
 21
83.9297116398
  0
LINE
  5
38C
100
AcDbEntity
  8
0
100
AcDbLine
 62
7
  6
CONTINUOUS
 10
75.9691993652
 20
83.9397130277
 11
75.8891931227
 21
83.8451753507
  0
LINE
  5
38D
100
AcDbEntity
  8
0
100
AcDbLine
 62
7
  6
CONTINUOUS
 10
24.4579725004
 20
98.1258223136
 11
24.5262845593
 21
98.5697733414
  0
LINE
  5
38E
100
AcDbEntity
  8
0
100
AcDbLine
 62
9
  6
CONTINUOUS
 10
71.2859176562
 20
93.3330280455
 11
71.3167037329
 21
93.3774513336
  0
LINE
  5
38F
100
AcDbEntity
  8
0
100
AcDbLine
 62
7
  6
CONTINUOUS
 10
24.5149093705
 20
98.4997953514
 11
24.4528713042
 21
98.0897919461
  0
LINE
  5
390
100
AcDbEntity
  8
0
100
AcDbLine
 62
9
  6
CONTINUOUS
 10
32.2257017242
 20
98.4207598064
 11
32.2701356581
 21
98.6115764298
  0
LINE
  5
391
100
AcDbEntity
  8
0
100
AcDbLine
 62
9
  6
CONTINUOUS
 10
34.2724275378
 20
98.319055305
 11
34.3097320538
 21
98.4658856965
  0
LINE
  5
392
100
AcDbEntity
  8
0
100
AcDbLine
 62
9
  6
CONTINUOUS
 10
73.7977625265
 20
86.2744400133
 11
73.7209674732
 21
86.1747439386
  0
LINE
  5
393
100
AcDbEntity
  8
0
100
AcDbLine
 62
7
  6
CONTINUOUS
 10
24.395224966
 20
97.662281031
 11
24.4579725004
 21
98.1258223136
  0
LINE
  5
394
100
AcDbEntity
  8
0
100
AcDbLine
 62
7
  6
CONTINUOUS
 10
24.4528713042
 20
98.0897919461
 11
24.3966383171
 21
97.6751174266
  0
LINE
  5
395
100
AcDbEntity
  8
0
100
AcDbLine
 62
9
  6
CONTINUOUS
 10
32.1824862395
 20
98.2256353106
 11
32.2257017242
 21
98.4207598064
  0
LINE
  5
396
100
AcDbEntity
  8
0
100
AcDbLine
 62
9
  6
CONTINUOUS
 10
34.2342613145
 20
98.1625360486
 11
34.2724275378
 21
98.319055305
  0
LINE
  5
397
100
AcDbEntity
  8
0
100
AcDbLine
 62
7
  6
CONTINUOUS
 10
76.7447852321
 20
95.5157860827
 11
76.7513764132
 21
95.5250411666
  0
LINE
  5
398
100
AcDbEntity
  8
0
100
AcDbLine
 62
9
  6
CONTINUOUS
 10
72.1021875982
 20
87.5577237613
 11
72.0684044277
 21
87.5113856551
  0
LINE
  5
399
100
AcDbEntity
  8
0
100
AcDbLine
 62
7
  6
CONTINUOUS
 10
75.9610315458
 20
83.9297116398
 11
76.0196662274
 21
84.0022061645
  0
LINE
  5
39A
100
AcDbEntity
  8
0
100
AcDbLine
 62
9
  6
CONTINUOUS
 10
32.1423968549
 20
98.0349001712
 11
32.1824862395
 21
98.2256353106
  0
LINE
  5
39B
100
AcDbEntity
  8
0
100
AcDbLine
 62
9
  6
CONTINUOUS
 10
34.1947468977
 20
97.9928997976
 11
34.2342613145
 21
98.1625360486
  0
LINE
  5
39C
100
AcDbEntity
  8
0
100
AcDbLine
 62
9
  6
CONTINUOUS
 10
68.2181831592
 20
95.3365492423
 11
68.1864162696
 21
95.2850295318
  0
LINE
  5
39D
100
AcDbEntity
  8
0
100
AcDbLine
 62
7
  6
CONTINUOUS
 10
76.0465031183
 20
84.0365993532
 11
75.9691993652
 21
83.9397130277
  0
LINE
  5
39E
100
AcDbEntity
  8
0
100
AcDbLine
 62
9
  6
CONTINUOUS
 10
71.3167037329
 20
93.3774513336
 11
71.3459864951
 21
93.4225163618
  0
LINE
  5
39F
100
AcDbEntity
  8
0
100
AcDbLine
 62
7
  6
CONTINUOUS
 10
24.3393514043
 20
97.1889718683
 11
24.395224966
 21
97.662281031
  0
LINE
  5
3A0
100
AcDbEntity
  8
0
100
AcDbLine
 62
7
  6
CONTINUOUS
 10
24.3966383171
 20
97.6751174266
 11
24.3473521965
 21
97.2618689234
  0
LINE
  5
3A1
100
AcDbEntity
  8
0
100
AcDbLine
 62
9
  6
CONTINUOUS
 10
32.1053360727
 20
97.8488868688
 11
32.1423968549
 21
98.0349001712
  0
LINE
  5
3A2
100
AcDbEntity
  8
0
100
AcDbLine
 62
9
  6
CONTINUOUS
 10
34.156217414
 20
97.8189869487
 11
34.1947468977
 21
97.9928997976
  0
LINE
  5
3A3
100
AcDbEntity
  8
0
100
AcDbLine
 62
7
  6
CONTINUOUS
 10
76.0196662274
 20
84.0022061645
 11
76.0767409342
 21
84.0759951709
  0
LINE
  5
3A4
100
AcDbEntity
  8
0
100
AcDbLine
 62
9
  6
CONTINUOUS
 10
73.8713794802
 20
86.3763946225
 11
73.7977625265
 21
86.2744400133
  0
LINE
  5
3A5
100
AcDbEntity
  8
0
100
AcDbLine
 62
7
  6
CONTINUOUS
 10
24.3473521965
 20
97.2618689234
 11
24.304625033
 21
96.8479427703
  0
LINE
  5
3A6
100
AcDbEntity
  8
0
100
AcDbLine
 62
9
  6
CONTINUOUS
 10
32.0718663618
 20
97.6715634954
 11
32.1053360727
 21
97.8488868688
  0
LINE
  5
3A7
100
AcDbEntity
  8
0
100
AcDbLine
 62
9
  6
CONTINUOUS
 10
34.1203597911
 20
97.6484157384
 11
34.156217414
 21
97.8189869487
  0
LINE
  5
3A8
100
AcDbEntity
  8
0
100
AcDbLine
 62
9
  6
CONTINUOUS
 10
72.1344977978
 20
87.6050931332
 11
72.1021875982
 21
87.5577237613
  0
LINE
  5
3A9
100
AcDbEntity
  8
0
100
AcDbLine
 62
7
  6
CONTINUOUS
 10
24.2925914313
 20
96.7180408407
 11
24.3393514043
 21
97.1889718683
  0
LINE
  5
3AA
100
AcDbEntity
  8
0
100
AcDbLine
 62
9
  6
CONTINUOUS
 10
32.0413448408
 20
97.50082247
 11
32.0718663618
 21
97.6715634954
  0
LINE
  5
3AB
100
AcDbEntity
  8
0
100
AcDbLine
 62
9
  6
CONTINUOUS
 10
34.0871633605
 20
97.4817883111
 11
34.1203597911
 21
97.6484157384
  0
LINE
  5
3AC
100
AcDbEntity
  8
0
100
AcDbLine
 62
7
  6
CONTINUOUS
 10
76.1210030433
 20
84.1356972108
 11
76.0465031183
 21
84.0365993532
  0
LINE
  5
3AD
100
AcDbEntity
  8
0
100
AcDbLine
 62
9
  6
CONTINUOUS
 10
68.1864162696
 20
95.2850295318
 11
68.1560138482
 21
95.2318102635
  0
LINE
  5
3AE
100
AcDbEntity
  8
0
100
AcDbLine
 62
7
  6
CONTINUOUS
 10
76.0767409342
 20
84.0759951709
 11
76.1322091406
 21
84.1510124005
  0
LINE
  5
3AF
100
AcDbEntity
  8
0
100
AcDbLine
 62
7
  6
CONTINUOUS
 10
76.6633913434
 20
93.5491919992
 11
76.6593951071
 21
93.5855260835
  0
LINE
  5
3B0
100
AcDbEntity
  8
0
100
AcDbLine
 62
9
  6
CONTINUOUS
 10
72.4877464501
 20
99.7152767056
 11
72.4956986707
 21
99.6424163184
  0
LINE
  5
3B1
100
AcDbEntity
  8
0
100
AcDbLine
 62
7
  6
CONTINUOUS
 10
77.1092324085
 20
101.0016411541
 11
77.1356304648
 21
100.7596804458
  0
LINE
  5
3B2
100
AcDbEntity
  8
0
100
AcDbLine
 62
9
  6
CONTINUOUS
 10
72.528359708
 20
99.2952150365
 11
72.53467233
 21
99.2365731891
  0
LINE
  5
3B3
100
AcDbEntity
  8
0
100
AcDbLine
 62
7
  6
CONTINUOUS
 10
77.1445230749
 20
100.6762110972
 11
77.1207665714
 21
100.8969818549
  0
LINE
  5
3B4
100
AcDbEntity
  8
0
100
AcDbLine
 62
7
  6
CONTINUOUS
 10
76.9208559034
 20
95.0443708199
 11
76.925165518
 21
95.0038114619
  0
LINE
  5
3B5
100
AcDbEntity
  8
0
100
AcDbLine
 62
9
  6
CONTINUOUS
 10
74.5765202928
 20
100.4577318402
 11
74.5820539673
 21
100.405180955
  0
LINE
  5
3B6
100
AcDbEntity
  8
0
100
AcDbLine
 62
9
  6
CONTINUOUS
 10
72.4956986707
 20
99.6424163184
 11
72.5034329803
 21
99.5683770319
  0
LINE
  5
3B7
100
AcDbEntity
  8
0
100
AcDbLine
 62
7
  6
CONTINUOUS
 10
77.1688455165
 20
100.4416158943
 11
77.1356304648
 21
100.7596804458
  0
LINE
  5
3B8
100
AcDbEntity
  8
0
100
AcDbLine
 62
7
  6
CONTINUOUS
 10
24.3087009786
 20
91.8178218926
 11
24.3461737243
 21
91.4569967425
  0
LINE
  5
3B9
100
AcDbEntity
  8
0
100
AcDbLine
 62
9
  6
CONTINUOUS
 10
31.8749172478
 20
92.3925788747
 11
31.8613887051
 21
92.5230526688
  0
LINE
  5
3BA
100
AcDbEntity
  8
0
100
AcDbLine
 62
9
  6
CONTINUOUS
 10
33.881061677
 20
92.5995101741
 11
33.8689854563
 21
92.71627367
  0
LINE
  5
3BB
100
AcDbEntity
  8
0
100
AcDbLine
 62
9
  6
CONTINUOUS
 10
72.6985024874
 20
98.0304620377
 11
72.7060213561
 21
97.9568550275
  0
LINE
  5
3BC
100
AcDbEntity
  8
0
100
AcDbLine
 62
7
  6
CONTINUOUS
 10
24.3450919184
 20
91.4667749808
 11
24.2966215176
 21
91.9461498543
  0
LINE
  5
3BD
100
AcDbEntity
  8
0
100
AcDbLine
 62
7
  6
CONTINUOUS
 10
76.7794554933
 20
93.6225258067
 11
76.7832561036
 21
93.5848902249
  0
LINE
  5
3BE
100
AcDbEntity
  8
0
100
AcDbLine
 62
7
  6
CONTINUOUS
 10
76.6593951071
 20
93.5855260835
 11
76.6556002332
 21
93.6231708919
  0
LINE
  5
3BF
100
AcDbEntity
  8
0
100
AcDbLine
 62
7
  6
CONTINUOUS
 10
77.1936971351
 20
100.1923411777
 11
77.1625239427
 21
100.5035276215
  0
LINE
  5
3C0
100
AcDbEntity
  8
0
100
AcDbLine
 62
9
  6
CONTINUOUS
 10
74.5820539673
 20
100.405180955
 11
74.6028490172
 21
100.1961770966
  0
LINE
  5
3C1
100
AcDbEntity
  8
0
100
AcDbLine
 62
9
  6
CONTINUOUS
 10
72.6916108176
 20
98.100668872
 11
72.6985024874
 21
98.0304620377
  0
LINE
  5
3C2
100
AcDbEntity
  8
0
100
AcDbLine
 62
9
  6
CONTINUOUS
 10
72.7060213561
 20
97.9568550275
 11
72.7135536734
 21
97.8799178286
  0
LINE
  5
3C3
100
AcDbEntity
  8
0
100
AcDbLine
 62
7
  6
CONTINUOUS
 10
76.925165518
 20
95.0038114619
 11
76.9292180853
 21
94.9621824961
  0
LINE
  5
3C4
100
AcDbEntity
  8
0
100
AcDbLine
 62
9
  6
CONTINUOUS
 10
31.8613887051
 20
92.5230526688
 11
31.8490857154
 21
92.6504603469
  0
LINE
  5
3C5
100
AcDbEntity
  8
0
100
AcDbLine
 62
9
  6
CONTINUOUS
 10
74.6028490172
 20
100.1961770966
 11
74.6208199268
 21
100.0099411347
  0
LINE
  5
3C6
100
AcDbEntity
  8
0
100
AcDbLine
 62
9
  6
CONTINUOUS
 10
33.8689854563
 20
92.71627367
 11
33.8580059999
 21
92.8302815474
  0
LINE
  5
3C7
100
AcDbEntity
  8
0
100
AcDbLine
 62
9
  6
CONTINUOUS
 10
72.5034329803
 20
99.5683770319
 11
72.5105338697
 21
99.4947206689
  0
LINE
  5
3C8
100
AcDbEntity
  8
0
100
AcDbLine
 62
7
  6
CONTINUOUS
 10
77.2189485186
 20
99.9273490835
 11
77.1897740974
 21
100.232300236
  0
LINE
  5
3C9
100
AcDbEntity
  8
0
100
AcDbLine
 62
9
  6
CONTINUOUS
 10
74.6208199268
 20
100.0099411347
 11
74.6337225222
 21
99.87261858
  0
LINE
  5
3CA
100
AcDbEntity
  8
0
100
AcDbLine
 62
9
  6
CONTINUOUS
 10
72.5225852665
 20
99.3574445336
 11
72.528359708
 21
99.2952150365
  0
LINE
  5
3CB
100
AcDbEntity
  8
0
100
AcDbLine
 62
7
  6
CONTINUOUS
 10
76.7758554522
 20
93.6614732576
 11
76.7794554933
 21
93.6225258067
  0
LINE
  5
3CC
100
AcDbEntity
  8
0
100
AcDbLine
 62
7
  6
CONTINUOUS
 10
76.6556002332
 20
93.6231708919
 11
76.6520066252
 21
93.6621169001
  0
LINE
  5
3CD
100
AcDbEntity
  8
0
100
AcDbLine
 62
9
  6
CONTINUOUS
 10
74.6337225222
 20
99.87261858
 11
74.6473393323
 21
99.7243280895
  0
LINE
  5
3CE
100
AcDbEntity
  8
0
100
AcDbLine
 62
9
  6
CONTINUOUS
 10
67.9359812668
 20
94.2204984583
 11
67.9420250928
 21
94.1544969331
  0
LINE
  5
3CF
100
AcDbEntity
  8
0
100
AcDbLine
 62
7
  6
CONTINUOUS
 10
77.2173011644
 20
99.9451458634
 11
77.244908061
 21
99.6411703993
  0
LINE
  5
3D0
100
AcDbEntity
  8
0
100
AcDbLine
 62
7
  6
CONTINUOUS
 10
24.2762115521
 20
92.1791825182
 11
24.3087009786
 21
91.8178218926
  0
LINE
  5
3D1
100
AcDbEntity
  8
0
100
AcDbLine
 62
9
  6
CONTINUOUS
 10
31.8490857154
 20
92.6504603469
 11
31.8379236412
 21
92.7750117485
  0
LINE
  5
3D2
100
AcDbEntity
  8
0
100
AcDbLine
 62
9
  6
CONTINUOUS
 10
33.8580059999
 20
92.8302815474
 11
33.848047656
 21
92.9417161276
  0
LINE
  5
3D3
100
AcDbEntity
  8
0
100
AcDbLine
 62
9
  6
CONTINUOUS
 10
72.5105338697
 20
99.4947206689
 11
72.5168991026
 21
99.4234778488
  0
LINE
  5
3D4
100
AcDbEntity
  8
0
100
AcDbLine
 62
9
  6
CONTINUOUS
 10
74.6473393323
 20
99.7243280895
 11
74.6606200858
 21
99.575457474
  0
LINE
  5
3D5
100
AcDbEntity
  8
0
100
AcDbLine
 62
7
  6
CONTINUOUS
 10
76.9292180853
 20
94.9621824961
 11
76.9330090285
 21
94.9195156441
  0
LINE
  5
3D6
100
AcDbEntity
  8
0
100
AcDbLine
 62
9
  6
CONTINUOUS
 10
72.6856856536
 20
98.1678007335
 11
72.6916108176
 21
98.100668872
  0
LINE
  5
3D7
100
AcDbEntity
  8
0
100
AcDbLine
 62
9
  6
CONTINUOUS
 10
72.7135536734
 20
97.8799178286
 11
72.7205512096
 21
97.7996040024
  0
LINE
  5
3D8
100
AcDbEntity
  8
0
100
AcDbLine
 62
9
  6
CONTINUOUS
 10
74.6606200858
 20
99.575457474
 11
74.6774811371
 21
99.3799164505
  0
LINE
  5
3D9
100
AcDbEntity
  8
0
100
AcDbLine
 62
9
  6
CONTINUOUS
 10
72.5168991026
 20
99.4234778488
 11
72.5225852665
 21
99.3574445336
  0
LINE
  5
3DA
100
AcDbEntity
  8
0
100
AcDbLine
 62
7
  6
CONTINUOUS
 10
77.2445270211
 20
99.6456475207
 11
77.2724657361
 21
99.3194377294
  0
LINE
  5
3DB
100
AcDbEntity
  8
0
100
AcDbLine
 62
9
  6
CONTINUOUS
 10
72.6540746292
 20
98.6180184122
 11
72.657479626
 21
98.5781776585
  0
LINE
  5
3DC
100
AcDbEntity
  8
0
100
AcDbLine
 62
7
  6
CONTINUOUS
 10
76.6520066252
 20
93.6621169001
 11
76.6486220645
 21
93.702271946
  0
LINE
  5
3DD
100
AcDbEntity
  8
0
100
AcDbLine
 62
7
  6
CONTINUOUS
 10
76.7724638543
 20
93.701641943
 11
76.7758554522
 21
93.6614732576
  0
LINE
  5
3DE
100
AcDbEntity
  8
0
100
AcDbLine
 62
9
  6
CONTINUOUS
 10
71.6128019149
 20
94.469821394
 11
71.6080385661
 21
94.5265541047
  0
LINE
  5
3DF
100
AcDbEntity
  8
0
100
AcDbLine
 62
9
  6
CONTINUOUS
 10
74.6774811371
 20
99.3799164505
 11
74.6907688668
 21
99.2208706284
  0
LINE
  5
3E0
100
AcDbEntity
  8
0
100
AcDbLine
 62
7
  6
CONTINUOUS
 10
24.2966215176
 20
91.9461498543
 11
24.2568035656
 21
92.4274475866
  0
LINE
  5
3E1
100
AcDbEntity
  8
0
100
AcDbLine
 62
9
  6
CONTINUOUS
 10
31.8379236412
 20
92.7750117485
 11
31.8278286847
 21
92.8968780193
  0
LINE
  5
3E2
100
AcDbEntity
  8
0
100
AcDbLine
 62
9
  6
CONTINUOUS
 10
33.848047656
 20
92.9417161276
 11
33.8390435513
 21
93.0507360355
  0
LINE
  5
3E3
100
AcDbEntity
  8
0
100
AcDbLine
 62
9
  6
CONTINUOUS
 10
72.6805619305
 20
98.2313571359
 11
72.6856856536
 21
98.1678007335
  0
LINE
  5
3E4
100
AcDbEntity
  8
0
100
AcDbLine
 62
7
  6
CONTINUOUS
 10
76.9330090285
 20
94.9195156441
 11
76.9365328839
 21
94.8758411532
  0
LINE
  5
3E5
100
AcDbEntity
  8
0
100
AcDbLine
 62
7
  6
CONTINUOUS
 10
77.2702255827
 20
99.3462441025
 11
77.2996903296
 21
98.9792214575
  0
LINE
  5
3E6
100
AcDbEntity
  8
0
100
AcDbLine
 62
9
  6
CONTINUOUS
 10
74.6907688668
 20
99.2208706284
 11
74.7253696131
 21
98.7893638689
  0
LINE
  5
3E7
100
AcDbEntity
  8
0
100
AcDbLine
 62
7
  6
CONTINUOUS
 10
76.7692872331
 20
93.7429376033
 11
76.7724638543
 21
93.701641943
  0
LINE
  5
3E8
100
AcDbEntity
  8
0
100
AcDbLine
 62
7
  6
CONTINUOUS
 10
76.6486220645
 20
93.702271946
 11
76.6454530206
 21
93.7435393889
  0
LINE
  5
3E9
100
AcDbEntity
  8
0
100
AcDbLine
 62
9
  6
CONTINUOUS
 10
31.8278286847
 20
92.8968780193
 11
31.8187264733
 21
93.0163230927
  0
LINE
  5
3EA
100
AcDbEntity
  8
0
100
AcDbLine
 62
7
  6
CONTINUOUS
 10
24.248698671
 20
92.5412349659
 11
24.2762115521
 21
92.1791825182
  0
LINE
  5
3EB
100
AcDbEntity
  8
0
100
AcDbLine
 62
9
  6
CONTINUOUS
 10
33.8390435513
 20
93.0507360355
 11
33.8309262657
 21
93.1575848946
  0
LINE
  5
3EC
100
AcDbEntity
  8
0
100
AcDbLine
 62
9
  6
CONTINUOUS
 10
74.7253696131
 20
98.7893638689
 11
74.7422269397
 21
98.5671417561
  0
LINE
  5
3ED
100
AcDbEntity
  8
0
100
AcDbLine
 62
9
  6
CONTINUOUS
 10
72.6719140561
 20
98.3468471968
 11
72.6805619305
 21
98.2313571359
  0
LINE
  5
3EE
100
AcDbEntity
  8
0
100
AcDbLine
 62
7
  6
CONTINUOUS
 10
77.2959108871
 20
99.028094683
 11
77.3263685258
 21
98.61980327
  0
LINE
  5
3EF
100
AcDbEntity
  8
0
100
AcDbLine
 62
7
  6
CONTINUOUS
 10
76.9365328839
 20
94.8758411532
 11
76.9397781864
 21
94.8312737044
  0
LINE
  5
3F0
100
AcDbEntity
  8
0
100
AcDbLine
 62
9
  6
CONTINUOUS
 10
72.7205512096
 20
97.7996040024
 11
72.7266250866
 21
97.7159701352
  0
LINE
  5
3F1
100
AcDbEntity
  8
0
100
AcDbLine
 62
9
  6
CONTINUOUS
 10
74.7422269397
 20
98.5671417561
 11
74.7544983442
 21
98.3982362044
  0
LINE
  5
3F2
100
AcDbEntity
  8
0
100
AcDbLine
 62
9
  6
CONTINUOUS
 10
72.7325101043
 20
97.6279625601
 11
72.7462381608
 21
97.4354285936
  0
LINE
  5
3F3
100
AcDbEntity
  8
0
100
AcDbLine
 62
9
  6
CONTINUOUS
 10
72.6682355503
 20
98.3990888927
 11
72.6719140561
 21
98.3468471968
  0
LINE
  5
3F4
100
AcDbEntity
  8
0
100
AcDbLine
 62
9
  6
CONTINUOUS
 10
31.8187264733
 20
93.0163230927
 11
31.8105726152
 21
93.1332775999
  0
LINE
  5
3F5
100
AcDbEntity
  8
0
100
AcDbLine
 62
7
  6
CONTINUOUS
 10
76.6454530206
 20
93.7435393889
 11
76.6424996873
 21
93.7859001263
  0
LINE
  5
3F6
100
AcDbEntity
  8
0
100
AcDbLine
 62
7
  6
CONTINUOUS
 10
76.7663261382
 20
93.7853394523
 11
76.7692872331
 21
93.7429376033
  0
LINE
  5
3F7
100
AcDbEntity
  8
0
100
AcDbLine
 62
9
  6
CONTINUOUS
 10
33.8309262657
 20
93.1575848946
 11
33.8236557963
 21
93.2622028455
  0
LINE
  5
3F8
100
AcDbEntity
  8
0
100
AcDbLine
 62
9
  6
CONTINUOUS
 10
74.7544983442
 20
98.3982362044
 11
74.7684421234
 21
98.1975642647
  0
LINE
  5
3F9
100
AcDbEntity
  8
0
100
AcDbLine
 62
7
  6
CONTINUOUS
 10
77.3461312964
 20
98.3325080448
 11
77.3212890578
 21
98.6903624487
  0
LINE
  5
3FA
100
AcDbEntity
  8
0
100
AcDbLine
 62
7
  6
CONTINUOUS
 10
77.3263685258
 20
98.61980327
 11
77.3521596404
 21
98.240222806
  0
LINE
  5
3FB
100
AcDbEntity
  8
0
100
AcDbLine
 62
9
  6
CONTINUOUS
 10
72.7266250866
 20
97.7159701352
 11
72.7325101043
 21
97.6279625601
  0
LINE
  5
3FC
100
AcDbEntity
  8
0
100
AcDbLine
 62
9
  6
CONTINUOUS
 10
74.7684421234
 20
98.1975642647
 11
74.778396983
 21
98.0483622831
  0
LINE
  5
3FD
100
AcDbEntity
  8
0
100
AcDbLine
 62
9
  6
CONTINUOUS
 10
72.6650044279
 20
98.4480417235
 11
72.6682355503
 21
98.3990888927
  0
LINE
  5
3FE
100
AcDbEntity
  8
0
100
AcDbLine
 62
7
  6
CONTINUOUS
 10
76.9397781864
 20
94.8312737044
 11
76.9427346333
 21
94.7859316751
  0
LINE
  5
3FF
100
AcDbEntity
  8
0
100
AcDbLine
 62
9
  6
CONTINUOUS
 10
72.7462381608
 20
97.4354285936
 11
72.7531005718
 21
97.3293272542
  0
LINE
  5
400
100
AcDbEntity
  8
0
100
AcDbLine
 62
7
  6
CONTINUOUS
 10
24.2568035656
 20
92.4274475866
 11
24.2258789757
 21
92.9092194002
  0
LINE
  5
401
100
AcDbEntity
  8
0
100
AcDbLine
 62
9
  6
CONTINUOUS
 10
74.778396983
 20
98.0483622831
 11
74.788956175
 21
97.8839041884
  0
LINE
  5
402
100
AcDbEntity
  8
0
100
AcDbLine
 62
9
  6
CONTINUOUS
 10
31.8105726152
 20
93.1332775999
 11
31.8033206639
 21
93.2476964448
  0
LINE
  5
403
100
AcDbEntity
  8
0
100
AcDbLine
 62
9
  6
CONTINUOUS
 10
33.8236557963
 20
93.2622028455
 11
33.8171902896
 21
93.3645525102
  0
LINE
  5
404
100
AcDbEntity
  8
0
100
AcDbLine
 62
7
  6
CONTINUOUS
 10
76.7635815197
 20
93.8288306767
 11
76.7663261382
 21
93.7853394523
  0
LINE
  5
405
100
AcDbEntity
  8
0
100
AcDbLine
 62
7
  6
CONTINUOUS
 10
77.3701090522
 20
97.9525949498
 11
77.3461312964
 21
98.3325080448
  0
LINE
  5
406
100
AcDbEntity
  8
0
100
AcDbLine
 62
7
  6
CONTINUOUS
 10
76.6424996873
 20
93.7859001263
 11
76.6397628372
 21
93.8293370785
  0
LINE
  5
407
100
AcDbEntity
  8
0
100
AcDbLine
 62
7
  6
CONTINUOUS
 10
24.2261746726
 20
92.903757572
 11
24.248698671
 21
92.5412349659
  0
LINE
  5
408
100
AcDbEntity
  8
0
100
AcDbLine
 62
7
  6
CONTINUOUS
 10
77.3521596404
 20
98.240222806
 11
77.3767897382
 21
97.8398946974
  0
LINE
  5
409
100
AcDbEntity
  8
0
100
AcDbLine
 62
9
  6
CONTINUOUS
 10
74.788956175
 20
97.8839041884
 11
74.8001377868
 21
97.701391494
  0
LINE
  5
40A
100
AcDbEntity
  8
0
100
AcDbLine
 62
9
  6
CONTINUOUS
 10
72.6622285619
 20
98.4939899324
 11
72.6650044279
 21
98.4480417235
  0
LINE
  5
40B
100
AcDbEntity
  8
0
100
AcDbLine
 62
9
  6
CONTINUOUS
 10
74.8001377868
 20
97.701391494
 11
74.8060068153
 21
97.6019566399
  0
LINE
  5
40C
100
AcDbEntity
  8
0
100
AcDbLine
 62
9
  6
CONTINUOUS
 10
72.7531005718
 20
97.3293272542
 11
72.7597583816
 21
97.2165032439
  0
LINE
  5
40D
100
AcDbEntity
  8
0
100
AcDbLine
 62
7
  6
CONTINUOUS
 10
76.9427346333
 20
94.7859316751
 11
76.9453987274
 21
94.7398533945
  0
LINE
  5
40E
100
AcDbEntity
  8
0
100
AcDbLine
 62
9
  6
CONTINUOUS
 10
31.8033206639
 20
93.2476964448
 11
31.7969108844
 21
93.3597782544
  0
LINE
  5
40F
100
AcDbEntity
  8
0
100
AcDbLine
 62
9
  6
CONTINUOUS
 10
33.8171902896
 20
93.3645525102
 11
33.8114762779
 21
93.4648124128
  0
LINE
  5
410
100
AcDbEntity
  8
0
100
AcDbLine
 62
7
  6
CONTINUOUS
 10
76.6397628372
 20
93.8293370785
 11
76.6372489177
 21
93.8737496474
  0
LINE
  5
411
100
AcDbEntity
  8
0
100
AcDbLine
 62
7
  6
CONTINUOUS
 10
76.7610602869
 20
93.8733058321
 11
76.7635815197
 21
93.8288306767
  0
LINE
  5
412
100
AcDbEntity
  8
0
100
AcDbLine
 62
7
  6
CONTINUOUS
 10
77.3929775177
 20
97.5494341967
 11
77.3701090522
 21
97.9525949498
  0
LINE
  5
413
100
AcDbEntity
  8
0
100
AcDbLine
 62
9
  6
CONTINUOUS
 10
72.657479626
 20
98.5781776585
 11
72.6622285619
 21
98.4939899324
  0
LINE
  5
414
100
AcDbEntity
  8
0
100
AcDbLine
 62
9
  6
CONTINUOUS
 10
72.7597583816
 20
97.2165032439
 11
72.7665407176
 21
97.0963810339
  0
LINE
  5
415
100
AcDbEntity
  8
0
100
AcDbLine
 62
9
  6
CONTINUOUS
 10
74.8060068153
 20
97.6019566399
 11
74.8183183656
 21
97.3824017758
  0
LINE
  5
416
100
AcDbEntity
  8
0
100
AcDbLine
 62
9
  6
CONTINUOUS
 10
67.9323198971
 20
94.2870946694
 11
67.9359812668
 21
94.2204984583
  0
LINE
  5
417
100
AcDbEntity
  8
0
100
AcDbLine
 62
7
  6
CONTINUOUS
 10
77.3767897382
 20
97.8398946974
 11
77.3998452568
 21
97.416975652
  0
LINE
  5
418
100
AcDbEntity
  8
0
100
AcDbLine
 62
9
  6
CONTINUOUS
 10
72.7665407176
 20
97.0963810339
 11
72.7734233221
 21
96.9694844932
  0
LINE
  5
419
100
AcDbEntity
  8
0
100
AcDbLine
 62
9
  6
CONTINUOUS
 10
74.8183183656
 20
97.3824017758
 11
74.8247542907
 21
97.2615425517
  0
LINE
  5
41A
100
AcDbEntity
  8
0
100
AcDbLine
 62
9
  6
CONTINUOUS
 10
72.7734233221
 20
96.9694844932
 11
72.7803562573
 21
96.8349662603
  0
LINE
  5
41B
100
AcDbEntity
  8
0
100
AcDbLine
 62
9
  6
CONTINUOUS
 10
31.7969108844
 20
93.3597782544
 11
31.7912894095
 21
93.4697265105
  0
LINE
  5
41C
100
AcDbEntity
  8
0
100
AcDbLine
 62
9
  6
CONTINUOUS
 10
74.8247542907
 20
97.2615425517
 11
74.8313276922
 21
97.1327761043
  0
LINE
  5
41D
100
AcDbEntity
  8
0
100
AcDbLine
 62
9
  6
CONTINUOUS
 10
33.8114762779
 20
93.4648124128
 11
33.8064656505
 21
93.563163303
  0
LINE
  5
41E
100
AcDbEntity
  8
0
100
AcDbLine
 62
9
  6
CONTINUOUS
 10
71.6157075445
 20
94.4123080522
 11
71.6128019149
 21
94.469821394
  0
LINE
  5
41F
100
AcDbEntity
  8
0
100
AcDbLine
 62
7
  6
CONTINUOUS
 10
76.6372489177
 20
93.8737496474
 11
76.6349627602
 21
93.9190374915
  0
LINE
  5
420
100
AcDbEntity
  8
0
100
AcDbLine
 62
7
  6
CONTINUOUS
 10
76.7587675636
 20
93.9186601597
 11
76.7610602869
 21
93.8733058321
  0
LINE
  5
421
100
AcDbEntity
  8
0
100
AcDbLine
 62
7
  6
CONTINUOUS
 10
76.9453987274
 20
94.7398533945
 11
76.9477659849
 21
94.6930775783
  0
LINE
  5
422
100
AcDbEntity
  8
0
100
AcDbLine
 62
7
  6
CONTINUOUS
 10
77.4142566652
 20
97.120243768
 11
77.3929775177
 21
97.5494341967
  0
LINE
  5
423
100
AcDbEntity
  8
0
100
AcDbLine
 62
9
  6
CONTINUOUS
 10
74.8313276922
 20
97.1327761043
 11
74.8379162435
 21
96.9977124533
  0
LINE
  5
424
100
AcDbEntity
  8
0
100
AcDbLine
 62
9
  6
CONTINUOUS
 10
72.7803562573
 20
96.8349662603
 11
72.7870626517
 21
96.6966740921
  0
LINE
  5
425
100
AcDbEntity
  8
0
100
AcDbLine
 62
7
  6
CONTINUOUS
 10
24.2086469396
 20
93.266742191
 11
24.2261746726
 21
92.903757572
  0
LINE
  5
426
100
AcDbEntity
  8
0
100
AcDbLine
 62
7
  6
CONTINUOUS
 10
77.3998452568
 20
97.416975652
 11
77.4210090083
 21
96.9705458586
  0
LINE
  5
427
100
AcDbEntity
  8
0
100
AcDbLine
 62
9
  6
CONTINUOUS
 10
74.8379162435
 20
96.9977124533
 11
74.8444570139
 21
96.8566560625
  0
LINE
  5
428
100
AcDbEntity
  8
0
100
AcDbLine
 62
7
  6
CONTINUOUS
 10
24.2258789757
 20
92.9092194002
 11
24.2037827732
 21
93.3912621357
  0
LINE
  5
429
100
AcDbEntity
  8
0
100
AcDbLine
 62
9
  6
CONTINUOUS
 10
31.7912894095
 20
93.4697265105
 11
31.7864192371
 21
93.5774953076
  0
LINE
  5
42A
100
AcDbEntity
  8
0
100
AcDbLine
 62
9
  6
CONTINUOUS
 10
72.7870626517
 20
96.6966740921
 11
72.7933394879
 21
96.5579517944
  0
LINE
  5
42B
100
AcDbEntity
  8
0
100
AcDbLine
 62
9
  6
CONTINUOUS
 10
33.8064656505
 20
93.563163303
 11
33.8021252951
 21
93.6595608932
  0
LINE
  5
42C
100
AcDbEntity
  8
0
100
AcDbLine
 62
7
  6
CONTINUOUS
 10
76.6349627602
 20
93.9190374915
 11
76.6329060288
 21
93.965162445
  0
LINE
  5
42D
100
AcDbEntity
  8
0
100
AcDbLine
 62
7
  6
CONTINUOUS
 10
76.7567051753
 20
93.964852223
 11
76.7587675636
 21
93.9186601597
  0
LINE
  5
42E
100
AcDbEntity
  8
0
100
AcDbLine
 62
9
  6
CONTINUOUS
 10
74.8444570139
 20
96.8566560625
 11
74.8507637338
 21
96.7128684656
  0
LINE
  5
42F
100
AcDbEntity
  8
0
100
AcDbLine
 62
7
  6
CONTINUOUS
 10
76.9477659849
 20
94.6930775783
 11
76.9498290122
 21
94.6457212043
  0
LINE
  5
430
100
AcDbEntity
  8
0
100
AcDbLine
 62
9
  6
CONTINUOUS
 10
72.7933394879
 20
96.5579517944
 11
72.7991631216
 21
96.4194168963
  0
LINE
  5
431
100
AcDbEntity
  8
0
100
AcDbLine
 62
7
  6
CONTINUOUS
 10
77.4337250455
 20
96.6555930596
 11
77.4142566652
 21
97.120243768
  0
LINE
  5
432
100
AcDbEntity
  8
0
100
AcDbLine
 62
9
  6
CONTINUOUS
 10
74.8507637338
 20
96.7128684656
 11
74.856687845
 21
96.5696146386
  0
LINE
  5
433
100
AcDbEntity
  8
0
100
AcDbLine
 62
7
  6
CONTINUOUS
 10
77.4210090083
 20
96.9705458586
 11
77.4397179336
 21
96.4972495059
  0
LINE
  5
434
100
AcDbEntity
  8
0
100
AcDbLine
 62
9
  6
CONTINUOUS
 10
31.7864192371
 20
93.5774953076
 11
31.7822579676
 21
93.6831821847
  0
LINE
  5
435
100
AcDbEntity
  8
0
100
AcDbLine
 62
9
  6
CONTINUOUS
 10
33.8021252951
 20
93.6595608932
 11
33.7984173262
 21
93.7540903096
  0
LINE
  5
436
100
AcDbEntity
  8
0
100
AcDbLine
 62
9
  6
CONTINUOUS
 10
72.7991631216
 20
96.4194168963
 11
72.8044895737
 21
96.2826683119
  0
LINE
  5
437
100
AcDbEntity
  8
0
100
AcDbLine
 62
7
  6
CONTINUOUS
 10
76.6329060288
 20
93.965162445
 11
76.6310801558
 21
94.0120944377
  0
LINE
  5
438
100
AcDbEntity
  8
0
100
AcDbLine
 62
7
  6
CONTINUOUS
 10
76.7548746896
 20
94.0118468238
 11
76.7567051753
 21
93.964852223
  0
LINE
  5
439
100
AcDbEntity
  8
0
100
AcDbLine
 62
9
  6
CONTINUOUS
 10
74.856687845
 20
96.5696146386
 11
74.8622171678
 21
96.4272225815
  0
LINE
  5
43A
100
AcDbEntity
  8
0
100
AcDbLine
 62
7
  6
CONTINUOUS
 10
76.9498290122
 20
94.6457212043
 11
76.951581384
 21
94.5979027754
  0
LINE
  5
43B
100
AcDbEntity
  8
0
100
AcDbLine
 62
9
  6
CONTINUOUS
 10
74.8622171678
 20
96.4272225815
 11
74.8673099123
 21
96.2870323806
  0
LINE
  5
43C
100
AcDbEntity
  8
0
100
AcDbLine
 62
9
  6
CONTINUOUS
 10
72.8044895737
 20
96.2826683119
 11
72.8093420653
 21
96.1480590445
  0
LINE
  5
43D
100
AcDbEntity
  8
0
100
AcDbLine
 62
7
  6
CONTINUOUS
 10
77.4503621157
 20
96.1742388642
 11
77.4337250455
 21
96.6555930596
  0
LINE
  5
43E
100
AcDbEntity
  8
0
100
AcDbLine
 62
7
  6
CONTINUOUS
 10
24.1961235616
 20
93.6297046158
 11
24.2086469396
 21
93.266742191
  0
LINE
  5
43F
100
AcDbEntity
  8
0
100
AcDbLine
 62
9
  6
CONTINUOUS
 10
74.8673099123
 20
96.2870323806
 11
74.8719756002
 21
96.149307866
  0
LINE
  5
440
100
AcDbEntity
  8
0
100
AcDbLine
 62
9
  6
CONTINUOUS
 10
31.7822579676
 20
93.6831821847
 11
31.7787763761
 21
93.7865592805
  0
LINE
  5
441
100
AcDbEntity
  8
0
100
AcDbLine
 62
9
  6
CONTINUOUS
 10
33.7984173262
 20
93.7540903096
 11
33.7953154881
 21
93.8465489026
  0
LINE
  5
442
100
AcDbEntity
  8
0
100
AcDbLine
 62
7
  6
CONTINUOUS
 10
76.6310801558
 20
94.0120944377
 11
76.629490975
 21
94.0597031305
  0
LINE
  5
443
100
AcDbEntity
  8
0
100
AcDbLine
 62
7
  6
CONTINUOUS
 10
76.7532818409
 20
94.0595135955
 11
76.7548746896
 21
94.0118468238
  0
LINE
  5
444
100
AcDbEntity
  8
0
100
AcDbLine
 62
9
  6
CONTINUOUS
 10
72.8093420653
 20
96.1480590445
 11
72.8137201785
 21
96.0165043986
  0
LINE
  5
445
100
AcDbEntity
  8
0
100
AcDbLine
 62
9
  6
CONTINUOUS
 10
74.8719756002
 20
96.149307866
 11
74.8762051716
 21
96.0148379134
  0
LINE
  5
446
100
AcDbEntity
  8
0
100
AcDbLine
 62
7
  6
CONTINUOUS
 10
77.4397179336
 20
96.4972495059
 11
77.4555963702
 21
95.9897372929
  0
LINE
  5
447
100
AcDbEntity
  8
0
100
AcDbLine
 62
9
  6
CONTINUOUS
 10
72.8137201785
 20
96.0165043986
 11
72.8176240719
 21
95.8879360056
  0
LINE
  5
448
100
AcDbEntity
  8
0
100
AcDbLine
 62
7
  6
CONTINUOUS
 10
76.951581384
 20
94.5979027754
 11
76.9530210418
 21
94.5496678782
  0
LINE
  5
449
100
AcDbEntity
  8
0
100
AcDbLine
 62
9
  6
CONTINUOUS
 10
74.8762051716
 20
96.0148379134
 11
74.8800250605
 21
95.8833553327
  0
LINE
  5
44A
100
AcDbEntity
  8
0
100
AcDbLine
 62
9
  6
CONTINUOUS
 10
31.7787763761
 20
93.7865592805
 11
31.7759395337
 21
93.8874596948
  0
LINE
  5
44B
100
AcDbEntity
  8
0
100
AcDbLine
 62
9
  6
CONTINUOUS
 10
33.7953154881
 20
93.8465489026
 11
33.7927883195
 21
93.936791285
  0
LINE
  5
44C
100
AcDbEntity
  8
0
100
AcDbLine
 62
7
  6
CONTINUOUS
 10
76.629490975
 20
94.0597031305
 11
76.6281419678
 21
94.1078624615
  0
LINE
  5
44D
100
AcDbEntity
  8
0
100
AcDbLine
 62
7
  6
CONTINUOUS
 10
76.7519300381
 20
94.1077251312
 11
76.7532818409
 21
94.0595135955
  0
LINE
  5
44E
100
AcDbEntity
  8
0
100
AcDbLine
 62
7
  6
CONTINUOUS
 10
24.2037827732
 20
93.3912621357
 11
24.1905322041
 21
93.872803947
  0
LINE
  5
44F
100
AcDbEntity
  8
0
100
AcDbLine
 62
9
  6
CONTINUOUS
 10
72.8176240719
 20
95.8879360056
 11
72.8210377989
 21
95.7628550873
  0
LINE
  5
450
100
AcDbEntity
  8
0
100
AcDbLine
 62
7
  6
CONTINUOUS
 10
77.4629860612
 20
95.6855088734
 11
77.4503621157
 21
96.1742388642
  0
LINE
  5
451
100
AcDbEntity
  8
0
100
AcDbLine
 62
9
  6
CONTINUOUS
 10
74.8816659072
 20
95.8233754542
 11
74.8847061782
 21
95.7053885047
  0
LINE
  5
452
100
AcDbEntity
  8
0
100
AcDbLine
 62
9
  6
CONTINUOUS
 10
72.8210377989
 20
95.7628550873
 11
72.8240067596
 21
95.6404676094
  0
LINE
  5
453
100
AcDbEntity
  8
0
100
AcDbLine
 62
9
  6
CONTINUOUS
 10
74.8847061782
 20
95.7053885047
 11
74.8874542118
 21
95.5890577105
  0
LINE
  5
454
100
AcDbEntity
  8
0
100
AcDbLine
 62
7
  6
CONTINUOUS
 10
76.9530210418
 20
94.5496678782
 11
76.9541449852
 21
94.5010644889
  0
LINE
  5
455
100
AcDbEntity
  8
0
100
AcDbLine
 62
7
  6
CONTINUOUS
 10
77.4555963702
 20
95.9897372929
 11
77.4677649405
 21
95.4590698779
  0
LINE
  5
456
100
AcDbEntity
  8
0
100
AcDbLine
 62
9
  6
CONTINUOUS
 10
31.7759395337
 20
93.8874596948
 11
31.7737080874
 21
93.9857941795
  0
LINE
  5
457
100
AcDbEntity
  8
0
100
AcDbLine
 62
7
  6
CONTINUOUS
 10
76.6281419678
 20
94.1078624615
 11
76.6270349335
 21
94.1565092827
  0
LINE
  5
458
100
AcDbEntity
  8
0
100
AcDbLine
 62
7
  6
CONTINUOUS
 10
76.7508209937
 20
94.1564172196
 11
76.7519300381
 21
94.1077251312
  0
LINE
  5
459
100
AcDbEntity
  8
0
100
AcDbLine
 62
9
  6
CONTINUOUS
 10
33.7927883195
 20
93.936791285
 11
33.7908007045
 21
94.0247363749
  0
LINE
  5
45A
100
AcDbEntity
  8
0
100
AcDbLine
 62
9
  6
CONTINUOUS
 10
74.8874542118
 20
95.5890577105
 11
74.8899249508
 21
95.474353387
  0
LINE
  5
45B
100
AcDbEntity
  8
0
100
AcDbLine
 62
9
  6
CONTINUOUS
 10
72.8240067596
 20
95.6404676094
 11
72.8265748943
 21
95.5201171814
  0
LINE
  5
45C
100
AcDbEntity
  8
0
100
AcDbLine
 62
7
  6
CONTINUOUS
 10
24.1886164076
 20
93.9920970589
 11
24.1961235616
 21
93.6297046158
  0
LINE
  5
45D
100
AcDbEntity
  8
0
100
AcDbLine
 62
9
  6
CONTINUOUS
 10
74.8899249508
 20
95.474353387
 11
74.8921255272
 21
95.3614049924
  0
LINE
  5
45E
100
AcDbEntity
  8
0
100
AcDbLine
 62
9
  6
CONTINUOUS
 10
72.8265748943
 20
95.5201171814
 11
72.8287864604
 21
95.4018488625
  0
LINE
  5
45F
100
AcDbEntity
  8
0
100
AcDbLine
 62
7
  6
CONTINUOUS
 10
77.4718592478
 20
95.2082597865
 11
77.4629860612
 21
95.6855088734
  0
LINE
  5
460
100
AcDbEntity
  8
0
100
AcDbLine
 62
9
  6
CONTINUOUS
 10
67.9310921692
 20
94.3541021162
 11
67.9323198971
 21
94.2870946694
  0
LINE
  5
461
100
AcDbEntity
  8
0
100
AcDbLine
 62
7
  6
CONTINUOUS
 10
76.6270349335
 20
94.1565092827
 11
76.6261710696
 21
94.2055781419
  0
LINE
  5
462
100
AcDbEntity
  8
0
100
AcDbLine
 62
7
  6
CONTINUOUS
 10
76.749955795
 20
94.2055233072
 11
76.7508209937
 21
94.1564172196
  0
LINE
  5
463
100
AcDbEntity
  8
0
100
AcDbLine
 62
9
  6
CONTINUOUS
 10
31.7737080874
 20
93.9857941795
 11
31.7720447415
 21
94.081281758
  0
LINE
  5
464
100
AcDbEntity
  8
0
100
AcDbLine
 62
9
  6
CONTINUOUS
 10
74.8921255272
 20
95.3614049924
 11
74.8940640824
 21
95.2502376696
  0
LINE
  5
465
100
AcDbEntity
  8
0
100
AcDbLine
 62
9
  6
CONTINUOUS
 10
33.7908007045
 20
94.0247363749
 11
33.7893193139
 21
94.1101314317
  0
LINE
  5
466
100
AcDbEntity
  8
0
100
AcDbLine
 62
9
  6
CONTINUOUS
 10
71.6166953138
 20
94.3541021162
 11
71.6157075445
 21
94.4123080522
  0
LINE
  5
467
100
AcDbEntity
  8
0
100
AcDbLine
 62
7
  6
CONTINUOUS
 10
76.9541449852
 20
94.5010644889
 11
76.9549499281
 21
94.4522044111
  0
LINE
  5
468
100
AcDbEntity
  8
0
100
AcDbLine
 62
9
  6
CONTINUOUS
 10
72.8287864604
 20
95.4018488625
 11
72.8306899085
 21
95.2853108716
  0
LINE
  5
469
100
AcDbEntity
  8
0
100
AcDbLine
 62
9
  6
CONTINUOUS
 10
74.8940640824
 20
95.2502376696
 11
74.8957479393
 21
95.1411108516
  0
LINE
  5
46A
100
AcDbEntity
  8
0
100
AcDbLine
 62
9
  6
CONTINUOUS
 10
72.8306899085
 20
95.2853108716
 11
72.8322970844
 21
95.1710421092
  0
LINE
  5
46B
100
AcDbEntity
  8
0
100
AcDbLine
 62
9
  6
CONTINUOUS
 10
74.8957479393
 20
95.1411108516
 11
74.8971853203
 21
95.0343433324
  0
LINE
  5
46C
100
AcDbEntity
  8
0
100
AcDbLine
 62
7
  6
CONTINUOUS
 10
77.4677649405
 20
95.4590698779
 11
77.4750934713
 21
94.9149345138
  0
LINE
  5
46D
100
AcDbEntity
  8
0
100
AcDbLine
 62
7
  6
CONTINUOUS
 10
76.7493371703
 20
94.2549157302
 11
76.749955795
 21
94.2055233072
  0
LINE
  5
46E
100
AcDbEntity
  8
0
100
AcDbLine
 62
7
  6
CONTINUOUS
 10
76.6261710696
 20
94.2055781419
 11
76.6255532214
 21
94.254942266
  0
LINE
  5
46F
100
AcDbEntity
  8
0
100
AcDbLine
 62
9
  6
CONTINUOUS
 10
31.7720447415
 20
94.081281758
 11
31.7709008199
 21
94.174335456
  0
LINE
  5
470
100
AcDbEntity
  8
0
100
AcDbLine
 62
9
  6
CONTINUOUS
 10
33.7893193139
 20
94.1101314317
 11
33.7883006427
 21
94.1933471456
  0
LINE
  5
471
100
AcDbEntity
  8
0
100
AcDbLine
 62
9
  6
CONTINUOUS
 10
72.8322970844
 20
95.1710421092
 11
72.8336201208
 21
95.0595670314
  0
LINE
  5
472
100
AcDbEntity
  8
0
100
AcDbLine
 62
9
  6
CONTINUOUS
 10
74.8971853203
 20
95.0343433324
 11
74.8983906027
 21
94.9297752499
  0
LINE
  5
473
100
AcDbEntity
  8
0
100
AcDbLine
 62
7
  6
CONTINUOUS
 10
77.4768336563
 20
94.7672032741
 11
77.4718592478
 21
95.2082597865
  0
LINE
  5
474
100
AcDbEntity
  8
0
100
AcDbLine
 62
9
  6
CONTINUOUS
 10
72.8336201208
 20
95.0595670314
 11
72.834686285
 21
94.9505942672
  0
LINE
  5
475
100
AcDbEntity
  8
0
100
AcDbLine
 62
7
  6
CONTINUOUS
 10
76.9549499281
 20
94.4522044111
 11
76.9554331641
 21
94.403191202
  0
LINE
  5
476
100
AcDbEntity
  8
0
100
AcDbLine
 62
7
  6
CONTINUOUS
 10
24.1905322041
 20
93.872803947
 11
24.1861215199
 21
94.3541021162
  0
LINE
  5
477
100
AcDbEntity
  8
0
100
AcDbLine
 62
9
  6
CONTINUOUS
 10
74.8983906027
 20
94.9297752499
 11
74.9001563594
 21
94.7270942563
  0
LINE
  5
478
100
AcDbEntity
  8
0
100
AcDbLine
 62
7
  6
CONTINUOUS
 10
76.6255532214
 20
94.254942266
 11
76.6251819853
 21
94.3044745086
  0
LINE
  5
479
100
AcDbEntity
  8
0
100
AcDbLine
 62
7
  6
CONTINUOUS
 10
76.7489655916
 20
94.3044662149
 11
76.7493371703
 21
94.2549157302
  0
LINE
  5
47A
100
AcDbEntity
  8
0
100
AcDbLine
 62
9
  6
CONTINUOUS
 10
31.7709008199
 20
94.174335456
 11
31.7702373147
 21
94.2653172006
  0
LINE
  5
47B
100
AcDbEntity
  8
0
100
AcDbLine
 62
9
  6
CONTINUOUS
 10
33.7883006427
 20
94.1933471456
 11
33.7877098969
 21
94.2747077386
  0
LINE
  5
47C
100
AcDbEntity
  8
0
100
AcDbLine
 62
9
  6
CONTINUOUS
 10
72.834686285
 20
94.9505942672
 11
72.8361575326
 21
94.7397889072
  0
LINE
  5
47D
100
AcDbEntity
  8
0
100
AcDbLine
 62
7
  6
CONTINUOUS
 10
24.1861215214
 20
94.3541021162
 11
24.1886164076
 21
93.9920970589
  0
LINE
  5
47E
100
AcDbEntity
  8
0
100
AcDbLine
 62
9
  6
CONTINUOUS
 10
74.9001563594
 20
94.7270942563
 11
74.9011328882
 21
94.5351888854
  0
LINE
  5
47F
100
AcDbEntity
  8
0
100
AcDbLine
 62
7
  6
CONTINUOUS
 10
77.4750934713
 20
94.9149345138
 11
77.4779586868
 21
94.3541021162
  0
LINE
  5
480
100
AcDbEntity
  8
0
100
AcDbLine
 62
9
  6
CONTINUOUS
 10
72.8361575326
 20
94.7397889072
 11
72.8369425712
 21
94.5409149773
  0
LINE
  5
481
100
AcDbEntity
  8
0
100
AcDbLine
 62
7
  6
CONTINUOUS
 10
76.9554331641
 20
94.403191202
 11
76.9555946538
 21
94.3541021164
  0
LINE
  5
482
100
AcDbEntity
  8
0
100
AcDbLine
 62
7
  6
CONTINUOUS
 10
77.4779586264
 20
94.3541021128
 11
77.4768336563
 21
94.7672032741
  0
LINE
  5
483
100
AcDbEntity
  8
0
100
AcDbLine
 62
9
  6
CONTINUOUS
 10
31.7702373147
 20
94.2653172006
 11
31.7700233807
 21
94.3541021159
  0
LINE
  5
484
100
AcDbEntity
  8
0
100
AcDbLine
 62
9
  6
CONTINUOUS
 10
33.7877098969
 20
94.2747077386
 11
33.7875193732
 21
94.3541021162
  0
LINE
  5
485
100
AcDbEntity
  8
0
100
AcDbLine
 62
7
  6
CONTINUOUS
 10
76.6251819853
 20
94.3044745086
 11
76.625058539
 21
94.3541021166
  0
LINE
  5
486
100
AcDbEntity
  8
0
100
AcDbLine
 62
7
  6
CONTINUOUS
 10
76.7488420476
 20
94.3541021166
 11
76.7489655916
 21
94.3044662149
  0
LINE
  5
487
100
AcDbEntity
  8
0
100
AcDbLine
 62
9
  6
CONTINUOUS
 10
74.9011328882
 20
94.5351888854
 11
74.9014347026
 21
94.3541021186
  0
LINE
  5
488
100
AcDbEntity
  8
0
100
AcDbLine
 62
9
  6
CONTINUOUS
 10
72.8369425712
 20
94.5409149773
 11
72.8372166336
 21
94.3541021162
  0
LINE
  5
489
100
AcDbEntity
  8
0
100
AcDbLine
 62
7
  6
CONTINUOUS
 10
20.7558681114
 20
108.9805291045
 11
20.7558681114
 21
79.727675128
  0
LINE
  5
48A
100
AcDbEntity
  8
DEFAULT_1
100
AcDbLine
 62
7
  6
CENTER
 10
69.7558681114
 20
91.1991021162
 11
69.7558681114
 21
97.5091021162
  0
LINE
  5
48B
100
AcDbEntity
  8
0
100
AcDbLine
 62
7
  6
CONTINUOUS
 10
80.7558681114
 20
79.727675128
 11
80.7558681114
 21
108.9805291045
  0
LINE
  5
48C
100
AcDbEntity
  8
DEFAULT_1
100
AcDbLine
 62
7
  6
CENTER
 10
138.9430028785
 20
63.5013914321
 11
138.9430028785
 21
63.3815278634
  0
LINE
  5
48D
100
AcDbEntity
  8
0
100
AcDbLine
 62
9
  6
CONTINUOUS
 10
72.8372166336
 20
94.3541021162
 11
72.8369426231
 21
94.1673084714
  0
LINE
  5
48E
100
AcDbEntity
  8
0
100
AcDbLine
 62
9
  6
CONTINUOUS
 10
74.9014347026
 20
94.3541021186
 11
74.901132888
 21
94.173015305
  0
LINE
  5
48F
100
AcDbEntity
  8
0
100
AcDbLine
 62
7
  6
CONTINUOUS
 10
77.4771384188
 20
93.9954045645
 11
77.4779586264
 21
94.3541021128
  0
LINE
  5
490
100
AcDbEntity
  8
0
100
AcDbLine
 62
9
  6
CONTINUOUS
 10
31.7700233807
 20
94.3541021159
 11
31.7702373592
 21
94.4428962694
  0
LINE
  5
491
100
AcDbEntity
  8
0
100
AcDbLine
 62
9
  6
CONTINUOUS
 10
33.7875193732
 20
94.3541021162
 11
33.7877099352
 21
94.4335044762
  0
LINE
  5
492
100
AcDbEntity
  8
0
100
AcDbLine
 62
7
  6
CONTINUOUS
 10
76.625058539
 20
94.3541021166
 11
76.6251820283
 21
94.4037364033
  0
LINE
  5
493
100
AcDbEntity
  8
0
100
AcDbLine
 62
7
  6
CONTINUOUS
 10
76.7489655331
 20
94.4037290397
 11
76.7488420476
 21
94.3541021166
  0
LINE
  5
494
100
AcDbEntity
  8
0
100
AcDbLine
 62
7
  6
CONTINUOUS
 10
76.9555946538
 20
94.3541021164
 11
76.9554331758
 21
94.3050150527
  0
LINE
  5
495
100
AcDbEntity
  8
0
100
AcDbLine
 62
9
  6
CONTINUOUS
 10
72.8369426231
 20
94.1673084714
 11
72.8361577488
 21
93.9684563019
  0
LINE
  5
496
100
AcDbEntity
  8
0
100
AcDbLine
 62
9
  6
CONTINUOUS
 10
74.901132888
 20
94.173015305
 11
74.90015636
 21
93.9811100651
  0
LINE
  5
497
100
AcDbEntity
  8
0
100
AcDbLine
 62
7
  6
CONTINUOUS
 10
77.4779586868
 20
94.3541021162
 11
77.4749495573
 21
93.7783060294
  0
LINE
  5
498
100
AcDbEntity
  8
0
100
AcDbLine
 62
9
  6
CONTINUOUS
 10
72.8361577488
 20
93.9684563019
 11
72.8346868514
 21
93.7576744076
  0
LINE
  5
499
100
AcDbEntity
  8
0
100
AcDbLine
 62
9
  6
CONTINUOUS
 10
31.7702373592
 20
94.4428962694
 11
31.7709010052
 21
94.5338877587
  0
LINE
  5
49A
100
AcDbEntity
  8
0
100
AcDbLine
 62
9
  6
CONTINUOUS
 10
33.7877099352
 20
94.4335044762
 11
33.7883008022
 21
94.5148734891
  0
LINE
  5
49B
100
AcDbEntity
  8
0
100
AcDbLine
 62
7
  6
CONTINUOUS
 10
76.6251820283
 20
94.4037364033
 11
76.6255534356
 21
94.4532833902
  0
LINE
  5
49C
100
AcDbEntity
  8
0
100
AcDbLine
 62
7
  6
CONTINUOUS
 10
76.749336876
 20
94.4532590852
 11
76.7489655331
 21
94.4037290397
  0
LINE
  5
49D
100
AcDbEntity
  8
0
100
AcDbLine
 62
7
  6
CONTINUOUS
 10
24.1894061427
 20
94.7694884029
 11
24.1861215214
 21
94.3541021162
  0
LINE
  5
49E
100
AcDbEntity
  8
0
100
AcDbLine
 62
9
  6
CONTINUOUS
 10
74.90015636
 20
93.9811100651
 11
74.8983905997
 21
93.7784286958
  0
LINE
  5
49F
100
AcDbEntity
  8
0
100
AcDbLine
 62
7
  6
CONTINUOUS
 10
24.1861215199
 20
94.3541021162
 11
24.1903743979
 21
94.8266892747
  0
LINE
  5
4A0
100
AcDbEntity
  8
0
100
AcDbLine
 62
9
  6
CONTINUOUS
 10
72.8346868514
 20
93.7576744076
 11
72.8336209546
 21
93.6487142865
  0
LINE
  5
4A1
100
AcDbEntity
  8
0
100
AcDbLine
 62
7
  6
CONTINUOUS
 10
76.9554331758
 20
94.3050150527
 11
76.9549499995
 21
94.2560052413
  0
LINE
  5
4A2
100
AcDbEntity
  8
0
100
AcDbLine
 62
7
  6
CONTINUOUS
 10
77.4733225831
 20
93.6096830083
 11
77.4771384188
 21
93.9954045645
  0
LINE
  5
4A3
100
AcDbEntity
  8
0
100
AcDbLine
 62
9
  6
CONTINUOUS
 10
74.8983905997
 20
93.7784286958
 11
74.8971853194
 21
93.6738608176
  0
LINE
  5
4A4
100
AcDbEntity
  8
0
100
AcDbLine
 62
9
  6
CONTINUOUS
 10
72.8336209546
 20
93.6487142865
 11
72.8322982509
 21
93.537252291
  0
LINE
  5
4A5
100
AcDbEntity
  8
0
100
AcDbLine
 62
9
  6
CONTINUOUS
 10
33.7883008022
 20
94.5148734891
 11
33.7893196864
 21
94.5980980334
  0
LINE
  5
4A6
100
AcDbEntity
  8
0
100
AcDbLine
 62
9
  6
CONTINUOUS
 10
31.7709010052
 20
94.5338877587
 11
31.7720451744
 21
94.6269516755
  0
LINE
  5
4A7
100
AcDbEntity
  8
0
100
AcDbLine
 62
7
  6
CONTINUOUS
 10
76.6255534356
 20
94.4532833902
 11
76.6261717201
 21
94.5026691828
  0
LINE
  5
4A8
100
AcDbEntity
  8
0
100
AcDbLine
 62
7
  6
CONTINUOUS
 10
76.7499548568
 20
94.5026183527
 11
76.749336876
 21
94.4532590852
  0
LINE
  5
4A9
100
AcDbEntity
  8
0
100
AcDbLine
 62
9
  6
CONTINUOUS
 10
74.8971853194
 20
93.6738608176
 11
74.8957479409
 21
93.567093495
  0
LINE
  5
4AA
100
AcDbEntity
  8
0
100
AcDbLine
 62
7
  6
CONTINUOUS
 10
77.4749495573
 20
93.7783060294
 11
77.4672006883
 21
93.2188869294
  0
LINE
  5
4AB
100
AcDbEntity
  8
0
100
AcDbLine
 62
9
  6
CONTINUOUS
 10
72.8322982509
 20
93.537252291
 11
72.8306914782
 21
93.4229969155
  0
LINE
  5
4AC
100
AcDbEntity
  8
0
100
AcDbLine
 62
9
  6
CONTINUOUS
 10
74.8957479409
 20
93.567093495
 11
74.8940640813
 21
93.4579665016
  0
LINE
  5
4AD
100
AcDbEntity
  8
0
100
AcDbLine
 62
7
  6
CONTINUOUS
 10
77.4667016933
 20
93.1946510153
 11
77.4733225831
 21
93.6096830083
  0
LINE
  5
4AE
100
AcDbEntity
  8
0
100
AcDbLine
 62
9
  6
CONTINUOUS
 10
72.8306914782
 20
93.4229969155
 11
72.828788511
 21
93.3064725241
  0
LINE
  5
4AF
100
AcDbEntity
  8
0
100
AcDbLine
 62
7
  6
CONTINUOUS
 10
76.9549499995
 20
94.2560052413
 11
76.9541452132
 21
94.2071511205
  0
LINE
  5
4B0
100
AcDbEntity
  8
0
100
AcDbLine
 62
9
  6
CONTINUOUS
 10
71.6157070575
 20
94.2958813718
 11
71.6166953138
 21
94.3541021162
  0
LINE
  5
4B1
100
AcDbEntity
  8
0
100
AcDbLine
 62
9
  6
CONTINUOUS
 10
31.7720451744
 20
94.6269516755
 11
31.7737088876
 21
94.7224500269
  0
LINE
  5
4B2
100
AcDbEntity
  8
0
100
AcDbLine
 62
9
  6
CONTINUOUS
 10
33.7893196864
 20
94.5980980334
 11
33.7908013931
 21
94.6835024008
  0
LINE
  5
4B3
100
AcDbEntity
  8
0
100
AcDbLine
 62
9
  6
CONTINUOUS
 10
74.8940640813
 20
93.4579665016
 11
74.8921255214
 21
93.3467989226
  0
LINE
  5
4B4
100
AcDbEntity
  8
0
100
AcDbLine
 62
7
  6
CONTINUOUS
 10
76.6261717201
 20
94.5026691828
 11
76.6270364357
 21
94.5517694098
  0
LINE
  5
4B5
100
AcDbEntity
  8
0
100
AcDbLine
 62
7
  6
CONTINUOUS
 10
76.7508188996
 20
94.5516832479
 11
76.7499548568
 21
94.5026183527
  0
LINE
  5
4B6
100
AcDbEntity
  8
0
100
AcDbLine
 62
9
  6
CONTINUOUS
 10
67.9323194511
 20
94.4210974047
 11
67.9310921692
 21
94.3541021162
  0
LINE
  5
4B7
100
AcDbEntity
  8
0
100
AcDbLine
 62
9
  6
CONTINUOUS
 10
72.828788511
 20
93.3064725241
 11
72.8265775058
 21
93.1882175767
  0
LINE
  5
4B8
100
AcDbEntity
  8
0
100
AcDbLine
 62
9
  6
CONTINUOUS
 10
74.8921255214
 20
93.3467989226
 11
74.8899249406
 21
93.2338503381
  0
LINE
  5
4B9
100
AcDbEntity
  8
0
100
AcDbLine
 62
9
  6
CONTINUOUS
 10
72.8265775058
 20
93.1882175767
 11
72.8240100512
 21
93.0678812189
  0
LINE
  5
4BA
100
AcDbEntity
  8
0
100
AcDbLine
 62
9
  6
CONTINUOUS
 10
74.8899249406
 20
93.2338503381
 11
74.8874541991
 21
93.1191459537
  0
LINE
  5
4BB
100
AcDbEntity
  8
0
100
AcDbLine
 62
9
  6
CONTINUOUS
 10
31.7737088876
 20
94.7224500269
 11
31.775940839
 21
94.8207959909
  0
LINE
  5
4BC
100
AcDbEntity
  8
0
100
AcDbLine
 62
9
  6
CONTINUOUS
 10
33.7908013931
 20
94.6835024008
 11
33.7927894431
 21
94.771457415
  0
LINE
  5
4BD
100
AcDbEntity
  8
0
100
AcDbLine
 62
7
  6
CONTINUOUS
 10
76.6270364357
 20
94.5517694098
 11
76.6281450035
 21
94.6004615849
  0
LINE
  5
4BE
100
AcDbEntity
  8
0
100
AcDbLine
 62
7
  6
CONTINUOUS
 10
76.7519262999
 20
94.600331914
 11
76.7508188996
 21
94.5516832479
  0
LINE
  5
4BF
100
AcDbEntity
  8
0
100
AcDbLine
 62
7
  6
CONTINUOUS
 10
77.4567040274
 20
92.7571678722
 11
77.4667016933
 21
93.1946510153
  0
LINE
  5
4C0
100
AcDbEntity
  8
0
100
AcDbLine
 62
7
  6
CONTINUOUS
 10
76.9541452132
 20
94.2071511205
 11
76.9530214711
 21
94.1585525696
  0
LINE
  5
4C1
100
AcDbEntity
  8
0
100
AcDbLine
 62
7
  6
CONTINUOUS
 10
24.1992850356
 20
95.1852407535
 11
24.1894061427
 21
94.7694884029
  0
LINE
  5
4C2
100
AcDbEntity
  8
0
100
AcDbLine
 62
9
  6
CONTINUOUS
 10
74.8874541991
 20
93.1191459537
 11
74.8847061686
 21
93.0028153519
  0
LINE
  5
4C3
100
AcDbEntity
  8
0
100
AcDbLine
 62
7
  6
CONTINUOUS
 10
77.4672006883
 20
93.2188869294
 11
77.4542774863
 21
92.6716408353
  0
LINE
  5
4C4
100
AcDbEntity
  8
0
100
AcDbLine
 62
9
  6
CONTINUOUS
 10
72.8240100512
 20
93.0678812189
 11
72.8210419346
 21
92.9455095401
  0
LINE
  5
4C5
100
AcDbEntity
  8
0
100
AcDbLine
 62
9
  6
CONTINUOUS
 10
74.8847061686
 20
93.0028153519
 11
74.8816659089
 21
92.8848287997
  0
LINE
  5
4C6
100
AcDbEntity
  8
0
100
AcDbLine
 62
7
  6
CONTINUOUS
 10
24.1903743979
 20
94.8266892747
 11
24.2031499693
 21
95.299520747
  0
LINE
  5
4C7
100
AcDbEntity
  8
0
100
AcDbLine
 62
9
  6
CONTINUOUS
 10
72.8210419346
 20
92.9455095401
 11
72.8176291855
 21
92.8204453765
  0
LINE
  5
4C8
100
AcDbEntity
  8
0
100
AcDbLine
 62
9
  6
CONTINUOUS
 10
31.775940839
 20
94.8207959909
 11
31.7787783328
 21
94.9217083474
  0
LINE
  5
4C9
100
AcDbEntity
  8
0
100
AcDbLine
 62
9
  6
CONTINUOUS
 10
33.7927894431
 20
94.771457415
 11
33.7953171726
 21
94.8617101216
  0
LINE
  5
4CA
100
AcDbEntity
  8
0
100
AcDbLine
 62
7
  6
CONTINUOUS
 10
76.6281450035
 20
94.6004615849
 11
76.629496272
 21
94.6486737108
  0
LINE
  5
4CB
100
AcDbEntity
  8
0
100
AcDbLine
 62
7
  6
CONTINUOUS
 10
76.7532757831
 20
94.6484933102
 11
76.7519262999
 21
94.600331914
  0
LINE
  5
4CC
100
AcDbEntity
  8
0
100
AcDbLine
 62
9
  6
CONTINUOUS
 10
74.8800250601
 20
92.8248489055
 11
74.8762054957
 21
92.6933770354
  0
LINE
  5
4CD
100
AcDbEntity
  8
0
100
AcDbLine
 62
7
  6
CONTINUOUS
 10
76.9530214711
 20
94.1585525696
 11
76.9515818809
 21
94.1103164984
  0
LINE
  5
4CE
100
AcDbEntity
  8
0
100
AcDbLine
 62
9
  6
CONTINUOUS
 10
72.8176291855
 20
92.8204453765
 11
72.8137263728
 21
92.691894412
  0
LINE
  5
4CF
100
AcDbEntity
  8
0
100
AcDbLine
 62
7
  6
CONTINUOUS
 10
77.4424232644
 20
92.2945524789
 11
77.4567040274
 21
92.7571678722
  0
LINE
  5
4D0
100
AcDbEntity
  8
0
100
AcDbLine
 62
9
  6
CONTINUOUS
 10
74.8762054957
 20
92.6933770354
 11
74.8719765033
 21
92.5589240331
  0
LINE
  5
4D1
100
AcDbEntity
  8
0
100
AcDbLine
 62
7
  6
CONTINUOUS
 10
77.4542774863
 20
92.6716408353
 11
77.4374837323
 21
92.1491796897
  0
LINE
  5
4D2
100
AcDbEntity
  8
0
100
AcDbLine
 62
9
  6
CONTINUOUS
 10
72.8137263728
 20
92.691894412
 11
72.809349411
 21
92.5603573886
  0
LINE
  5
4D3
100
AcDbEntity
  8
0
100
AcDbLine
 62
7
  6
CONTINUOUS
 10
76.7548653551
 20
94.6960990732
 11
76.7532757831
 21
94.6484933102
  0
LINE
  5
4D4
100
AcDbEntity
  8
0
100
AcDbLine
 62
9
  6
CONTINUOUS
 10
33.7953171726
 20
94.8617101216
 11
33.7984197
 21
94.9541792138
  0
LINE
  5
4D5
100
AcDbEntity
  8
0
100
AcDbLine
 62
7
  6
CONTINUOUS
 10
76.629496272
 20
94.6486737108
 11
76.6310883501
 21
94.6963365504
  0
LINE
  5
4D6
100
AcDbEntity
  8
0
100
AcDbLine
 62
9
  6
CONTINUOUS
 10
31.7787783328
 20
94.9217083474
 11
31.7822607248
 21
95.0250975933
  0
LINE
  5
4D7
100
AcDbEntity
  8
0
100
AcDbLine
 62
9
  6
CONTINUOUS
 10
74.8719765033
 20
92.5589240331
 11
74.8673121396
 21
92.4212353228
  0
LINE
  5
4D8
100
AcDbEntity
  8
0
100
AcDbLine
 62
9
  6
CONTINUOUS
 10
72.809349411
 20
92.5603573886
 11
72.8044988441
 21
92.425784337
  0
LINE
  5
4D9
100
AcDbEntity
  8
0
100
AcDbLine
 62
9
  6
CONTINUOUS
 10
74.8673121396
 20
92.4212353228
 11
74.8622201835
 21
92.2810619025
  0
LINE
  5
4DA
100
AcDbEntity
  8
0
100
AcDbLine
 62
7
  6
CONTINUOUS
 10
76.9515818809
 20
94.1103164984
 11
76.9498295354
 21
94.0624960793
  0
LINE
  5
4DB
100
AcDbEntity
  8
0
100
AcDbLine
 62
7
  6
CONTINUOUS
 10
77.4250537745
 20
91.8331395659
 11
77.4424232644
 21
92.2945524789
  0
LINE
  5
4DC
100
AcDbEntity
  8
0
100
AcDbLine
 62
9
  6
CONTINUOUS
 10
72.8044988441
 20
92.425784337
 11
72.7991730851
 21
92.2890337567
  0
LINE
  5
4DD
100
AcDbEntity
  8
0
100
AcDbLine
 62
9
  6
CONTINUOUS
 10
74.8622201835
 20
92.2810619025
 11
74.8566912546
 21
92.1386751058
  0
LINE
  5
4DE
100
AcDbEntity
  8
0
100
AcDbLine
 62
7
  6
CONTINUOUS
 10
76.6310883501
 20
94.6963365504
 11
76.6329179412
 21
94.7433271676
  0
LINE
  5
4DF
100
AcDbEntity
  8
0
100
AcDbLine
 62
7
  6
CONTINUOUS
 10
76.7566916263
 20
94.7430275355
 11
76.7548653551
 21
94.6960990732
  0
LINE
  5
4E0
100
AcDbEntity
  8
0
100
AcDbLine
 62
9
  6
CONTINUOUS
 10
33.7984197
 20
94.9541792138
 11
33.8021285002
 21
95.0487194701
  0
LINE
  5
4E1
100
AcDbEntity
  8
0
100
AcDbLine
 62
9
  6
CONTINUOUS
 10
31.7822607248
 20
95.0250975933
 11
31.7864229593
 21
95.1307970127
  0
LINE
  5
4E2
100
AcDbEntity
  8
0
100
AcDbLine
 62
7
  6
CONTINUOUS
 10
24.2157655932
 20
95.6016071695
 11
24.1992850356
 21
95.1852407535
  0
LINE
  5
4E3
100
AcDbEntity
  8
0
100
AcDbLine
 62
7
  6
CONTINUOUS
 10
77.4374837323
 20
92.1491796897
 11
77.4178477849
 21
91.6658254729
  0
LINE
  5
4E4
100
AcDbEntity
  8
0
100
AcDbLine
 62
9
  6
CONTINUOUS
 10
74.8566912546
 20
92.1386751058
 11
74.850761856
 21
91.9952916947
  0
LINE
  5
4E5
100
AcDbEntity
  8
0
100
AcDbLine
 62
9
  6
CONTINUOUS
 10
72.7991730851
 20
92.2890337567
 11
72.7933478945
 21
92.1504421034
  0
LINE
  5
4E6
100
AcDbEntity
  8
0
100
AcDbLine
 62
7
  6
CONTINUOUS
 10
76.9498295354
 20
94.0624960793
 11
76.9477666874
 21
94.0151415439
  0
LINE
  5
4E7
100
AcDbEntity
  8
0
100
AcDbLine
 62
9
  6
CONTINUOUS
 10
74.850761856
 20
91.9952916947
 11
74.8444346326
 21
91.8510514364
  0
LINE
  5
4E8
100
AcDbEntity
  8
0
100
AcDbLine
 62
7
  6
CONTINUOUS
 10
76.6329179412
 20
94.7433271676
 11
76.6349794876
 21
94.7895187746
  0
LINE
  5
4E9
100
AcDbEntity
  8
0
100
AcDbLine
 62
7
  6
CONTINUOUS
 10
76.7587489081
 20
94.7891516538
 11
76.7566916263
 21
94.7430275355
  0
LINE
  5
4EA
100
AcDbEntity
  8
0
100
AcDbLine
 62
7
  6
CONTINUOUS
 10
24.2031499693
 20
95.299520747
 11
24.2244562206
 21
95.7728664022
  0
LINE
  5
4EB
100
AcDbEntity
  8
0
100
AcDbLine
 62
9
  6
CONTINUOUS
 10
33.8021285002
 20
95.0487194701
 11
33.8064698418
 21
95.1451283258
  0
LINE
  5
4EC
100
AcDbEntity
  8
0
100
AcDbLine
 62
9
  6
CONTINUOUS
 10
31.7864229593
 20
95.1307970127
 11
31.7912942763
 21
95.2385788368
  0
LINE
  5
4ED
100
AcDbEntity
  8
0
100
AcDbLine
 62
9
  6
CONTINUOUS
 10
72.7933478945
 20
92.1504421034
 11
72.7870614785
 21
92.0115051116
  0
LINE
  5
4EE
100
AcDbEntity
  8
0
100
AcDbLine
 62
7
  6
CONTINUOUS
 10
77.4053061838
 20
91.4004102801
 11
77.4250537745
 21
91.8331395659
  0
LINE
  5
4EF
100
AcDbEntity
  8
0
100
AcDbLine
 62
9
  6
CONTINUOUS
 10
74.8444346326
 20
91.8510514364
 11
74.837865352
 21
91.7094226735
  0
LINE
  5
4F0
100
AcDbEntity
  8
0
100
AcDbLine
 62
9
  6
CONTINUOUS
 10
72.7870614785
 20
92.0115051116
 11
72.7803257702
 21
91.87263906
  0
LINE
  5
4F1
100
AcDbEntity
  8
0
100
AcDbLine
 62
7
  6
CONTINUOUS
 10
77.4178477849
 20
91.6658254729
 11
77.3957613177
 21
91.2122440914
  0
LINE
  5
4F2
100
AcDbEntity
  8
0
100
AcDbLine
 62
9
  6
CONTINUOUS
 10
74.837865352
 20
91.7094226735
 11
74.8312457727
 21
91.5737903847
  0
LINE
  5
4F3
100
AcDbEntity
  8
0
100
AcDbLine
 62
7
  6
CONTINUOUS
 10
76.7610356787
 20
94.8344389125
 11
76.7587489081
 21
94.7891516538
  0
LINE
  5
4F4
100
AcDbEntity
  8
0
100
AcDbLine
 62
9
  6
CONTINUOUS
 10
71.612799621
 20
94.2383487873
 11
71.6157070575
 21
94.2958813718
  0
LINE
  5
4F5
100
AcDbEntity
  8
0
100
AcDbLine
 62
7
  6
CONTINUOUS
 10
76.6349794876
 20
94.7895187746
 11
76.6372713311
 21
94.8348732294
  0
LINE
  5
4F6
100
AcDbEntity
  8
0
100
AcDbLine
 62
7
  6
CONTINUOUS
 10
76.9477666874
 20
94.0151415439
 11
76.9453996391
 21
93.9683676624
  0
LINE
  5
4F7
100
AcDbEntity
  8
0
100
AcDbLine
 62
9
  6
CONTINUOUS
 10
33.8064698418
 20
95.1451283258
 11
33.8114816235
 21
95.2434909207
  0
LINE
  5
4F8
100
AcDbEntity
  8
0
100
AcDbLine
 62
9
  6
CONTINUOUS
 10
31.7912942763
 20
95.2385788368
 11
31.7969170904
 21
95.3485406287
  0
LINE
  5
4F9
100
AcDbEntity
  8
0
100
AcDbLine
 62
9
  6
CONTINUOUS
 10
74.8312457727
 20
91.5737903847
 11
74.8246419129
 21
91.4445087454
  0
LINE
  5
4FA
100
AcDbEntity
  8
0
100
AcDbLine
 62
9
  6
CONTINUOUS
 10
72.7803257702
 20
91.87263906
 11
72.7733570168
 21
91.7374657142
  0
LINE
  5
4FB
100
AcDbEntity
  8
0
100
AcDbLine
 62
7
  6
CONTINUOUS
 10
77.3837254035
 20
90.9902442716
 11
77.4053061838
 21
91.4004102801
  0
LINE
  5
4FC
100
AcDbEntity
  8
0
100
AcDbLine
 62
9
  6
CONTINUOUS
 10
74.8246419129
 20
91.4445087454
 11
74.8181833163
 21
91.3233103506
  0
LINE
  5
4FD
100
AcDbEntity
  8
0
100
AcDbLine
 62
9
  6
CONTINUOUS
 10
72.7733570168
 20
91.7374657142
 11
72.7664448576
 21
91.6100616928
  0
LINE
  5
4FE
100
AcDbEntity
  8
0
100
AcDbLine
 62
9
  6
CONTINUOUS
 10
67.9359788813
 20
94.4876732269
 11
67.9323194511
 21
94.4210974047
  0
LINE
  5
4FF
100
AcDbEntity
  8
0
100
AcDbLine
 62
7
  6
CONTINUOUS
 10
24.2388256361
 20
96.0178436462
 11
24.2157655932
 21
95.6016071695
  0
LINE
  5
500
100
AcDbEntity
  8
0
100
AcDbLine
 62
7
  6
CONTINUOUS
 10
77.3957613177
 20
91.2122440914
 11
77.3718614151
 21
90.7843828302
  0
LINE
  5
501
100
AcDbEntity
  8
0
100
AcDbLine
 62
9
  6
CONTINUOUS
 10
74.8181833163
 20
91.3233103506
 11
74.8058333727
 21
91.103265719
  0
LINE
  5
502
100
AcDbEntity
  8
0
100
AcDbLine
 62
9
  6
CONTINUOUS
 10
72.7664448576
 20
91.6100616928
 11
72.7596325092
 21
91.4895236083
  0
LINE
  5
503
100
AcDbEntity
  8
0
100
AcDbLine
 62
7
  6
CONTINUOUS
 10
76.7635501583
 20
94.8788492575
 11
76.7610356787
 21
94.8344389125
  0
LINE
  5
504
100
AcDbEntity
  8
0
100
AcDbLine
 62
9
  6
CONTINUOUS
 10
72.6621416745
 20
90.2125814334
 11
72.657369323
 21
90.1285180254
  0
LINE
  5
505
100
AcDbEntity
  8
0
100
AcDbLine
 62
7
  6
CONTINUOUS
 10
76.6372713311
 20
94.8348732294
 11
76.6397915244
 21
94.8793468816
  0
LINE
  5
506
100
AcDbEntity
  8
0
100
AcDbLine
 62
9
  6
CONTINUOUS
 10
33.8114816235
 20
95.2434909207
 11
33.8171969728
 21
95.3437630154
  0
LINE
  5
507
100
AcDbEntity
  8
0
100
AcDbLine
 62
9
  6
CONTINUOUS
 10
31.7969170904
 20
95.3485406287
 11
31.8033284221
 21
95.4606365444
  0
LINE
  5
508
100
AcDbEntity
  8
0
100
AcDbLine
 62
7
  6
CONTINUOUS
 10
76.9453996391
 20
93.9683676624
 11
76.9427356117
 21
93.9222884894
  0
LINE
  5
509
100
AcDbEntity
  8
0
100
AcDbLine
 62
9
  6
CONTINUOUS
 10
72.7596325092
 20
91.4895236083
 11
72.752945348
 21
91.3764219638
  0
LINE
  5
50A
100
AcDbEntity
  8
0
100
AcDbLine
 62
7
  6
CONTINUOUS
 10
77.3610313946
 20
90.6069576921
 11
77.3837254035
 21
90.9902442716
  0
LINE
  5
50B
100
AcDbEntity
  8
0
100
AcDbLine
 62
9
  6
CONTINUOUS
 10
74.8058333727
 20
91.103265719
 11
74.7942291018
 21
90.9097371623
  0
LINE
  5
50C
100
AcDbEntity
  8
0
100
AcDbLine
 62
9
  6
CONTINUOUS
 10
72.6648920634
 20
90.2584071015
 11
72.6621416745
 21
90.2125814334
  0
LINE
  5
50D
100
AcDbEntity
  8
0
100
AcDbLine
 62
9
  6
CONTINUOUS
 10
74.7942291018
 20
90.9097371623
 11
74.7834141562
 21
90.7365616059
  0
LINE
  5
50E
100
AcDbEntity
  8
0
100
AcDbLine
 62
7
  6
CONTINUOUS
 10
24.2244562206
 20
95.7728664022
 11
24.2542691923
 21
96.245916633
  0
LINE
  5
50F
100
AcDbEntity
  8
0
100
AcDbLine
 62
7
  6
CONTINUOUS
 10
76.6397915244
 20
94.8793468816
 11
76.6425350393
 21
94.9228368148
  0
LINE
  5
510
100
AcDbEntity
  8
0
100
AcDbLine
 62
7
  6
CONTINUOUS
 10
76.7662876062
 20
94.9222843372
 11
76.7635501583
 21
94.8788492575
  0
LINE
  5
511
100
AcDbEntity
  8
0
100
AcDbLine
 62
7
  6
CONTINUOUS
 10
77.3718614151
 20
90.7843828302
 11
77.3464402034
 21
90.3807195341
  0
LINE
  5
512
100
AcDbEntity
  8
0
100
AcDbLine
 62
9
  6
CONTINUOUS
 10
33.8171969728
 20
95.3437630154
 11
33.8236640145
 21
95.4461253413
  0
LINE
  5
513
100
AcDbEntity
  8
0
100
AcDbLine
 62
9
  6
CONTINUOUS
 10
31.8033284221
 20
95.4606365444
 11
31.8105821543
 21
95.5750700405
  0
LINE
  5
514
100
AcDbEntity
  8
0
100
AcDbLine
 62
9
  6
CONTINUOUS
 10
72.752945348
 20
91.3764219638
 11
72.7460566898
 21
91.2701075489
  0
LINE
  5
515
100
AcDbEntity
  8
0
100
AcDbLine
 62
7
  6
CONTINUOUS
 10
76.9427356117
 20
93.9222884894
 11
76.9397792131
 21
93.8769454126
  0
LINE
  5
516
100
AcDbEntity
  8
0
100
AcDbLine
 62
7
  6
CONTINUOUS
 10
77.3374096346
 20
90.2467221836
 11
77.3610313946
 21
90.6069576921
  0
LINE
  5
517
100
AcDbEntity
  8
0
100
AcDbLine
 62
9
  6
CONTINUOUS
 10
72.6681042053
 20
90.3072229031
 11
72.6648920634
 21
90.2584071015
  0
LINE
  5
518
100
AcDbEntity
  8
0
100
AcDbLine
 62
9
  6
CONTINUOUS
 10
74.7834141562
 20
90.7365616059
 11
74.7731396729
 21
90.5804622474
  0
LINE
  5
519
100
AcDbEntity
  8
0
100
AcDbLine
 62
9
  6
CONTINUOUS
 10
72.7322942778
 20
91.0771679432
 11
72.7264031909
 21
90.9890566313
  0
LINE
  5
51A
100
AcDbEntity
  8
0
100
AcDbLine
 62
9
  6
CONTINUOUS
 10
74.7731396729
 20
90.5804622474
 11
74.7587986064
 21
90.3708990989
  0
LINE
  5
51B
100
AcDbEntity
  8
0
100
AcDbLine
 62
7
  6
CONTINUOUS
 10
77.3464402034
 20
90.3807195341
 11
77.3199162723
 21
89.9986402975
  0
LINE
  5
51C
100
AcDbEntity
  8
0
100
AcDbLine
 62
9
  6
CONTINUOUS
 10
33.8236640145
 20
95.4461253413
 11
33.8309362289
 21
95.550756382
  0
LINE
  5
51D
100
AcDbEntity
  8
0
100
AcDbLine
 62
9
  6
CONTINUOUS
 10
31.8105821543
 20
95.5750700405
 11
31.8187380366
 21
95.6920396943
  0
LINE
  5
51E
100
AcDbEntity
  8
0
100
AcDbLine
 62
7
  6
CONTINUOUS
 10
76.769241703
 20
94.9646453017
 11
76.7662876062
 21
94.9222843372
  0
LINE
  5
51F
100
AcDbEntity
  8
0
100
AcDbLine
 62
7
  6
CONTINUOUS
 10
76.6425350393
 20
94.9228368148
 11
76.6454950838
 21
94.9652390485
  0
LINE
  5
520
100
AcDbEntity
  8
0
100
AcDbLine
 62
7
  6
CONTINUOUS
 10
24.2684457918
 20
96.433232473
 11
24.2388256361
 21
96.0178436462
  0
LINE
  5
521
100
AcDbEntity
  8
0
100
AcDbLine
 62
9
  6
CONTINUOUS
 10
72.7460566898
 20
91.2701075489
 11
72.7322942778
 21
91.0771679432
  0
LINE
  5
522
100
AcDbEntity
  8
0
100
AcDbLine
 62
7
  6
CONTINUOUS
 10
77.3132074792
 20
89.9073368988
 11
77.3374096346
 21
90.2467221836
  0
LINE
  5
523
100
AcDbEntity
  8
0
100
AcDbLine
 62
9
  6
CONTINUOUS
 10
74.7587986064
 20
90.3708990989
 11
74.7459574608
 21
90.191695964
  0
LINE
  5
524
100
AcDbEntity
  8
0
100
AcDbLine
 62
9
  6
CONTINUOUS
 10
72.6758492679
 20
90.4150721643
 11
72.6681042053
 21
90.3072229031
  0
LINE
  5
525
100
AcDbEntity
  8
0
100
AcDbLine
 62
9
  6
CONTINUOUS
 10
72.7264031909
 20
90.9890566313
 11
72.7203019862
 21
90.905387206
  0
LINE
  5
526
100
AcDbEntity
  8
0
100
AcDbLine
 62
7
  6
CONTINUOUS
 10
76.9397792131
 20
93.8769454126
 11
76.9365341032
 21
93.8323789632
  0
LINE
  5
527
100
AcDbEntity
  8
0
100
AcDbLine
 62
9
  6
CONTINUOUS
 10
74.7459574608
 20
90.191695964
 11
74.7348773849
 21
90.0429654844
  0
LINE
  5
528
100
AcDbEntity
  8
0
100
AcDbLine
 62
7
  6
CONTINUOUS
 10
77.3199162723
 20
89.9986402975
 11
77.2925473152
 21
89.6373676568
  0
LINE
  5
529
100
AcDbEntity
  8
0
100
AcDbLine
 62
9
  6
CONTINUOUS
 10
33.8309362289
 20
95.550756382
 11
33.8390554926
 21
95.6576188763
  0
LINE
  5
52A
100
AcDbEntity
  8
0
100
AcDbLine
 62
9
  6
CONTINUOUS
 10
31.8187380366
 20
95.6920396943
 11
31.8278425417
 21
95.8115005372
  0
LINE
  5
52B
100
AcDbEntity
  8
0
100
AcDbLine
 62
9
  6
CONTINUOUS
 10
72.6803758991
 20
90.4744832008
 11
72.6758492679
 21
90.4150721643
  0
LINE
  5
52C
100
AcDbEntity
  8
0
100
AcDbLine
 62
7
  6
CONTINUOUS
 10
76.772411581
 20
95.0059134208
 11
76.769241703
 21
94.9646453017
  0
LINE
  5
52D
100
AcDbEntity
  8
0
100
AcDbLine
 62
7
  6
CONTINUOUS
 10
76.6454950838
 20
94.9652390485
 11
76.6486706292
 21
95.0065353009
  0
LINE
  5
52E
100
AcDbEntity
  8
0
100
AcDbLine
 62
7
  6
CONTINUOUS
 10
77.2886592538
 20
89.5882354585
 11
77.3132074792
 21
89.9073368988
  0
LINE
  5
52F
100
AcDbEntity
  8
0
100
AcDbLine
 62
9
  6
CONTINUOUS
 10
74.7348773849
 20
90.0429654844
 11
74.722177468
 21
89.8784647637
  0
LINE
  5
530
100
AcDbEntity
  8
0
100
AcDbLine
 62
9
  6
CONTINUOUS
 10
74.722177468
 20
89.8784647637
 11
74.6909695967
 21
89.4897886808
  0
LINE
  5
531
100
AcDbEntity
  8
0
100
AcDbLine
 62
9
  6
CONTINUOUS
 10
72.685476576
 20
90.5378973299
 11
72.6803758991
 21
90.4744832008
  0
LINE
  5
532
100
AcDbEntity
  8
0
100
AcDbLine
 62
7
  6
CONTINUOUS
 10
76.9365341032
 20
93.8323789632
 11
76.9330104652
 21
93.7887055459
  0
LINE
  5
533
100
AcDbEntity
  8
0
100
AcDbLine
 62
7
  6
CONTINUOUS
 10
24.2542691923
 20
96.245916633
 11
24.2925914313
 21
96.7180408407
  0
LINE
  5
534
100
AcDbEntity
  8
0
100
AcDbLine
 62
7
  6
CONTINUOUS
 10
77.2640664084
 20
89.2884609949
 11
77.2925473152
 21
89.6373676568
  0
LINE
  5
535
100
AcDbEntity
  8
0
100
AcDbLine
 62
9
  6
CONTINUOUS
 10
33.8390554926
 20
95.6576188763
 11
33.848061831
 21
95.7666530371
  0
LINE
  5
536
100
AcDbEntity
  8
0
100
AcDbLine
 62
9
  6
CONTINUOUS
 10
31.8278425417
 20
95.8115005372
 11
31.8379400866
 21
95.9333832785
  0
LINE
  5
537
100
AcDbEntity
  8
0
100
AcDbLine
 62
9
  6
CONTINUOUS
 10
74.6909695967
 20
89.4897886808
 11
74.6778489265
 21
89.3326335454
  0
LINE
  5
538
100
AcDbEntity
  8
0
100
AcDbLine
 62
9
  6
CONTINUOUS
 10
71.6080326638
 20
94.1815915438
 11
71.612799621
 21
94.2383487873
  0
LINE
  5
539
100
AcDbEntity
  8
0
100
AcDbLine
 62
7
  6
CONTINUOUS
 10
76.7757969423
 20
95.0460683773
 11
76.772411581
 21
95.0059134208
  0
LINE
  5
53A
100
AcDbEntity
  8
0
100
AcDbLine
 62
7
  6
CONTINUOUS
 10
76.6486706292
 20
95.0065353009
 11
76.6520610287
 21
95.0467035988
  0
LINE
  5
53B
100
AcDbEntity
  8
0
100
AcDbLine
 62
9
  6
CONTINUOUS
 10
74.6778489265
 20
89.3326335454
 11
74.6617469134
 21
89.1456305177
  0
LINE
  5
53C
100
AcDbEntity
  8
0
100
AcDbLine
 62
9
  6
CONTINUOUS
 10
72.657369323
 20
90.1285180254
 11
72.6539114864
 21
90.0886898755
  0
LINE
  5
53D
100
AcDbEntity
  8
0
100
AcDbLine
 62
7
  6
CONTINUOUS
 10
24.304625033
 20
96.8479427703
 11
24.2684457918
 21
96.433232473
  0
LINE
  5
53E
100
AcDbEntity
  8
0
100
AcDbLine
 62
7
  6
CONTINUOUS
 10
77.2646573075
 20
89.2954619344
 11
77.2364659924
 21
88.9722958671
  0
LINE
  5
53F
100
AcDbEntity
  8
0
100
AcDbLine
 62
9
  6
CONTINUOUS
 10
72.5233081689
 20
89.3588458746
 11
72.511937942
 21
89.2289841623
  0
LINE
  5
540
100
AcDbEntity
  8
0
100
AcDbLine
 62
9
  6
CONTINUOUS
 10
72.7203019862
 20
90.905387206
 11
72.713254203
 21
90.8251378275
  0
LINE
  5
541
100
AcDbEntity
  8
0
100
AcDbLine
 62
9
  6
CONTINUOUS
 10
72.6913685668
 20
90.6048800516
 11
72.685476576
 21
90.5378973299
  0
LINE
  5
542
100
AcDbEntity
  8
0
100
AcDbLine
 62
9
  6
CONTINUOUS
 10
74.6617469134
 20
89.1456305177
 11
74.6491860776
 21
89.0043227846
  0
LINE
  5
543
100
AcDbEntity
  8
0
100
AcDbLine
 62
7
  6
CONTINUOUS
 10
76.9330104652
 20
93.7887055459
 11
76.9292196264
 21
93.7460383021
  0
LINE
  5
544
100
AcDbEntity
  8
0
100
AcDbLine
 62
9
  6
CONTINUOUS
 10
33.848061831
 20
95.7666530371
 11
33.8580226934
 21
95.8781025732
  0
LINE
  5
545
100
AcDbEntity
  8
0
100
AcDbLine
 62
9
  6
CONTINUOUS
 10
31.8379400866
 20
95.9333832785
 11
31.8491050776
 21
96.0579519558
  0
LINE
  5
546
100
AcDbEntity
  8
0
100
AcDbLine
 62
9
  6
CONTINUOUS
 10
67.9420181605
 20
94.5536442093
 11
67.9359788813
 21
94.4876732269
  0
LINE
  5
547
100
AcDbEntity
  8
0
100
AcDbLine
 62
9
  6
CONTINUOUS
 10
74.6491860776
 20
89.0043227846
 11
74.6358821966
 21
88.8588518082
  0
LINE
  5
548
100
AcDbEntity
  8
0
100
AcDbLine
 62
7
  6
CONTINUOUS
 10
77.2395749253
 20
89.0069841261
 11
77.2082585394
 21
88.6670783796
  0
LINE
  5
549
100
AcDbEntity
  8
0
100
AcDbLine
 62
7
  6
CONTINUOUS
 10
76.6520610287
 20
95.0467035988
 11
76.6556598286
 21
95.0856506945
  0
LINE
  5
54A
100
AcDbEntity
  8
0
100
AcDbLine
 62
7
  6
CONTINUOUS
 10
76.779391372
 20
95.0850143736
 11
76.7757969423
 21
95.0460683773
  0
LINE
  5
54B
100
AcDbEntity
  8
0
100
AcDbLine
 62
9
  6
CONTINUOUS
 10
74.6358821966
 20
88.8588518082
 11
74.6227044639
 21
88.7181393879
  0
LINE
  5
54C
100
AcDbEntity
  8
0
100
AcDbLine
 62
9
  6
CONTINUOUS
 10
72.5289391503
 20
89.4186716713
 11
72.5233081689
 21
89.3588458746
  0
LINE
  5
54D
100
AcDbEntity
  8
0
100
AcDbLine
 62
9
  6
CONTINUOUS
 10
72.511937942
 20
89.2289841623
 11
72.5053772949
 21
89.1594054742
  0
LINE
  5
54E
100
AcDbEntity
  8
0
100
AcDbLine
 62
9
  6
CONTINUOUS
 10
74.6227044639
 20
88.7181393879
 11
74.6099791162
 21
88.5852039954
  0
LINE
  5
54F
100
AcDbEntity
  8
0
100
AcDbLine
 62
7
  6
CONTINUOUS
 10
77.1916354431
 20
88.4948781589
 11
77.2154070764
 21
88.742817954
  0
LINE
  5
550
100
AcDbEntity
  8
0
100
AcDbLine
 62
9
  6
CONTINUOUS
 10
33.8580226934
 20
95.8781025732
 11
33.8690049847
 21
95.9921261897
  0
LINE
  5
551
100
AcDbEntity
  8
0
100
AcDbLine
 62
9
  6
CONTINUOUS
 10
31.8491050776
 20
96.0579519558
 11
31.8614113498
 21
96.1853778141
  0
LINE
  5
552
100
AcDbEntity
  8
0
100
AcDbLine
 62
7
  6
CONTINUOUS
 10
76.9292196264
 20
93.7460383021
 11
76.9251671484
 21
93.7044087955
  0
LINE
  5
553
100
AcDbEntity
  8
0
100
AcDbLine
 62
7
  6
CONTINUOUS
 10
77.2082585394
 20
88.6670783796
 11
77.1801626453
 21
88.3788612308
  0
LINE
  5
554
100
AcDbEntity
  8
0
100
AcDbLine
 62
9
  6
CONTINUOUS
 10
72.6982100951
 20
90.6748996809
 11
72.6913685668
 21
90.6048800516
  0
LINE
  5
555
100
AcDbEntity
  8
0
100
AcDbLine
 62
9
  6
CONTINUOUS
 10
74.6099791162
 20
88.5852039954
 11
74.5978801009
 21
88.4618870439
  0
LINE
  5
556
100
AcDbEntity
  8
0
100
AcDbLine
 62
9
  6
CONTINUOUS
 10
72.713254203
 20
90.8251378275
 11
72.7056976873
 21
90.748332516
  0
LINE
  5
557
100
AcDbEntity
  8
0
100
AcDbLine
 62
9
  6
CONTINUOUS
 10
74.5978801009
 20
88.4618870439
 11
74.5821560834
 21
88.3040100359
  0
LINE
  5
558
100
AcDbEntity
  8
0
100
AcDbLine
 62
7
  6
CONTINUOUS
 10
77.168393916
 20
88.2620619453
 11
77.1916354431
 21
88.4948781589
  0
LINE
  5
559
100
AcDbEntity
  8
0
100
AcDbLine
 62
7
  6
CONTINUOUS
 10
76.7831871295
 20
95.1226596938
 11
76.779391372
 21
95.0850143736
  0
LINE
  5
55A
100
AcDbEntity
  8
0
100
AcDbLine
 62
7
  6
CONTINUOUS
 10
76.6556598286
 20
95.0856506945
 11
76.6594592268
 21
95.1232865763
  0
LINE
  5
55B
100
AcDbEntity
  8
0
100
AcDbLine
 62
9
  6
CONTINUOUS
 10
72.7056976873
 20
90.748332516
 11
72.6982100951
 21
90.6748996809
  0
LINE
  5
55C
100
AcDbEntity
  8
0
100
AcDbLine
 62
7
  6
CONTINUOUS
 10
77.1801626453
 20
88.3788612308
 11
77.1523759812
 21
88.1067210211
  0
LINE
  5
55D
100
AcDbEntity
  8
0
100
AcDbLine
 62
9
  6
CONTINUOUS
 10
72.5053772949
 20
89.1594054742
 11
72.4980468211
 21
89.0878552594
  0
LINE
  5
55E
100
AcDbEntity
  8
0
100
AcDbLine
 62
9
  6
CONTINUOUS
 10
33.8690049847
 20
95.9921261897
 11
33.8810843938
 21
96.1089062873
  0
LINE
  5
55F
100
AcDbEntity
  8
0
100
AcDbLine
 62
9
  6
CONTINUOUS
 10
31.8614113498
 20
96.1853778141
 11
31.8749435831
 21
96.3158707877
  0
LINE
  5
560
100
AcDbEntity
  8
0
100
AcDbLine
 62
7
  6
CONTINUOUS
 10
77.1457208385
 20
88.0434378435
 11
77.168393916
 21
88.2620619453
  0
LINE
  5
561
100
AcDbEntity
  8
0
100
AcDbLine
 62
9
  6
CONTINUOUS
 10
74.5821560834
 20
88.3040100359
 11
74.5765287445
 21
88.2505725999
  0
LINE
  5
562
100
AcDbEntity
  8
0
100
AcDbLine
 62
7
  6
CONTINUOUS
 10
76.9251671484
 20
93.7044087955
 11
76.9208577088
 21
93.6638496945
  0
LINE
  5
563
100
AcDbEntity
  8
0
100
AcDbLine
 62
7
  6
CONTINUOUS
 10
77.1236984376
 20
87.8379784186
 11
77.1523759812
 21
88.1067210211
  0
LINE
  5
564
100
AcDbEntity
  8
0
100
AcDbLine
 62
9
  6
CONTINUOUS
 10
72.5351381771
 20
89.475649798
 11
72.5289391503
 21
89.4186716713
  0
LINE
  5
565
100
AcDbEntity
  8
0
100
AcDbLine
 62
9
  6
CONTINUOUS
 10
72.4980468211
 20
89.0878552594
 11
72.48259659
 21
88.9460497966
  0
LINE
  5
566
100
AcDbEntity
  8
0
100
AcDbLine
 62
7
  6
CONTINUOUS
 10
76.787184291
 20
95.1589945745
 11
76.7831871295
 21
95.1226596938
  0
LINE
  5
567
100
AcDbEntity
  8
0
100
AcDbLine
 62
7
  6
CONTINUOUS
 10
76.6594592268
 20
95.1232865763
 11
76.6634591781
 21
95.1596024631
  0
LINE
  5
568
100
AcDbEntity
  8
0
100
AcDbLine
 62
9
  6
CONTINUOUS
 10
33.8810843938
 20
96.1089062873
 11
33.8943393079
 21
96.2285851083
  0
LINE
  5
569
100
AcDbEntity
  8
0
100
AcDbLine
 62
9
  6
CONTINUOUS
 10
72.48259659
 20
88.9460497966
 11
72.4242598354
 21
88.4190590224
  0
LINE
  5
56A
100
AcDbEntity
  8
0
100
AcDbLine
 62
7
  6
CONTINUOUS
 10
77.1249737948
 20
87.8497921503
 11
77.0980899319
 21
87.6071777825
  0
LINE
  5
56B
100
AcDbEntity
  8
0
100
AcDbLine
 62
9
  6
CONTINUOUS
 10
31.8749435831
 20
96.3158707877
 11
31.8897895503
 21
96.4495979501
  0
LINE
  5
56C
100
AcDbEntity
  8
0
100
AcDbLine
 62
9
  6
CONTINUOUS
 10
74.5765287445
 20
88.2505725999
 11
74.5697240186
 21
88.1907704845
  0
LINE
  5
56D
100
AcDbEntity
  8
0
100
AcDbLine
 62
7
  6
CONTINUOUS
 10
77.1023289523
 20
87.6448687706
 11
77.0717462701
 21
87.3780482257
  0
LINE
  5
56E
100
AcDbEntity
  8
0
100
AcDbLine
 62
7
  6
CONTINUOUS
 10
76.9208577088
 20
93.6638496945
 11
76.9163050112
 21
93.6244720885
  0
LINE
  5
56F
100
AcDbEntity
  8
0
100
AcDbLine
 62
9
  6
CONTINUOUS
 10
72.4242598354
 20
88.4190590224
 11
72.4197252226
 21
88.3799399406
  0
LINE
  5
570
100
AcDbEntity
  8
0
100
AcDbLine
 62
9
  6
CONTINUOUS
 10
71.6014735221
 20
94.1256039373
 11
71.6080326638
 21
94.1815915438
  0
LINE
  5
571
100
AcDbEntity
  8
0
100
AcDbLine
 62
7
  6
CONTINUOUS
 10
77.0616376728
 20
87.2922266707
 11
77.0816447595
 21
87.4631954903
  0
LINE
  5
572
100
AcDbEntity
  8
0
100
AcDbLine
 62
9
  6
CONTINUOUS
 10
33.8943393079
 20
96.2285851083
 11
33.9088700283
 21
96.3514302909
  0
LINE
  5
573
100
AcDbEntity
  8
0
100
AcDbLine
 62
9
  6
CONTINUOUS
 10
31.8897895503
 20
96.4495979501
 11
31.9060605165
 21
96.5868545874
  0
LINE
  5
574
100
AcDbEntity
  8
0
100
AcDbLine
 62
7
  6
CONTINUOUS
 10
77.0422899394
 20
87.1311161929
 11
77.0717462701
 21
87.3780482257
  0
LINE
  5
575
100
AcDbEntity
  8
0
100
AcDbLine
 62
7
  6
CONTINUOUS
 10
76.7913834767
 20
95.1940038152
 11
76.787184291
 21
95.1589945745
  0
LINE
  5
576
100
AcDbEntity
  8
0
100
AcDbLine
 62
7
  6
CONTINUOUS
 10
76.6634591781
 20
95.1596024631
 11
76.6676602374
 21
95.1945844501
  0
LINE
  5
577
100
AcDbEntity
  8
0
100
AcDbLine
 62
7
  6
CONTINUOUS
 10
77.0459528657
 20
87.1615002228
 11
77.0208790291
 21
86.9568576335
  0
LINE
  5
578
100
AcDbEntity
  8
0
100
AcDbLine
 62
9
  6
CONTINUOUS
 10
72.5418933903
 20
89.5300526849
 11
72.5351381771
 21
89.475649798
  0
LINE
  5
579
100
AcDbEntity
  8
0
100
AcDbLine
 62
7
  6
CONTINUOUS
 10
77.0236626363
 20
86.9792932835
 11
76.9967542138
 21
86.7633211707
  0
LINE
  5
57A
100
AcDbEntity
  8
0
100
AcDbLine
 62
7
  6
CONTINUOUS
 10
76.9163050112
 20
93.6244720885
 11
76.9115239675
 21
93.5863809572
  0
LINE
  5
57B
100
AcDbEntity
  8
0
100
AcDbLine
 62
9
  6
CONTINUOUS
 10
33.9088700283
 20
96.3514302909
 11
33.924780107
 21
96.4776532525
  0
LINE
  5
57C
100
AcDbEntity
  8
0
100
AcDbLine
 62
9
  6
CONTINUOUS
 10
31.9060605165
 20
96.5868545874
 11
31.9238709054
 21
96.7278701994
  0
LINE
  5
57D
100
AcDbEntity
  8
0
100
AcDbLine
 62
7
  6
CONTINUOUS
 10
76.9725303688
 20
86.5733952148
 11
77.0058126303
 21
86.8360727243
  0
LINE
  5
57E
100
AcDbEntity
  8
0
100
AcDbLine
 62
9
  6
CONTINUOUS
 10
72.4197252226
 20
88.3799399406
 11
72.4155793178
 21
88.3473264437
  0
LINE
  5
57F
100
AcDbEntity
  8
0
100
AcDbLine
 62
7
  6
CONTINUOUS
 10
76.9967542138
 20
86.7633211707
 11
76.9734080456
 21
86.5803570166
  0
LINE
  5
580
100
AcDbEntity
  8
0
100
AcDbLine
 62
9
  6
CONTINUOUS
 10
67.9504273419
 20
94.6192227931
 11
67.9420181605
 21
94.5536442093
  0
LINE
  5
581
100
AcDbEntity
  8
0
100
AcDbLine
 62
7
  6
CONTINUOUS
 10
76.9734080456
 20
86.5803570166
 11
76.9509187804
 21
86.4070562496
  0
LINE
  5
582
100
AcDbEntity
  8
0
100
AcDbLine
 62
7
  6
CONTINUOUS
 10
76.7957771937
 20
95.2276033169
 11
76.7913834767
 21
95.1940038152
  0
LINE
  5
583
100
AcDbEntity
  8
0
100
AcDbLine
 62
7
  6
CONTINUOUS
 10
76.6676602374
 20
95.1945844501
 11
76.6720547877
 21
95.2281493685
  0
LINE
  5
584
100
AcDbEntity
  8
0
100
AcDbLine
 62
9
  6
CONTINUOUS
 10
74.5697240186
 20
88.1907704845
 11
74.5616469885
 21
88.1291211173
  0
LINE
  5
585
100
AcDbEntity
  8
0
100
AcDbLine
 62
9
  6
CONTINUOUS
 10
33.924780107
 20
96.4776532525
 11
33.9421951598
 21
96.6075607502
  0
LINE
  5
586
100
AcDbEntity
  8
0
100
AcDbLine
 62
9
  6
CONTINUOUS
 10
31.9238709054
 20
96.7278701994
 11
31.9433589181
 21
96.8729776123
  0
LINE
  5
587
100
AcDbEntity
  8
0
100
AcDbLine
 62
9
  6
CONTINUOUS
 10
72.6539114864
 20
90.0886898755
 11
72.6485724472
 21
90.049002385
  0
LINE
  5
588
100
AcDbEntity
  8
0
100
AcDbLine
 62
7
  6
CONTINUOUS
 10
76.9569371605
 20
86.4528148768
 11
76.9287699811
 21
86.2437448939
  0
LINE
  5
589
100
AcDbEntity
  8
0
100
AcDbLine
 62
7
  6
CONTINUOUS
 10
76.9115239675
 20
93.5863809572
 11
76.9065207465
 21
93.549601035
  0
LINE
  5
58A
100
AcDbEntity
  8
0
100
AcDbLine
 62
7
  6
CONTINUOUS
 10
76.9268990997
 20
86.230282754
 11
76.9417210731
 21
86.3383153904
  0
LINE
  5
58B
100
AcDbEntity
  8
0
100
AcDbLine
 62
9
  6
CONTINUOUS
 10
72.5491000936
 20
89.5818305465
 11
72.5418933903
 21
89.5300526849
  0
LINE
  5
58C
100
AcDbEntity
  8
0
100
AcDbLine
 62
7
  6
CONTINUOUS
 10
76.9128033198
 20
86.1303013184
 11
76.9268990997
 21
86.230282754
  0
LINE
  5
58D
100
AcDbEntity
  8
0
100
AcDbLine
 62
9
  6
CONTINUOUS
 10
33.9421951598
 20
96.6075607502
 11
33.9612462389
 21
96.7414079164
  0
LINE
  5
58E
100
AcDbEntity
  8
0
100
AcDbLine
 62
9
  6
CONTINUOUS
 10
31.9433589181
 20
96.8729776123
 11
31.9646688908
 21
97.0224539679
  0
LINE
  5
58F
100
AcDbEntity
  8
0
100
AcDbLine
 62
7
  6
CONTINUOUS
 10
76.800356991
 20
95.2597147611
 11
76.7957771937
 21
95.2276033169
  0
LINE
  5
590
100
AcDbEntity
  8
0
100
AcDbLine
 62
7
  6
CONTINUOUS
 10
76.6720547877
 20
95.2281493685
 11
76.6766343169
 21
95.2602201854
  0
LINE
  5
591
100
AcDbEntity
  8
0
100
AcDbLine
 62
7
  6
CONTINUOUS
 10
76.9287699811
 20
86.2437448939
 11
76.906832365
 21
86.0906607413
  0
LINE
  5
592
100
AcDbEntity
  8
0
100
AcDbLine
 62
9
  6
CONTINUOUS
 10
72.4155793178
 20
88.3473264437
 11
72.4116199374
 21
88.3200635079
  0
LINE
  5
593
100
AcDbEntity
  8
0
100
AcDbLine
 62
7
  6
CONTINUOUS
 10
76.9065207465
 20
93.549601035
 11
76.9013009028
 21
93.5141600552
  0
LINE
  5
594
100
AcDbEntity
  8
0
100
AcDbLine
 62
9
  6
CONTINUOUS
 10
74.5616469885
 20
88.1291211173
 11
74.5523876636
 21
88.0671981269
  0
LINE
  5
595
100
AcDbEntity
  8
0
100
AcDbLine
 62
9
  6
CONTINUOUS
 10
71.5931824238
 20
94.0703966499
 11
71.6014735221
 21
94.1256039373
  0
LINE
  5
596
100
AcDbEntity
  8
0
100
AcDbLine
 62
9
  6
CONTINUOUS
 10
33.9612462389
 20
96.7414079164
 11
33.98209012
 21
96.8795369409
  0
LINE
  5
597
100
AcDbEntity
  8
0
100
AcDbLine
 62
7
  6
CONTINUOUS
 10
76.8982543735
 20
86.0338806989
 11
76.9128033198
 21
86.1303013184
  0
LINE
  5
598
100
AcDbEntity
  8
0
100
AcDbLine
 62
9
  6
CONTINUOUS
 10
31.9646688908
 20
97.0224539679
 11
31.9879749733
 21
97.1766841168
  0
LINE
  5
599
100
AcDbEntity
  8
0
100
AcDbLine
 62
7
  6
CONTINUOUS
 10
76.8051234127
 20
95.2903276129
 11
76.800356991
 21
95.2597147611
  0
LINE
  5
59A
100
AcDbEntity
  8
0
100
AcDbLine
 62
7
  6
CONTINUOUS
 10
76.6766343169
 20
95.2602201854
 11
76.6813991956
 21
95.2907868894
  0
LINE
  5
59B
100
AcDbEntity
  8
0
100
AcDbLine
 62
9
  6
CONTINUOUS
 10
72.5569547441
 20
89.6320043892
 11
72.5491000936
 21
89.5818305465
  0
LINE
  5
59C
100
AcDbEntity
  8
0
100
AcDbLine
 62
7
  6
CONTINUOUS
 10
76.906832365
 20
86.0906607413
 11
76.8840227253
 21
85.9471595666
  0
LINE
  5
59D
100
AcDbEntity
  8
0
100
AcDbLine
 62
7
  6
CONTINUOUS
 10
76.9013009028
 20
93.5141600552
 11
76.8958807843
 21
93.4801564965
  0
LINE
  5
59E
100
AcDbEntity
  8
0
100
AcDbLine
 62
9
  6
CONTINUOUS
 10
33.98209012
 20
96.8795369409
 11
34.0048884236
 21
97.0222175995
  0
LINE
  5
59F
100
AcDbEntity
  8
0
100
AcDbLine
 62
9
  6
CONTINUOUS
 10
31.9879749733
 20
97.1766841168
 11
32.0134571464
 21
97.3359772421
  0
LINE
  5
5A0
100
AcDbEntity
  8
0
100
AcDbLine
 62
9
  6
CONTINUOUS
 10
72.4116199374
 20
88.3200635079
 11
72.4073817871
 21
88.2941558958
  0
LINE
  5
5A1
100
AcDbEntity
  8
0
100
AcDbLine
 62
9
  6
CONTINUOUS
 10
74.5523876636
 20
88.0671981269
 11
74.5423134878
 21
88.0058715764
  0
LINE
  5
5A2
100
AcDbEntity
  8
0
100
AcDbLine
 62
7
  6
CONTINUOUS
 10
76.8821505251
 20
85.9363251941
 11
76.8982543735
 21
86.0338806989
  0
LINE
  5
5A3
100
AcDbEntity
  8
0
100
AcDbLine
 62
9
  6
CONTINUOUS
 10
67.9612410653
 20
94.6846452233
 11
67.9504273419
 21
94.6192227931
  0
LINE
  5
5A4
100
AcDbEntity
  8
0
100
AcDbLine
 62
9
  6
CONTINUOUS
 10
32.0134571464
 20
97.3359772421
 11
32.0413448408
 21
97.50082247
  0
LINE
  5
5A5
100
AcDbEntity
  8
0
100
AcDbLine
 62
9
  6
CONTINUOUS
 10
34.0048884236
 20
97.0222175995
 11
34.02984875
 21
97.1698915173
  0
LINE
  5
5A6
100
AcDbEntity
  8
0
100
AcDbLine
 62
7
  6
CONTINUOUS
 10
76.8100774829
 20
95.3194247732
 11
76.8051234127
 21
95.2903276129
  0
LINE
  5
5A7
100
AcDbEntity
  8
0
100
AcDbLine
 62
7
  6
CONTINUOUS
 10
76.6813991956
 20
95.2907868894
 11
76.6863503813
 21
95.3198335999
  0
LINE
  5
5A8
100
AcDbEntity
  8
0
100
AcDbLine
 62
9
  6
CONTINUOUS
 10
72.6485724472
 20
90.049002385
 11
72.6416559421
 21
90.008608551
  0
LINE
  5
5A9
100
AcDbEntity
  8
0
100
AcDbLine
 62
7
  6
CONTINUOUS
 10
76.8958807843
 20
93.4801564965
 11
76.8902778235
 21
93.4476802906
  0
LINE
  5
5AA
100
AcDbEntity
  8
0
100
AcDbLine
 62
9
  6
CONTINUOUS
 10
72.5658132201
 20
89.681623625
 11
72.5569547441
 21
89.6320043892
  0
LINE
  5
5AB
100
AcDbEntity
  8
0
100
AcDbLine
 62
9
  6
CONTINUOUS
 10
34.02984875
 20
97.1698915173
 11
34.057184871
 21
97.3229083402
  0
LINE
  5
5AC
100
AcDbEntity
  8
0
100
AcDbLine
 62
9
  6
CONTINUOUS
 10
72.4073817871
 20
88.2941558958
 11
72.4024621558
 21
88.2666275245
  0
LINE
  5
5AD
100
AcDbEntity
  8
0
100
AcDbLine
 62
9
  6
CONTINUOUS
 10
74.5423134878
 20
88.0058715764
 11
74.5312761135
 21
87.9446066562
  0
LINE
  5
5AE
100
AcDbEntity
  8
0
100
AcDbLine
 62
7
  6
CONTINUOUS
 10
76.864590982
 20
85.8398351043
 11
76.8821505251
 21
85.9363251941
  0
LINE
  5
5AF
100
AcDbEntity
  8
0
100
AcDbLine
 62
9
  6
CONTINUOUS
 10
71.58321639
 20
94.0159838648
 11
71.5931824238
 21
94.0703966499
  0
LINE
  5
5B0
100
AcDbEntity
  8
0
100
AcDbLine
 62
7
  6
CONTINUOUS
 10
76.8840227253
 20
85.9471595666
 11
76.8591129179
 21
85.8128757474
  0
LINE
  5
5B1
100
AcDbEntity
  8
0
100
AcDbLine
 62
7
  6
CONTINUOUS
 10
76.8152108013
 20
95.3469333018
 11
76.8100774829
 21
95.3194247732
  0
LINE
  5
5B2
100
AcDbEntity
  8
0
100
AcDbLine
 62
7
  6
CONTINUOUS
 10
76.6863503813
 20
95.3198335999
 11
76.6914791217
 21
95.3472872505
  0
LINE
  5
5B3
100
AcDbEntity
  8
0
100
AcDbLine
 62
7
  6
CONTINUOUS
 10
76.8902778235
 20
93.4476802906
 11
76.8844987854
 21
93.4167527578
  0
LINE
  5
5B4
100
AcDbEntity
  8
0
100
AcDbLine
 62
9
  6
CONTINUOUS
 10
34.057184871
 20
97.3229083402
 11
34.0871633605
 21
97.4817883111
  0
LINE
  5
5B5
100
AcDbEntity
  8
0
100
AcDbLine
 62
9
  6
CONTINUOUS
 10
72.4024621558
 20
88.2666275245
 11
72.3968547698
 21
88.2377580116
  0
LINE
  5
5B6
100
AcDbEntity
  8
0
100
AcDbLine
 62
9
  6
CONTINUOUS
 10
72.6416559421
 20
90.008608551
 11
72.6334291566
 21
89.9663955512
  0
LINE
  5
5B7
100
AcDbEntity
  8
0
100
AcDbLine
 62
9
  6
CONTINUOUS
 10
74.5312761135
 20
87.9446066562
 11
74.5188132809
 21
87.8812428639
  0
LINE
  5
5B8
100
AcDbEntity
  8
0
100
AcDbLine
 62
7
  6
CONTINUOUS
 10
76.8844987854
 20
93.4167527578
 11
76.8785501473
 21
93.3873988174
  0
LINE
  5
5B9
100
AcDbEntity
  8
0
100
AcDbLine
 62
9
  6
CONTINUOUS
 10
67.9744272909
 20
94.749643355
 11
67.9612410653
 21
94.6846452233
  0
LINE
  5
5BA
100
AcDbEntity
  8
0
100
AcDbLine
 62
7
  6
CONTINUOUS
 10
76.8451301128
 20
85.7444318269
 11
76.864590982
 21
85.8398351043
  0
LINE
  5
5BB
100
AcDbEntity
  8
0
100
AcDbLine
 62
7
  6
CONTINUOUS
 10
76.8205146132
 20
95.3727879311
 11
76.8152108013
 21
95.3469333018
  0
LINE
  5
5BC
100
AcDbEntity
  8
0
100
AcDbLine
 62
7
  6
CONTINUOUS
 10
76.6914791217
 20
95.3472872505
 11
76.6967761885
 21
95.3730822813
  0
LINE
  5
5BD
100
AcDbEntity
  8
0
100
AcDbLine
 62
9
  6
CONTINUOUS
 10
72.5761327287
 20
89.7309276823
 11
72.5658132201
 21
89.681623625
  0
LINE
  5
5BE
100
AcDbEntity
  8
0
100
AcDbLine
 62
9
  6
CONTINUOUS
 10
72.3968547698
 20
88.2377580116
 11
72.3905328429
 21
88.2079700305
  0
LINE
  5
5BF
100
AcDbEntity
  8
0
100
AcDbLine
 62
7
  6
CONTINUOUS
 10
76.8591129179
 20
85.8128757474
 11
76.8324084717
 21
85.6872112667
  0
LINE
  5
5C0
100
AcDbEntity
  8
0
100
AcDbLine
 62
9
  6
CONTINUOUS
 10
74.5188132809
 20
87.8812428639
 11
74.5046246417
 21
87.814860575
  0
LINE
  5
5C1
100
AcDbEntity
  8
0
100
AcDbLine
 62
9
  6
CONTINUOUS
 10
71.5716287508
 20
93.9623748277
 11
71.58321639
 21
94.0159838648
  0
LINE
  5
5C2
100
AcDbEntity
  8
0
100
AcDbLine
 62
9
  6
CONTINUOUS
 10
72.6334291566
 20
89.9663955512
 11
72.6239215803
 21
89.9226072798
  0
LINE
  5
5C3
100
AcDbEntity
  8
0
100
AcDbLine
 62
7
  6
CONTINUOUS
 10
76.8785501473
 20
93.3873988174
 11
76.8724499407
 21
93.3596998159
  0
LINE
  5
5C4
100
AcDbEntity
  8
0
100
AcDbLine
 62
7
  6
CONTINUOUS
 10
76.8243006992
 20
85.6519563689
 11
76.8451301128
 21
85.7444318269
  0
LINE
  5
5C5
100
AcDbEntity
  8
0
100
AcDbLine
 62
7
  6
CONTINUOUS
 10
76.825988484
 20
95.3969687168
 11
76.8205146132
 21
95.3727879311
  0
LINE
  5
5C6
100
AcDbEntity
  8
0
100
AcDbLine
 62
7
  6
CONTINUOUS
 10
76.6967761885
 20
95.3730822813
 11
76.702241402
 21
95.3972021971
  0
LINE
  5
5C7
100
AcDbEntity
  8
0
100
AcDbLine
 62
9
  6
CONTINUOUS
 10
72.3905328429
 20
88.2079700305
 11
72.38333255
 21
88.1768437611
  0
LINE
  5
5C8
100
AcDbEntity
  8
0
100
AcDbLine
 62
9
  6
CONTINUOUS
 10
74.5046246417
 20
87.814860575
 11
74.488354346
 21
87.7447062414
  0
LINE
  5
5C9
100
AcDbEntity
  8
0
100
AcDbLine
 62
9
  6
CONTINUOUS
 10
72.6239215803
 20
89.9226072798
 11
72.6129933544
 21
89.8769820002
  0
LINE
  5
5CA
100
AcDbEntity
  8
0
100
AcDbLine
 62
7
  6
CONTINUOUS
 10
76.8724499407
 20
93.3596998159
 11
76.8662171629
 21
93.3337273304
  0
LINE
  5
5CB
100
AcDbEntity
  8
0
100
AcDbLine
 62
9
  6
CONTINUOUS
 10
67.9899713351
 20
94.8141331484
 11
67.9744272909
 21
94.749643355
  0
LINE
  5
5CC
100
AcDbEntity
  8
0
100
AcDbLine
 62
9
  6
CONTINUOUS
 10
72.5882259079
 20
89.7806510619
 11
72.5761327287
 21
89.7309276823
  0
LINE
  5
5CD
100
AcDbEntity
  8
0
100
AcDbLine
 62
7
  6
CONTINUOUS
 10
76.8324084717
 20
85.6872112667
 11
76.8042498713
 21
85.5714069861
  0
LINE
  5
5CE
100
AcDbEntity
  8
0
100
AcDbLine
 62
7
  6
CONTINUOUS
 10
76.8027793537
 20
85.5655635309
 11
76.8243006992
 21
85.6519563689
  0
LINE
  5
5CF
100
AcDbEntity
  8
0
100
AcDbLine
 62
9
  6
CONTINUOUS
 10
71.558468619
 20
93.9095761752
 11
71.5716287508
 21
93.9623748277
  0
LINE
  5
5D0
100
AcDbEntity
  8
0
100
AcDbLine
 62
9
  6
CONTINUOUS
 10
72.38333255
 20
88.1768437611
 11
72.37500278
 21
88.1436480138
  0
LINE
  5
5D1
100
AcDbEntity
  8
0
100
AcDbLine
 62
7
  6
CONTINUOUS
 10
76.8316325502
 20
95.4194509569
 11
76.825988484
 21
95.3969687168
  0
LINE
  5
5D2
100
AcDbEntity
  8
0
100
AcDbLine
 62
7
  6
CONTINUOUS
 10
76.702241402
 20
95.3972021971
 11
76.7078747007
 21
95.4196234097
  0
LINE
  5
5D3
100
AcDbEntity
  8
0
100
AcDbLine
 62
9
  6
CONTINUOUS
 10
74.488354346
 20
87.7447062414
 11
74.4697275248
 21
87.6706398233
  0
LINE
  5
5D4
100
AcDbEntity
  8
0
100
AcDbLine
 62
9
  6
CONTINUOUS
 10
72.6129933544
 20
89.8769820002
 11
72.5882259079
 21
89.7806510619
  0
LINE
  5
5D5
100
AcDbEntity
  8
0
100
AcDbLine
 62
7
  6
CONTINUOUS
 10
76.8662171629
 20
93.3337273304
 11
76.8598590122
 21
93.3094990979
  0
LINE
  5
5D6
100
AcDbEntity
  8
0
100
AcDbLine
 62
9
  6
CONTINUOUS
 10
72.37500278
 20
88.1436480138
 11
72.3654177698
 21
88.1084079656
  0
LINE
  5
5D7
100
AcDbEntity
  8
0
100
AcDbLine
 62
9
  6
CONTINUOUS
 10
74.4697275248
 20
87.6706398233
 11
74.4483103068
 21
87.5920345854
  0
LINE
  5
5D8
100
AcDbEntity
  8
0
100
AcDbLine
 62
7
  6
CONTINUOUS
 10
76.7796889517
 20
85.4813333284
 11
76.8027793537
 21
85.5655635309
  0
LINE
  5
5D9
100
AcDbEntity
  8
0
100
AcDbLine
 62
7
  6
CONTINUOUS
 10
76.8042498713
 20
85.5714069861
 11
76.7733041048
 21
85.459580647
  0
LINE
  5
5DA
100
AcDbEntity
  8
0
100
AcDbLine
 62
9
  6
CONTINUOUS
 10
68.0077893172
 20
94.8778093996
 11
67.9899713351
 21
94.8141331484
  0
LINE
  5
5DB
100
AcDbEntity
  8
0
100
AcDbLine
 62
7
  6
CONTINUOUS
 10
76.8374367149
 20
95.4401702502
 11
76.8316325502
 21
95.4194509569
  0
LINE
  5
5DC
100
AcDbEntity
  8
0
100
AcDbLine
 62
7
  6
CONTINUOUS
 10
76.7078747007
 20
95.4196234097
 11
76.713667084
 21
95.4402871516
  0
LINE
  5
5DD
100
AcDbEntity
  8
0
100
AcDbLine
 62
9
  6
CONTINUOUS
 10
71.5437889526
 20
93.8576157455
 11
71.558468619
 21
93.9095761752
  0
LINE
  5
5DE
100
AcDbEntity
  8
0
100
AcDbLine
 62
7
  6
CONTINUOUS
 10
76.8598590122
 20
93.3094990979
 11
76.8533831682
 21
93.2870379886
  0
LINE
  5
5DF
100
AcDbEntity
  8
0
100
AcDbLine
 62
9
  6
CONTINUOUS
 10
72.3654177698
 20
88.1084079656
 11
72.3544069651
 21
88.0710773123
  0
LINE
  5
5E0
100
AcDbEntity
  8
0
100
AcDbLine
 62
9
  6
CONTINUOUS
 10
74.4483103068
 20
87.5920345854
 11
74.4238122383
 21
87.5089756971
  0
LINE
  5
5E1
100
AcDbEntity
  8
0
100
AcDbLine
 62
7
  6
CONTINUOUS
 10
76.7543883817
 20
85.3962868087
 11
76.7796889517
 21
85.4813333284
  0
LINE
  5
5E2
100
AcDbEntity
  8
0
100
AcDbLine
 62
7
  6
CONTINUOUS
 10
76.7733041048
 20
85.459580647
 11
76.7383203675
 21
85.3458562238
  0
LINE
  5
5E3
100
AcDbEntity
  8
0
100
AcDbLine
 62
7
  6
CONTINUOUS
 10
76.842115992
 20
95.4550234803
 11
76.8374367149
 21
95.4401702502
  0
LINE
  5
5E4
100
AcDbEntity
  8
0
100
AcDbLine
 62
7
  6
CONTINUOUS
 10
76.713667084
 20
95.4402871516
 11
76.7196099794
 21
95.459142462
  0
LINE
  5
5E5
100
AcDbEntity
  8
0
100
AcDbLine
 62
9
  6
CONTINUOUS
 10
71.5276090843
 20
93.8064251645
 11
71.5437889526
 21
93.8576157455
  0
LINE
  5
5E6
100
AcDbEntity
  8
0
100
AcDbLine
 62
7
  6
CONTINUOUS
 10
76.8533831682
 20
93.2870379886
 11
76.846807081
 21
93.2664011283
  0
LINE
  5
5E7
100
AcDbEntity
  8
0
100
AcDbLine
 62
9
  6
CONTINUOUS
 10
74.4238122383
 20
87.5089756971
 11
74.3958954582
 21
87.4214897234
  0
LINE
  5
5E8
100
AcDbEntity
  8
0
100
AcDbLine
 62
9
  6
CONTINUOUS
 10
68.0277733064
 20
94.9404088849
 11
68.0077893172
 21
94.8778093996
  0
LINE
  5
5E9
100
AcDbEntity
  8
0
100
AcDbLine
 62
9
  6
CONTINUOUS
 10
72.3544069651
 20
88.0710773123
 11
72.3418171306
 21
88.0316847712
  0
LINE
  5
5EA
100
AcDbEntity
  8
0
100
AcDbLine
 62
7
  6
CONTINUOUS
 10
76.7268462171
 20
85.3107556766
 11
76.7543883817
 21
85.3962868087
  0
LINE
  5
5EB
100
AcDbEntity
  8
0
100
AcDbLine
 62
7
  6
CONTINUOUS
 10
76.7383203675
 20
85.3458562238
 11
76.6993925228
 21
85.2314558799
  0
LINE
  5
5EC
100
AcDbEntity
  8
0
100
AcDbLine
 62
9
  6
CONTINUOUS
 10
74.3958954582
 20
87.4214897234
 11
74.3641317496
 21
87.3294428321
  0
LINE
  5
5ED
100
AcDbEntity
  8
0
100
AcDbLine
 62
9
  6
CONTINUOUS
 10
72.3418171306
 20
88.0316847712
 11
72.3274846363
 21
87.9902520447
  0
LINE
  5
5EE
100
AcDbEntity
  8
0
100
AcDbLine
 62
7
  6
CONTINUOUS
 10
76.6967423948
 20
85.2238071216
 11
76.7268462171
 21
85.3107556766
  0
LINE
  5
5EF
100
AcDbEntity
  8
0
100
AcDbLine
 62
9
  6
CONTINUOUS
 10
71.5099412896
 20
93.7559483278
 11
71.5276090843
 21
93.8064251645
  0
LINE
  5
5F0
100
AcDbEntity
  8
0
100
AcDbLine
 62
7
  6
CONTINUOUS
 10
76.846807081
 20
93.2664011283
 11
76.840148669
 21
93.2476361115
  0
LINE
  5
5F1
100
AcDbEntity
  8
0
100
AcDbLine
 62
7
  6
CONTINUOUS
 10
76.7196099794
 20
95.459142462
 11
76.7256999616
 21
95.4761593176
  0
LINE
  5
5F2
100
AcDbEntity
  8
0
100
AcDbLine
 62
9
  6
CONTINUOUS
 10
68.0498214134
 20
95.0017727423
 11
68.0277733064
 21
94.9404088849
  0
LINE
  5
5F3
100
AcDbEntity
  8
0
100
AcDbLine
 62
7
  6
CONTINUOUS
 10
76.6643017126
 20
85.1362557374
 11
76.6967423948
 21
85.2238071216
  0
LINE
  5
5F4
100
AcDbEntity
  8
0
100
AcDbLine
 62
7
  6
CONTINUOUS
 10
76.6993925228
 20
85.2314558799
 11
76.6559464413
 21
85.1149238166
  0
LINE
  5
5F5
100
AcDbEntity
  8
0
100
AcDbLine
 62
9
  6
CONTINUOUS
 10
74.3641317496
 20
87.3294428321
 11
74.3280321812
 21
87.2326917606
  0
LINE
  5
5F6
100
AcDbEntity
  8
0
100
AcDbLine
 62
9
  6
CONTINUOUS
 10
72.3274846363
 20
87.9902520447
 11
72.3111865173
 21
87.9467047552
  0
LINE
  5
5F7
100
AcDbEntity
  8
0
100
AcDbLine
 62
9
  6
CONTINUOUS
 10
71.4908055128
 20
93.70617902
 11
71.5099412896
 21
93.7559483278
  0
LINE
  5
5F8
100
AcDbEntity
  8
0
100
AcDbLine
 62
7
  6
CONTINUOUS
 10
76.6295349063
 20
85.0483461613
 11
76.6643017126
 21
85.1362557374
  0
LINE
  5
5F9
100
AcDbEntity
  8
0
100
AcDbLine
 62
7
  6
CONTINUOUS
 10
76.840148669
 20
93.2476361115
 11
76.8334165027
 21
93.2307610616
  0
LINE
  5
5FA
100
AcDbEntity
  8
0
100
AcDbLine
 62
9
  6
CONTINUOUS
 10
68.0738018379
 20
95.0617139211
 11
68.0498214134
 21
95.0017727423
  0
LINE
  5
5FB
100
AcDbEntity
  8
0
100
AcDbLine
 62
9
  6
CONTINUOUS
 10
74.3280321812
 20
87.2326917606
 11
74.2871769951
 21
87.131400962
  0
LINE
  5
5FC
100
AcDbEntity
  8
0
100
AcDbLine
 62
9
  6
CONTINUOUS
 10
72.3111865173
 20
87.9467047552
 11
72.2926430251
 21
87.9009139168
  0
LINE
  5
5FD
100
AcDbEntity
  8
0
100
AcDbLine
 62
7
  6
CONTINUOUS
 10
76.6559464413
 20
85.1149238166
 11
76.6087352977
 21
84.9984178944
  0
LINE
  5
5FE
100
AcDbEntity
  8
0
100
AcDbLine
 62
7
  6
CONTINUOUS
 10
76.7256999616
 20
95.4761593176
 11
76.7319354323
 21
95.4913084695
  0
LINE
  5
5FF
100
AcDbEntity
  8
0
100
AcDbLine
 62
9
  6
CONTINUOUS
 10
71.4702006679
 20
93.6570723927
 11
71.4908055128
 21
93.70617902
  0
LINE
  5
600
100
AcDbEntity
  8
0
100
AcDbLine
 62
7
  6
CONTINUOUS
 10
76.5927640984
 20
84.9608554525
 11
76.6295349063
 21
85.0483461613
  0
LINE
  5
601
100
AcDbEntity
  8
0
100
AcDbLine
 62
9
  6
CONTINUOUS
 10
74.2871769951
 20
87.131400962
 11
74.2407895746
 21
87.0250236329
  0
LINE
  5
602
100
AcDbEntity
  8
0
100
AcDbLine
 62
9
  6
CONTINUOUS
 10
72.2926430251
 20
87.9009139168
 11
72.2717489513
 21
87.8532169018
  0
LINE
  5
603
100
AcDbEntity
  8
0
100
AcDbLine
 62
7
  6
CONTINUOUS
 10
76.6087352977
 20
84.9984178944
 11
76.558279105
 21
84.8835781155
  0
LINE
  5
604
100
AcDbEntity
  8
0
100
AcDbLine
 62
9
  6
CONTINUOUS
 10
68.0995898915
 20
95.1201138382
 11
68.0738018379
 21
95.0617139211
  0
LINE
  5
605
100
AcDbEntity
  8
0
100
AcDbLine
 62
7
  6
CONTINUOUS
 10
76.5543243643
 20
84.8746939381
 11
76.5927640984
 21
84.9608554525
  0
LINE
  5
606
100
AcDbEntity
  8
0
100
AcDbLine
 62
7
  6
CONTINUOUS
 10
76.8334165027
 20
93.2307610616
 11
76.8266189049
 21
93.2157946984
  0
LINE
  5
607
100
AcDbEntity
  8
0
100
AcDbLine
 62
9
  6
CONTINUOUS
 10
71.4481672372
 20
93.6086927049
 11
71.4702006679
 21
93.6570723927
  0
LINE
  5
608
100
AcDbEntity
  8
0
100
AcDbLine
 62
9
  6
CONTINUOUS
 10
74.2407895746
 20
87.0250236329
 11
74.1893194764
 21
86.9158212989
  0
LINE
  5
609
100
AcDbEntity
  8
0
100
AcDbLine
 62
7
  6
CONTINUOUS
 10
76.5141875823
 20
84.7897064525
 11
76.5543243643
 21
84.8746939381
  0
LINE
  5
60A
100
AcDbEntity
  8
0
100
AcDbLine
 62
9
  6
CONTINUOUS
 10
72.2717489513
 20
87.8532169018
 11
72.2481791455
 21
87.8034660189
  0
LINE
  5
60B
100
AcDbEntity
  8
0
100
AcDbLine
 62
7
  6
CONTINUOUS
 10
76.558279105
 20
84.8835781155
 11
76.5047032196
 21
84.7705022567
  0
LINE
  5
60C
100
AcDbEntity
  8
0
100
AcDbLine
 62
7
  6
CONTINUOUS
 10
76.7319354323
 20
95.4913084695
 11
76.7383015077
 21
95.5045319631
  0
LINE
  5
60D
100
AcDbEntity
  8
0
100
AcDbLine
 62
9
  6
CONTINUOUS
 10
68.1270267511
 20
95.1768146277
 11
68.0995898915
 21
95.1201138382
  0
LINE
  5
60E
100
AcDbEntity
  8
0
100
AcDbLine
 62
9
  6
CONTINUOUS
 10
71.4247565143
 20
93.5611152127
 11
71.4481672372
 21
93.6086927049
  0
LINE
  5
60F
100
AcDbEntity
  8
0
100
AcDbLine
 62
7
  6
CONTINUOUS
 10
76.4724637346
 20
84.7061017924
 11
76.5141875823
 21
84.7897064525
  0
LINE
  5
610
100
AcDbEntity
  8
0
100
AcDbLine
 62
9
  6
CONTINUOUS
 10
74.1893194764
 20
86.9158212989
 11
74.1330913612
 21
86.8052972942
  0
LINE
  5
611
100
AcDbEntity
  8
0
100
AcDbLine
 62
7
  6
CONTINUOUS
 10
76.5047032196
 20
84.7705022567
 11
76.4483835913
 21
84.6600122835
  0
LINE
  5
612
100
AcDbEntity
  8
0
100
AcDbLine
 62
9
  6
CONTINUOUS
 10
72.2481791455
 20
87.8034660189
 11
72.2223326204
 21
87.7529854971
  0
LINE
  5
613
100
AcDbEntity
  8
0
100
AcDbLine
 62
7
  6
CONTINUOUS
 10
76.8266189049
 20
93.2157946984
 11
76.8197748024
 21
93.2027784217
  0
LINE
  5
614
100
AcDbEntity
  8
0
100
AcDbLine
 62
7
  6
CONTINUOUS
 10
76.4290735845
 20
84.6236983984
 11
76.4724637346
 21
84.7061017924
  0
LINE
  5
615
100
AcDbEntity
  8
0
100
AcDbLine
 62
9
  6
CONTINUOUS
 10
68.1560138482
 20
95.2318102635
 11
68.1270267511
 21
95.1768146277
  0
LINE
  5
616
100
AcDbEntity
  8
0
100
AcDbLine
 62
9
  6
CONTINUOUS
 10
71.3999379895
 20
93.5142533937
 11
71.4247565143
 21
93.5611152127
  0
LINE
  5
617
100
AcDbEntity
  8
0
100
AcDbLine
 62
7
  6
CONTINUOUS
 10
76.4483835913
 20
84.6600122835
 11
76.3890884525
 21
84.5515756326
  0
LINE
  5
618
100
AcDbEntity
  8
0
100
AcDbLine
 62
9
  6
CONTINUOUS
 10
74.1330913612
 20
86.8052972942
 11
74.0726219053
 21
86.6949874608
  0
LINE
  5
619
100
AcDbEntity
  8
0
100
AcDbLine
 62
9
  6
CONTINUOUS
 10
72.2223326204
 20
87.7529854971
 11
72.194704084
 21
87.7029464192
  0
LINE
  5
61A
100
AcDbEntity
  8
0
100
AcDbLine
 62
7
  6
CONTINUOUS
 10
76.3839881579
 20
84.5424064858
 11
76.4290735845
 21
84.6236983984
  0
LINE
  5
61B
100
AcDbEntity
  8
0
100
AcDbLine
 62
9
  6
CONTINUOUS
 10
71.3736982716
 20
93.4680781726
 11
71.3999379895
 21
93.5142533937
  0
LINE
  5
61C
100
AcDbEntity
  8
0
100
AcDbLine
 62
7
  6
CONTINUOUS
 10
76.7383015077
 20
95.5045319631
 11
76.7447852321
 21
95.5157860827
  0
LINE
  5
61D
100
AcDbEntity
  8
0
100
AcDbLine
 62
7
  6
CONTINUOUS
 10
76.3371666497
 20
84.4621595278
 11
76.3839881579
 21
84.5424064858
  0
LINE
  5
61E
100
AcDbEntity
  8
0
100
AcDbLine
 62
7
  6
CONTINUOUS
 10
76.3890884525
 20
84.5515756326
 11
76.3267100265
 21
84.444922524
  0
LINE
  5
61F
100
AcDbEntity
  8
0
100
AcDbLine
 62
9
  6
CONTINUOUS
 10
74.0726219053
 20
86.6949874608
 11
74.0088945962
 21
86.5868169401
  0
LINE
  5
620
100
AcDbEntity
  8
0
100
AcDbLine
 62
9
  6
CONTINUOUS
 10
72.194704084
 20
87.7029464192
 11
72.165322563
 21
87.6534704469
  0
LINE
  5
621
100
AcDbEntity
  8
0
100
AcDbLine
 62
9
  6
CONTINUOUS
 10
71.3459864951
 20
93.4225163618
 11
71.3736982716
 21
93.4680781726
  0
LINE
  5
622
100
AcDbEntity
  8
0
100
AcDbLine
 62
7
  6
CONTINUOUS
 10
76.2885433193
 20
84.382832809
 11
76.3371666497
 21
84.4621595278
  0
LINE
  5
623
100
AcDbEntity
  8
0
100
AcDbLine
 62
7
  6
CONTINUOUS
 10
76.8197748024
 20
93.2027784217
 11
76.8129027665
 21
93.1917412627
  0
LINE
  5
624
100
AcDbEntity
  8
0
100
AcDbLine
 62
7
  6
CONTINUOUS
 10
76.3267100265
 20
84.444922524
 11
76.2612522904
 21
84.3400865732
  0
LINE
  5
625
100
AcDbEntity
  8
0
100
AcDbLine
 62
9
  6
CONTINUOUS
 10
74.0088945962
 20
86.5868169401
 11
73.9417444576
 21
86.4805018179
  0
LINE
  5
626
100
AcDbEntity
  8
0
100
AcDbLine
 62
9
  6
CONTINUOUS
 10
72.165322563
 20
87.6534704469
 11
72.1344977978
 21
87.6050931332
  0
LINE
  5
627
100
AcDbEntity
  8
0
100
AcDbLine
 62
7
  6
CONTINUOUS
 10
76.2381639986
 20
84.3045111103
 11
76.2885433193
 21
84.382832809
  0
LINE
  5
628
100
AcDbEntity
  8
0
100
AcDbLine
 62
7
  6
CONTINUOUS
 10
76.2612522904
 20
84.3400865732
 11
76.1926256366
 21
84.2369228372
  0
LINE
  5
629
100
AcDbEntity
  8
0
100
AcDbLine
 62
7
  6
CONTINUOUS
 10
76.186032836
 20
84.2272091191
 11
76.2381639986
 21
84.3045111103
  0
LINE
  5
62A
100
AcDbEntity
  8
0
100
AcDbLine
 62
9
  6
CONTINUOUS
 10
73.9417444576
 20
86.4805018179
 11
73.8713794802
 21
86.3763946225
  0
LINE
  5
62B
100
AcDbEntity
  8
0
100
AcDbLine
 62
7
  6
CONTINUOUS
 10
76.1322091406
 20
84.1510124005
 11
76.186032836
 21
84.2272091191
  0
LINE
  5
62C
100
AcDbEntity
  8
0
100
AcDbLine
 62
7
  6
CONTINUOUS
 10
76.1926256366
 20
84.2369228372
 11
76.1210030433
 21
84.1356972108
  0
LINE
  5
62D
100
AcDbEntity
  8
0
100
AcDbLine
 62
7
  6
CONTINUOUS
 10
28.6465016693
 20
106.1583910277
 11
28.7629015389
 21
106.191178987
  0
LINE
  5
62E
100
AcDbEntity
  8
0
100
AcDbLine
 62
9
  6
CONTINUOUS
 10
36.2418448425
 20
101.8377419918
 11
36.2727947494
 21
101.8462625474
  0
LINE
  5
62F
100
AcDbEntity
  8
0
100
AcDbLine
 62
9
  6
CONTINUOUS
 10
35.8567498718
 20
103.9807601811
 11
35.9215820429
 21
103.9983766567
  0
LINE
  5
630
100
AcDbEntity
  8
0
100
AcDbLine
 62
9
  6
CONTINUOUS
 10
71.6723082436
 20
84.8033860261
 11
71.5521919112
 21
84.7709406151
  0
LINE
  5
631
100
AcDbEntity
  8
0
100
AcDbLine
 62
7
  6
CONTINUOUS
 10
73.8247826205
 20
82.5360767688
 11
73.7036482054
 21
82.5034913646
  0
LINE
  5
632
100
AcDbEntity
  8
0
100
AcDbLine
 62
9
  6
CONTINUOUS
 10
70.1829136152
 20
92.5907051337
 11
70.2460001724
 21
92.6075850262
  0
LINE
  5
633
100
AcDbEntity
  8
0
100
AcDbLine
 62
7
  6
CONTINUOUS
 10
73.7129940888
 20
82.5058679895
 11
73.804074523
 21
82.5302232907
  0
LINE
  5
634
100
AcDbEntity
  8
0
100
AcDbLine
 62
7
  6
CONTINUOUS
 10
28.8167384459
 20
106.205148088
 11
28.7144299141
 21
106.177957072
  0
LINE
  5
635
100
AcDbEntity
  8
0
100
AcDbLine
 62
9
  6
CONTINUOUS
 10
71.0919058244
 20
86.8449961331
 11
71.0371553788
 21
86.8306190703
  0
LINE
  5
636
100
AcDbEntity
  8
0
100
AcDbLine
 62
9
  6
CONTINUOUS
 10
36.2727947494
 20
101.8462625474
 11
36.3019468936
 21
101.8536524361
  0
LINE
  5
637
100
AcDbEntity
  8
0
100
AcDbLine
 62
9
  6
CONTINUOUS
 10
35.9215820429
 20
103.9983766567
 11
35.983135518
 21
104.0138833117
  0
LINE
  5
638
100
AcDbEntity
  8
0
100
AcDbLine
 62
7
  6
CONTINUOUS
 10
28.7629015389
 20
106.191178987
 11
28.8794867756
 21
106.2204686005
  0
LINE
  5
639
100
AcDbEntity
  8
0
100
AcDbLine
 62
9
  6
CONTINUOUS
 10
69.3331762883
 20
96.1246990273
 11
69.2721822079
 21
96.1094094468
  0
LINE
  5
63A
100
AcDbEntity
  8
0
100
AcDbLine
 62
7
  6
CONTINUOUS
 10
73.6221788888
 20
82.4836656968
 11
73.7129940888
 21
82.5058679895
  0
LINE
  5
63B
100
AcDbEntity
  8
0
100
AcDbLine
 62
7
  6
CONTINUOUS
 10
28.9191386786
 20
106.2296250596
 11
28.8167384459
 21
106.205148088
  0
LINE
  5
63C
100
AcDbEntity
  8
0
100
AcDbLine
 62
7
  6
CONTINUOUS
 10
73.7036482054
 20
82.5034913646
 11
73.5831632368
 21
82.4747725909
  0
LINE
  5
63D
100
AcDbEntity
  8
0
100
AcDbLine
 62
9
  6
CONTINUOUS
 10
71.5521919112
 20
84.7709406151
 11
71.4311332063
 21
84.742238122
  0
LINE
  5
63E
100
AcDbEntity
  8
0
100
AcDbLine
 62
9
  6
CONTINUOUS
 10
35.983135518
 20
104.0138833117
 11
36.0415659546
 21
104.0275137579
  0
LINE
  5
63F
100
AcDbEntity
  8
0
100
AcDbLine
 62
9
  6
CONTINUOUS
 10
36.3019468936
 20
101.8536524361
 11
36.3294946945
 21
101.860073287
  0
LINE
  5
640
100
AcDbEntity
  8
0
100
AcDbLine
 62
9
  6
CONTINUOUS
 10
71.0371553788
 20
86.8306190703
 11
70.9822655089
 21
86.8180020796
  0
LINE
  5
641
100
AcDbEntity
  8
0
100
AcDbLine
 62
9
  6
CONTINUOUS
 10
70.118645576
 20
92.5759484401
 11
70.1829136152
 21
92.5907051337
  0
LINE
  5
642
100
AcDbEntity
  8
0
100
AcDbLine
 62
7
  6
CONTINUOUS
 10
73.5319461109
 20
82.4636476291
 11
73.6221788888
 21
82.4836656968
  0
LINE
  5
643
100
AcDbEntity
  8
0
100
AcDbLine
 62
7
  6
CONTINUOUS
 10
28.8794867756
 20
106.2204686005
 11
28.9959146272
 21
106.2462347703
  0
LINE
  5
644
100
AcDbEntity
  8
0
100
AcDbLine
 62
9
  6
CONTINUOUS
 10
36.0415659546
 20
104.0275137579
 11
36.0970307932
 21
104.0394746715
  0
LINE
  5
645
100
AcDbEntity
  8
0
100
AcDbLine
 62
9
  6
CONTINUOUS
 10
36.3294946945
 20
101.860073287
 11
36.3554826027
 21
101.8656314426
  0
LINE
  5
646
100
AcDbEntity
  8
0
100
AcDbLine
 62
9
  6
CONTINUOUS
 10
69.3957441229
 20
96.1380673168
 11
69.3331762883
 21
96.1246990273
  0
LINE
  5
647
100
AcDbEntity
  8
0
100
AcDbLine
 62
7
  6
CONTINUOUS
 10
29.0216585272
 20
106.2514482069
 11
28.9191386786
 21
106.2296250596
  0
LINE
  5
648
100
AcDbEntity
  8
0
100
AcDbLine
 62
7
  6
CONTINUOUS
 10
73.5831632368
 20
82.4747725909
 11
73.4636452404
 21
82.4498803876
  0
LINE
  5
649
100
AcDbEntity
  8
0
100
AcDbLine
 62
9
  6
CONTINUOUS
 10
71.4311332063
 20
84.742238122
 11
71.3103752503
 21
84.7175234802
  0
LINE
  5
64A
100
AcDbEntity
  8
0
100
AcDbLine
 62
7
  6
CONTINUOUS
 10
73.4430425001
 20
82.4459558948
 11
73.5319461109
 21
82.4636476291
  0
LINE
  5
64B
100
AcDbEntity
  8
0
100
AcDbLine
 62
9
  6
CONTINUOUS
 10
36.0970307932
 20
104.0394746715
 11
36.1497655366
 21
104.0499710217
  0
LINE
  5
64C
100
AcDbEntity
  8
0
100
AcDbLine
 62
9
  6
CONTINUOUS
 10
70.9822655089
 20
86.8180020796
 11
70.9273062526
 21
86.8071350069
  0
LINE
  5
64D
100
AcDbEntity
  8
0
100
AcDbLine
 62
9
  6
CONTINUOUS
 10
36.3554826027
 20
101.8656314426
 11
36.3799885396
 21
101.8704298854
  0
LINE
  5
64E
100
AcDbEntity
  8
0
100
AcDbLine
 62
9
  6
CONTINUOUS
 10
70.0531876283
 20
92.5633768051
 11
70.118645576
 21
92.5759484401
  0
LINE
  5
64F
100
AcDbEntity
  8
0
100
AcDbLine
 62
7
  6
CONTINUOUS
 10
28.9959146272
 20
106.2462347703
 11
29.113370877
 21
106.2686803768
  0
LINE
  5
650
100
AcDbEntity
  8
0
100
AcDbLine
 62
7
  6
CONTINUOUS
 10
29.1250655392
 20
106.2707288194
 11
29.0216585272
 21
106.2514482069
  0
LINE
  5
651
100
AcDbEntity
  8
0
100
AcDbLine
 62
9
  6
CONTINUOUS
 10
36.1497655366
 20
104.0499710217
 11
36.2000010613
 21
104.0591793026
  0
LINE
  5
652
100
AcDbEntity
  8
0
100
AcDbLine
 62
9
  6
CONTINUOUS
 10
36.3799885396
 20
101.8704298854
 11
36.4031087276
 21
101.874564609
  0
LINE
  5
653
100
AcDbEntity
  8
0
100
AcDbLine
 62
7
  6
CONTINUOUS
 10
73.4636452404
 20
82.4498803876
 11
73.3468488653
 21
82.429055034
  0
LINE
  5
654
100
AcDbEntity
  8
0
100
AcDbLine
 62
9
  6
CONTINUOUS
 10
69.4595370462
 20
96.1493383204
 11
69.3957441229
 21
96.1380673168
  0
LINE
  5
655
100
AcDbEntity
  8
0
100
AcDbLine
 62
7
  6
CONTINUOUS
 10
73.3547578968
 20
82.4304124836
 11
73.4430425001
 21
82.4459558948
  0
LINE
  5
656
100
AcDbEntity
  8
0
100
AcDbLine
 62
9
  6
CONTINUOUS
 10
71.3103752503
 20
84.7175234802
 11
71.1904890489
 21
84.6968125343
  0
LINE
  5
657
100
AcDbEntity
  8
0
100
AcDbLine
 62
9
  6
CONTINUOUS
 10
36.2000010613
 20
104.0591793026
 11
36.247957007
 21
104.0672511855
  0
LINE
  5
658
100
AcDbEntity
  8
0
100
AcDbLine
 62
9
  6
CONTINUOUS
 10
70.9273062526
 20
86.8071350069
 11
70.8730632703
 21
86.7981283435
  0
LINE
  5
659
100
AcDbEntity
  8
0
100
AcDbLine
 62
9
  6
CONTINUOUS
 10
36.4031087276
 20
101.874564609
 11
36.4249282191
 21
101.8781182033
  0
LINE
  5
65A
100
AcDbEntity
  8
0
100
AcDbLine
 62
7
  6
CONTINUOUS
 10
29.113370877
 20
106.2686803768
 11
29.2327777955
 21
106.2880191034
  0
LINE
  5
65B
100
AcDbEntity
  8
0
100
AcDbLine
 62
9
  6
CONTINUOUS
 10
69.9871267991
 20
92.5531698427
 11
70.0531876283
 21
92.5633768051
  0
LINE
  5
65C
100
AcDbEntity
  8
0
100
AcDbLine
 62
7
  6
CONTINUOUS
 10
73.267187143
 20
82.4169373921
 11
73.3547578968
 21
82.4304124836
  0
LINE
  5
65D
100
AcDbEntity
  8
0
100
AcDbLine
 62
9
  6
CONTINUOUS
 10
36.247957007
 20
104.0672511855
 11
36.2939023724
 21
104.0743237967
  0
LINE
  5
65E
100
AcDbEntity
  8
0
100
AcDbLine
 62
7
  6
CONTINUOUS
 10
76.7716740071
 20
95.5405632145
 11
76.7785680647
 21
95.5416021165
  0
LINE
  5
65F
100
AcDbEntity
  8
0
100
AcDbLine
 62
9
  6
CONTINUOUS
 10
36.4249282191
 20
101.8781182033
 11
36.4455541533
 21
101.8811661455
  0
LINE
  5
660
100
AcDbEntity
  8
0
100
AcDbLine
 62
7
  6
CONTINUOUS
 10
73.3468488653
 20
82.429055034
 11
73.2297734953
 21
82.4118292705
  0
LINE
  5
661
100
AcDbEntity
  8
0
100
AcDbLine
 62
7
  6
CONTINUOUS
 10
76.7853841972
 20
93.167605605
 11
76.7785680647
 21
93.1666021165
  0
LINE
  5
662
100
AcDbEntity
  8
0
100
AcDbLine
 62
9
  6
CONTINUOUS
 10
71.1904890489
 20
84.6968125343
 11
71.0732387494
 21
84.6801979315
  0
LINE
  5
663
100
AcDbEntity
  8
0
100
AcDbLine
 62
9
  6
CONTINUOUS
 10
36.2939023724
 20
104.0743237967
 11
36.3379543958
 21
104.0805051152
  0
LINE
  5
664
100
AcDbEntity
  8
0
100
AcDbLine
 62
9
  6
CONTINUOUS
 10
69.5243344913
 20
96.1583944228
 11
69.4595370462
 21
96.1493383204
  0
LINE
  5
665
100
AcDbEntity
  8
0
100
AcDbLine
 62
9
  6
CONTINUOUS
 10
70.8730632703
 20
86.7981283435
 11
70.8201105844
 21
86.7909663482
  0
LINE
  5
666
100
AcDbEntity
  8
0
100
AcDbLine
 62
7
  6
CONTINUOUS
 10
29.3368716107
 20
106.3020565291
 11
29.2299314697
 21
106.2876022669
  0
LINE
  5
667
100
AcDbEntity
  8
0
100
AcDbLine
 62
9
  6
CONTINUOUS
 10
36.4455541533
 20
101.8811661455
 11
36.4651000713
 21
101.8837745138
  0
LINE
  5
668
100
AcDbEntity
  8
0
100
AcDbLine
 62
7
  6
CONTINUOUS
 10
29.2327777955
 20
106.2880191034
 11
29.3545831681
 21
106.3041934436
  0
LINE
  5
669
100
AcDbEntity
  8
0
100
AcDbLine
 62
7
  6
CONTINUOUS
 10
73.1786619792
 20
82.4053787086
 11
73.267187143
 21
82.4169373921
  0
LINE
  5
66A
100
AcDbEntity
  8
0
100
AcDbLine
 62
9
  6
CONTINUOUS
 10
36.3379543958
 20
104.0805051152
 11
36.3803160894
 21
104.0859044857
  0
LINE
  5
66B
100
AcDbEntity
  8
0
100
AcDbLine
 62
9
  6
CONTINUOUS
 10
36.4651000713
 20
101.8837745138
 11
36.4836876249
 21
101.8860018298
  0
LINE
  5
66C
100
AcDbEntity
  8
0
100
AcDbLine
 62
7
  6
CONTINUOUS
 10
73.2297734953
 20
82.4118292705
 11
73.1113998698
 21
82.3978470887
  0
LINE
  5
66D
100
AcDbEntity
  8
0
100
AcDbLine
 62
9
  6
CONTINUOUS
 10
69.9211138507
 20
92.5454285669
 11
69.9871267991
 21
92.5531698427
  0
LINE
  5
66E
100
AcDbEntity
  8
0
100
AcDbLine
 62
9
  6
CONTINUOUS
 10
36.3803160894
 20
104.0859044857
 11
36.4210789359
 21
104.0905805771
  0
LINE
  5
66F
100
AcDbEntity
  8
0
100
AcDbLine
 62
9
  6
CONTINUOUS
 10
71.0732387494
 20
84.6801979315
 11
70.9604565048
 21
84.6675007107
  0
LINE
  5
670
100
AcDbEntity
  8
0
100
AcDbLine
 62
7
  6
CONTINUOUS
 10
29.4476737855
 20
106.3142250298
 11
29.3368716107
 21
106.3020565291
  0
LINE
  5
671
100
AcDbEntity
  8
0
100
AcDbLine
 62
7
  6
CONTINUOUS
 10
73.0881529829
 20
82.3955627153
 11
73.1786619792
 21
82.4053787086
  0
LINE
  5
672
100
AcDbEntity
  8
0
100
AcDbLine
 62
9
  6
CONTINUOUS
 10
36.4836876249
 20
101.8860018298
 11
36.501447595
 21
101.8878999359
  0
LINE
  5
673
100
AcDbEntity
  8
0
100
AcDbLine
 62
9
  6
CONTINUOUS
 10
70.8201105844
 20
86.7909663482
 11
70.7692202023
 21
86.7855376057
  0
LINE
  5
674
100
AcDbEntity
  8
0
100
AcDbLine
 62
7
  6
CONTINUOUS
 10
29.3545831681
 20
106.3041934436
 11
29.4804519751
 21
106.3173136807
  0
LINE
  5
675
100
AcDbEntity
  8
0
100
AcDbLine
 62
9
  6
CONTINUOUS
 10
69.5898162615
 20
96.1651356328
 11
69.5243344913
 21
96.1583944228
  0
LINE
  5
676
100
AcDbEntity
  8
0
100
AcDbLine
 62
9
  6
CONTINUOUS
 10
36.4210789359
 20
104.0905805771
 11
36.4604020248
 21
104.0945851882
  0
LINE
  5
677
100
AcDbEntity
  8
0
100
AcDbLine
 62
9
  6
CONTINUOUS
 10
36.501447595
 20
101.8878999359
 11
36.5183839809
 21
101.8895003365
  0
LINE
  5
678
100
AcDbEntity
  8
0
100
AcDbLine
 62
9
  6
CONTINUOUS
 10
36.4604020248
 20
104.0945851882
 11
36.4981366662
 21
104.0979991004
  0
LINE
  5
679
100
AcDbEntity
  8
0
100
AcDbLine
 62
7
  6
CONTINUOUS
 10
73.1113998698
 20
82.3978470887
 11
72.9875385711
 21
82.3870150136
  0
LINE
  5
67A
100
AcDbEntity
  8
0
100
AcDbLine
 62
7
  6
CONTINUOUS
 10
72.9938384848
 20
82.3874748268
 11
73.0881529829
 21
82.3955627153
  0
LINE
  5
67B
100
AcDbEntity
  8
0
100
AcDbLine
 62
7
  6
CONTINUOUS
 10
29.5593921562
 20
106.3238068059
 11
29.4476737855
 21
106.3142250298
  0
LINE
  5
67C
100
AcDbEntity
  8
0
100
AcDbLine
 62
9
  6
CONTINUOUS
 10
70.9604565048
 20
84.6675007107
 11
70.8535596693
 21
84.6584014871
  0
LINE
  5
67D
100
AcDbEntity
  8
0
100
AcDbLine
 62
9
  6
CONTINUOUS
 10
36.5183839809
 20
101.8895003365
 11
36.5345438661
 21
101.890834594
  0
LINE
  5
67E
100
AcDbEntity
  8
0
100
AcDbLine
 62
9
  6
CONTINUOUS
 10
36.4981366662
 20
104.0979991004
 11
36.5342951149
 21
104.1009202046
  0
LINE
  5
67F
100
AcDbEntity
  8
0
100
AcDbLine
 62
9
  6
CONTINUOUS
 10
69.8550275079
 20
92.5401120971
 11
69.9211138507
 21
92.5454285669
  0
LINE
  5
680
100
AcDbEntity
  8
0
100
AcDbLine
 62
9
  6
CONTINUOUS
 10
70.7692202023
 20
86.7855376057
 11
70.7210881856
 21
86.7817011881
  0
LINE
  5
681
100
AcDbEntity
  8
0
100
AcDbLine
 62
7
  6
CONTINUOUS
 10
29.4804519751
 20
106.3173136807
 11
29.6076549026
 21
106.327090129
  0
LINE
  5
682
100
AcDbEntity
  8
0
100
AcDbLine
 62
9
  6
CONTINUOUS
 10
36.5345438661
 20
101.890834594
 11
36.5499952494
 21
101.8919339022
  0
LINE
  5
683
100
AcDbEntity
  8
0
100
AcDbLine
 62
9
  6
CONTINUOUS
 10
36.5342951149
 20
104.1009202046
 11
36.5689538248
 21
104.1033375061
  0
LINE
  5
684
100
AcDbEntity
  8
0
100
AcDbLine
 62
9
  6
CONTINUOUS
 10
69.6556013189
 20
96.1694960936
 11
69.5898162615
 21
96.1651356328
  0
LINE
  5
685
100
AcDbEntity
  8
0
100
AcDbLine
 62
7
  6
CONTINUOUS
 10
72.8920002927
 20
82.3809877205
 11
72.9938384848
 21
82.3874748268
  0
LINE
  5
686
100
AcDbEntity
  8
0
100
AcDbLine
 62
9
  6
CONTINUOUS
 10
36.5499952494
 20
101.8919339022
 11
36.5648642841
 21
101.8928289854
  0
LINE
  5
687
100
AcDbEntity
  8
0
100
AcDbLine
 62
7
  6
CONTINUOUS
 10
29.6698210044
 20
106.3303661652
 11
29.5593921562
 21
106.3238068059
  0
LINE
  5
688
100
AcDbEntity
  8
0
100
AcDbLine
 62
9
  6
CONTINUOUS
 10
36.5689538248
 20
104.1033375061
 11
36.602186624
 21
104.1053082373
  0
LINE
  5
689
100
AcDbEntity
  8
0
100
AcDbLine
 62
9
  6
CONTINUOUS
 10
70.8535596693
 20
84.6584014871
 11
70.7546889261
 21
84.6526375811
  0
LINE
  5
68A
100
AcDbEntity
  8
0
100
AcDbLine
 62
7
  6
CONTINUOUS
 10
72.9875385711
 20
82.3870150136
 11
72.8517154642
 21
82.3791620918
  0
LINE
  5
68B
100
AcDbEntity
  8
0
100
AcDbLine
 62
9
  6
CONTINUOUS
 10
70.7210881856
 20
86.7817011881
 11
70.675105175
 21
86.7793385155
  0
LINE
  5
68C
100
AcDbEntity
  8
0
100
AcDbLine
 62
9
  6
CONTINUOUS
 10
36.5648642841
 20
101.8928289854
 11
36.5792525611
 21
101.8935409745
  0
LINE
  5
68D
100
AcDbEntity
  8
0
100
AcDbLine
 62
9
  6
CONTINUOUS
 10
36.602186624
 20
104.1053082373
 11
36.6332179109
 21
104.1067433683
  0
LINE
  5
68E
100
AcDbEntity
  8
0
100
AcDbLine
 62
7
  6
CONTINUOUS
 10
29.6076549026
 20
106.327090129
 11
29.7329787955
 21
106.3329038436
  0
LINE
  5
68F
100
AcDbEntity
  8
0
100
AcDbLine
 62
7
  6
CONTINUOUS
 10
72.7872985519
 20
82.3762658898
 11
72.8920002927
 21
82.3809877205
  0
LINE
  5
690
100
AcDbEntity
  8
0
100
AcDbLine
 62
9
  6
CONTINUOUS
 10
69.788957055
 20
92.5372161707
 11
69.8550275079
 21
92.5401120971
  0
LINE
  5
691
100
AcDbEntity
  8
0
100
AcDbLine
 62
9
  6
CONTINUOUS
 10
36.5792525611
 20
101.8935409745
 11
36.5931156171
 21
101.8940874068
  0
LINE
  5
692
100
AcDbEntity
  8
0
100
AcDbLine
 62
7
  6
CONTINUOUS
 10
29.7785277948
 20
106.3344407183
 11
29.6698210044
 21
106.3303661652
  0
LINE
  5
693
100
AcDbEntity
  8
0
100
AcDbLine
 62
7
  6
CONTINUOUS
 10
72.8517154642
 20
82.3791620918
 11
72.7097654402
 21
82.3741647502
  0
LINE
  5
694
100
AcDbEntity
  8
0
100
AcDbLine
 62
9
  6
CONTINUOUS
 10
70.7546889261
 20
84.6526375811
 11
70.6636446648
 21
84.649749441
  0
LINE
  5
695
100
AcDbEntity
  8
0
100
AcDbLine
 62
9
  6
CONTINUOUS
 10
36.5931156171
 20
101.8940874068
 11
36.6055097693
 21
101.8944609052
  0
LINE
  5
696
100
AcDbEntity
  8
0
100
AcDbLine
 62
9
  6
CONTINUOUS
 10
36.6332179109
 20
104.1067433683
 11
36.6597518829
 21
104.1075385931
  0
LINE
  5
697
100
AcDbEntity
  8
0
100
AcDbLine
 62
9
  6
CONTINUOUS
 10
69.7216102895
 20
96.1714613328
 11
69.6556013189
 21
96.1694960936
  0
LINE
  5
698
100
AcDbEntity
  8
0
100
AcDbLine
 62
7
  6
CONTINUOUS
 10
72.6847885872
 20
82.373682936
 11
72.7872985519
 21
82.3762658898
  0
LINE
  5
699
100
AcDbEntity
  8
0
100
AcDbLine
 62
9
  6
CONTINUOUS
 10
70.675105175
 20
86.7793385155
 11
70.630842653
 21
86.778233778
  0
LINE
  5
69A
100
AcDbEntity
  8
0
100
AcDbLine
 62
7
  6
CONTINUOUS
 10
29.7329787955
 20
106.3329038436
 11
29.8595401571
 21
106.3358528854
  0
LINE
  5
69B
100
AcDbEntity
  8
0
100
AcDbLine
 62
9
  6
CONTINUOUS
 10
36.6055097693
 20
101.8944609052
 11
36.6162771091
 21
101.8946732559
  0
LINE
  5
69C
100
AcDbEntity
  8
0
100
AcDbLine
 62
9
  6
CONTINUOUS
 10
36.6597518829
 20
104.1075385931
 11
36.6825577617
 21
104.1079570288
  0
LINE
  5
69D
100
AcDbEntity
  8
0
100
AcDbLine
 62
7
  6
CONTINUOUS
 10
29.8825089581
 20
106.3361007377
 11
29.7785277948
 21
106.3344407183
  0
LINE
  5
69E
100
AcDbEntity
  8
0
100
AcDbLine
 62
7
  6
CONTINUOUS
 10
72.7097654402
 20
82.3741647502
 11
72.5668103436
 21
82.3723139159
  0
LINE
  5
69F
100
AcDbEntity
  8
0
100
AcDbLine
 62
9
  6
CONTINUOUS
 10
70.6636446648
 20
84.649749441
 11
70.5870133117
 21
84.6487803226
  0
LINE
  5
6A0
100
AcDbEntity
  8
0
100
AcDbLine
 62
9
  6
CONTINUOUS
 10
36.6162771091
 20
101.8946732559
 11
36.6286205379
 21
101.8947971821
  0
LINE
  5
6A1
100
AcDbEntity
  8
0
100
AcDbLine
 62
9
  6
CONTINUOUS
 10
69.7769533151
 20
86.7731439379
 11
69.5646499776
 21
86.7711210097
  0
LINE
  5
6A2
100
AcDbEntity
  8
0
100
AcDbLine
 62
9
  6
CONTINUOUS
 10
70.630842653
 20
86.778233778
 11
70.583087949
 21
86.7777811227
  0
LINE
  5
6A3
100
AcDbEntity
  8
0
100
AcDbLine
 62
9
  6
CONTINUOUS
 10
36.6825577617
 20
104.1079570288
 11
36.7039959147
 21
104.108148631
  0
LINE
  5
6A4
100
AcDbEntity
  8
0
100
AcDbLine
 62
9
  6
CONTINUOUS
 10
69.7229186465
 20
92.5367282683
 11
69.788957055
 21
92.5372161707
  0
LINE
  5
6A5
100
AcDbEntity
  8
0
100
AcDbLine
 62
9
  6
CONTINUOUS
 10
69.5646499776
 20
86.7711210097
 11
69.4502001502
 21
86.7702964452
  0
LINE
  5
6A6
100
AcDbEntity
  8
0
100
AcDbLine
 62
9
  6
CONTINUOUS
 10
70.4714513146
 20
86.7773822797
 11
69.7769533151
 21
86.7731439379
  0
LINE
  5
6A7
100
AcDbEntity
  8
0
100
AcDbLine
 62
7
  6
CONTINUOUS
 10
30.0847527679
 20
82.3721725954
 11
30.2875856521
 21
82.3731313429
  0
LINE
  5
6A8
100
AcDbEntity
  8
0
100
AcDbLine
 62
7
  6
CONTINUOUS
 10
29.8595401571
 20
106.3358528854
 11
29.9885757661
 21
106.3364605882
  0
LINE
  5
6A9
100
AcDbEntity
  8
0
100
AcDbLine
 62
9
  6
CONTINUOUS
 10
70.583087949
 20
86.7777811227
 11
70.4714513146
 21
86.7773822797
  0
LINE
  5
6AA
100
AcDbEntity
  8
0
100
AcDbLine
 62
9
  6
CONTINUOUS
 10
70.5870133117
 20
84.6487803226
 11
70.5244903283
 21
84.6485809312
  0
LINE
  5
6AB
100
AcDbEntity
  8
0
100
AcDbLine
 62
9
  6
CONTINUOUS
 10
36.6286205379
 20
101.8947971821
 11
36.6813833499
 21
101.8949663874
  0
LINE
  5
6AC
100
AcDbEntity
  8
0
100
AcDbLine
 62
9
  6
CONTINUOUS
 10
36.920156161
 20
84.600479563
 11
36.7649258125
 21
84.6000092915
  0
LINE
  5
6AD
100
AcDbEntity
  8
0
100
AcDbLine
 62
7
  6
CONTINUOUS
 10
72.3717941026
 20
106.335918197
 11
71.9936587684
 21
106.3348507001
  0
LINE
  5
6AE
100
AcDbEntity
  8
0
100
AcDbLine
 62
7
  6
CONTINUOUS
 10
30.5189438505
 20
82.3735305492
 11
30.22274838
 21
82.3728854532
  0
LINE
  5
6AF
100
AcDbEntity
  8
0
100
AcDbLine
 62
9
  6
CONTINUOUS
 10
37.4023192572
 20
101.8956359808
 11
38.3254276896
 21
101.8976419653
  0
LINE
  5
6B0
100
AcDbEntity
  8
0
100
AcDbLine
 62
7
  6
CONTINUOUS
 10
72.5795666687
 20
82.3724842125
 11
72.4185151793
 21
82.3721951356
  0
LINE
  5
6B1
100
AcDbEntity
  8
0
100
AcDbLine
 62
9
  6
CONTINUOUS
 10
69.0775403456
 20
101.9375948799
 11
69.3304310529
 21
101.9380250873
  0
LINE
  5
6B2
100
AcDbEntity
  8
0
100
AcDbLine
 62
9
  6
CONTINUOUS
 10
36.7039959147
 20
104.108148631
 11
36.7467389615
 21
104.1082286097
  0
LINE
  5
6B3
100
AcDbEntity
  8
0
100
AcDbLine
 62
9
  6
CONTINUOUS
 10
38.8474236738
 20
84.6035700493
 11
36.920156161
 21
84.600479563
  0
LINE
  5
6B4
100
AcDbEntity
  8
0
100
AcDbLine
 62
9
  6
CONTINUOUS
 10
69.363995065
 20
84.6479710334
 11
38.8474236738
 21
84.6035700493
  0
LINE
  5
6B5
100
AcDbEntity
  8
0
100
AcDbLine
 62
9
  6
CONTINUOUS
 10
50.6538615118
 20
101.9134127932
 11
64.2402356777
 21
101.9319033711
  0
LINE
  5
6B6
100
AcDbEntity
  8
0
100
AcDbLine
 62
7
  6
CONTINUOUS
 10
72.3643859194
 20
106.3358879943
 11
72.5165648731
 21
106.3360990311
  0
LINE
  5
6B7
100
AcDbEntity
  8
0
100
AcDbLine
 62
9
  6
CONTINUOUS
 10
44.3655801657
 20
101.9051382276
 11
50.6538615118
 21
101.9134127932
  0
LINE
  5
6B8
100
AcDbEntity
  8
0
100
AcDbLine
 62
9
  6
CONTINUOUS
 10
37.0830505111
 20
101.8952393754
 11
37.4023192572
 21
101.8956359808
  0
LINE
  5
6B9
100
AcDbEntity
  8
0
100
AcDbLine
 62
9
  6
CONTINUOUS
 10
38.3254276896
 20
101.8976419653
 11
44.3655801657
 21
101.9051382276
  0
LINE
  5
6BA
100
AcDbEntity
  8
0
100
AcDbLine
 62
9
  6
CONTINUOUS
 10
64.2402356777
 20
101.9319033711
 11
67.4373192907
 21
101.935907673
  0
LINE
  5
6BB
100
AcDbEntity
  8
0
100
AcDbLine
 62
9
  6
CONTINUOUS
 10
67.4373192907
 20
101.935907673
 11
68.1772432844
 21
101.9367360259
  0
LINE
  5
6BC
100
AcDbEntity
  8
0
100
AcDbLine
 62
9
  6
CONTINUOUS
 10
68.1772432844
 20
101.9367360259
 11
68.3434222789
 21
101.9369115266
  0
LINE
  5
6BD
100
AcDbEntity
  8
0
100
AcDbLine
 62
9
  6
CONTINUOUS
 10
69.4502001502
 20
86.7702964452
 11
69.3315216997
 21
86.7701798577
  0
LINE
  5
6BE
100
AcDbEntity
  8
0
100
AcDbLine
 62
9
  6
CONTINUOUS
 10
36.9401496559
 20
101.8951156116
 11
37.0830505111
 21
101.8952393754
  0
LINE
  5
6BF
100
AcDbEntity
  8
0
100
AcDbLine
 62
9
  6
CONTINUOUS
 10
68.3434222789
 20
101.9369115266
 11
69.0775403456
 21
101.9375948799
  0
LINE
  5
6C0
100
AcDbEntity
  8
0
100
AcDbLine
 62
9
  6
CONTINUOUS
 10
36.721510031
 20
101.8949611184
 11
36.9401496559
 21
101.8951156116
  0
LINE
  5
6C1
100
AcDbEntity
  8
0
100
AcDbLine
 62
7
  6
CONTINUOUS
 10
29.9018608226
 20
82.3719604797
 11
30.0860247757
 21
82.37206284
  0
LINE
  5
6C2
100
AcDbEntity
  8
0
100
AcDbLine
 62
9
  6
CONTINUOUS
 10
70.4685650945
 20
84.6486745497
 11
69.363995065
 21
84.6479710334
  0
LINE
  5
6C3
100
AcDbEntity
  8
0
100
AcDbLine
 62
7
  6
CONTINUOUS
 10
30.4135990293
 20
106.3347061205
 11
31.2817210784
 21
106.3351417901
  0
LINE
  5
6C4
100
AcDbEntity
  8
0
100
AcDbLine
 62
7
  6
CONTINUOUS
 10
71.9595247792
 20
82.3733357761
 11
71.1631863619
 21
82.373091915
  0
LINE
  5
6C5
100
AcDbEntity
  8
0
100
AcDbLine
 62
7
  6
CONTINUOUS
 10
21.1294411232
 20
79.3541021162
 11
80.3822950996
 21
79.3541021162
  0
LINE
  5
6C6
100
AcDbEntity
  8
0
100
AcDbLine
 62
7
  6
CONTINUOUS
 10
71.3480214528
 20
82.3730801959
 11
30.8462020579
 21
82.3731656031
  0
LINE
  5
6C7
100
AcDbEntity
  8
0
100
AcDbLine
 62
9
  6
CONTINUOUS
 10
36.7649258125
 20
84.6000092915
 11
36.721866965
 21
84.6000044028
  0
LINE
  5
6C8
100
AcDbEntity
  8
0
100
AcDbLine
 62
9
  6
CONTINUOUS
 10
77.9696067647
 20
94.3541142897
 11
77.7303540802
 21
94.3541088902
  0
LINE
  5
6C9
100
AcDbEntity
  8
DEFAULT_1
100
AcDbLine
 62
7
  6
CENTER
 10
77.1591914817
 20
94.3541021162
 11
77.7303540802
 21
94.3541088902
  0
LINE
  5
6CA
100
AcDbEntity
  8
DEFAULT_1
100
AcDbLine
 62
7
  6
CENTER
 10
23.9299606398
 20
94.354111863
 11
18.722316078
 21
94.3541021162
  0
LINE
  5
6CB
100
AcDbEntity
  8
0
100
AcDbLine
 62
9
  6
CONTINUOUS
 10
77.1591914817
 20
94.3541021162
 11
76.9555946538
 21
94.3541021164
  0
LINE
  5
6CC
100
AcDbEntity
  8
0
100
AcDbLine
 62
9
  6
CONTINUOUS
 10
67.9310921781
 20
94.3541021162
 11
67.7579211806
 21
94.3541021162
  0
LINE
  5
6CD
100
AcDbEntity
  8
DEFAULT_1
100
AcDbLine
 62
7
  6
CENTER
 10
67.7579211806
 20
94.3541021162
 11
31.7700233807
 21
94.3541021161
  0
LINE
  5
6CE
100
AcDbEntity
  8
0
100
AcDbLine
 62
9
  6
CONTINUOUS
 10
31.7700233807
 20
94.3541021161
 11
31.2677121243
 21
94.3541021161
  0
LINE
  5
6CF
100
AcDbEntity
  8
DEFAULT_1
100
AcDbLine
 62
7
  6
CENTER
 10
67.9310921781
 20
94.3541021162
 11
71.6166953114
 21
94.3541021162
  0
LINE
  5
6D0
100
AcDbEntity
  8
0
100
AcDbLine
 62
9
  6
CONTINUOUS
 10
71.6166953114
 20
94.3541021162
 11
71.7793203372
 21
94.3541021162
  0
LINE
  5
6D1
100
AcDbEntity
  8
DEFAULT_1
100
AcDbLine
 62
7
  6
CENTER
 10
71.7793203372
 20
94.3541021162
 11
76.9555946538
 21
94.3541021164
  0
LINE
  5
6D2
100
AcDbEntity
  8
DEFAULT_1
100
AcDbLine
 62
7
  6
CENTER
 10
31.2677121243
 20
94.3541021161
 11
23.9337260611
 21
94.3541111066
  0
LINE
  5
6D3
100
AcDbEntity
  8
DEFAULT_1
100
AcDbLine
 62
7
  6
CENTER
 10
77.9696067647
 20
94.3541142897
 11
81.4389834532
 21
94.3541021162
  0
LINE
  5
6D4
100
AcDbEntity
  8
0
100
AcDbLine
 62
7
  6
CONTINUOUS
 10
70.8448890754
 20
106.3350642105
 11
31.5808727801
 21
106.335083628
  0
LINE
  5
6D5
100
AcDbEntity
  8
0
100
AcDbLine
 62
7
  6
CONTINUOUS
 10
21.1294411232
 20
109.3541021162
 11
80.3822950996
 21
109.3541021162
  0
LINE
  5
6D6
100
AcDbEntity
  8
0
100
AcDbLine
 62
9
  6
CONTINUOUS
 10
23.9337260611
 20
94.3541111066
 11
23.9299606398
 21
94.354111863
  0
LINE
  5
6D7
100
AcDbEntity
  8
0
100
AcDbLine
 62
9
  6
CONTINUOUS
 10
36.6813833499
 20
101.8949663874
 11
36.721510031
 21
101.8949611184
  0
LINE
  5
6D8
100
AcDbEntity
  8
0
100
AcDbLine
 62
7
  6
CONTINUOUS
 10
31.9209947398
 20
106.3350625287
 11
31.2174463436
 21
106.3351471934
  0
LINE
  5
6D9
100
AcDbEntity
  8
0
100
AcDbLine
 62
7
  6
CONTINUOUS
 10
72.0327293939
 20
106.3348847487
 11
70.7144878837
 21
106.3350599147
  0
LINE
  5
6DA
100
AcDbEntity
  8
0
100
AcDbLine
 62
7
  6
CONTINUOUS
 10
30.3971697011
 20
82.3734730015
 11
30.7613865017
 21
82.3732809344
  0
LINE
  5
6DB
100
AcDbEntity
  8
0
100
AcDbLine
 62
9
  6
CONTINUOUS
 10
36.8444820938
 20
86.8131935259
 11
36.6599298629
 21
86.8132697866
  0
LINE
  5
6DC
100
AcDbEntity
  8
0
100
AcDbLine
 62
9
  6
CONTINUOUS
 10
69.7985362643
 20
104.0597328786
 11
70.5874762302
 21
104.0594203899
  0
LINE
  5
6DD
100
AcDbEntity
  8
0
100
AcDbLine
 62
7
  6
CONTINUOUS
 10
72.0980215059
 20
82.3732013037
 11
71.9262667774
 21
82.3733057488
  0
LINE
  5
6DE
100
AcDbEntity
  8
0
100
AcDbLine
 62
9
  6
CONTINUOUS
 10
69.0791317127
 20
86.7706072607
 11
68.507710845
 21
86.7711278837
  0
LINE
  5
6DF
100
AcDbEntity
  8
0
100
AcDbLine
 62
7
  6
CONTINUOUS
 10
31.0386626722
 20
82.3730631685
 11
30.6784570668
 21
82.3733951801
  0
LINE
  5
6E0
100
AcDbEntity
  8
0
100
AcDbLine
 62
9
  6
CONTINUOUS
 10
68.507710845
 20
86.7711278837
 11
68.3503660267
 21
86.7712854237
  0
LINE
  5
6E1
100
AcDbEntity
  8
0
100
AcDbLine
 62
9
  6
CONTINUOUS
 10
69.3304310529
 20
101.9380250873
 11
69.4493612332
 21
101.9379108055
  0
LINE
  5
6E2
100
AcDbEntity
  8
0
100
AcDbLine
 62
9
  6
CONTINUOUS
 10
68.3503660267
 20
86.7712854237
 11
65.906734025
 21
86.7741549542
  0
LINE
  5
6E3
100
AcDbEntity
  8
0
100
AcDbLine
 62
9
  6
CONTINUOUS
 10
36.8734615908
 20
86.8131591668
 11
36.8444820938
 21
86.8131935259
  0
LINE
  5
6E4
100
AcDbEntity
  8
0
100
AcDbLine
 62
9
  6
CONTINUOUS
 10
43.6422532565
 20
86.803990217
 11
38.4187600999
 21
86.8104201811
  0
LINE
  5
6E5
100
AcDbEntity
  8
0
100
AcDbLine
 62
9
  6
CONTINUOUS
 10
69.4807056207
 20
104.0601098051
 11
69.7985362643
 21
104.0597328786
  0
LINE
  5
6E6
100
AcDbEntity
  8
0
100
AcDbLine
 62
9
  6
CONTINUOUS
 10
69.111689123
 20
104.0605553148
 11
69.4807056207
 21
104.0601098051
  0
LINE
  5
6E7
100
AcDbEntity
  8
0
100
AcDbLine
 62
9
  6
CONTINUOUS
 10
65.906734025
 20
86.7741549542
 11
61.189671763
 21
86.7803982867
  0
LINE
  5
6E8
100
AcDbEntity
  8
0
100
AcDbLine
 62
9
  6
CONTINUOUS
 10
61.189671763
 20
86.7803982867
 11
43.6422532565
 21
86.803990217
  0
LINE
  5
6E9
100
AcDbEntity
  8
0
100
AcDbLine
 62
9
  6
CONTINUOUS
 10
37.7751329727
 20
86.8119284556
 11
36.8734615908
 21
86.8131591668
  0
LINE
  5
6EA
100
AcDbEntity
  8
0
100
AcDbLine
 62
9
  6
CONTINUOUS
 10
50.8246721431
 20
104.0866695521
 11
69.111689123
 21
104.0605553148
  0
LINE
  5
6EB
100
AcDbEntity
  8
0
100
AcDbLine
 62
9
  6
CONTINUOUS
 10
36.7467389615
 20
104.1082286097
 11
50.8246721431
 21
104.0866695521
  0
LINE
  5
6EC
100
AcDbEntity
  8
0
100
AcDbLine
 62
9
  6
CONTINUOUS
 10
70.5244903283
 20
84.6485809312
 11
70.4685650945
 21
84.6486745497
  0
LINE
  5
6ED
100
AcDbEntity
  8
0
100
AcDbLine
 62
9
  6
CONTINUOUS
 10
69.3315216997
 20
86.7701798577
 11
69.0791317127
 21
86.7706072607
  0
LINE
  5
6EE
100
AcDbEntity
  8
0
100
AcDbLine
 62
9
  6
CONTINUOUS
 10
38.4187600999
 20
86.8104201811
 11
37.7751329727
 21
86.8119284556
  0
LINE
  5
6EF
100
AcDbEntity
  8
0
100
AcDbLine
 62
7
  6
CONTINUOUS
 10
30.4631020731
 20
106.3346727445
 11
30.2126615715
 21
106.3353607679
  0
LINE
  5
6F0
100
AcDbEntity
  8
0
100
AcDbLine
 62
7
  6
CONTINUOUS
 10
72.0964956379
 20
82.3732095272
 11
72.4683928613
 21
82.3721265349
  0
LINE
  5
6F1
100
AcDbEntity
  8
0
100
AcDbLine
 62
7
  6
CONTINUOUS
 10
72.593998951
 20
106.3357233526
 11
72.486475427
 21
106.3360317578
  0
LINE
  5
6F2
100
AcDbEntity
  8
0
100
AcDbLine
 62
9
  6
CONTINUOUS
 10
36.721866965
 20
84.6000044028
 11
36.7005707953
 21
84.6000729389
  0
LINE
  5
6F3
100
AcDbEntity
  8
0
100
AcDbLine
 62
7
  6
CONTINUOUS
 10
72.2620102222
 20
82.3725713729
 11
72.0980215059
 21
82.3732013037
  0
LINE
  5
6F4
100
AcDbEntity
  8
0
100
AcDbLine
 62
7
  6
CONTINUOUS
 10
29.9872718783
 20
106.3363125458
 11
30.2644252347
 21
106.3352557951
  0
LINE
  5
6F5
100
AcDbEntity
  8
0
100
AcDbLine
 62
9
  6
CONTINUOUS
 10
70.2784146988
 20
101.9317338619
 11
70.5834217206
 21
101.9304210762
  0
LINE
  5
6F6
100
AcDbEntity
  8
0
100
AcDbLine
 62
9
  6
CONTINUOUS
 10
36.6599298629
 20
86.8132697866
 11
36.6261924524
 21
86.8134265006
  0
LINE
  5
6F7
100
AcDbEntity
  8
0
100
AcDbLine
 62
9
  6
CONTINUOUS
 10
69.8741476073
 20
101.9342918563
 11
70.2784146988
 21
101.9317338619
  0
LINE
  5
6F8
100
AcDbEntity
  8
0
100
AcDbLine
 62
9
  6
CONTINUOUS
 10
69.7876269798
 20
96.1710216183
 11
69.7216102895
 21
96.1714613328
  0
LINE
  5
6F9
100
AcDbEntity
  8
0
100
AcDbLine
 62
9
  6
CONTINUOUS
 10
69.4493612332
 20
101.9379108055
 11
69.5640539045
 21
101.9370871814
  0
LINE
  5
6FA
100
AcDbEntity
  8
0
100
AcDbLine
 62
7
  6
CONTINUOUS
 10
29.9549265781
 20
82.3718593299
 11
29.8285921094
 21
82.372838214
  0
LINE
  5
6FB
100
AcDbEntity
  8
0
100
AcDbLine
 62
7
  6
CONTINUOUS
 10
72.5165648731
 20
106.3360990311
 11
72.6620221604
 21
106.3348830582
  0
LINE
  5
6FC
100
AcDbEntity
  8
0
100
AcDbLine
 62
9
  6
CONTINUOUS
 10
69.6735392956
 20
101.9359977545
 11
69.8741476073
 21
101.9342918563
  0
LINE
  5
6FD
100
AcDbEntity
  8
0
100
AcDbLine
 62
9
  6
CONTINUOUS
 10
70.5834217206
 20
101.9304210762
 11
70.6311414344
 21
101.9299653336
  0
LINE
  5
6FE
100
AcDbEntity
  8
0
100
AcDbLine
 62
9
  6
CONTINUOUS
 10
36.7005707953
 20
84.6000729389
 11
36.6789129069
 21
84.6002840728
  0
LINE
  5
6FF
100
AcDbEntity
  8
0
100
AcDbLine
 62
9
  6
CONTINUOUS
 10
69.5640539045
 20
101.9370871814
 11
69.6735392956
 21
101.9359977545
  0
LINE
  5
700
100
AcDbEntity
  8
0
100
AcDbLine
 62
9
  6
CONTINUOUS
 10
36.6261924524
 20
86.8134265006
 11
36.6142150454
 21
86.8135608338
  0
LINE
  5
701
100
AcDbEntity
  8
0
100
AcDbLine
 62
7
  6
CONTINUOUS
 10
29.8134334866
 20
82.3730155362
 11
29.9018608226
 21
82.3719604797
  0
LINE
  5
702
100
AcDbEntity
  8
0
100
AcDbLine
 62
9
  6
CONTINUOUS
 10
70.5874762302
 20
104.0594203899
 11
70.6642260123
 21
104.058440121
  0
LINE
  5
703
100
AcDbEntity
  8
0
100
AcDbLine
 62
7
  6
CONTINUOUS
 10
72.7004143366
 20
106.3342347547
 11
72.593998951
 21
106.3357233526
  0
LINE
  5
704
100
AcDbEntity
  8
0
100
AcDbLine
 62
9
  6
CONTINUOUS
 10
36.6789129069
 20
84.6002840728
 11
36.6556774313
 21
84.6007689404
  0
LINE
  5
705
100
AcDbEntity
  8
0
100
AcDbLine
 62
9
  6
CONTINUOUS
 10
36.6142150454
 20
86.8135608338
 11
36.6037047799
 21
86.8137896164
  0
LINE
  5
706
100
AcDbEntity
  8
0
100
AcDbLine
 62
9
  6
CONTINUOUS
 10
70.6311414344
 20
101.9299653336
 11
70.675370258
 21
101.9288550164
  0
LINE
  5
707
100
AcDbEntity
  8
0
100
AcDbLine
 62
7
  6
CONTINUOUS
 10
29.8285921094
 20
82.372838214
 11
29.703734361
 21
82.3761670574
  0
LINE
  5
708
100
AcDbEntity
  8
0
100
AcDbLine
 62
7
  6
CONTINUOUS
 10
72.6620221604
 20
106.3348830582
 11
72.80435906
 21
106.3310011962
  0
LINE
  5
709
100
AcDbEntity
  8
0
100
AcDbLine
 62
7
  6
CONTINUOUS
 10
29.7195121292
 20
82.3756741915
 11
29.8134334866
 21
82.3730155362
  0
LINE
  5
70A
100
AcDbEntity
  8
0
100
AcDbLine
 62
9
  6
CONTINUOUS
 10
69.6568847612
 20
92.5386469612
 11
69.7229186465
 21
92.5367282683
  0
LINE
  5
70B
100
AcDbEntity
  8
0
100
AcDbLine
 62
7
  6
CONTINUOUS
 10
72.8131550506
 20
106.3308283268
 11
72.7004143366
 21
106.3342347547
  0
LINE
  5
70C
100
AcDbEntity
  8
0
100
AcDbLine
 62
9
  6
CONTINUOUS
 10
36.6037047799
 20
86.8137896164
 11
36.5911742469
 21
86.814188767
  0
LINE
  5
70D
100
AcDbEntity
  8
0
100
AcDbLine
 62
9
  6
CONTINUOUS
 10
70.6642260123
 20
104.058440121
 11
70.7553998852
 21
104.0555344307
  0
LINE
  5
70E
100
AcDbEntity
  8
0
100
AcDbLine
 62
9
  6
CONTINUOUS
 10
36.6556774313
 20
84.6007689404
 11
36.6286358639
 21
84.6016542181
  0
LINE
  5
70F
100
AcDbEntity
  8
0
100
AcDbLine
 62
9
  6
CONTINUOUS
 10
36.5911742469
 20
86.814188767
 11
36.5769906617
 21
86.8147656509
  0
LINE
  5
710
100
AcDbEntity
  8
0
100
AcDbLine
 62
9
  6
CONTINUOUS
 10
69.8536740209
 20
96.1681756719
 11
69.7876269798
 21
96.1710216183
  0
LINE
  5
711
100
AcDbEntity
  8
0
100
AcDbLine
 62
7
  6
CONTINUOUS
 10
29.6233651027
 20
82.3801573061
 11
29.7195121292
 21
82.3756741915
  0
LINE
  5
712
100
AcDbEntity
  8
0
100
AcDbLine
 62
9
  6
CONTINUOUS
 10
36.6286358639
 20
84.6016542181
 11
36.5970443416
 21
84.6031739568
  0
LINE
  5
713
100
AcDbEntity
  8
0
100
AcDbLine
 62
7
  6
CONTINUOUS
 10
72.80435906
 20
106.3310011962
 11
72.9399053537
 21
106.3244702253
  0
LINE
  5
714
100
AcDbEntity
  8
0
100
AcDbLine
 62
7
  6
CONTINUOUS
 10
72.9264135566
 20
106.3253259942
 11
72.8131550506
 21
106.3308283268
  0
LINE
  5
715
100
AcDbEntity
  8
0
100
AcDbLine
 62
9
  6
CONTINUOUS
 10
36.5769906617
 20
86.8147656509
 11
36.5624674331
 21
86.8155063153
  0
LINE
  5
716
100
AcDbEntity
  8
0
100
AcDbLine
 62
9
  6
CONTINUOUS
 10
70.675370258
 20
101.9288550164
 11
70.7213667345
 21
101.9264840235
  0
LINE
  5
717
100
AcDbEntity
  8
0
100
AcDbLine
 62
7
  6
CONTINUOUS
 10
29.703734361
 20
82.3761670574
 11
29.5756913753
 21
82.3833445024
  0
LINE
  5
718
100
AcDbEntity
  8
0
100
AcDbLine
 62
9
  6
CONTINUOUS
 10
70.7553998852
 20
104.0555344307
 11
70.854350152
 21
104.0497478165
  0
LINE
  5
719
100
AcDbEntity
  8
0
100
AcDbLine
 62
9
  6
CONTINUOUS
 10
36.5970443416
 20
84.6031739568
 11
36.5633814531
 21
84.6052269451
  0
LINE
  5
71A
100
AcDbEntity
  8
0
100
AcDbLine
 62
9
  6
CONTINUOUS
 10
36.5624674331
 20
86.8155063153
 11
36.5475743702
 21
86.8164310031
  0
LINE
  5
71B
100
AcDbEntity
  8
0
100
AcDbLine
 62
9
  6
CONTINUOUS
 10
69.5910724104
 20
92.542962774
 11
69.6568847612
 21
92.5386469612
  0
LINE
  5
71C
100
AcDbEntity
  8
0
100
AcDbLine
 62
7
  6
CONTINUOUS
 10
29.5258007543
 20
82.3870002569
 11
29.6233651027
 21
82.3801573061
  0
LINE
  5
71D
100
AcDbEntity
  8
0
100
AcDbLine
 62
9
  6
CONTINUOUS
 10
36.5633814531
 20
84.6052269451
 11
36.5285328296
 21
84.6077184016
  0
LINE
  5
71E
100
AcDbEntity
  8
0
100
AcDbLine
 62
9
  6
CONTINUOUS
 10
36.5475743702
 20
86.8164310031
 11
36.5320349909
 21
86.8175655179
  0
LINE
  5
71F
100
AcDbEntity
  8
0
100
AcDbLine
 62
7
  6
CONTINUOUS
 10
73.0369146573
 20
106.3172195931
 11
72.9264135566
 21
106.3253259942
  0
LINE
  5
720
100
AcDbEntity
  8
0
100
AcDbLine
 62
7
  6
CONTINUOUS
 10
72.9399053537
 20
106.3244702253
 11
73.0645923508
 21
106.3148731414
  0
LINE
  5
721
100
AcDbEntity
  8
0
100
AcDbLine
 62
9
  6
CONTINUOUS
 10
69.9197395471
 20
96.1629109584
 11
69.8536740209
 21
96.1681756719
  0
LINE
  5
722
100
AcDbEntity
  8
0
100
AcDbLine
 62
9
  6
CONTINUOUS
 10
70.7213667345
 20
101.9264840235
 11
70.7695424233
 21
101.9226370272
  0
LINE
  5
723
100
AcDbEntity
  8
0
100
AcDbLine
 62
9
  6
CONTINUOUS
 10
36.5285328296
 20
84.6077184016
 11
36.4921983791
 21
84.6107166403
  0
LINE
  5
724
100
AcDbEntity
  8
0
100
AcDbLine
 62
7
  6
CONTINUOUS
 10
29.5756913753
 20
82.3833445024
 11
29.4477263223
 21
82.3939406084
  0
LINE
  5
725
100
AcDbEntity
  8
0
100
AcDbLine
 62
9
  6
CONTINUOUS
 10
36.5320349909
 20
86.8175655179
 11
36.5157371441
 21
86.8189404321
  0
LINE
  5
726
100
AcDbEntity
  8
0
100
AcDbLine
 62
9
  6
CONTINUOUS
 10
70.854350152
 20
104.0497478165
 11
70.9612858132
 21
104.0406220997
  0
LINE
  5
727
100
AcDbEntity
  8
0
100
AcDbLine
 62
7
  6
CONTINUOUS
 10
29.428362354
 20
82.3958716672
 11
29.5258007543
 21
82.3870002569
  0
LINE
  5
728
100
AcDbEntity
  8
0
100
AcDbLine
 62
9
  6
CONTINUOUS
 10
36.4921983791
 20
84.6107166403
 11
36.4542108653
 21
84.6142224099
  0
LINE
  5
729
100
AcDbEntity
  8
0
100
AcDbLine
 62
9
  6
CONTINUOUS
 10
36.5157371441
 20
86.8189404321
 11
36.4986708043
 21
86.8205857847
  0
LINE
  5
72A
100
AcDbEntity
  8
0
100
AcDbLine
 62
7
  6
CONTINUOUS
 10
73.1444948017
 20
106.3067617533
 11
73.0369146573
 21
106.3172195931
  0
LINE
  5
72B
100
AcDbEntity
  8
0
100
AcDbLine
 62
9
  6
CONTINUOUS
 10
69.5255618758
 20
92.549661271
 11
69.5910724104
 21
92.542962774
  0
LINE
  5
72C
100
AcDbEntity
  8
0
100
AcDbLine
 62
9
  6
CONTINUOUS
 10
36.4542108653
 20
84.6142224099
 11
36.414626763
 21
84.618328523
  0
LINE
  5
72D
100
AcDbEntity
  8
0
100
AcDbLine
 62
7
  6
CONTINUOUS
 10
73.0645923508
 20
106.3148731414
 11
73.1832167468
 21
106.3022724177
  0
LINE
  5
72E
100
AcDbEntity
  8
0
100
AcDbLine
 62
9
  6
CONTINUOUS
 10
70.7695424233
 20
101.9226370272
 11
70.8204601156
 21
101.917196309
  0
LINE
  5
72F
100
AcDbEntity
  8
0
100
AcDbLine
 62
9
  6
CONTINUOUS
 10
36.4986708043
 20
86.8205857847
 11
36.4807860809
 21
86.8225338972
  0
LINE
  5
730
100
AcDbEntity
  8
0
100
AcDbLine
 62
7
  6
CONTINUOUS
 10
29.4477263223
 20
82.3939406084
 11
29.321434757
 21
82.4080950126
  0
LINE
  5
731
100
AcDbEntity
  8
0
100
AcDbLine
 62
7
  6
CONTINUOUS
 10
29.33300265
 20
82.4066305997
 11
29.428362354
 21
82.3958716672
  0
LINE
  5
732
100
AcDbEntity
  8
0
100
AcDbLine
 62
9
  6
CONTINUOUS
 10
70.9612858132
 20
104.0406220997
 11
71.074111179
 21
104.0278949927
  0
LINE
  5
733
100
AcDbEntity
  8
0
100
AcDbLine
 62
9
  6
CONTINUOUS
 10
69.9857078338
 20
96.155226547
 11
69.9197395471
 21
96.1629109584
  0
LINE
  5
734
100
AcDbEntity
  8
0
100
AcDbLine
 62
9
  6
CONTINUOUS
 10
36.414626763
 20
84.618328523
 11
36.3736233536
 21
84.6231145935
  0
LINE
  5
735
100
AcDbEntity
  8
0
100
AcDbLine
 62
9
  6
CONTINUOUS
 10
36.4807860809
 20
86.8225338972
 11
36.4620597269
 21
86.8248176839
  0
LINE
  5
736
100
AcDbEntity
  8
0
100
AcDbLine
 62
7
  6
CONTINUOUS
 10
73.2467249533
 20
106.2941443664
 11
73.1444948017
 21
106.3067617533
  0
LINE
  5
737
100
AcDbEntity
  8
0
100
AcDbLine
 62
9
  6
CONTINUOUS
 10
36.3736233536
 20
84.6231145935
 11
36.3310118104
 21
84.6286350367
  0
LINE
  5
738
100
AcDbEntity
  8
0
100
AcDbLine
 62
7
  6
CONTINUOUS
 10
29.2393015537
 20
82.4192411123
 11
29.33300265
 21
82.4066305997
  0
LINE
  5
739
100
AcDbEntity
  8
0
100
AcDbLine
 62
7
  6
CONTINUOUS
 10
73.1832167468
 20
106.3022724177
 11
73.298505819
 21
106.2867264828
  0
LINE
  5
73A
100
AcDbEntity
  8
0
100
AcDbLine
 62
9
  6
CONTINUOUS
 10
70.8204601156
 20
101.917196309
 11
70.8734249159
 21
101.910021379
  0
LINE
  5
73B
100
AcDbEntity
  8
0
100
AcDbLine
 62
9
  6
CONTINUOUS
 10
36.4620597269
 20
86.8248176839
 11
36.4423546276
 21
86.8274910074
  0
LINE
  5
73C
100
AcDbEntity
  8
0
100
AcDbLine
 62
9
  6
CONTINUOUS
 10
69.4607291534
 20
92.558677661
 11
69.5255618758
 21
92.549661271
  0
LINE
  5
73D
100
AcDbEntity
  8
0
100
AcDbLine
 62
7
  6
CONTINUOUS
 10
29.321434757
 20
82.4080950126
 11
29.1971575676
 21
82.4255976245
  0
LINE
  5
73E
100
AcDbEntity
  8
0
100
AcDbLine
 62
9
  6
CONTINUOUS
 10
71.074111179
 20
104.0278949927
 11
71.1914036427
 21
104.0112478929
  0
LINE
  5
73F
100
AcDbEntity
  8
0
100
AcDbLine
 62
9
  6
CONTINUOUS
 10
36.3310118104
 20
84.6286350367
 11
36.2866783672
 21
84.634950904
  0
LINE
  5
740
100
AcDbEntity
  8
0
100
AcDbLine
 62
7
  6
CONTINUOUS
 10
76.7785680647
 20
95.5416021165
 11
76.7853819052
 21
95.5405992994
  0
LINE
  5
741
100
AcDbEntity
  8
0
100
AcDbLine
 62
9
  6
CONTINUOUS
 10
36.4423546276
 20
86.8274910074
 11
36.4215455933
 21
86.8306147751
  0
LINE
  5
742
100
AcDbEntity
  8
0
100
AcDbLine
 62
7
  6
CONTINUOUS
 10
76.7785680647
 20
93.1666021165
 11
76.7716799652
 21
93.1676392115
  0
LINE
  5
743
100
AcDbEntity
  8
0
100
AcDbLine
 62
7
  6
CONTINUOUS
 10
73.347126371
 20
106.2790414829
 11
73.2467249533
 21
106.2941443664
  0
LINE
  5
744
100
AcDbEntity
  8
0
100
AcDbLine
 62
9
  6
CONTINUOUS
 10
70.0516258384
 20
96.1450972784
 11
69.9857078338
 21
96.155226547
  0
LINE
  5
745
100
AcDbEntity
  8
0
100
AcDbLine
 62
9
  6
CONTINUOUS
 10
36.2866783672
 20
84.634950904
 11
36.2404207531
 21
84.6421747439
  0
LINE
  5
746
100
AcDbEntity
  8
0
100
AcDbLine
 62
7
  6
CONTINUOUS
 10
29.147803121
 20
82.4335793036
 11
29.2393015537
 21
82.4192411123
  0
LINE
  5
747
100
AcDbEntity
  8
0
100
AcDbLine
 62
9
  6
CONTINUOUS
 10
36.4215455933
 20
86.8306147751
 11
36.3995268268
 21
86.8342553305
  0
LINE
  5
748
100
AcDbEntity
  8
0
100
AcDbLine
 62
7
  6
CONTINUOUS
 10
73.298505819
 20
106.2867264828
 11
73.412599131
 21
106.267830466
  0
LINE
  5
749
100
AcDbEntity
  8
0
100
AcDbLine
 62
9
  6
CONTINUOUS
 10
70.8734249159
 20
101.910021379
 11
70.9276781605
 21
101.9010013354
  0
LINE
  5
74A
100
AcDbEntity
  8
0
100
AcDbLine
 62
7
  6
CONTINUOUS
 10
29.1971575676
 20
82.4255976245
 11
29.0763782333
 21
82.4461974288
  0
LINE
  5
74B
100
AcDbEntity
  8
0
100
AcDbLine
 62
9
  6
CONTINUOUS
 10
36.2404207531
 20
84.6421747439
 11
36.1921212451
 21
84.6504179808
  0
LINE
  5
74C
100
AcDbEntity
  8
0
100
AcDbLine
 62
9
  6
CONTINUOUS
 10
71.1914036427
 20
104.0112478929
 11
71.3113186419
 21
103.9905029855
  0
LINE
  5
74D
100
AcDbEntity
  8
0
100
AcDbLine
 62
7
  6
CONTINUOUS
 10
73.4484873503
 20
106.2612288225
 11
73.347126371
 21
106.2790414829
  0
LINE
  5
74E
100
AcDbEntity
  8
0
100
AcDbLine
 62
9
  6
CONTINUOUS
 10
69.3968869219
 20
92.5699142032
 11
69.4607291534
 21
92.558677661
  0
LINE
  5
74F
100
AcDbEntity
  8
0
100
AcDbLine
 62
7
  6
CONTINUOUS
 10
29.0575676656
 20
82.4497681144
 11
29.147803121
 21
82.4335793036
  0
LINE
  5
750
100
AcDbEntity
  8
0
100
AcDbLine
 62
9
  6
CONTINUOUS
 10
36.3995268268
 20
86.8342553305
 11
36.376197616
 21
86.8384885535
  0
LINE
  5
751
100
AcDbEntity
  8
0
100
AcDbLine
 62
9
  6
CONTINUOUS
 10
36.1921212451
 20
84.6504179808
 11
36.1415098175
 21
84.659820198
  0
LINE
  5
752
100
AcDbEntity
  8
0
100
AcDbLine
 62
9
  6
CONTINUOUS
 10
70.1169936547
 20
96.1326034675
 11
70.0516258384
 21
96.1450972784
  0
LINE
  5
753
100
AcDbEntity
  8
0
100
AcDbLine
 62
7
  6
CONTINUOUS
 10
73.412599131
 20
106.267830466
 11
73.5288994932
 21
106.2451919656
  0
LINE
  5
754
100
AcDbEntity
  8
0
100
AcDbLine
 62
9
  6
CONTINUOUS
 10
70.9276781605
 20
101.9010013354
 11
70.9826464893
 21
101.8901206994
  0
LINE
  5
755
100
AcDbEntity
  8
0
100
AcDbLine
 62
9
  6
CONTINUOUS
 10
36.376197616
 20
86.8384885535
 11
36.3514685172
 21
86.8433996722
  0
LINE
  5
756
100
AcDbEntity
  8
0
100
AcDbLine
 62
7
  6
CONTINUOUS
 10
29.0763782333
 20
82.4461974288
 11
28.957264536
 21
82.4701568373
  0
LINE
  5
757
100
AcDbEntity
  8
0
100
AcDbLine
 62
9
  6
CONTINUOUS
 10
36.1415098175
 20
84.659820198
 11
36.0883593228
 21
84.6705373452
  0
LINE
  5
758
100
AcDbEntity
  8
0
100
AcDbLine
 62
7
  6
CONTINUOUS
 10
28.9678883161
 20
82.4678673685
 11
29.0575676656
 21
82.4497681144
  0
LINE
  5
759
100
AcDbEntity
  8
0
100
AcDbLine
 62
7
  6
CONTINUOUS
 10
73.5505777444
 20
106.2405932691
 11
73.4484873503
 21
106.2612288225
  0
LINE
  5
75A
100
AcDbEntity
  8
0
100
AcDbLine
 62
9
  6
CONTINUOUS
 10
71.3113186419
 20
103.9905029855
 11
71.432091701
 21
103.9657544196
  0
LINE
  5
75B
100
AcDbEntity
  8
0
100
AcDbLine
 62
9
  6
CONTINUOUS
 10
69.3342648023
 20
92.583252752
 11
69.3968869219
 21
92.5699142032
  0
LINE
  5
75C
100
AcDbEntity
  8
0
100
AcDbLine
 62
9
  6
CONTINUOUS
 10
36.3514685172
 20
86.8433996722
 11
36.3252380161
 21
86.8490875543
  0
LINE
  5
75D
100
AcDbEntity
  8
0
100
AcDbLine
 62
9
  6
CONTINUOUS
 10
36.0883593228
 20
84.6705373452
 11
36.0324421518
 21
84.6827491386
  0
LINE
  5
75E
100
AcDbEntity
  8
0
100
AcDbLine
 62
7
  6
CONTINUOUS
 10
73.5288994932
 20
106.2451919656
 11
73.6463444426
 21
106.218832003
  0
LINE
  5
75F
100
AcDbEntity
  8
0
100
AcDbLine
 62
7
  6
CONTINUOUS
 10
28.8786106836
 20
82.4879425152
 11
28.9678883161
 21
82.4678673685
  0
LINE
  5
760
100
AcDbEntity
  8
0
100
AcDbLine
 62
7
  6
CONTINUOUS
 10
73.6545348649
 20
106.2168592632
 11
73.5505777444
 21
106.2405932691
  0
LINE
  5
761
100
AcDbEntity
  8
0
100
AcDbLine
 62
9
  6
CONTINUOUS
 10
70.1812171088
 20
96.1179198769
 11
70.1169936547
 21
96.1326034675
  0
LINE
  5
762
100
AcDbEntity
  8
0
100
AcDbLine
 62
9
  6
CONTINUOUS
 10
70.9826464893
 20
101.8901206994
 11
71.0375407035
 21
101.8774903693
  0
LINE
  5
763
100
AcDbEntity
  8
0
100
AcDbLine
 62
7
  6
CONTINUOUS
 10
28.957264536
 20
82.4701568373
 11
28.838511416
 21
82.4976165171
  0
LINE
  5
764
100
AcDbEntity
  8
0
100
AcDbLine
 62
9
  6
CONTINUOUS
 10
36.0324421518
 20
84.6827491386
 11
35.9735263178
 21
84.6966638077
  0
LINE
  5
765
100
AcDbEntity
  8
0
100
AcDbLine
 62
9
  6
CONTINUOUS
 10
36.3252380161
 20
86.8490875543
 11
36.2974327491
 21
86.8556559724
  0
LINE
  5
766
100
AcDbEntity
  8
0
100
AcDbLine
 62
9
  6
CONTINUOUS
 10
71.432091701
 20
103.9657544196
 11
71.5531594016
 21
103.9370180784
  0
LINE
  5
767
100
AcDbEntity
  8
0
100
AcDbLine
 62
7
  6
CONTINUOUS
 10
28.7893504579
 20
82.5100680649
 11
28.8786106836
 21
82.4879425152
  0
LINE
  5
768
100
AcDbEntity
  8
0
100
AcDbLine
 62
9
  6
CONTINUOUS
 10
69.2732181193
 20
92.5985161913
 11
69.3342648023
 21
92.583252752
  0
LINE
  5
769
100
AcDbEntity
  8
0
100
AcDbLine
 62
7
  6
CONTINUOUS
 10
73.6463444426
 20
106.218832003
 11
73.7657092146
 21
106.1884617646
  0
LINE
  5
76A
100
AcDbEntity
  8
0
100
AcDbLine
 62
9
  6
CONTINUOUS
 10
35.9735263178
 20
84.6966638077
 11
35.911464166
 21
84.7124896475
  0
LINE
  5
76B
100
AcDbEntity
  8
0
100
AcDbLine
 62
9
  6
CONTINUOUS
 10
36.2974327491
 20
86.8556559724
 11
36.2680201712
 21
86.8632105739
  0
LINE
  5
76C
100
AcDbEntity
  8
0
100
AcDbLine
 62
7
  6
CONTINUOUS
 10
28.838511416
 20
82.4976165171
 11
28.720020877
 21
82.5286906867
  0
LINE
  5
76D
100
AcDbEntity
  8
0
100
AcDbLine
 62
9
  6
CONTINUOUS
 10
71.0375407035
 20
101.8774903693
 11
71.0922930578
 21
101.8630999273
  0
LINE
  5
76E
100
AcDbEntity
  8
0
100
AcDbLine
 62
9
  6
CONTINUOUS
 10
70.2446869772
 20
96.1009948436
 11
70.1812171088
 21
96.1179198769
  0
LINE
  5
76F
100
AcDbEntity
  8
0
100
AcDbLine
 62
9
  6
CONTINUOUS
 10
71.5531594016
 20
103.9370180784
 11
71.6732812355
 21
103.9045389457
  0
LINE
  5
770
100
AcDbEntity
  8
0
100
AcDbLine
 62
7
  6
CONTINUOUS
 10
28.7000905322
 20
82.5342766579
 11
28.7893504579
 21
82.5100680649
  0
LINE
  5
771
100
AcDbEntity
  8
0
100
AcDbLine
 62
9
  6
CONTINUOUS
 10
35.911464166
 20
84.7124896475
 11
35.846111008
 21
84.7304615325
  0
LINE
  5
772
100
AcDbEntity
  8
0
100
AcDbLine
 62
9
  6
CONTINUOUS
 10
36.2680201712
 20
86.8632105739
 11
36.2367896398
 21
86.87192056
  0
LINE
  5
773
100
AcDbEntity
  8
0
100
AcDbLine
 62
7
  6
CONTINUOUS
 10
73.8633630723
 20
106.160992851
 11
73.7590446321
 21
106.1902898539
  0
LINE
  5
774
100
AcDbEntity
  8
0
100
AcDbLine
 62
7
  6
CONTINUOUS
 10
73.7657092146
 20
106.1884617646
 11
73.8848835234
 21
106.1546183546
  0
LINE
  5
775
100
AcDbEntity
  8
0
100
AcDbLine
 62
9
  6
CONTINUOUS
 10
69.2136169891
 20
92.6156282156
 11
69.2732181193
 21
92.5985161913
  0
LINE
  5
776
100
AcDbEntity
  8
0
100
AcDbLine
 62
7
  6
CONTINUOUS
 10
28.720020877
 20
82.5286906867
 11
28.6008788392
 21
82.5636452416
  0
LINE
  5
777
100
AcDbEntity
  8
0
100
AcDbLine
 62
7
  6
CONTINUOUS
 10
28.6105036247
 20
82.5606771069
 11
28.7000905322
 21
82.5342766579
  0
LINE
  5
778
100
AcDbEntity
  8
0
100
AcDbLine
 62
9
  6
CONTINUOUS
 10
35.846111008
 20
84.7304615325
 11
35.7772993672
 21
84.7508451504
  0
LINE
  5
779
100
AcDbEntity
  8
0
100
AcDbLine
 62
9
  6
CONTINUOUS
 10
71.0922930578
 20
101.8630999273
 11
71.1465740104
 21
101.8470211351
  0
LINE
  5
77A
100
AcDbEntity
  8
0
100
AcDbLine
 62
9
  6
CONTINUOUS
 10
36.2367896398
 20
86.87192056
 11
36.2035393356
 21
86.8819805945
  0
LINE
  5
77B
100
AcDbEntity
  8
0
100
AcDbLine
 62
9
  6
CONTINUOUS
 10
71.6732812355
 20
103.9045389457
 11
71.7924998833
 21
103.8682909416
  0
LINE
  5
77C
100
AcDbEntity
  8
0
100
AcDbLine
 62
9
  6
CONTINUOUS
 10
70.3073421273
 20
96.081867576
 11
70.2446869772
 21
96.1009948436
  0
LINE
  5
77D
100
AcDbEntity
  8
0
100
AcDbLine
 62
7
  6
CONTINUOUS
 10
73.9669171792
 20
106.129158412
 11
73.8633630723
 21
106.160992851
  0
LINE
  5
77E
100
AcDbEntity
  8
0
100
AcDbLine
 62
7
  6
CONTINUOUS
 10
73.8848835234
 20
106.1546183546
 11
74.0017921087
 21
106.117784489
  0
LINE
  5
77F
100
AcDbEntity
  8
0
100
AcDbLine
 62
7
  6
CONTINUOUS
 10
28.5211359498
 20
82.5891154047
 11
28.6105036247
 21
82.5606771069
  0
LINE
  5
780
100
AcDbEntity
  8
0
100
AcDbLine
 62
9
  6
CONTINUOUS
 10
35.7772993672
 20
84.7508451504
 11
35.7049762077
 21
84.7739070951
  0
LINE
  5
781
100
AcDbEntity
  8
0
100
AcDbLine
 62
9
  6
CONTINUOUS
 10
69.1554456375
 20
92.6344991547
 11
69.2136169891
 21
92.6156282156
  0
LINE
  5
782
100
AcDbEntity
  8
0
100
AcDbLine
 62
7
  6
CONTINUOUS
 10
28.6008788392
 20
82.5636452416
 11
28.4822284943
 21
82.6021658178
  0
LINE
  5
783
100
AcDbEntity
  8
0
100
AcDbLine
 62
9
  6
CONTINUOUS
 10
36.2035393356
 20
86.8819805945
 11
36.1682345279
 21
86.8935594323
  0
LINE
  5
784
100
AcDbEntity
  8
0
100
AcDbLine
 62
9
  6
CONTINUOUS
 10
71.1465740104
 20
101.8470211351
 11
71.2004129816
 21
101.8292463416
  0
LINE
  5
785
100
AcDbEntity
  8
0
100
AcDbLine
 62
7
  6
CONTINUOUS
 10
74.0687356676
 20
106.0950490834
 11
73.9669171792
 21
106.129158412
  0
LINE
  5
786
100
AcDbEntity
  8
0
100
AcDbLine
 62
9
  6
CONTINUOUS
 10
71.7924998833
 20
103.8682909416
 11
71.9104918136
 21
103.8283716579
  0
LINE
  5
787
100
AcDbEntity
  8
0
100
AcDbLine
 62
7
  6
CONTINUOUS
 10
28.4323967685
 20
82.6194869445
 11
28.5211359498
 21
82.5891154047
  0
LINE
  5
788
100
AcDbEntity
  8
0
100
AcDbLine
 62
9
  6
CONTINUOUS
 10
35.7049762077
 20
84.7739070951
 11
35.6287880927
 21
84.8000353659
  0
LINE
  5
789
100
AcDbEntity
  8
0
100
AcDbLine
 62
9
  6
CONTINUOUS
 10
70.3699058639
 20
96.060266129
 11
70.3073421273
 21
96.081867576
  0
LINE
  5
78A
100
AcDbEntity
  8
0
100
AcDbLine
 62
7
  6
CONTINUOUS
 10
74.0017921087
 20
106.117784489
 11
74.1171051294
 21
106.0778345191
  0
LINE
  5
78B
100
AcDbEntity
  8
0
100
AcDbLine
 62
9
  6
CONTINUOUS
 10
36.1682345279
 20
86.8935594323
 11
36.1307333318
 21
86.906884276
  0
LINE
  5
78C
100
AcDbEntity
  8
0
100
AcDbLine
 62
7
  6
CONTINUOUS
 10
28.4822284943
 20
82.6021658178
 11
28.3648836536
 21
82.6440473481
  0
LINE
  5
78D
100
AcDbEntity
  8
0
100
AcDbLine
 62
9
  6
CONTINUOUS
 10
69.0986900278
 20
92.6550449744
 11
69.1554456375
 21
92.6344991547
  0
LINE
  5
78E
100
AcDbEntity
  8
0
100
AcDbLine
 62
7
  6
CONTINUOUS
 10
74.1692694003
 20
106.0585555076
 11
74.0687356676
 21
106.0950490834
  0
LINE
  5
78F
100
AcDbEntity
  8
0
100
AcDbLine
 62
9
  6
CONTINUOUS
 10
71.2004129816
 20
101.8292463416
 11
71.2537570055
 21
101.809787803
  0
LINE
  5
790
100
AcDbEntity
  8
0
100
AcDbLine
 62
7
  6
CONTINUOUS
 10
28.3443696594
 20
82.6517523374
 11
28.4323967685
 21
82.6194869445
  0
LINE
  5
791
100
AcDbEntity
  8
0
100
AcDbLine
 62
9
  6
CONTINUOUS
 10
35.6287880927
 20
84.8000353659
 11
35.5483734333
 21
84.8296861905
  0
LINE
  5
792
100
AcDbEntity
  8
0
100
AcDbLine
 62
9
  6
CONTINUOUS
 10
71.9104918136
 20
103.8283716579
 11
72.0272724005
 21
103.7847817341
  0
LINE
  5
793
100
AcDbEntity
  8
0
100
AcDbLine
 62
7
  6
CONTINUOUS
 10
74.1171051294
 20
106.0778345191
 11
74.23072776
 21
106.0348300617
  0
LINE
  5
794
100
AcDbEntity
  8
0
100
AcDbLine
 62
9
  6
CONTINUOUS
 10
36.1307333318
 20
86.906884276
 11
36.0913152312
 21
86.9220466208
  0
LINE
  5
795
100
AcDbEntity
  8
0
100
AcDbLine
 62
9
  6
CONTINUOUS
 10
70.4327666959
 20
96.0358320617
 11
70.3699058639
 21
96.060266129
  0
LINE
  5
796
100
AcDbEntity
  8
0
100
AcDbLine
 62
7
  6
CONTINUOUS
 10
28.3648836536
 20
82.6440473481
 11
28.2489183791
 21
82.689227837
  0
LINE
  5
797
100
AcDbEntity
  8
0
100
AcDbLine
 62
7
  6
CONTINUOUS
 10
28.2572931657
 20
82.6858344573
 11
28.3443696594
 21
82.6517523374
  0
LINE
  5
798
100
AcDbEntity
  8
0
100
AcDbLine
 62
7
  6
CONTINUOUS
 10
74.2686138503
 20
106.0196695183
 11
74.1692694003
 21
106.0585555076
  0
LINE
  5
799
100
AcDbEntity
  8
0
100
AcDbLine
 62
9
  6
CONTINUOUS
 10
35.5483734333
 20
84.8296861905
 11
35.4638599205
 21
84.8631852623
  0
LINE
  5
79A
100
AcDbEntity
  8
0
100
AcDbLine
 62
9
  6
CONTINUOUS
 10
69.0433442079
 20
92.6771851566
 11
69.0986900278
 21
92.6550449744
  0
LINE
  5
79B
100
AcDbEntity
  8
0
100
AcDbLine
 62
9
  6
CONTINUOUS
 10
71.2537570055
 20
101.809787803
 11
71.3065712898
 21
101.7886505603
  0
LINE
  5
79C
100
AcDbEntity
  8
0
100
AcDbLine
 62
9
  6
CONTINUOUS
 10
72.0272724005
 20
103.7847817341
 11
72.1427445916
 21
103.7375548106
  0
LINE
  5
79D
100
AcDbEntity
  8
0
100
AcDbLine
 62
7
  6
CONTINUOUS
 10
74.23072776
 20
106.0348300617
 11
74.3428796922
 21
105.9886920361
  0
LINE
  5
79E
100
AcDbEntity
  8
0
100
AcDbLine
 62
9
  6
CONTINUOUS
 10
36.0913152312
 20
86.9220466208
 11
36.0501356847
 21
86.9391829468
  0
LINE
  5
79F
100
AcDbEntity
  8
0
100
AcDbLine
 62
7
  6
CONTINUOUS
 10
28.1711116549
 20
82.721741908
 11
28.2572931657
 21
82.6858344573
  0
LINE
  5
7A0
100
AcDbEntity
  8
0
100
AcDbLine
 62
7
  6
CONTINUOUS
 10
74.3668639025
 20
105.9783500873
 11
74.2686138503
 21
106.0196695183
  0
LINE
  5
7A1
100
AcDbEntity
  8
0
100
AcDbLine
 62
7
  6
CONTINUOUS
 10
28.2489183791
 20
82.689227837
 11
28.1347333873
 21
82.7375602047
  0
LINE
  5
7A2
100
AcDbEntity
  8
0
100
AcDbLine
 62
9
  6
CONTINUOUS
 10
35.4638599205
 20
84.8631852623
 11
35.3750710168
 21
84.901023192
  0
LINE
  5
7A3
100
AcDbEntity
  8
0
100
AcDbLine
 62
9
  6
CONTINUOUS
 10
70.4966502287
 20
96.0083557373
 11
70.4327666959
 21
96.0358320617
  0
LINE
  5
7A4
100
AcDbEntity
  8
0
100
AcDbLine
 62
9
  6
CONTINUOUS
 10
71.3065712898
 20
101.7886505603
 11
71.3588200912
 21
101.7658420564
  0
LINE
  5
7A5
100
AcDbEntity
  8
0
100
AcDbLine
 62
9
  6
CONTINUOUS
 10
68.9893497558
 20
92.7008680657
 11
69.0433442079
 21
92.6771851566
  0
LINE
  5
7A6
100
AcDbEntity
  8
0
100
AcDbLine
 62
7
  6
CONTINUOUS
 10
76.7853819052
 20
95.5405992994
 11
76.7922343652
 21
95.5375861976
  0
LINE
  5
7A7
100
AcDbEntity
  8
0
100
AcDbLine
 62
7
  6
CONTINUOUS
 10
28.085852976
 20
82.7594564169
 11
28.1711116549
 21
82.721741908
  0
LINE
  5
7A8
100
AcDbEntity
  8
0
100
AcDbLine
 62
7
  6
CONTINUOUS
 10
74.3428796922
 20
105.9886920361
 11
74.4538048208
 21
105.9393397435
  0
LINE
  5
7A9
100
AcDbEntity
  8
0
100
AcDbLine
 62
9
  6
CONTINUOUS
 10
72.1427445916
 20
103.7375548106
 11
72.256757284
 21
103.6867455145
  0
LINE
  5
7AA
100
AcDbEntity
  8
0
100
AcDbLine
 62
9
  6
CONTINUOUS
 10
36.0501356847
 20
86.9391829468
 11
36.0073364569
 21
86.958440618
  0
LINE
  5
7AB
100
AcDbEntity
  8
0
100
AcDbLine
 62
7
  6
CONTINUOUS
 10
74.4641903832
 20
105.9345359691
 11
74.3668639025
 21
105.9783500873
  0
LINE
  5
7AC
100
AcDbEntity
  8
0
100
AcDbLine
 62
7
  6
CONTINUOUS
 10
76.7716799652
 20
93.1676392115
 11
76.7648457829
 21
93.1707478685
  0
LINE
  5
7AD
100
AcDbEntity
  8
0
100
AcDbLine
 62
7
  6
CONTINUOUS
 10
28.1347333873
 20
82.7375602047
 11
28.0221625249
 21
82.7890946362
  0
LINE
  5
7AE
100
AcDbEntity
  8
0
100
AcDbLine
 62
9
  6
CONTINUOUS
 10
35.3750710168
 20
84.901023192
 11
35.2826539476
 21
84.943355625
  0
LINE
  5
7AF
100
AcDbEntity
  8
0
100
AcDbLine
 62
7
  6
CONTINUOUS
 10
28.001505228
 20
82.7989814878
 11
28.085852976
 21
82.7594564169
  0
LINE
  5
7B0
100
AcDbEntity
  8
0
100
AcDbLine
 62
9
  6
CONTINUOUS
 10
70.5633482906
 20
95.9768282231
 11
70.4966502287
 21
96.0083557373
  0
LINE
  5
7B1
100
AcDbEntity
  8
0
100
AcDbLine
 62
9
  6
CONTINUOUS
 10
71.3588200912
 20
101.7658420564
 11
71.4104413684
 21
101.74138071
  0
LINE
  5
7B2
100
AcDbEntity
  8
0
100
AcDbLine
 62
9
  6
CONTINUOUS
 10
68.936661821
 20
92.7260479431
 11
68.9893497558
 21
92.7008680657
  0
LINE
  5
7B3
100
AcDbEntity
  8
0
100
AcDbLine
 62
7
  6
CONTINUOUS
 10
74.4538048208
 20
105.9393397435
 11
74.563335711
 21
105.8868396547
  0
LINE
  5
7B4
100
AcDbEntity
  8
0
100
AcDbLine
 62
9
  6
CONTINUOUS
 10
72.256757284
 20
103.6867455145
 11
72.3692094923
 21
103.6323980145
  0
LINE
  5
7B5
100
AcDbEntity
  8
0
100
AcDbLine
 62
9
  6
CONTINUOUS
 10
36.0073364569
 20
86.958440618
 11
35.9629700372
 21
86.9799987027
  0
LINE
  5
7B6
100
AcDbEntity
  8
0
100
AcDbLine
 62
9
  6
CONTINUOUS
 10
35.2826539476
 20
84.943355625
 11
35.1870504197
 21
84.9904069632
  0
LINE
  5
7B7
100
AcDbEntity
  8
0
100
AcDbLine
 62
7
  6
CONTINUOUS
 10
28.0221625249
 20
82.7890946362
 11
27.9111401039
 21
82.8438483329
  0
LINE
  5
7B8
100
AcDbEntity
  8
0
100
AcDbLine
 62
7
  6
CONTINUOUS
 10
27.918059708
 20
82.840317093
 11
28.001505228
 21
82.7989814878
  0
LINE
  5
7B9
100
AcDbEntity
  8
0
100
AcDbLine
 62
7
  6
CONTINUOUS
 10
74.6556377183
 20
105.8395935353
 11
74.560460942
 21
105.8882796489
  0
LINE
  5
7BA
100
AcDbEntity
  8
0
100
AcDbLine
 62
9
  6
CONTINUOUS
 10
71.4104413684
 20
101.74138071
 11
71.4613510699
 21
101.7152958643
  0
LINE
  5
7BB
100
AcDbEntity
  8
0
100
AcDbLine
 62
7
  6
CONTINUOUS
 10
74.563335711
 20
105.8868396547
 11
74.6714347691
 21
105.8312062884
  0
LINE
  5
7BC
100
AcDbEntity
  8
0
100
AcDbLine
 62
9
  6
CONTINUOUS
 10
70.6298099695
 20
95.9425888497
 11
70.5633482906
 21
95.9768282231
  0
LINE
  5
7BD
100
AcDbEntity
  8
0
100
AcDbLine
 62
9
  6
CONTINUOUS
 10
68.8852326511
 20
92.7526914629
 11
68.936661821
 21
92.7260479431
  0
LINE
  5
7BE
100
AcDbEntity
  8
0
100
AcDbLine
 62
9
  6
CONTINUOUS
 10
72.3692094923
 20
103.6323980145
 11
72.4800516865
 21
103.5745302815
  0
LINE
  5
7BF
100
AcDbEntity
  8
0
100
AcDbLine
 62
7
  6
CONTINUOUS
 10
27.835534671
 20
82.8834555544
 11
27.918059708
 21
82.840317093
  0
LINE
  5
7C0
100
AcDbEntity
  8
0
100
AcDbLine
 62
9
  6
CONTINUOUS
 10
35.9629700372
 20
86.9799987027
 11
35.9174891763
 21
87.0038228651
  0
LINE
  5
7C1
100
AcDbEntity
  8
0
100
AcDbLine
 62
9
  6
CONTINUOUS
 10
35.1870504197
 20
84.9904069632
 11
35.0890244084
 21
85.0421987552
  0
LINE
  5
7C2
100
AcDbEntity
  8
0
100
AcDbLine
 62
7
  6
CONTINUOUS
 10
27.9111401039
 20
82.8438483329
 11
27.8017654441
 21
82.9017731663
  0
LINE
  5
7C3
100
AcDbEntity
  8
0
100
AcDbLine
 62
7
  6
CONTINUOUS
 10
74.7496080698
 20
105.7885366134
 11
74.6556377183
 21
105.8395935353
  0
LINE
  5
7C4
100
AcDbEntity
  8
0
100
AcDbLine
 62
7
  6
CONTINUOUS
 10
27.7539256706
 20
82.9284009329
 11
27.835534671
 21
82.8834555544
  0
LINE
  5
7C5
100
AcDbEntity
  8
0
100
AcDbLine
 62
7
  6
CONTINUOUS
 10
74.6714347691
 20
105.8312062884
 11
74.7779563667
 21
105.772514801
  0
LINE
  5
7C6
100
AcDbEntity
  8
0
100
AcDbLine
 62
9
  6
CONTINUOUS
 10
70.6941297782
 20
95.9071358688
 11
70.6298099695
 21
95.9425888497
  0
LINE
  5
7C7
100
AcDbEntity
  8
0
100
AcDbLine
 62
9
  6
CONTINUOUS
 10
71.4613510699
 20
101.7152958643
 11
71.5114548158
 21
101.6876317635
  0
LINE
  5
7C8
100
AcDbEntity
  8
0
100
AcDbLine
 62
9
  6
CONTINUOUS
 10
68.8350018079
 20
92.780783753
 11
68.8852326511
 21
92.7526914629
  0
LINE
  5
7C9
100
AcDbEntity
  8
0
100
AcDbLine
 62
9
  6
CONTINUOUS
 10
72.4800516865
 20
103.5745302815
 11
72.5892388085
 21
103.5131408607
  0
LINE
  5
7CA
100
AcDbEntity
  8
0
100
AcDbLine
 62
9
  6
CONTINUOUS
 10
35.9174891763
 20
87.0038228651
 11
35.8712612072
 21
87.0298937335
  0
LINE
  5
7CB
100
AcDbEntity
  8
0
100
AcDbLine
 62
9
  6
CONTINUOUS
 10
35.0890244084
 20
85.0421987552
 11
34.9890688639
 21
85.0988204129
  0
LINE
  5
7CC
100
AcDbEntity
  8
0
100
AcDbLine
 62
7
  6
CONTINUOUS
 10
27.8017654441
 20
82.9017731663
 11
27.6940847917
 21
82.9628460166
  0
LINE
  5
7CD
100
AcDbEntity
  8
0
100
AcDbLine
 62
7
  6
CONTINUOUS
 10
74.8422637659
 20
105.7351604593
 11
74.7496080698
 21
105.7885366134
  0
LINE
  5
7CE
100
AcDbEntity
  8
0
100
AcDbLine
 62
7
  6
CONTINUOUS
 10
27.6732921078
 20
82.9751179831
 11
27.7539256706
 21
82.9284009329
  0
LINE
  5
7CF
100
AcDbEntity
  8
0
100
AcDbLine
 62
7
  6
CONTINUOUS
 10
74.7779563667
 20
105.772514801
 11
74.8827696315
 21
105.7108267822
  0
LINE
  5
7D0
100
AcDbEntity
  8
0
100
AcDbLine
 62
9
  6
CONTINUOUS
 10
71.5114548158
 20
101.6876317635
 11
71.5606959253
 21
101.6584107143
  0
LINE
  5
7D1
100
AcDbEntity
  8
0
100
AcDbLine
 62
9
  6
CONTINUOUS
 10
70.7556073811
 20
95.8705674877
 11
70.6941297782
 21
95.9071358688
  0
LINE
  5
7D2
100
AcDbEntity
  8
0
100
AcDbLine
 62
9
  6
CONTINUOUS
 10
68.7859721521
 20
92.8102844899
 11
68.8350018079
 21
92.780783753
  0
LINE
  5
7D3
100
AcDbEntity
  8
0
100
AcDbLine
 62
9
  6
CONTINUOUS
 10
72.5892388085
 20
103.5131408607
 11
72.6966682614
 21
103.4482625028
  0
LINE
  5
7D4
100
AcDbEntity
  8
0
100
AcDbLine
 62
7
  6
CONTINUOUS
 10
27.6940847917
 20
82.9628460166
 11
27.5881916798
 21
83.0270090595
  0
LINE
  5
7D5
100
AcDbEntity
  8
0
100
AcDbLine
 62
9
  6
CONTINUOUS
 10
35.8712612072
 20
87.0298937335
 11
35.8249385415
 21
87.0579843985
  0
LINE
  5
7D6
100
AcDbEntity
  8
0
100
AcDbLine
 62
9
  6
CONTINUOUS
 10
34.9890688639
 20
85.0988204129
 11
34.8881373374
 21
85.1600836558
  0
LINE
  5
7D7
100
AcDbEntity
  8
0
100
AcDbLine
 62
7
  6
CONTINUOUS
 10
27.5936762671
 20
83.0235822496
 11
27.6732921078
 21
82.9751179831
  0
LINE
  5
7D8
100
AcDbEntity
  8
0
100
AcDbLine
 62
7
  6
CONTINUOUS
 10
74.9335537107
 20
105.6794997094
 11
74.8422637659
 21
105.7351604593
  0
LINE
  5
7D9
100
AcDbEntity
  8
0
100
AcDbLine
 62
7
  6
CONTINUOUS
 10
74.8827696315
 20
105.7108267822
 11
74.9857927016
 21
105.6461974509
  0
LINE
  5
7DA
100
AcDbEntity
  8
0
100
AcDbLine
 62
9
  6
CONTINUOUS
 10
71.5606959253
 20
101.6584107143
 11
71.6091162649
 21
101.6275938997
  0
LINE
  5
7DB
100
AcDbEntity
  8
0
100
AcDbLine
 62
7
  6
CONTINUOUS
 10
27.5151250518
 20
83.0737654236
 11
27.5936762671
 21
83.0235822496
  0
LINE
  5
7DC
100
AcDbEntity
  8
0
100
AcDbLine
 62
9
  6
CONTINUOUS
 10
70.8123565652
 20
95.8341521458
 11
70.7556073811
 21
95.8705674877
  0
LINE
  5
7DD
100
AcDbEntity
  8
0
100
AcDbLine
 62
7
  6
CONTINUOUS
 10
75.0234027525
 20
105.6215970675
 11
74.9335537107
 21
105.6794997094
  0
LINE
  5
7DE
100
AcDbEntity
  8
0
100
AcDbLine
 62
9
  6
CONTINUOUS
 10
68.7381331508
 20
92.8411655466
 11
68.7859721521
 21
92.8102844899
  0
LINE
  5
7DF
100
AcDbEntity
  8
0
100
AcDbLine
 62
7
  6
CONTINUOUS
 10
27.5881916798
 20
83.0270090595
 11
27.4841629231
 21
83.0942165158
  0
LINE
  5
7E0
100
AcDbEntity
  8
0
100
AcDbLine
 62
9
  6
CONTINUOUS
 10
72.6966682614
 20
103.4482625028
 11
72.8021679633
 21
103.3799922755
  0
LINE
  5
7E1
100
AcDbEntity
  8
0
100
AcDbLine
 62
9
  6
CONTINUOUS
 10
34.8881373374
 20
85.1600836558
 11
34.7869190103
 21
85.2258575572
  0
LINE
  5
7E2
100
AcDbEntity
  8
0
100
AcDbLine
 62
9
  6
CONTINUOUS
 10
35.8249385415
 20
87.0579843985
 11
35.7792309383
 21
87.0877406191
  0
LINE
  5
7E3
100
AcDbEntity
  8
0
100
AcDbLine
 62
7
  6
CONTINUOUS
 10
74.9857927016
 20
105.6461974509
 11
75.0869179001
 21
105.5786892317
  0
LINE
  5
7E4
100
AcDbEntity
  8
0
100
AcDbLine
 62
7
  6
CONTINUOUS
 10
27.4376886016
 20
83.1256388124
 11
27.5151250518
 21
83.0737654236
  0
LINE
  5
7E5
100
AcDbEntity
  8
0
100
AcDbLine
 62
7
  6
CONTINUOUS
 10
75.1117748278
 20
105.5614799072
 11
75.0234027525
 21
105.6215970675
  0
LINE
  5
7E6
100
AcDbEntity
  8
0
100
AcDbLine
 62
9
  6
CONTINUOUS
 10
71.6091162649
 20
101.6275938997
 11
71.6567747556
 21
101.5951353193
  0
LINE
  5
7E7
100
AcDbEntity
  8
0
100
AcDbLine
 62
7
  6
CONTINUOUS
 10
27.4841629231
 20
83.0942165158
 11
27.3820949228
 21
83.1644091301
  0
LINE
  5
7E8
100
AcDbEntity
  8
0
100
AcDbLine
 62
9
  6
CONTINUOUS
 10
68.6914691098
 20
92.8734084212
 11
68.7381331508
 21
92.8411655466
  0
LINE
  5
7E9
100
AcDbEntity
  8
0
100
AcDbLine
 62
9
  6
CONTINUOUS
 10
70.8663895468
 20
95.7967841965
 11
70.8123565652
 21
95.8341521458
  0
LINE
  5
7EA
100
AcDbEntity
  8
0
100
AcDbLine
 62
9
  6
CONTINUOUS
 10
72.8021679633
 20
103.3799922755
 11
72.9054447544
 21
103.3085146032
  0
LINE
  5
7EB
100
AcDbEntity
  8
0
100
AcDbLine
 62
9
  6
CONTINUOUS
 10
34.7869190103
 20
85.2258575572
 11
34.686463216
 21
85.2956666351
  0
LINE
  5
7EC
100
AcDbEntity
  8
0
100
AcDbLine
 62
9
  6
CONTINUOUS
 10
35.7792309383
 20
87.0877406191
 11
35.7338438568
 21
87.1194019582
  0
LINE
  5
7ED
100
AcDbEntity
  8
0
100
AcDbLine
 62
7
  6
CONTINUOUS
 10
27.3613994917
 20
83.1791791121
 11
27.4376886016
 21
83.1256388124
  0
LINE
  5
7EE
100
AcDbEntity
  8
0
100
AcDbLine
 62
7
  6
CONTINUOUS
 10
75.0869179001
 20
105.5786892317
 11
75.1860917993
 21
105.5083420975
  0
LINE
  5
7EF
100
AcDbEntity
  8
0
100
AcDbLine
 62
7
  6
CONTINUOUS
 10
75.1986271773
 20
105.4991762285
 11
75.1117748278
 21
105.5614799072
  0
LINE
  5
7F0
100
AcDbEntity
  8
0
100
AcDbLine
 62
9
  6
CONTINUOUS
 10
71.6567747556
 20
101.5951353193
 11
71.7035036481
 21
101.5611423399
  0
LINE
  5
7F1
100
AcDbEntity
  8
0
100
AcDbLine
 62
7
  6
CONTINUOUS
 10
76.7922343652
 20
95.5375861976
 11
76.7991156095
 21
95.5325571791
  0
LINE
  5
7F2
100
AcDbEntity
  8
0
100
AcDbLine
 62
7
  6
CONTINUOUS
 10
27.3820949228
 20
83.1644091301
 11
27.2820773208
 21
83.2375396427
  0
LINE
  5
7F3
100
AcDbEntity
  8
0
100
AcDbLine
 62
7
  6
CONTINUOUS
 10
27.2862960832
 20
83.2343631208
 11
27.3613994917
 21
83.1791791121
  0
LINE
  5
7F4
100
AcDbEntity
  8
0
100
AcDbLine
 62
9
  6
CONTINUOUS
 10
68.6459805481
 20
92.9069893028
 11
68.6914691098
 21
92.8734084212
  0
LINE
  5
7F5
100
AcDbEntity
  8
0
100
AcDbLine
 62
9
  6
CONTINUOUS
 10
72.9054447544
 20
103.3085146032
 11
73.00639802
 21
103.2339199569
  0
LINE
  5
7F6
100
AcDbEntity
  8
0
100
AcDbLine
 62
9
  6
CONTINUOUS
 10
34.686463216
 20
85.2956666351
 11
34.5881254975
 21
85.3685949847
  0
LINE
  5
7F7
100
AcDbEntity
  8
0
100
AcDbLine
 62
9
  6
CONTINUOUS
 10
35.7338438568
 20
87.1194019582
 11
35.6887155913
 21
87.1530693016
  0
LINE
  5
7F8
100
AcDbEntity
  8
0
100
AcDbLine
 62
9
  6
CONTINUOUS
 10
70.9189764652
 20
95.7573390026
 11
70.8663895468
 21
95.7967841965
  0
LINE
  5
7F9
100
AcDbEntity
  8
0
100
AcDbLine
 62
7
  6
CONTINUOUS
 10
75.1860917993
 20
105.5083420975
 11
75.2832547039
 21
105.4351931478
  0
LINE
  5
7FA
100
AcDbEntity
  8
0
100
AcDbLine
 62
7
  6
CONTINUOUS
 10
75.2839047366
 20
105.434726856
 11
75.1986271773
 21
105.4991762285
  0
LINE
  5
7FB
100
AcDbEntity
  8
0
100
AcDbLine
 62
7
  6
CONTINUOUS
 10
76.7648457829
 20
93.1707478685
 11
76.7580764434
 21
93.1759228575
  0
LINE
  5
7FC
100
AcDbEntity
  8
0
100
AcDbLine
 62
7
  6
CONTINUOUS
 10
27.2124111586
 20
83.2911618391
 11
27.2862960832
 21
83.2343631208
  0
LINE
  5
7FD
100
AcDbEntity
  8
0
100
AcDbLine
 62
9
  6
CONTINUOUS
 10
71.7035036481
 20
101.5611423399
 11
71.749092468
 21
101.5257646858
  0
LINE
  5
7FE
100
AcDbEntity
  8
0
100
AcDbLine
 62
7
  6
CONTINUOUS
 10
27.2820773208
 20
83.2375396427
 11
27.1842072101
 21
83.3135262867
  0
LINE
  5
7FF
100
AcDbEntity
  8
0
100
AcDbLine
 62
9
  6
CONTINUOUS
 10
68.6016197569
 20
92.94192821
 11
68.6459805481
 21
92.9069893028
  0
LINE
  5
800
100
AcDbEntity
  8
0
100
AcDbLine
 62
9
  6
CONTINUOUS
 10
73.00639802
 20
103.2339199569
 11
73.1049921994
 21
103.1562592555
  0
LINE
  5
801
100
AcDbEntity
  8
0
100
AcDbLine
 62
9
  6
CONTINUOUS
 10
34.5881254975
 20
85.3685949847
 11
34.4916205095
 21
85.4448515302
  0
LINE
  5
802
100
AcDbEntity
  8
0
100
AcDbLine
 62
7
  6
CONTINUOUS
 10
75.3675567901
 20
105.3681654798
 11
75.2839047366
 21
105.434726856
  0
LINE
  5
803
100
AcDbEntity
  8
0
100
AcDbLine
 62
9
  6
CONTINUOUS
 10
35.6887155913
 20
87.1530693016
 11
35.6441171445
 21
87.1886033358
  0
LINE
  5
804
100
AcDbEntity
  8
0
100
AcDbLine
 62
7
  6
CONTINUOUS
 10
75.2832547039
 20
105.4351931478
 11
75.3783177391
 21
105.3593134276
  0
LINE
  5
805
100
AcDbEntity
  8
0
100
AcDbLine
 62
7
  6
CONTINUOUS
 10
27.1397763414
 20
83.3495496703
 11
27.2124111586
 21
83.2911618391
  0
LINE
  5
806
100
AcDbEntity
  8
0
100
AcDbLine
 62
9
  6
CONTINUOUS
 10
70.9698045693
 20
95.7162482129
 11
70.9189764652
 21
95.7573390026
  0
LINE
  5
807
100
AcDbEntity
  8
0
100
AcDbLine
 62
7
  6
CONTINUOUS
 10
27.1842072101
 20
83.3135262867
 11
27.0885855196
 21
83.3922945791
  0
LINE
  5
808
100
AcDbEntity
  8
0
100
AcDbLine
 62
9
  6
CONTINUOUS
 10
71.749092468
 20
101.5257646858
 11
71.7934230526
 21
101.4891038517
  0
LINE
  5
809
100
AcDbEntity
  8
0
100
AcDbLine
 62
7
  6
CONTINUOUS
 10
75.4495275323
 20
105.2995415044
 11
75.3675567901
 21
105.3681654798
  0
LINE
  5
80A
100
AcDbEntity
  8
0
100
AcDbLine
 62
9
  6
CONTINUOUS
 10
73.1049921994
 20
103.1562592555
 11
73.2011274332
 21
103.0755929417
  0
LINE
  5
80B
100
AcDbEntity
  8
0
100
AcDbLine
 62
9
  6
CONTINUOUS
 10
68.5583556336
 20
92.9782456711
 11
68.6016197569
 21
92.94192821
  0
LINE
  5
80C
100
AcDbEntity
  8
0
100
AcDbLine
 62
7
  6
CONTINUOUS
 10
27.0684334699
 20
83.409493204
 11
27.1397763414
 21
83.3495496703
  0
LINE
  5
80D
100
AcDbEntity
  8
0
100
AcDbLine
 62
9
  6
CONTINUOUS
 10
34.4916205095
 20
85.4448515302
 11
34.3969246205
 21
85.5245077116
  0
LINE
  5
80E
100
AcDbEntity
  8
0
100
AcDbLine
 62
7
  6
CONTINUOUS
 10
75.3783177391
 20
105.3593134276
 11
75.4712016958
 21
105.2807588863
  0
LINE
  5
80F
100
AcDbEntity
  8
0
100
AcDbLine
 62
9
  6
CONTINUOUS
 10
35.6441171445
 20
87.1886033358
 11
35.6002230951
 21
87.2259520524
  0
LINE
  5
810
100
AcDbEntity
  8
0
100
AcDbLine
 62
9
  6
CONTINUOUS
 10
71.0195477148
 20
95.6730020435
 11
70.9698045693
 21
95.7162482129
  0
LINE
  5
811
100
AcDbEntity
  8
0
100
AcDbLine
 62
7
  6
CONTINUOUS
 10
27.0885855196
 20
83.3922945791
 11
26.9952903825
 21
83.4737754091
  0
LINE
  5
812
100
AcDbEntity
  8
0
100
AcDbLine
 62
7
  6
CONTINUOUS
 10
26.9984311067
 20
83.4709545251
 11
27.0684334699
 21
83.409493204
  0
LINE
  5
813
100
AcDbEntity
  8
0
100
AcDbLine
 62
7
  6
CONTINUOUS
 10
75.529762723
 20
105.2288983624
 11
75.4495275323
 21
105.2995415044
  0
LINE
  5
814
100
AcDbEntity
  8
0
100
AcDbLine
 62
9
  6
CONTINUOUS
 10
71.7934230526
 20
101.4891038517
 11
71.8364019614
 21
101.4512407847
  0
LINE
  5
815
100
AcDbEntity
  8
0
100
AcDbLine
 62
9
  6
CONTINUOUS
 10
73.2011274332
 20
103.0755929417
 11
73.2948105618
 21
102.9918911014
  0
LINE
  5
816
100
AcDbEntity
  8
0
100
AcDbLine
 62
9
  6
CONTINUOUS
 10
68.5161706398
 20
93.0159631428
 11
68.5583556336
 21
92.9782456711
  0
LINE
  5
817
100
AcDbEntity
  8
0
100
AcDbLine
 62
9
  6
CONTINUOUS
 10
34.3969246205
 20
85.5245077116
 11
34.3040981809
 21
85.6075744102
  0
LINE
  5
818
100
AcDbEntity
  8
0
100
AcDbLine
 62
7
  6
CONTINUOUS
 10
75.4712016958
 20
105.2807588863
 11
75.5618178815
 21
105.1996119112
  0
LINE
  5
819
100
AcDbEntity
  8
0
100
AcDbLine
 62
9
  6
CONTINUOUS
 10
35.6002230951
 20
87.2259520524
 11
35.5572165438
 21
87.2650290976
  0
LINE
  5
81A
100
AcDbEntity
  8
0
100
AcDbLine
 62
7
  6
CONTINUOUS
 10
26.9297807023
 20
83.5339215519
 11
26.9984311067
 21
83.4709545251
  0
LINE
  5
81B
100
AcDbEntity
  8
0
100
AcDbLine
 62
7
  6
CONTINUOUS
 10
26.9952903825
 20
83.4737754091
 11
26.9044266557
 21
83.5578836338
  0
LINE
  5
81C
100
AcDbEntity
  8
0
100
AcDbLine
 62
7
  6
CONTINUOUS
 10
75.6082069498
 20
105.15628766
 11
75.529762723
 21
105.2288983624
  0
LINE
  5
81D
100
AcDbEntity
  8
0
100
AcDbLine
 62
9
  6
CONTINUOUS
 10
71.0664943783
 20
95.629193406
 11
71.0195477148
 21
95.6730020435
  0
LINE
  5
81E
100
AcDbEntity
  8
0
100
AcDbLine
 62
9
  6
CONTINUOUS
 10
71.8364019614
 20
101.4512407847
 11
71.8781700546
 21
101.4120486826
  0
LINE
  5
81F
100
AcDbEntity
  8
0
100
AcDbLine
 62
7
  6
CONTINUOUS
 10
75.5618178815
 20
105.1996119112
 11
75.6500696253
 21
105.1159537338
  0
LINE
  5
820
100
AcDbEntity
  8
0
100
AcDbLine
 62
9
  6
CONTINUOUS
 10
73.2948105618
 20
102.9918911014
 11
73.3858439068
 21
102.9053388255
  0
LINE
  5
821
100
AcDbEntity
  8
0
100
AcDbLine
 62
9
  6
CONTINUOUS
 10
34.3040981809
 20
85.6075744102
 11
34.2130528226
 21
85.6941967535
  0
LINE
  5
822
100
AcDbEntity
  8
0
100
AcDbLine
 62
9
  6
CONTINUOUS
 10
68.4750453754
 20
93.055115754
 11
68.5161706398
 21
93.0159631428
  0
LINE
  5
823
100
AcDbEntity
  8
0
100
AcDbLine
 62
7
  6
CONTINUOUS
 10
26.862500758
 20
83.5983788086
 11
26.9297807023
 21
83.5339215519
  0
LINE
  5
824
100
AcDbEntity
  8
0
100
AcDbLine
 62
9
  6
CONTINUOUS
 10
35.5572165438
 20
87.2650290976
 11
35.5150096053
 21
87.3059429353
  0
LINE
  5
825
100
AcDbEntity
  8
0
100
AcDbLine
 62
7
  6
CONTINUOUS
 10
75.6847983227
 20
105.0817627978
 11
75.6082069498
 21
105.15628766
  0
LINE
  5
826
100
AcDbEntity
  8
0
100
AcDbLine
 62
7
  6
CONTINUOUS
 10
26.9044266557
 20
83.5578836338
 11
26.8160150971
 21
83.6445928654
  0
LINE
  5
827
100
AcDbEntity
  8
0
100
AcDbLine
 62
9
  6
CONTINUOUS
 10
71.108968764
 20
95.5868676447
 11
71.0664943783
 21
95.629193406
  0
LINE
  5
828
100
AcDbEntity
  8
0
100
AcDbLine
 62
9
  6
CONTINUOUS
 10
71.8781700546
 20
101.4120486826
 11
71.9188601813
 21
101.3714057586
  0
LINE
  5
829
100
AcDbEntity
  8
0
100
AcDbLine
 62
7
  6
CONTINUOUS
 10
26.796618684
 20
83.6642985617
 11
26.862500758
 21
83.5983788086
  0
LINE
  5
82A
100
AcDbEntity
  8
0
100
AcDbLine
 62
7
  6
CONTINUOUS
 10
75.6500696253
 20
105.1159537338
 11
75.7359016534
 21
105.0298437715
  0
LINE
  5
82B
100
AcDbEntity
  8
0
100
AcDbLine
 62
9
  6
CONTINUOUS
 10
34.2130528226
 20
85.6941967535
 11
34.124757217
 21
85.7834855736
  0
LINE
  5
82C
100
AcDbEntity
  8
0
100
AcDbLine
 62
9
  6
CONTINUOUS
 10
73.3858439068
 20
102.9053388255
 11
73.4740466653
 21
102.8161111458
  0
LINE
  5
82D
100
AcDbEntity
  8
0
100
AcDbLine
 62
9
  6
CONTINUOUS
 10
68.4349912663
 20
93.0957209778
 11
68.4750453754
 21
93.055115754
  0
LINE
  5
82E
100
AcDbEntity
  8
0
100
AcDbLine
 62
7
  6
CONTINUOUS
 10
76.7991156095
 20
95.5325571791
 11
76.8060087306
 21
95.5255149626
  0
LINE
  5
82F
100
AcDbEntity
  8
0
100
AcDbLine
 62
7
  6
CONTINUOUS
 10
75.7595020346
 20
105.0053618253
 11
75.6847983227
 21
105.0817627978
  0
LINE
  5
830
100
AcDbEntity
  8
0
100
AcDbLine
 62
9
  6
CONTINUOUS
 10
35.5150096053
 20
87.3059429353
 11
35.4743946235
 21
87.347894387
  0
LINE
  5
831
100
AcDbEntity
  8
0
100
AcDbLine
 62
7
  6
CONTINUOUS
 10
26.8160150971
 20
83.6445928654
 11
26.7300899866
 21
83.7338681206
  0
LINE
  5
832
100
AcDbEntity
  8
0
100
AcDbLine
 62
7
  6
CONTINUOUS
 10
26.7321631559
 20
83.7316514231
 11
26.796618684
 21
83.6642985617
  0
LINE
  5
833
100
AcDbEntity
  8
0
100
AcDbLine
 62
9
  6
CONTINUOUS
 10
71.1483919546
 20
95.5450259531
 11
71.108968764
 21
95.5868676447
  0
LINE
  5
834
100
AcDbEntity
  8
0
100
AcDbLine
 62
7
  6
CONTINUOUS
 10
75.7359016534
 20
105.0298437715
 11
75.8192374703
 21
104.9413559106
  0
LINE
  5
835
100
AcDbEntity
  8
0
100
AcDbLine
 62
9
  6
CONTINUOUS
 10
71.9188601813
 20
101.3714057586
 11
71.9583863889
 21
101.3293926012
  0
LINE
  5
836
100
AcDbEntity
  8
0
100
AcDbLine
 62
9
  6
CONTINUOUS
 10
34.124757217
 20
85.7834855736
 11
34.0394993875
 21
85.8750617757
  0
LINE
  5
837
100
AcDbEntity
  8
0
100
AcDbLine
 62
7
  6
CONTINUOUS
 10
75.8322705499
 20
104.9271318036
 11
75.7595020346
 21
105.0053618253
  0
LINE
  5
838
100
AcDbEntity
  8
0
100
AcDbLine
 62
9
  6
CONTINUOUS
 10
73.4740466653
 20
102.8161111458
 11
73.5594471581
 21
102.72419916
  0
LINE
  5
839
100
AcDbEntity
  8
0
100
AcDbLine
 62
9
  6
CONTINUOUS
 10
68.3960158932
 20
93.1378092995
 11
68.4349912663
 21
93.0957209778
  0
LINE
  5
83A
100
AcDbEntity
  8
0
100
AcDbLine
 62
7
  6
CONTINUOUS
 10
76.7580764434
 20
93.1759228575
 11
76.7513872056
 21
93.1831496691
  0
LINE
  5
83B
100
AcDbEntity
  8
0
100
AcDbLine
 62
7
  6
CONTINUOUS
 10
26.6691488791
 20
83.8004268802
 11
26.7321631559
 21
83.7316514231
  0
LINE
  5
83C
100
AcDbEntity
  8
0
100
AcDbLine
 62
9
  6
CONTINUOUS
 10
35.4743946235
 20
87.347894387
 11
35.4360506667
 21
87.3900543643
  0
LINE
  5
83D
100
AcDbEntity
  8
0
100
AcDbLine
 62
7
  6
CONTINUOUS
 10
26.7300899866
 20
83.7338681206
 11
26.6467156158
 21
83.8256500426
  0
LINE
  5
83E
100
AcDbEntity
  8
0
100
AcDbLine
 62
7
  6
CONTINUOUS
 10
75.8192374703
 20
104.9413559106
 11
75.9000440708
 21
104.8505279751
  0
LINE
  5
83F
100
AcDbEntity
  8
0
100
AcDbLine
 62
9
  6
CONTINUOUS
 10
71.1853325172
 20
95.5033217813
 11
71.1483919546
 21
95.5450259531
  0
LINE
  5
840
100
AcDbEntity
  8
0
100
AcDbLine
 62
7
  6
CONTINUOUS
 10
75.9030801634
 20
104.8470990982
 11
75.8322705499
 21
104.9271318036
  0
LINE
  5
841
100
AcDbEntity
  8
0
100
AcDbLine
 62
9
  6
CONTINUOUS
 10
71.9583863889
 20
101.3293926012
 11
71.9966351032
 21
101.2861123198
  0
LINE
  5
842
100
AcDbEntity
  8
0
100
AcDbLine
 62
7
  6
CONTINUOUS
 10
26.6075879545
 20
83.8706186021
 11
26.6691488791
 21
83.8004268802
  0
LINE
  5
843
100
AcDbEntity
  8
0
100
AcDbLine
 62
9
  6
CONTINUOUS
 10
34.0394993875
 20
85.8750617757
 11
33.9583317761
 21
85.9676248447
  0
LINE
  5
844
100
AcDbEntity
  8
0
100
AcDbLine
 62
9
  6
CONTINUOUS
 10
73.5594471581
 20
102.72419916
 11
73.6420267808
 21
102.6296502541
  0
LINE
  5
845
100
AcDbEntity
  8
0
100
AcDbLine
 62
9
  6
CONTINUOUS
 10
68.3581462451
 20
93.1814000453
 11
68.3960158932
 21
93.1378092995
  0
LINE
  5
846
100
AcDbEntity
  8
0
100
AcDbLine
 62
7
  6
CONTINUOUS
 10
26.6467156158
 20
83.8256500426
 11
26.5658921202
 21
83.9199682444
  0
LINE
  5
847
100
AcDbEntity
  8
0
100
AcDbLine
 62
9
  6
CONTINUOUS
 10
35.4360506667
 20
87.3900543643
 11
35.4001060615
 21
87.4320731422
  0
LINE
  5
848
100
AcDbEntity
  8
0
100
AcDbLine
 62
7
  6
CONTINUOUS
 10
75.971907689
 20
104.765285995
 11
75.9030801634
 21
104.8470990982
  0
LINE
  5
849
100
AcDbEntity
  8
0
100
AcDbLine
 62
7
  6
CONTINUOUS
 10
75.9000440708
 20
104.8505279751
 11
75.9782893402
 21
104.7573895825
  0
LINE
  5
84A
100
AcDbEntity
  8
0
100
AcDbLine
 62
7
  6
CONTINUOUS
 10
26.5475168723
 20
83.9421846562
 11
26.6075879545
 21
83.8706186021
  0
LINE
  5
84B
100
AcDbEntity
  8
0
100
AcDbLine
 62
9
  6
CONTINUOUS
 10
71.2203169166
 20
95.4613608761
 11
71.1853325172
 21
95.5033217813
  0
LINE
  5
84C
100
AcDbEntity
  8
0
100
AcDbLine
 62
9
  6
CONTINUOUS
 10
71.9966351032
 20
101.2861123198
 11
72.0334488047
 21
101.2417379248
  0
LINE
  5
84D
100
AcDbEntity
  8
0
100
AcDbLine
 62
9
  6
CONTINUOUS
 10
33.9583317761
 20
85.9676248447
 11
33.8821434103
 21
86.0597319395
  0
LINE
  5
84E
100
AcDbEntity
  8
0
100
AcDbLine
 62
9
  6
CONTINUOUS
 10
73.6420267808
 20
102.6296502541
 11
73.7217648565
 21
102.5324574587
  0
LINE
  5
84F
100
AcDbEntity
  8
0
100
AcDbLine
 62
9
  6
CONTINUOUS
 10
68.3214117981
 20
93.2265178803
 11
68.3581462451
 21
93.1814000453
  0
LINE
  5
850
100
AcDbEntity
  8
0
100
AcDbLine
 62
7
  6
CONTINUOUS
 10
26.5658921202
 20
83.9199682444
 11
26.4878462487
 21
84.0165208341
  0
LINE
  5
851
100
AcDbEntity
  8
0
100
AcDbLine
 62
9
  6
CONTINUOUS
 10
35.4001060615
 20
87.4320731422
 11
35.3667672232
 21
87.4734325454
  0
LINE
  5
852
100
AcDbEntity
  8
0
100
AcDbLine
 62
7
  6
CONTINUOUS
 10
26.4889105635
 20
84.0151698997
 11
26.5475168723
 21
83.9421846562
  0
LINE
  5
853
100
AcDbEntity
  8
0
100
AcDbLine
 62
7
  6
CONTINUOUS
 10
76.038704034
 20
104.6817517933
 11
75.971907689
 21
104.765285995
  0
LINE
  5
854
100
AcDbEntity
  8
0
100
AcDbLine
 62
7
  6
CONTINUOUS
 10
75.9782893402
 20
104.7573895825
 11
76.0538941115
 21
104.6620392391
  0
LINE
  5
855
100
AcDbEntity
  8
0
100
AcDbLine
 62
9
  6
CONTINUOUS
 10
71.2540061363
 20
95.4184252758
 11
71.2203169166
 21
95.4613608761
  0
LINE
  5
856
100
AcDbEntity
  8
0
100
AcDbLine
 62
9
  6
CONTINUOUS
 10
33.8821434103
 20
86.0597319395
 11
33.8111466182
 21
86.150613844
  0
LINE
  5
857
100
AcDbEntity
  8
0
100
AcDbLine
 62
9
  6
CONTINUOUS
 10
72.0334488047
 20
101.2417379248
 11
72.0687229934
 21
101.1963956413
  0
LINE
  5
858
100
AcDbEntity
  8
0
100
AcDbLine
 62
9
  6
CONTINUOUS
 10
73.7217648565
 20
102.5324574587
 11
73.798536328
 21
102.4327265385
  0
LINE
  5
859
100
AcDbEntity
  8
0
100
AcDbLine
 62
7
  6
CONTINUOUS
 10
26.4319658063
 20
84.0893076316
 11
26.4889105635
 21
84.0151698997
  0
LINE
  5
85A
100
AcDbEntity
  8
0
100
AcDbLine
 62
9
  6
CONTINUOUS
 10
68.2858472572
 20
93.2731903483
 11
68.3214117981
 21
93.2265178803
  0
LINE
  5
85B
100
AcDbEntity
  8
0
100
AcDbLine
 62
7
  6
CONTINUOUS
 10
26.4878462487
 20
84.0165208341
 11
26.4127510981
 21
84.1151020385
  0
LINE
  5
85C
100
AcDbEntity
  8
0
100
AcDbLine
 62
7
  6
CONTINUOUS
 10
76.8060087306
 20
95.5255149626
 11
76.8128977779
 21
95.5164702528
  0
LINE
  5
85D
100
AcDbEntity
  8
0
100
AcDbLine
 62
9
  6
CONTINUOUS
 10
35.3667672232
 20
87.4734325454
 11
35.3359909797
 21
87.5138597855
  0
LINE
  5
85E
100
AcDbEntity
  8
0
100
AcDbLine
 62
7
  6
CONTINUOUS
 10
76.1034375935
 20
104.5965268486
 11
76.038704034
 21
104.6817517933
  0
LINE
  5
85F
100
AcDbEntity
  8
0
100
AcDbLine
 62
7
  6
CONTINUOUS
 10
76.0538941115
 20
104.6620392391
 11
76.1268049234
 21
104.5645309579
  0
LINE
  5
860
100
AcDbEntity
  8
0
100
AcDbLine
 62
9
  6
CONTINUOUS
 10
33.8111466182
 20
86.150613844
 11
33.7457513193
 21
86.2390878563
  0
LINE
  5
861
100
AcDbEntity
  8
0
100
AcDbLine
 62
9
  6
CONTINUOUS
 10
71.286209197
 20
95.374768519
 11
71.2540061363
 21
95.4184252758
  0
LINE
  5
862
100
AcDbEntity
  8
0
100
AcDbLine
 62
7
  6
CONTINUOUS
 10
26.3768728712
 20
84.1643532974
 11
26.4319658063
 21
84.0893076316
  0
LINE
  5
863
100
AcDbEntity
  8
0
100
AcDbLine
 62
9
  6
CONTINUOUS
 10
72.0687229934
 20
101.1963956413
 11
72.1024956837
 21
101.1500435142
  0
LINE
  5
864
100
AcDbEntity
  8
0
100
AcDbLine
 62
9
  6
CONTINUOUS
 10
73.798536328
 20
102.4327265385
 11
73.8721271723
 21
102.330739081
  0
LINE
  5
865
100
AcDbEntity
  8
0
100
AcDbLine
 62
7
  6
CONTINUOUS
 10
76.1660327179
 20
104.5097202792
 11
76.1034375935
 21
104.5965268486
  0
LINE
  5
866
100
AcDbEntity
  8
0
100
AcDbLine
 62
9
  6
CONTINUOUS
 10
35.3359909797
 20
87.5138597855
 11
35.3078721686
 21
87.5528772826
  0
LINE
  5
867
100
AcDbEntity
  8
0
100
AcDbLine
 62
7
  6
CONTINUOUS
 10
26.4127510981
 20
84.1151020385
 11
26.3407677598
 21
84.2154531149
  0
LINE
  5
868
100
AcDbEntity
  8
0
100
AcDbLine
 62
7
  6
CONTINUOUS
 10
76.7513872056
 20
93.1831496691
 11
76.744793216
 21
93.1924056289
  0
LINE
  5
869
100
AcDbEntity
  8
0
100
AcDbLine
 62
9
  6
CONTINUOUS
 10
68.2514970394
 20
93.3214419192
 11
68.2858472572
 21
93.2731903483
  0
LINE
  5
86A
100
AcDbEntity
  8
0
100
AcDbLine
 62
7
  6
CONTINUOUS
 10
76.1268049234
 20
104.5645309579
 11
76.1969125446
 21
104.465027836
  0
LINE
  5
86B
100
AcDbEntity
  8
0
100
AcDbLine
 62
7
  6
CONTINUOUS
 10
26.3236262118
 20
84.2402853154
 11
26.3768728712
 21
84.1643532974
  0
LINE
  5
86C
100
AcDbEntity
  8
0
100
AcDbLine
 62
9
  6
CONTINUOUS
 10
33.7457513193
 20
86.2390878563
 11
33.6857594355
 21
86.3246915412
  0
LINE
  5
86D
100
AcDbEntity
  8
0
100
AcDbLine
 62
9
  6
CONTINUOUS
 10
71.3169671642
 20
95.3303602969
 11
71.286209197
 21
95.374768519
  0
LINE
  5
86E
100
AcDbEntity
  8
0
100
AcDbLine
 62
7
  6
CONTINUOUS
 10
76.226424746
 20
104.4214152226
 11
76.1660327179
 21
104.5097202792
  0
LINE
  5
86F
100
AcDbEntity
  8
0
100
AcDbLine
 62
9
  6
CONTINUOUS
 10
35.3078721686
 20
87.5528772826
 11
35.2822324871
 21
87.5903764084
  0
LINE
  5
870
100
AcDbEntity
  8
0
100
AcDbLine
 62
9
  6
CONTINUOUS
 10
72.1024956837
 20
101.1500435142
 11
72.1347948026
 21
101.1026604983
  0
LINE
  5
871
100
AcDbEntity
  8
0
100
AcDbLine
 62
9
  6
CONTINUOUS
 10
73.8721271723
 20
102.330739081
 11
73.9424649904
 21
102.2265994407
  0
LINE
  5
872
100
AcDbEntity
  8
0
100
AcDbLine
 62
7
  6
CONTINUOUS
 10
26.3407677598
 20
84.2154531149
 11
26.2722897607
 21
84.3169677959
  0
LINE
  5
873
100
AcDbEntity
  8
0
100
AcDbLine
 62
7
  6
CONTINUOUS
 10
26.2723501648
 20
84.3169005681
 11
26.3236262118
 21
84.2402853154
  0
LINE
  5
874
100
AcDbEntity
  8
0
100
AcDbLine
 62
9
  6
CONTINUOUS
 10
33.6857594355
 20
86.3246915412
 11
33.6312085561
 21
86.40660076
  0
LINE
  5
875
100
AcDbEntity
  8
0
100
AcDbLine
 62
9
  6
CONTINUOUS
 10
68.2184010287
 20
93.3713145585
 11
68.2514970394
 21
93.3214419192
  0
LINE
  5
876
100
AcDbEntity
  8
0
100
AcDbLine
 62
7
  6
CONTINUOUS
 10
76.1969125446
 20
104.465027836
 11
76.2641042528
 21
104.3636833898
  0
LINE
  5
877
100
AcDbEntity
  8
0
100
AcDbLine
 62
9
  6
CONTINUOUS
 10
35.2822324871
 20
87.5903764084
 11
35.259040747
 21
87.6260529786
  0
LINE
  5
878
100
AcDbEntity
  8
0
100
AcDbLine
 62
9
  6
CONTINUOUS
 10
71.3462232038
 20
95.2853112862
 11
71.3169671642
 21
95.3303602969
  0
LINE
  5
879
100
AcDbEntity
  8
0
100
AcDbLine
 62
7
  6
CONTINUOUS
 10
76.2845491076
 20
104.3317199777
 11
76.226424746
 21
104.4214152226
  0
LINE
  5
87A
100
AcDbEntity
  8
0
100
AcDbLine
 62
7
  6
CONTINUOUS
 10
26.2228453516
 20
84.3944991085
 11
26.2723501648
 21
84.3169005681
  0
LINE
  5
87B
100
AcDbEntity
  8
0
100
AcDbLine
 62
9
  6
CONTINUOUS
 10
72.1347948026
 20
101.1026604983
 11
72.1656079975
 21
101.0542697465
  0
LINE
  5
87C
100
AcDbEntity
  8
0
100
AcDbLine
 62
9
  6
CONTINUOUS
 10
33.6312085561
 20
86.40660076
 11
33.5815157109
 21
86.4849503073
  0
LINE
  5
87D
100
AcDbEntity
  8
0
100
AcDbLine
 62
7
  6
CONTINUOUS
 10
26.2722897607
 20
84.3169677959
 11
26.2067928918
 21
84.4204828836
  0
LINE
  5
87E
100
AcDbEntity
  8
0
100
AcDbLine
 62
9
  6
CONTINUOUS
 10
73.9424649904
 20
102.2265994407
 11
74.0095892532
 21
102.1202483816
  0
LINE
  5
87F
100
AcDbEntity
  8
0
100
AcDbLine
 62
7
  6
CONTINUOUS
 10
76.2641042528
 20
104.3636833898
 11
76.3283370606
 21
104.2605803739
  0
LINE
  5
880
100
AcDbEntity
  8
0
100
AcDbLine
 62
7
  6
CONTINUOUS
 10
76.8128977779
 20
95.5164702528
 11
76.819770251
 21
95.5054337915
  0
LINE
  5
881
100
AcDbEntity
  8
0
100
AcDbLine
 62
9
  6
CONTINUOUS
 10
35.259040747
 20
87.6260529786
 11
35.2378902938
 21
87.6601920476
  0
LINE
  5
882
100
AcDbEntity
  8
0
100
AcDbLine
 62
9
  6
CONTINUOUS
 10
68.1866109375
 20
93.4228469702
 11
68.2184010287
 21
93.3713145585
  0
LINE
  5
883
100
AcDbEntity
  8
0
100
AcDbLine
 62
7
  6
CONTINUOUS
 10
76.3402950974
 20
104.2408112767
 11
76.2845491076
 21
104.3317199777
  0
LINE
  5
884
100
AcDbEntity
  8
0
100
AcDbLine
 62
7
  6
CONTINUOUS
 10
26.175047205
 20
84.4731297696
 11
26.2228453516
 21
84.3944991085
  0
LINE
  5
885
100
AcDbEntity
  8
0
100
AcDbLine
 62
9
  6
CONTINUOUS
 10
71.37391027
 20
95.2397654559
 11
71.3462232038
 21
95.2853112862
  0
LINE
  5
886
100
AcDbEntity
  8
0
100
AcDbLine
 62
9
  6
CONTINUOUS
 10
33.5815157109
 20
86.4849503073
 11
33.5364529549
 21
86.5594520357
  0
LINE
  5
887
100
AcDbEntity
  8
0
100
AcDbLine
 62
9
  6
CONTINUOUS
 10
72.1656079975
 20
101.0542697465
 11
72.1949787208
 21
101.0047781737
  0
LINE
  5
888
100
AcDbEntity
  8
0
100
AcDbLine
 62
7
  6
CONTINUOUS
 10
26.2067928918
 20
84.4204828836
 11
26.1438030424
 21
84.5267646394
  0
LINE
  5
889
100
AcDbEntity
  8
0
100
AcDbLine
 62
9
  6
CONTINUOUS
 10
35.2378902938
 20
87.6601920476
 11
35.2183606781
 21
87.6932144189
  0
LINE
  5
88A
100
AcDbEntity
  8
0
100
AcDbLine
 62
9
  6
CONTINUOUS
 10
74.0095892532
 20
102.1202483816
 11
74.073287556
 21
102.0120454104
  0
LINE
  5
88B
100
AcDbEntity
  8
0
100
AcDbLine
 62
7
  6
CONTINUOUS
 10
76.3283370606
 20
104.2605803739
 11
76.389479384
 21
104.1559496663
  0
LINE
  5
88C
100
AcDbEntity
  8
0
100
AcDbLine
 62
7
  6
CONTINUOUS
 10
76.39373646
 20
104.1485669567
 11
76.3402950974
 21
104.2408112767
  0
LINE
  5
88D
100
AcDbEntity
  8
0
100
AcDbLine
 62
7
  6
CONTINUOUS
 10
26.1286756274
 20
84.5533430938
 11
26.175047205
 21
84.4731297696
  0
LINE
  5
88E
100
AcDbEntity
  8
0
100
AcDbLine
 62
9
  6
CONTINUOUS
 10
33.5364529549
 20
86.5594520357
 11
33.4952959733
 21
86.6306367923
  0
LINE
  5
88F
100
AcDbEntity
  8
0
100
AcDbLine
 62
7
  6
CONTINUOUS
 10
76.744793216
 20
93.1924056289
 11
76.7383046841
 21
93.2036662183
  0
LINE
  5
890
100
AcDbEntity
  8
0
100
AcDbLine
 62
9
  6
CONTINUOUS
 10
68.1561865451
 20
93.4760795458
 11
68.1866109375
 21
93.4228469702
  0
LINE
  5
891
100
AcDbEntity
  8
0
100
AcDbLine
 62
9
  6
CONTINUOUS
 10
71.40012679
 20
95.1936067156
 11
71.37391027
 21
95.2397654559
  0
LINE
  5
892
100
AcDbEntity
  8
0
100
AcDbLine
 62
9
  6
CONTINUOUS
 10
35.2183606781
 20
87.6932144189
 11
35.2003247546
 21
87.7251484236
  0
LINE
  5
893
100
AcDbEntity
  8
0
100
AcDbLine
 62
7
  6
CONTINUOUS
 10
26.1438030424
 20
84.5267646394
 11
26.0835634438
 21
84.6354184192
  0
LINE
  5
894
100
AcDbEntity
  8
0
100
AcDbLine
 62
9
  6
CONTINUOUS
 10
33.4952959733
 20
86.6306367923
 11
33.4573704104
 21
86.6990820899
  0
LINE
  5
895
100
AcDbEntity
  8
0
100
AcDbLine
 62
9
  6
CONTINUOUS
 10
72.1949787208
 20
101.0047781737
 11
72.2225938315
 21
100.9547274591
  0
LINE
  5
896
100
AcDbEntity
  8
0
100
AcDbLine
 62
7
  6
CONTINUOUS
 10
26.0832429681
 20
84.6360409701
 11
26.1286756274
 21
84.5533430938
  0
LINE
  5
897
100
AcDbEntity
  8
0
100
AcDbLine
 62
9
  6
CONTINUOUS
 10
74.073287556
 20
102.0120454104
 11
74.1337229428
 21
101.9017106986
  0
LINE
  5
898
100
AcDbEntity
  8
0
100
AcDbLine
 62
7
  6
CONTINUOUS
 10
76.389479384
 20
104.1559496663
 11
76.4476842903
 21
104.0495004128
  0
LINE
  5
899
100
AcDbEntity
  8
0
100
AcDbLine
 62
7
  6
CONTINUOUS
 10
76.4448851838
 20
104.0549840793
 11
76.39373646
 21
104.1485669567
  0
LINE
  5
89A
100
AcDbEntity
  8
0
100
AcDbLine
 62
9
  6
CONTINUOUS
 10
35.2003247546
 20
87.7251484236
 11
35.1837240866
 21
87.7558510271
  0
LINE
  5
89B
100
AcDbEntity
  8
0
100
AcDbLine
 62
9
  6
CONTINUOUS
 10
33.4573704104
 20
86.6990820899
 11
33.4228923883
 21
86.7639104576
  0
LINE
  5
89C
100
AcDbEntity
  8
0
100
AcDbLine
 62
9
  6
CONTINUOUS
 10
71.4249233529
 20
95.1467622583
 11
71.40012679
 21
95.1936067156
  0
LINE
  5
89D
100
AcDbEntity
  8
0
100
AcDbLine
 62
9
  6
CONTINUOUS
 10
68.1271790409
 20
93.5310883699
 11
68.1561865451
 21
93.4760795458
  0
LINE
  5
89E
100
AcDbEntity
  8
0
100
AcDbLine
 62
7
  6
CONTINUOUS
 10
76.819770251
 20
95.5054337915
 11
76.8266146006
 21
95.4924183625
  0
LINE
  5
89F
100
AcDbEntity
  8
0
100
AcDbLine
 62
7
  6
CONTINUOUS
 10
26.0393073189
 20
84.7202181919
 11
26.0832429681
 21
84.6360409701
  0
LINE
  5
8A0
100
AcDbEntity
  8
0
100
AcDbLine
 62
9
  6
CONTINUOUS
 10
35.1837240866
 20
87.7558510271
 11
35.169031416
 21
87.7841170941
  0
LINE
  5
8A1
100
AcDbEntity
  8
0
100
AcDbLine
 62
7
  6
CONTINUOUS
 10
26.0835634438
 20
84.6354184192
 11
26.0261122299
 21
84.7463392335
  0
LINE
  5
8A2
100
AcDbEntity
  8
0
100
AcDbLine
 62
7
  6
CONTINUOUS
 10
76.4938158311
 20
103.9598817032
 11
76.4448851838
 21
104.0549840793
  0
LINE
  5
8A3
100
AcDbEntity
  8
0
100
AcDbLine
 62
9
  6
CONTINUOUS
 10
72.2225938315
 20
100.9547274591
 11
72.2484213787
 21
100.9042461524
  0
LINE
  5
8A4
100
AcDbEntity
  8
0
100
AcDbLine
 62
7
  6
CONTINUOUS
 10
76.4476842903
 20
104.0495004128
 11
76.5030764925
 21
103.9410130147
  0
LINE
  5
8A5
100
AcDbEntity
  8
0
100
AcDbLine
 62
9
  6
CONTINUOUS
 10
33.4228923883
 20
86.7639104576
 11
33.3916203734
 21
86.8251810786
  0
LINE
  5
8A6
100
AcDbEntity
  8
0
100
AcDbLine
 62
9
  6
CONTINUOUS
 10
74.1337229428
 20
101.9017106986
 11
74.1899098013
 21
101.7911769055
  0
LINE
  5
8A7
100
AcDbEntity
  8
0
100
AcDbLine
 62
9
  6
CONTINUOUS
 10
35.169031416
 20
87.7841170941
 11
35.1564256684
 21
87.8093584177
  0
LINE
  5
8A8
100
AcDbEntity
  8
0
100
AcDbLine
 62
7
  6
CONTINUOUS
 10
25.9972566763
 20
84.805188027
 11
26.0393073189
 21
84.7202181919
  0
LINE
  5
8A9
100
AcDbEntity
  8
0
100
AcDbLine
 62
9
  6
CONTINUOUS
 10
71.4483134989
 20
95.099202658
 11
71.4249233529
 21
95.1467622583
  0
LINE
  5
8AA
100
AcDbEntity
  8
0
100
AcDbLine
 62
9
  6
CONTINUOUS
 10
33.3916203734
 20
86.8251810786
 11
33.3628579579
 21
86.8838459907
  0
LINE
  5
8AB
100
AcDbEntity
  8
0
100
AcDbLine
 62
9
  6
CONTINUOUS
 10
68.0997227186
 20
93.5878033908
 11
68.1271790409
 21
93.5310883699
  0
LINE
  5
8AC
100
AcDbEntity
  8
0
100
AcDbLine
 62
7
  6
CONTINUOUS
 10
76.5406581998
 20
103.8629808506
 11
76.4938158311
 21
103.9598817032
  0
LINE
  5
8AD
100
AcDbEntity
  8
0
100
AcDbLine
 62
7
  6
CONTINUOUS
 10
26.0261122299
 20
84.7463392335
 11
25.9715905822
 21
84.8594243802
  0
LINE
  5
8AE
100
AcDbEntity
  8
0
100
AcDbLine
 62
7
  6
CONTINUOUS
 10
76.7383046841
 20
93.2036662183
 11
76.7319320741
 21
93.216903329
  0
LINE
  5
8AF
100
AcDbEntity
  8
0
100
AcDbLine
 62
9
  6
CONTINUOUS
 10
35.1564256684
 20
87.8093584177
 11
35.1449014904
 21
87.833442695
  0
LINE
  5
8B0
100
AcDbEntity
  8
0
100
AcDbLine
 62
7
  6
CONTINUOUS
 10
76.5030764925
 20
103.9410130147
 11
76.5556094702
 21
103.8305045823
  0
LINE
  5
8B1
100
AcDbEntity
  8
0
100
AcDbLine
 62
9
  6
CONTINUOUS
 10
72.2484213787
 20
100.9042461524
 11
72.2719695658
 21
100.8545025774
  0
LINE
  5
8B2
100
AcDbEntity
  8
0
100
AcDbLine
 62
9
  6
CONTINUOUS
 10
33.3628579579
 20
86.8838459907
 11
33.3366833121
 21
86.9393683997
  0
LINE
  5
8B3
100
AcDbEntity
  8
0
100
AcDbLine
 62
9
  6
CONTINUOUS
 10
74.1899098013
 20
101.7911769055
 11
74.241327594
 21
101.6819930202
  0
LINE
  5
8B4
100
AcDbEntity
  8
0
100
AcDbLine
 62
7
  6
CONTINUOUS
 10
25.9571136753
 20
84.8908969409
 11
25.9972566763
 21
84.805188027
  0
LINE
  5
8B5
100
AcDbEntity
  8
0
100
AcDbLine
 62
9
  6
CONTINUOUS
 10
35.1449014904
 20
87.833442695
 11
35.1337392243
 21
87.857659717
  0
LINE
  5
8B6
100
AcDbEntity
  8
0
100
AcDbLine
 62
9
  6
CONTINUOUS
 10
33.3366833121
 20
86.9393683997
 11
33.3134440794
 21
86.9904386136
  0
LINE
  5
8B7
100
AcDbEntity
  8
0
100
AcDbLine
 62
9
  6
CONTINUOUS
 10
71.4703278656
 20
95.0508409808
 11
71.4483134989
 21
95.099202658
  0
LINE
  5
8B8
100
AcDbEntity
  8
0
100
AcDbLine
 62
7
  6
CONTINUOUS
 10
76.8266146006
 20
95.4924183625
 11
76.833412432
 21
95.4774527513
  0
LINE
  5
8B9
100
AcDbEntity
  8
0
100
AcDbLine
 62
7
  6
CONTINUOUS
 10
76.5852585714
 20
103.7645726928
 11
76.5406581998
 21
103.8629808506
  0
LINE
  5
8BA
100
AcDbEntity
  8
0
100
AcDbLine
 62
9
  6
CONTINUOUS
 10
35.1337392243
 20
87.857659717
 11
35.1226661308
 21
87.8823778412
  0
LINE
  5
8BB
100
AcDbEntity
  8
0
100
AcDbLine
 62
7
  6
CONTINUOUS
 10
25.9715905822
 20
84.8594243802
 11
25.9208617597
 21
84.973076699
  0
LINE
  5
8BC
100
AcDbEntity
  8
0
100
AcDbLine
 62
7
  6
CONTINUOUS
 10
25.9196815229
 20
84.9755341928
 11
25.9571136753
 21
84.8908969409
  0
LINE
  5
8BD
100
AcDbEntity
  8
0
100
AcDbLine
 62
9
  6
CONTINUOUS
 10
33.3134440794
 20
86.9904386136
 11
33.2932293524
 21
87.0361421327
  0
LINE
  5
8BE
100
AcDbEntity
  8
0
100
AcDbLine
 62
9
  6
CONTINUOUS
 10
68.0739157102
 20
93.6462197512
 11
68.0997227186
 21
93.5878033908
  0
LINE
  5
8BF
100
AcDbEntity
  8
0
100
AcDbLine
 62
7
  6
CONTINUOUS
 10
76.5556094702
 20
103.8305045823
 11
76.6054698035
 21
103.7174320634
  0
LINE
  5
8C0
100
AcDbEntity
  8
0
100
AcDbLine
 62
9
  6
CONTINUOUS
 10
35.1226661308
 20
87.8823778412
 11
35.1115726962
 21
87.9076720454
  0
LINE
  5
8C1
100
AcDbEntity
  8
0
100
AcDbLine
 62
9
  6
CONTINUOUS
 10
72.2719695658
 20
100.8545025774
 11
72.2928402637
 21
100.8068216253
  0
LINE
  5
8C2
100
AcDbEntity
  8
0
100
AcDbLine
 62
9
  6
CONTINUOUS
 10
74.241327594
 20
101.6819930202
 11
74.2876601948
 21
101.5756497921
  0
LINE
  5
8C3
100
AcDbEntity
  8
0
100
AcDbLine
 62
9
  6
CONTINUOUS
 10
33.2932293524
 20
87.0361421327
 11
33.2597973882
 21
87.1136768281
  0
LINE
  5
8C4
100
AcDbEntity
  8
0
100
AcDbLine
 62
9
  6
CONTINUOUS
 10
35.1115726962
 20
87.9076720454
 11
35.0891930342
 21
87.9597169523
  0
LINE
  5
8C5
100
AcDbEntity
  8
0
100
AcDbLine
 62
9
  6
CONTINUOUS
 10
33.2597973882
 20
87.1136768281
 11
33.2084641903
 21
87.2345186752
  0
LINE
  5
8C6
100
AcDbEntity
  8
0
100
AcDbLine
 62
9
  6
CONTINUOUS
 10
35.0891930342
 20
87.9597169523
 11
35.0438566665
 21
88.0667432343
  0
LINE
  5
8C7
100
AcDbEntity
  8
0
100
AcDbLine
 62
7
  6
CONTINUOUS
 10
76.627647667
 20
103.6644661628
 11
76.5852585714
 21
103.7645726928
  0
LINE
  5
8C8
100
AcDbEntity
  8
0
100
AcDbLine
 62
9
  6
CONTINUOUS
 10
33.2084641903
 20
87.2345186752
 11
33.1836245644
 21
87.2935448745
  0
LINE
  5
8C9
100
AcDbEntity
  8
0
100
AcDbLine
 62
9
  6
CONTINUOUS
 10
71.4909148899
 20
95.0017530397
 11
71.4703278656
 21
95.0508409808
  0
LINE
  5
8CA
100
AcDbEntity
  8
0
100
AcDbLine
 62
9
  6
CONTINUOUS
 10
35.0438566665
 20
88.0667432343
 11
35.0084039261
 21
88.1517706201
  0
LINE
  5
8CB
100
AcDbEntity
  8
0
100
AcDbLine
 62
7
  6
CONTINUOUS
 10
25.8830064997
 20
85.0636846686
 11
25.9196815229
 21
84.9755341928
  0
LINE
  5
8CC
100
AcDbEntity
  8
0
100
AcDbLine
 62
9
  6
CONTINUOUS
 10
33.1836245644
 20
87.2935448745
 11
33.1572687051
 21
87.3569343101
  0
LINE
  5
8CD
100
AcDbEntity
  8
0
100
AcDbLine
 62
7
  6
CONTINUOUS
 10
25.9208617597
 20
84.973076699
 11
25.8717976636
 21
85.0916745744
  0
LINE
  5
8CE
100
AcDbEntity
  8
0
100
AcDbLine
 62
7
  6
CONTINUOUS
 10
76.7319320741
 20
93.216903329
 11
76.7256883134
 21
93.2320753266
  0
LINE
  5
8CF
100
AcDbEntity
  8
0
100
AcDbLine
 62
9
  6
CONTINUOUS
 10
33.1572687051
 20
87.3569343101
 11
33.1290128545
 21
87.4257064039
  0
LINE
  5
8D0
100
AcDbEntity
  8
0
100
AcDbLine
 62
9
  6
CONTINUOUS
 10
35.0084039261
 20
88.1517706201
 11
34.9823508365
 21
88.2151897935
  0
LINE
  5
8D1
100
AcDbEntity
  8
0
100
AcDbLine
 62
7
  6
CONTINUOUS
 10
76.6054698035
 20
103.7174320634
 11
76.6520829049
 21
103.6032563455
  0
LINE
  5
8D2
100
AcDbEntity
  8
0
100
AcDbLine
 62
9
  6
CONTINUOUS
 10
33.1290128545
 20
87.4257064039
 11
33.0980659516
 21
87.5019493235
  0
LINE
  5
8D3
100
AcDbEntity
  8
0
100
AcDbLine
 62
9
  6
CONTINUOUS
 10
34.9823508365
 20
88.2151897935
 11
34.9534827003
 21
88.2863709649
  0
LINE
  5
8D4
100
AcDbEntity
  8
0
100
AcDbLine
 62
9
  6
CONTINUOUS
 10
72.2928402637
 20
100.8068216253
 11
72.3113612364
 21
100.761050242
  0
LINE
  5
8D5
100
AcDbEntity
  8
0
100
AcDbLine
 62
9
  6
CONTINUOUS
 10
74.2876601948
 20
101.5756497921
 11
74.3284625009
 21
101.4744020749
  0
LINE
  5
8D6
100
AcDbEntity
  8
0
100
AcDbLine
 62
9
  6
CONTINUOUS
 10
33.0980659516
 20
87.5019493235
 11
33.0640766796
 21
87.5868077275
  0
LINE
  5
8D7
100
AcDbEntity
  8
0
100
AcDbLine
 62
9
  6
CONTINUOUS
 10
68.0499172462
 20
93.7061791186
 11
68.0739157102
 21
93.6462197512
  0
LINE
  5
8D8
100
AcDbEntity
  8
0
100
AcDbLine
 62
9
  6
CONTINUOUS
 10
34.9534827003
 20
88.2863709649
 11
34.9218681101
 21
88.3654170055
  0
LINE
  5
8D9
100
AcDbEntity
  8
0
100
AcDbLine
 62
7
  6
CONTINUOUS
 10
76.833412432
 20
95.4774527513
 11
76.8401449087
 21
95.4605781302
  0
LINE
  5
8DA
100
AcDbEntity
  8
0
100
AcDbLine
 62
7
  6
CONTINUOUS
 10
76.667401966
 20
103.5638289979
 11
76.627647667
 21
103.6644661628
  0
LINE
  5
8DB
100
AcDbEntity
  8
0
100
AcDbLine
 62
9
  6
CONTINUOUS
 10
33.0640766796
 20
87.5868077275
 11
33.0273644537
 21
87.6798459879
  0
LINE
  5
8DC
100
AcDbEntity
  8
0
100
AcDbLine
 62
9
  6
CONTINUOUS
 10
34.9218681101
 20
88.3654170055
 11
34.8880303801
 21
88.4513456297
  0
LINE
  5
8DD
100
AcDbEntity
  8
0
100
AcDbLine
 62
7
  6
CONTINUOUS
 10
25.84541384
 20
85.1596802186
 11
25.8830064997
 21
85.0636846686
  0
LINE
  5
8DE
100
AcDbEntity
  8
0
100
AcDbLine
 62
9
  6
CONTINUOUS
 10
33.0273644537
 20
87.6798459879
 11
32.9880712146
 21
87.7811180472
  0
LINE
  5
8DF
100
AcDbEntity
  8
0
100
AcDbLine
 62
9
  6
CONTINUOUS
 10
34.8880303801
 20
88.4513456297
 11
34.8517887505
 21
88.5449718122
  0
LINE
  5
8E0
100
AcDbEntity
  8
0
100
AcDbLine
 62
9
  6
CONTINUOUS
 10
71.5100339237
 20
94.9520035727
 11
71.4909148899
 21
95.0017530397
  0
LINE
  5
8E1
100
AcDbEntity
  8
0
100
AcDbLine
 62
7
  6
CONTINUOUS
 10
25.8717976636
 20
85.0916745744
 11
25.8227357279
 21
85.2196421456
  0
LINE
  5
8E2
100
AcDbEntity
  8
0
100
AcDbLine
 62
9
  6
CONTINUOUS
 10
32.9880712146
 20
87.7811180472
 11
32.94576037
 21
87.8922193985
  0
LINE
  5
8E3
100
AcDbEntity
  8
0
100
AcDbLine
 62
9
  6
CONTINUOUS
 10
34.8517887505
 20
88.5449718122
 11
34.8125749513
 21
88.6482056328
  0
LINE
  5
8E4
100
AcDbEntity
  8
0
100
AcDbLine
 62
7
  6
CONTINUOUS
 10
76.6520829049
 20
103.6032563455
 11
76.6949903677
 21
103.4889632693
  0
LINE
  5
8E5
100
AcDbEntity
  8
0
100
AcDbLine
 62
9
  6
CONTINUOUS
 10
32.94576037
 20
87.8922193985
 11
32.9233304659
 21
87.9520117296
  0
LINE
  5
8E6
100
AcDbEntity
  8
0
100
AcDbLine
 62
7
  6
CONTINUOUS
 10
25.8068698891
 20
85.2624692089
 11
25.84541384
 21
85.1596802186
  0
LINE
  5
8E7
100
AcDbEntity
  8
0
100
AcDbLine
 62
9
  6
CONTINUOUS
 10
34.8125749513
 20
88.6482056328
 11
34.7917424819
 21
88.7039107651
  0
LINE
  5
8E8
100
AcDbEntity
  8
0
100
AcDbLine
 62
9
  6
CONTINUOUS
 10
72.3113612364
 20
100.761050242
 11
72.3276399291
 21
100.717520146
  0
LINE
  5
8E9
100
AcDbEntity
  8
0
100
AcDbLine
 62
9
  6
CONTINUOUS
 10
74.3284625009
 20
101.4744020749
 11
74.3645129709
 21
101.3776980073
  0
LINE
  5
8EA
100
AcDbEntity
  8
0
100
AcDbLine
 62
9
  6
CONTINUOUS
 10
32.9233304659
 20
87.9520117296
 11
32.8999889968
 21
88.0149216248
  0
LINE
  5
8EB
100
AcDbEntity
  8
0
100
AcDbLine
 62
9
  6
CONTINUOUS
 10
34.7917424819
 20
88.7039107651
 11
34.7701287944
 21
88.7623648902
  0
LINE
  5
8EC
100
AcDbEntity
  8
0
100
AcDbLine
 62
9
  6
CONTINUOUS
 10
32.8999889968
 20
88.0149216248
 11
32.8757776891
 21
88.0809156151
  0
LINE
  5
8ED
100
AcDbEntity
  8
0
100
AcDbLine
 62
7
  6
CONTINUOUS
 10
76.7041060894
 20
103.4636665863
 11
76.667401966
 21
103.5638289979
  0
LINE
  5
8EE
100
AcDbEntity
  8
0
100
AcDbLine
 62
7
  6
CONTINUOUS
 10
25.7667991282
 20
85.372666907
 11
25.8227357279
 21
85.2196421456
  0
LINE
  5
8EF
100
AcDbEntity
  8
0
100
AcDbLine
 62
9
  6
CONTINUOUS
 10
34.7701287944
 20
88.7623648902
 11
34.7478134852
 21
88.8234716329
  0
LINE
  5
8F0
100
AcDbEntity
  8
0
100
AcDbLine
 62
9
  6
CONTINUOUS
 10
32.8757776891
 20
88.0809156151
 11
32.8507690217
 21
88.1499148541
  0
LINE
  5
8F1
100
AcDbEntity
  8
0
100
AcDbLine
 62
9
  6
CONTINUOUS
 10
34.7478134852
 20
88.8234716329
 11
34.7247686289
 21
88.887565782
  0
LINE
  5
8F2
100
AcDbEntity
  8
0
100
AcDbLine
 62
9
  6
CONTINUOUS
 10
68.0278522696
 20
93.7675626215
 11
68.0499172462
 21
93.7061791186
  0
LINE
  5
8F3
100
AcDbEntity
  8
0
100
AcDbLine
 62
7
  6
CONTINUOUS
 10
25.7731426137
 20
85.355244989
 11
25.7219304442
 21
85.4981267571
  0
LINE
  5
8F4
100
AcDbEntity
  8
0
100
AcDbLine
 62
9
  6
CONTINUOUS
 10
32.8507690217
 20
88.1499148541
 11
32.8248594483
 21
88.2223491431
  0
LINE
  5
8F5
100
AcDbEntity
  8
0
100
AcDbLine
 62
7
  6
CONTINUOUS
 10
76.7256883134
 20
93.2320753266
 11
76.7195879156
 21
93.2491275983
  0
LINE
  5
8F6
100
AcDbEntity
  8
0
100
AcDbLine
 62
7
  6
CONTINUOUS
 10
76.8401449087
 20
95.4605781302
 11
76.8468035537
 21
95.4418136051
  0
LINE
  5
8F7
100
AcDbEntity
  8
0
100
AcDbLine
 62
7
  6
CONTINUOUS
 10
25.6816722243
 20
85.6125760834
 11
25.725152384
 21
85.4896044579
  0
LINE
  5
8F8
100
AcDbEntity
  8
0
100
AcDbLine
 62
9
  6
CONTINUOUS
 10
34.7247686289
 20
88.887565782
 11
34.7010114795
 21
88.9548791695
  0
LINE
  5
8F9
100
AcDbEntity
  8
0
100
AcDbLine
 62
9
  6
CONTINUOUS
 10
32.8248594483
 20
88.2223491431
 11
32.7979777986
 21
88.2985253065
  0
LINE
  5
8FA
100
AcDbEntity
  8
0
100
AcDbLine
 62
7
  6
CONTINUOUS
 10
25.7219304442
 20
85.4981267571
 11
25.6691002676
 21
85.6485773611
  0
LINE
  5
8FB
100
AcDbEntity
  8
0
100
AcDbLine
 62
9
  6
CONTINUOUS
 10
71.5276861244
 20
94.9015476655
 11
71.5100339237
 21
94.9520035727
  0
LINE
  5
8FC
100
AcDbEntity
  8
0
100
AcDbLine
 62
7
  6
CONTINUOUS
 10
25.6816722243
 20
85.6125760834
 11
25.6142140542
 21
85.8064065728
  0
LINE
  5
8FD
100
AcDbEntity
  8
0
100
AcDbLine
 62
9
  6
CONTINUOUS
 10
32.7979777986
 20
88.2985253065
 11
32.7701085869
 21
88.3786649278
  0
LINE
  5
8FE
100
AcDbEntity
  8
0
100
AcDbLine
 62
9
  6
CONTINUOUS
 10
34.7010114795
 20
88.9548791695
 11
34.6764445737
 21
89.0256705683
  0
LINE
  5
8FF
100
AcDbEntity
  8
0
100
AcDbLine
 62
9
  6
CONTINUOUS
 10
72.3276399291
 20
100.717520146
 11
72.3419550523
 21
100.6761042572
  0
LINE
  5
900
100
AcDbEntity
  8
0
100
AcDbLine
 62
9
  6
CONTINUOUS
 10
74.3645129709
 20
101.3776980073
 11
74.3962349386
 21
101.2856905685
  0
LINE
  5
901
100
AcDbEntity
  8
0
100
AcDbLine
 62
7
  6
CONTINUOUS
 10
25.5893018711
 20
85.8790480633
 11
25.6364079066
 21
85.7423078202
  0
LINE
  5
902
100
AcDbEntity
  8
0
100
AcDbLine
 62
7
  6
CONTINUOUS
 10
76.6949903677
 20
103.4889632693
 11
76.7340302289
 21
103.3754349226
  0
LINE
  5
903
100
AcDbEntity
  8
0
100
AcDbLine
 62
9
  6
CONTINUOUS
 10
32.7701085869
 20
88.3786649278
 11
32.7412116159
 21
88.4630670124
  0
LINE
  5
904
100
AcDbEntity
  8
0
100
AcDbLine
 62
9
  6
CONTINUOUS
 10
34.6764445737
 20
89.0256705683
 11
34.6509204138
 21
89.1002812018
  0
LINE
  5
905
100
AcDbEntity
  8
0
100
AcDbLine
 62
7
  6
CONTINUOUS
 10
25.6142140542
 20
85.8064065728
 11
25.5575011602
 21
85.972698462
  0
LINE
  5
906
100
AcDbEntity
  8
0
100
AcDbLine
 62
7
  6
CONTINUOUS
 10
76.7377663339
 20
103.3642749083
 11
76.7041060894
 21
103.4636665863
  0
LINE
  5
907
100
AcDbEntity
  8
0
100
AcDbLine
 62
7
  6
CONTINUOUS
 10
25.5404171374
 20
86.0235239605
 11
25.5893018711
 21
85.8790480633
  0
LINE
  5
908
100
AcDbEntity
  8
0
100
AcDbLine
 62
9
  6
CONTINUOUS
 10
32.7412116159
 20
88.4630670124
 11
32.7113233965
 21
88.5518039839
  0
LINE
  5
909
100
AcDbEntity
  8
0
100
AcDbLine
 62
9
  6
CONTINUOUS
 10
34.6509204138
 20
89.1002812018
 11
34.6244917413
 21
89.1787554618
  0
LINE
  5
90A
100
AcDbEntity
  8
0
100
AcDbLine
 62
7
  6
CONTINUOUS
 10
25.48981339
 20
86.1763449085
 11
25.5575011602
 21
85.972698462
  0
LINE
  5
90B
100
AcDbEntity
  8
0
100
AcDbLine
 62
9
  6
CONTINUOUS
 10
32.7113233965
 20
88.5518039839
 11
32.6805197784
 21
88.6448808037
  0
LINE
  5
90C
100
AcDbEntity
  8
0
100
AcDbLine
 62
9
  6
CONTINUOUS
 10
34.6244917413
 20
89.1787554618
 11
34.5972640586
 21
89.2610675561
  0
LINE
  5
90D
100
AcDbEntity
  8
0
100
AcDbLine
 62
9
  6
CONTINUOUS
 10
32.6805197784
 20
88.6448808037
 11
32.6486984213
 21
88.7428504447
  0
LINE
  5
90E
100
AcDbEntity
  8
0
100
AcDbLine
 62
9
  6
CONTINUOUS
 10
34.5972640586
 20
89.2610675561
 11
34.5691427513
 21
89.3477119049
  0
LINE
  5
90F
100
AcDbEntity
  8
0
100
AcDbLine
 62
7
  6
CONTINUOUS
 10
25.4374430741
 20
86.3381125568
 11
25.4990405189
 21
86.1482768223
  0
LINE
  5
910
100
AcDbEntity
  8
0
100
AcDbLine
 62
9
  6
CONTINUOUS
 10
68.0078525498
 20
93.8301837385
 11
68.0278522696
 21
93.7675626215
  0
LINE
  5
911
100
AcDbEntity
  8
0
100
AcDbLine
 62
9
  6
CONTINUOUS
 10
72.3419550523
 20
100.6761042572
 11
72.35452978
 21
100.636726635
  0
LINE
  5
912
100
AcDbEntity
  8
0
100
AcDbLine
 62
9
  6
CONTINUOUS
 10
74.3962349386
 20
101.2856905685
 11
74.424114033
 21
101.1982437593
  0
LINE
  5
913
100
AcDbEntity
  8
0
100
AcDbLine
 62
7
  6
CONTINUOUS
 10
76.8468035537
 20
95.4418136051
 11
76.8533795903
 21
95.421178055
  0
LINE
  5
914
100
AcDbEntity
  8
0
100
AcDbLine
 62
9
  6
CONTINUOUS
 10
32.6486984213
 20
88.7428504447
 11
32.6158085897
 21
88.8461456156
  0
LINE
  5
915
100
AcDbEntity
  8
0
100
AcDbLine
 62
9
  6
CONTINUOUS
 10
34.5691427513
 20
89.3477119049
 11
34.5400708428
 21
89.4390797444
  0
LINE
  5
916
100
AcDbEntity
  8
0
100
AcDbLine
 62
7
  6
CONTINUOUS
 10
25.438845369
 20
86.3337322544
 11
25.3769522942
 21
86.5296578824
  0
LINE
  5
917
100
AcDbEntity
  8
0
100
AcDbLine
 62
9
  6
CONTINUOUS
 10
71.5438515275
 20
94.8503793569
 11
71.5276861244
 21
94.9015476655
  0
LINE
  5
918
100
AcDbEntity
  8
0
100
AcDbLine
 62
7
  6
CONTINUOUS
 10
76.8374752318
 20
93.2679042327
 11
76.8421164399
 21
93.2531817663
  0
LINE
  5
919
100
AcDbEntity
  8
0
100
AcDbLine
 62
7
  6
CONTINUOUS
 10
76.7195879156
 20
93.2491275983
 11
76.713633922
 21
93.2680288097
  0
LINE
  5
91A
100
AcDbEntity
  8
0
100
AcDbLine
 62
7
  6
CONTINUOUS
 10
76.7340302289
 20
103.3754349226
 11
76.7685935352
 21
103.2648206238
  0
LINE
  5
91B
100
AcDbEntity
  8
0
100
AcDbLine
 62
9
  6
CONTINUOUS
 10
32.6158085897
 20
88.8461456156
 11
32.5818369512
 21
88.9551352345
  0
LINE
  5
91C
100
AcDbEntity
  8
0
100
AcDbLine
 62
9
  6
CONTINUOUS
 10
34.5400708428
 20
89.4390797444
 11
34.5100354492
 21
89.5354972742
  0
LINE
  5
91D
100
AcDbEntity
  8
0
100
AcDbLine
 62
7
  6
CONTINUOUS
 10
76.7680766668
 20
103.266839567
 11
76.7377663339
 21
103.3642749083
  0
LINE
  5
91E
100
AcDbEntity
  8
0
100
AcDbLine
 62
7
  6
CONTINUOUS
 10
25.3832874267
 20
86.5093619975
 11
25.3133701924
 21
86.7368699308
  0
LINE
  5
91F
100
AcDbEntity
  8
0
100
AcDbLine
 62
9
  6
CONTINUOUS
 10
32.5818369512
 20
88.9551352345
 11
32.546803004
 21
89.0701327009
  0
LINE
  5
920
100
AcDbEntity
  8
0
100
AcDbLine
 62
9
  6
CONTINUOUS
 10
34.5100354492
 20
89.5354972742
 11
34.4790557477
 21
89.6372383003
  0
LINE
  5
921
100
AcDbEntity
  8
0
100
AcDbLine
 62
7
  6
CONTINUOUS
 10
25.2694992379
 20
86.883363226
 11
25.3273197568
 21
86.6909022997
  0
LINE
  5
922
100
AcDbEntity
  8
0
100
AcDbLine
 62
7
  6
CONTINUOUS
 10
25.3133701924
 20
86.7368699308
 11
25.2480856236
 21
86.956018234
  0
LINE
  5
923
100
AcDbEntity
  8
0
100
AcDbLine
 62
9
  6
CONTINUOUS
 10
32.546803004
 20
89.0701327009
 11
32.5106474167
 21
89.1917646249
  0
LINE
  5
924
100
AcDbEntity
  8
0
100
AcDbLine
 62
9
  6
CONTINUOUS
 10
34.4790557477
 20
89.6372383003
 11
34.4470802266
 21
89.7448570464
  0
LINE
  5
925
100
AcDbEntity
  8
0
100
AcDbLine
 62
9
  6
CONTINUOUS
 10
72.35452978
 20
100.636726635
 11
72.3655263946
 21
100.5994124895
  0
LINE
  5
926
100
AcDbEntity
  8
0
100
AcDbLine
 62
9
  6
CONTINUOUS
 10
74.424114033
 20
101.1982437593
 11
74.4485768223
 21
101.1152284348
  0
LINE
  5
927
100
AcDbEntity
  8
0
100
AcDbLine
 62
7
  6
CONTINUOUS
 10
25.2098495137
 20
87.0878177877
 11
25.2694992379
 21
86.883363226
  0
LINE
  5
928
100
AcDbEntity
  8
0
100
AcDbLine
 62
9
  6
CONTINUOUS
 10
32.5106474167
 20
89.1917646249
 11
32.4733736002
 21
89.3205258212
  0
LINE
  5
929
100
AcDbEntity
  8
0
100
AcDbLine
 62
9
  6
CONTINUOUS
 10
34.4470802266
 20
89.7448570464
 11
34.4141112868
 21
89.8587952001
  0
LINE
  5
92A
100
AcDbEntity
  8
0
100
AcDbLine
 62
7
  6
CONTINUOUS
 10
76.8533795903
 20
95.421178055
 11
76.8598553825
 21
95.3987183389
  0
LINE
  5
92B
100
AcDbEntity
  8
0
100
AcDbLine
 62
7
  6
CONTINUOUS
 10
25.2480856236
 20
86.956018234
 11
25.1812021841
 21
87.1881950868
  0
LINE
  5
92C
100
AcDbEntity
  8
0
100
AcDbLine
 62
7
  6
CONTINUOUS
 10
25.1483533573
 20
87.3050820149
 11
25.2098495137
 21
87.0878177877
  0
LINE
  5
92D
100
AcDbEntity
  8
0
100
AcDbLine
 62
7
  6
CONTINUOUS
 10
76.7955586971
 20
103.1696970828
 11
76.7680766668
 21
103.266839567
  0
LINE
  5
92E
100
AcDbEntity
  8
0
100
AcDbLine
 62
9
  6
CONTINUOUS
 10
71.5585180597
 20
94.7984420756
 11
71.5438515275
 21
94.8503793569
  0
LINE
  5
92F
100
AcDbEntity
  8
0
100
AcDbLine
 62
9
  6
CONTINUOUS
 10
32.4733736002
 20
89.3205258212
 11
32.4349430904
 21
89.4571457641
  0
LINE
  5
930
100
AcDbEntity
  8
0
100
AcDbLine
 62
9
  6
CONTINUOUS
 10
34.4141112868
 20
89.8587952001
 11
34.3801153606
 21
89.9796940783
  0
LINE
  5
931
100
AcDbEntity
  8
0
100
AcDbLine
 62
7
  6
CONTINUOUS
 10
76.8316822338
 20
93.2885658242
 11
76.8374752318
 21
93.2679042327
  0
LINE
  5
932
100
AcDbEntity
  8
0
100
AcDbLine
 62
7
  6
CONTINUOUS
 10
76.713633922
 20
93.2680288097
 11
76.7078307377
 21
93.288746718
  0
LINE
  5
933
100
AcDbEntity
  8
0
100
AcDbLine
 62
7
  6
CONTINUOUS
 10
76.7685935352
 20
103.2648206238
 11
76.7995628514
 21
103.1543045211
  0
LINE
  5
934
100
AcDbEntity
  8
0
100
AcDbLine
 62
9
  6
CONTINUOUS
 10
67.990020086
 20
93.8938838833
 11
68.0078525498
 21
93.8301837385
  0
LINE
  5
935
100
AcDbEntity
  8
0
100
AcDbLine
 62
7
  6
CONTINUOUS
 10
25.1812021841
 20
87.1881950868
 11
25.1127538786
 21
87.434266642
  0
LINE
  5
936
100
AcDbEntity
  8
0
100
AcDbLine
 62
7
  6
CONTINUOUS
 10
25.0850925535
 20
87.5365566131
 11
25.1483533573
 21
87.3050820149
  0
LINE
  5
937
100
AcDbEntity
  8
0
100
AcDbLine
 62
9
  6
CONTINUOUS
 10
32.4349430904
 20
89.4571457641
 11
32.3953997941
 21
89.6021679919
  0
LINE
  5
938
100
AcDbEntity
  8
0
100
AcDbLine
 62
9
  6
CONTINUOUS
 10
34.3801153606
 20
89.9796940783
 11
34.3451328757
 21
90.1080252483
  0
LINE
  5
939
100
AcDbEntity
  8
0
100
AcDbLine
 62
9
  6
CONTINUOUS
 10
74.4485768223
 20
101.1152284348
 11
74.4699606922
 21
101.0366729267
  0
LINE
  5
93A
100
AcDbEntity
  8
0
100
AcDbLine
 62
9
  6
CONTINUOUS
 10
72.3655263946
 20
100.5994124895
 11
72.3750967631
 21
100.5641959128
  0
LINE
  5
93B
100
AcDbEntity
  8
0
100
AcDbLine
 62
7
  6
CONTINUOUS
 10
25.1127538786
 20
87.434266642
 11
25.0429360413
 21
87.6955611607
  0
LINE
  5
93C
100
AcDbEntity
  8
0
100
AcDbLine
 62
9
  6
CONTINUOUS
 10
32.3953997941
 20
89.6021679919
 11
32.3546758309
 21
89.7566792929
  0
LINE
  5
93D
100
AcDbEntity
  8
0
100
AcDbLine
 62
9
  6
CONTINUOUS
 10
34.3451328757
 20
90.1080252483
 11
34.3090973922
 21
90.2447694077
  0
LINE
  5
93E
100
AcDbEntity
  8
0
100
AcDbLine
 62
7
  6
CONTINUOUS
 10
25.0200907375
 20
87.7833348311
 11
25.0850925535
 21
87.5365566131
  0
LINE
  5
93F
100
AcDbEntity
  8
0
100
AcDbLine
 62
7
  6
CONTINUOUS
 10
76.8598553825
 20
95.3987183389
 11
76.8662137513
 21
95.3744905054
  0
LINE
  5
940
100
AcDbEntity
  8
0
100
AcDbLine
 62
9
  6
CONTINUOUS
 10
72.587830297
 20
98.9291632247
 11
72.612986623
 21
98.8312005385
  0
LINE
  5
941
100
AcDbEntity
  8
0
100
AcDbLine
 62
7
  6
CONTINUOUS
 10
76.82033844
 20
103.0730420633
 11
76.7955586971
 21
103.1696970828
  0
LINE
  5
942
100
AcDbEntity
  8
0
100
AcDbLine
 62
7
  6
CONTINUOUS
 10
25.0429360413
 20
87.6955611607
 11
24.9718595765
 21
87.9731604556
  0
LINE
  5
943
100
AcDbEntity
  8
0
100
AcDbLine
 62
9
  6
CONTINUOUS
 10
34.3090973922
 20
90.2447694077
 11
34.2719652076
 21
90.3910053888
  0
LINE
  5
944
100
AcDbEntity
  8
0
100
AcDbLine
 62
9
  6
CONTINUOUS
 10
32.3546758309
 20
89.7566792929
 11
32.3126969354
 21
89.9220042161
  0
LINE
  5
945
100
AcDbEntity
  8
0
100
AcDbLine
 62
7
  6
CONTINUOUS
 10
24.953505131
 20
88.0471550686
 11
25.0200907375
 21
87.7833348311
  0
LINE
  5
946
100
AcDbEntity
  8
0
100
AcDbLine
 62
9
  6
CONTINUOUS
 10
74.4699606922
 20
101.0366729267
 11
74.4885537858
 21
100.9626717281
  0
LINE
  5
947
100
AcDbEntity
  8
0
100
AcDbLine
 62
7
  6
CONTINUOUS
 10
76.826048179
 20
93.3109850589
 11
76.8316822338
 21
93.2885658242
  0
LINE
  5
948
100
AcDbEntity
  8
0
100
AcDbLine
 62
7
  6
CONTINUOUS
 10
76.7078307377
 20
93.288746718
 11
76.702187677
 21
93.3112274848
  0
LINE
  5
949
100
AcDbEntity
  8
0
100
AcDbLine
 62
9
  6
CONTINUOUS
 10
72.3750967631
 20
100.5641959128
 11
72.3834129097
 21
100.5310262773
  0
LINE
  5
94A
100
AcDbEntity
  8
0
100
AcDbLine
 62
7
  6
CONTINUOUS
 10
76.7995628514
 20
103.1543045211
 11
76.8273243333
 21
103.0433596435
  0
LINE
  5
94B
100
AcDbEntity
  8
0
100
AcDbLine
 62
9
  6
CONTINUOUS
 10
71.571666578
 20
94.7456668192
 11
71.5585180597
 21
94.7984420756
  0
LINE
  5
94C
100
AcDbEntity
  8
0
100
AcDbLine
 62
7
  6
CONTINUOUS
 10
24.9718595765
 20
87.9731604556
 11
24.8998117787
 21
88.268670025
  0
LINE
  5
94D
100
AcDbEntity
  8
0
100
AcDbLine
 62
9
  6
CONTINUOUS
 10
34.2719652076
 20
90.3910053888
 11
34.2339552501
 21
90.5469511901
  0
LINE
  5
94E
100
AcDbEntity
  8
0
100
AcDbLine
 62
9
  6
CONTINUOUS
 10
32.3126969354
 20
89.9220042161
 11
32.2698016643
 21
90.0980282911
  0
LINE
  5
94F
100
AcDbEntity
  8
0
100
AcDbLine
 62
9
  6
CONTINUOUS
 10
72.5756166067
 20
98.979615867
 11
72.587830297
 21
98.9291632247
  0
LINE
  5
950
100
AcDbEntity
  8
0
100
AcDbLine
 62
7
  6
CONTINUOUS
 10
24.8853647191
 20
88.3295537229
 11
24.953505131
 21
88.0471550686
  0
LINE
  5
951
100
AcDbEntity
  8
0
100
AcDbLine
 62
9
  6
CONTINUOUS
 10
67.9744629241
 20
93.9584003072
 11
67.990020086
 21
93.8938838833
  0
LINE
  5
952
100
AcDbEntity
  8
0
100
AcDbLine
 62
7
  6
CONTINUOUS
 10
76.8662137513
 20
95.3744905054
 11
76.8724467765
 21
95.3485181854
  0
LINE
  5
953
100
AcDbEntity
  8
0
100
AcDbLine
 62
9
  6
CONTINUOUS
 10
72.612986623
 20
98.8312005385
 11
72.6240717641
 21
98.7849277135
  0
LINE
  5
954
100
AcDbEntity
  8
0
100
AcDbLine
 62
9
  6
CONTINUOUS
 10
34.2339552501
 20
90.5469511901
 11
34.1945588302
 21
90.7161319358
  0
LINE
  5
955
100
AcDbEntity
  8
0
100
AcDbLine
 62
9
  6
CONTINUOUS
 10
32.2698016643
 20
90.0980282911
 11
32.2254955535
 21
90.2883518858
  0
LINE
  5
956
100
AcDbEntity
  8
0
100
AcDbLine
 62
9
  6
CONTINUOUS
 10
74.4885537858
 20
100.9626717281
 11
74.5047956837
 21
100.8925742307
  0
LINE
  5
957
100
AcDbEntity
  8
0
100
AcDbLine
 62
7
  6
CONTINUOUS
 10
24.8998117787
 20
88.268670025
 11
24.826960554
 21
88.5833726162
  0
LINE
  5
958
100
AcDbEntity
  8
0
100
AcDbLine
 62
9
  6
CONTINUOUS
 10
72.3834129097
 20
100.5310262773
 11
72.3906005996
 21
100.4999286071
  0
LINE
  5
959
100
AcDbEntity
  8
0
100
AcDbLine
 62
7
  6
CONTINUOUS
 10
24.8160778463
 20
88.6322300489
 11
24.8853647191
 21
88.3295537229
  0
LINE
  5
95A
100
AcDbEntity
  8
0
100
AcDbLine
 62
7
  6
CONTINUOUS
 10
76.8432966434
 20
102.9724858498
 11
76.82033844
 21
103.0730420633
  0
LINE
  5
95B
100
AcDbEntity
  8
0
100
AcDbLine
 62
7
  6
CONTINUOUS
 10
76.8205819348
 20
93.3351039135
 11
76.826048179
 21
93.3109850589
  0
LINE
  5
95C
100
AcDbEntity
  8
0
100
AcDbLine
 62
7
  6
CONTINUOUS
 10
76.702187677
 20
93.3112274848
 11
76.6967146766
 21
93.3354074391
  0
LINE
  5
95D
100
AcDbEntity
  8
0
100
AcDbLine
 62
9
  6
CONTINUOUS
 10
34.1945588302
 20
90.7161319358
 11
34.1561072884
 21
90.8897276147
  0
LINE
  5
95E
100
AcDbEntity
  8
0
100
AcDbLine
 62
9
  6
CONTINUOUS
 10
32.2254955535
 20
90.2883518858
 11
32.1823631367
 21
90.4831395532
  0
LINE
  5
95F
100
AcDbEntity
  8
0
100
AcDbLine
 62
7
  6
CONTINUOUS
 10
76.8724467765
 20
95.3485181854
 11
76.8785470769
 21
95.3208199517
  0
LINE
  5
960
100
AcDbEntity
  8
0
100
AcDbLine
 62
7
  6
CONTINUOUS
 10
76.8273243333
 20
103.0433596435
 11
76.8527582549
 21
102.927268667
  0
LINE
  5
961
100
AcDbEntity
  8
0
100
AcDbLine
 62
7
  6
CONTINUOUS
 10
24.826960554
 20
88.5833726162
 11
24.7537749717
 21
88.9193182954
  0
LINE
  5
962
100
AcDbEntity
  8
0
100
AcDbLine
 62
9
  6
CONTINUOUS
 10
72.6240717641
 20
98.7849277135
 11
72.6336706166
 21
98.7406712532
  0
LINE
  5
963
100
AcDbEntity
  8
0
100
AcDbLine
 62
9
  6
CONTINUOUS
 10
71.5832439945
 20
94.6920820979
 11
71.571666578
 21
94.7456668192
  0
LINE
  5
964
100
AcDbEntity
  8
0
100
AcDbLine
 62
7
  6
CONTINUOUS
 10
24.7452037004
 20
88.9605682058
 11
24.8160778463
 21
88.6322300489
  0
LINE
  5
965
100
AcDbEntity
  8
0
100
AcDbLine
 62
9
  6
CONTINUOUS
 10
74.5047956837
 20
100.8925742307
 11
74.5189642411
 21
100.8262236278
  0
LINE
  5
966
100
AcDbEntity
  8
0
100
AcDbLine
 62
9
  6
CONTINUOUS
 10
72.3906005996
 20
100.4999286071
 11
72.3969137122
 21
100.4701564903
  0
LINE
  5
967
100
AcDbEntity
  8
0
100
AcDbLine
 62
9
  6
CONTINUOUS
 10
32.1823631367
 20
90.4831395532
 11
32.1422947955
 21
90.6738028551
  0
LINE
  5
968
100
AcDbEntity
  8
0
100
AcDbLine
 62
9
  6
CONTINUOUS
 10
34.1561072884
 20
90.8897276147
 11
34.1202704768
 21
91.0602249646
  0
LINE
  5
969
100
AcDbEntity
  8
0
100
AcDbLine
 62
9
  6
CONTINUOUS
 10
72.5653196403
 20
99.0291466504
 11
72.5756166067
 21
98.979615867
  0
LINE
  5
96A
100
AcDbEntity
  8
0
100
AcDbLine
 62
7
  6
CONTINUOUS
 10
76.8152837768
 20
93.3608980331
 11
76.8205819348
 21
93.3351039135
  0
LINE
  5
96B
100
AcDbEntity
  8
0
100
AcDbLine
 62
7
  6
CONTINUOUS
 10
76.6967146766
 20
93.3354074391
 11
76.6914117712
 21
93.3612612045
  0
LINE
  5
96C
100
AcDbEntity
  8
0
100
AcDbLine
 62
7
  6
CONTINUOUS
 10
24.7537749717
 20
88.9193182954
 11
24.6805383315
 21
89.2780123823
  0
LINE
  5
96D
100
AcDbEntity
  8
0
100
AcDbLine
 62
7
  6
CONTINUOUS
 10
24.6753187355
 20
89.3050498771
 11
24.7452037004
 21
88.9605682058
  0
LINE
  5
96E
100
AcDbEntity
  8
0
100
AcDbLine
 62
9
  6
CONTINUOUS
 10
67.9612649766
 20
94.0234290929
 11
67.9744629241
 21
93.9584003072
  0
LINE
  5
96F
100
AcDbEntity
  8
0
100
AcDbLine
 62
7
  6
CONTINUOUS
 10
76.8785470769
 20
95.3208199517
 11
76.8844958082
 21
95.2914667774
  0
LINE
  5
970
100
AcDbEntity
  8
0
100
AcDbLine
 62
7
  6
CONTINUOUS
 10
76.8657117938
 20
102.8616083873
 11
76.8432966434
 21
102.9724858498
  0
LINE
  5
971
100
AcDbEntity
  8
0
100
AcDbLine
 62
9
  6
CONTINUOUS
 10
32.1422947955
 20
90.6738028551
 11
32.1052348187
 21
90.8598397081
  0
LINE
  5
972
100
AcDbEntity
  8
0
100
AcDbLine
 62
9
  6
CONTINUOUS
 10
34.1202704768
 20
91.0602249646
 11
34.0870757527
 21
91.2268679585
  0
LINE
  5
973
100
AcDbEntity
  8
0
100
AcDbLine
 62
9
  6
CONTINUOUS
 10
74.5189642411
 20
100.8262236278
 11
74.5314134616
 21
100.7628690119
  0
LINE
  5
974
100
AcDbEntity
  8
0
100
AcDbLine
 62
9
  6
CONTINUOUS
 10
72.6336706166
 20
98.7406712532
 11
72.6419234908
 21
98.6981610683
  0
LINE
  5
975
100
AcDbEntity
  8
0
100
AcDbLine
 62
9
  6
CONTINUOUS
 10
72.3969137122
 20
100.4701564903
 11
72.4025191768
 21
100.4412697188
  0
LINE
  5
976
100
AcDbEntity
  8
0
100
AcDbLine
 62
7
  6
CONTINUOUS
 10
76.8527582549
 20
102.927268667
 11
76.8768560476
 21
102.8007755454
  0
LINE
  5
977
100
AcDbEntity
  8
0
100
AcDbLine
 62
7
  6
CONTINUOUS
 10
24.6805383315
 20
89.2780123823
 11
24.6079758486
 21
89.6623718651
  0
LINE
  5
978
100
AcDbEntity
  8
0
100
AcDbLine
 62
9
  6
CONTINUOUS
 10
32.1052348187
 20
90.8598397081
 11
32.0717769283
 21
91.037127748
  0
LINE
  5
979
100
AcDbEntity
  8
0
100
AcDbLine
 62
9
  6
CONTINUOUS
 10
34.0870757527
 20
91.2268679585
 11
34.0571076933
 21
91.385716363
  0
LINE
  5
97A
100
AcDbEntity
  8
0
100
AcDbLine
 62
7
  6
CONTINUOUS
 10
76.8101540901
 20
93.3883498342
 11
76.8152837768
 21
93.3608980331
  0
LINE
  5
97B
100
AcDbEntity
  8
0
100
AcDbLine
 62
7
  6
CONTINUOUS
 10
76.8844958082
 20
95.2914667774
 11
76.8902750529
 21
95.2605393749
  0
LINE
  5
97C
100
AcDbEntity
  8
0
100
AcDbLine
 62
7
  6
CONTINUOUS
 10
76.6914117712
 20
93.3612612045
 11
76.6862795584
 21
93.388767897
  0
LINE
  5
97D
100
AcDbEntity
  8
0
100
AcDbLine
 62
9
  6
CONTINUOUS
 10
71.5932011111
 20
94.6376954826
 11
71.5832439945
 21
94.6920820979
  0
LINE
  5
97E
100
AcDbEntity
  8
0
100
AcDbLine
 62
7
  6
CONTINUOUS
 10
76.8865166903
 20
102.7466984717
 11
76.8657117938
 21
102.8616083873
  0
LINE
  5
97F
100
AcDbEntity
  8
0
100
AcDbLine
 62
9
  6
CONTINUOUS
 10
74.5314134616
 20
100.7628690119
 11
74.5424504975
 21
100.7015394745
  0
LINE
  5
980
100
AcDbEntity
  8
0
100
AcDbLine
 62
9
  6
CONTINUOUS
 10
32.0717769283
 20
91.037127748
 11
32.0412666087
 21
91.2078317323
  0
LINE
  5
981
100
AcDbEntity
  8
0
100
AcDbLine
 62
9
  6
CONTINUOUS
 10
34.0571076933
 20
91.385716363
 11
34.0297810823
 21
91.5387022181
  0
LINE
  5
982
100
AcDbEntity
  8
0
100
AcDbLine
 62
9
  6
CONTINUOUS
 10
72.4025191768
 20
100.4412697188
 11
72.4074359863
 21
100.4137293062
  0
LINE
  5
983
100
AcDbEntity
  8
0
100
AcDbLine
 62
9
  6
CONTINUOUS
 10
72.5565119126
 20
99.0788427733
 11
72.5653196403
 21
99.0291466504
  0
LINE
  5
984
100
AcDbEntity
  8
0
100
AcDbLine
 62
7
  6
CONTINUOUS
 10
24.5458048978
 20
90.0192729719
 11
24.6086223559
 21
89.6593731312
  0
LINE
  5
985
100
AcDbEntity
  8
0
100
AcDbLine
 62
7
  6
CONTINUOUS
 10
24.6079758486
 20
89.6623718651
 11
24.5361816534
 21
90.0775214519
  0
LINE
  5
986
100
AcDbEntity
  8
0
100
AcDbLine
 62
7
  6
CONTINUOUS
 10
76.8902750529
 20
95.2605393749
 11
76.8958782253
 21
95.2280631672
  0
LINE
  5
987
100
AcDbEntity
  8
0
100
AcDbLine
 62
7
  6
CONTINUOUS
 10
76.8052019258
 20
93.417394611
 11
76.8101540901
 21
93.3883498342
  0
LINE
  5
988
100
AcDbEntity
  8
0
100
AcDbLine
 62
7
  6
CONTINUOUS
 10
76.6862795584
 20
93.388767897
 11
76.6813266025
 21
93.4178631057
  0
LINE
  5
989
100
AcDbEntity
  8
0
100
AcDbLine
 62
9
  6
CONTINUOUS
 10
72.6419234908
 20
98.6981610683
 11
72.6487991865
 21
98.6576917574
  0
LINE
  5
98A
100
AcDbEntity
  8
0
100
AcDbLine
 62
9
  6
CONTINUOUS
 10
32.0412666087
 20
91.2078317323
 11
32.0133884027
 21
91.3726449494
  0
LINE
  5
98B
100
AcDbEntity
  8
0
100
AcDbLine
 62
9
  6
CONTINUOUS
 10
34.0297810823
 20
91.5387022181
 11
34.0048289824
 21
91.6863484061
  0
LINE
  5
98C
100
AcDbEntity
  8
0
100
AcDbLine
 62
7
  6
CONTINUOUS
 10
76.8768560476
 20
102.8007755454
 11
76.8996703952
 21
102.6649694744
  0
LINE
  5
98D
100
AcDbEntity
  8
0
100
AcDbLine
 62
9
  6
CONTINUOUS
 10
67.9504416362
 20
94.0888840066
 11
67.9612649766
 21
94.0234290929
  0
LINE
  5
98E
100
AcDbEntity
  8
0
100
AcDbLine
 62
9
  6
CONTINUOUS
 10
74.5424504975
 20
100.7015394745
 11
74.5525185877
 21
100.6401654542
  0
LINE
  5
98F
100
AcDbEntity
  8
0
100
AcDbLine
 62
9
  6
CONTINUOUS
 10
72.4074359863
 20
100.4137293062
 11
72.4116701302
 21
100.3878153358
  0
LINE
  5
990
100
AcDbEntity
  8
0
100
AcDbLine
 62
7
  6
CONTINUOUS
 10
24.4884653776
 20
90.3776099728
 11
24.5458048978
 21
90.0192729719
  0
LINE
  5
991
100
AcDbEntity
  8
0
100
AcDbLine
 62
9
  6
CONTINUOUS
 10
32.0133884027
 20
91.3726449494
 11
31.9879146162
 21
91.5319083864
  0
LINE
  5
992
100
AcDbEntity
  8
0
100
AcDbLine
 62
9
  6
CONTINUOUS
 10
34.0048289824
 20
91.6863484061
 11
33.9820379517
 21
91.8290033147
  0
LINE
  5
993
100
AcDbEntity
  8
0
100
AcDbLine
 62
7
  6
CONTINUOUS
 10
76.8958782253
 20
95.2280631672
 11
76.9012984816
 21
95.1940599787
  0
LINE
  5
994
100
AcDbEntity
  8
0
100
AcDbLine
 62
7
  6
CONTINUOUS
 10
76.9044880842
 20
102.6337200633
 11
76.8865166903
 21
102.7466984717
  0
LINE
  5
995
100
AcDbEntity
  8
0
100
AcDbLine
 62
7
  6
CONTINUOUS
 10
24.5361816534
 20
90.0775214519
 11
24.4673323007
 21
90.5183433024
  0
LINE
  5
996
100
AcDbEntity
  8
0
100
AcDbLine
 62
7
  6
CONTINUOUS
 10
76.800435911
 20
93.4479601738
 11
76.8052019258
 21
93.417394611
  0
LINE
  5
997
100
AcDbEntity
  8
0
100
AcDbLine
 62
7
  6
CONTINUOUS
 10
76.6813266025
 20
93.4178631057
 11
76.6765611521
 21
93.4484748593
  0
LINE
  5
998
100
AcDbEntity
  8
0
100
AcDbLine
 62
9
  6
CONTINUOUS
 10
72.5487067829
 20
99.1290402526
 11
72.5565119126
 21
99.0788427733
  0
LINE
  5
999
100
AcDbEntity
  8
0
100
AcDbLine
 62
9
  6
CONTINUOUS
 10
31.9879146162
 20
91.5319083864
 11
31.9646159955
 21
91.6861106991
  0
LINE
  5
99A
100
AcDbEntity
  8
0
100
AcDbLine
 62
9
  6
CONTINUOUS
 10
33.9820379517
 20
91.8290033147
 11
33.9612005383
 21
91.9671081942
  0
LINE
  5
99B
100
AcDbEntity
  8
0
100
AcDbLine
 62
9
  6
CONTINUOUS
 10
71.601484947
 20
94.5825148415
 11
71.5932011111
 21
94.6376954826
  0
LINE
  5
99C
100
AcDbEntity
  8
0
100
AcDbLine
 62
9
  6
CONTINUOUS
 10
74.5525185877
 20
100.6401654542
 11
74.5617592282
 21
100.5782673224
  0
LINE
  5
99D
100
AcDbEntity
  8
0
100
AcDbLine
 62
7
  6
CONTINUOUS
 10
76.8996703952
 20
102.6649694744
 11
76.9213346281
 21
102.5188681802
  0
LINE
  5
99E
100
AcDbEntity
  8
0
100
AcDbLine
 62
7
  6
CONTINUOUS
 10
76.9012984816
 20
95.1940599787
 11
76.9065184504
 21
95.1586194175
  0
LINE
  5
99F
100
AcDbEntity
  8
0
100
AcDbLine
 62
7
  6
CONTINUOUS
 10
24.4360771579
 20
90.7367054929
 11
24.4884653776
 21
90.3776099728
  0
LINE
  5
9A0
100
AcDbEntity
  8
0
100
AcDbLine
 62
9
  6
CONTINUOUS
 10
72.4116701302
 20
100.3878153358
 11
72.4156179166
 21
100.3605958116
  0
LINE
  5
9A1
100
AcDbEntity
  8
0
100
AcDbLine
 62
7
  6
CONTINUOUS
 10
76.9213726046
 20
102.5172276129
 11
76.9044880842
 21
102.6337200633
  0
LINE
  5
9A2
100
AcDbEntity
  8
0
100
AcDbLine
 62
7
  6
CONTINUOUS
 10
76.7958551985
 20
93.4800301065
 11
76.800435911
 21
93.4479601738
  0
LINE
  5
9A3
100
AcDbEntity
  8
0
100
AcDbLine
 62
9
  6
CONTINUOUS
 10
31.9646159955
 20
91.6861106991
 11
31.94331265
 21
91.8355610285
  0
LINE
  5
9A4
100
AcDbEntity
  8
0
100
AcDbLine
 62
7
  6
CONTINUOUS
 10
76.6765611521
 20
93.4484748593
 11
76.671982297
 21
93.4805854496
  0
LINE
  5
9A5
100
AcDbEntity
  8
0
100
AcDbLine
 62
9
  6
CONTINUOUS
 10
33.9612005383
 20
91.9671081942
 11
33.9421552017
 21
92.100932781
  0
LINE
  5
9A6
100
AcDbEntity
  8
0
100
AcDbLine
 62
9
  6
CONTINUOUS
 10
72.5415020672
 20
99.1811461816
 11
72.5487067829
 21
99.1290402526
  0
LINE
  5
9A7
100
AcDbEntity
  8
0
100
AcDbLine
 62
7
  6
CONTINUOUS
 10
24.4673323007
 20
90.5183433024
 11
24.4029399099
 21
90.9860153186
  0
LINE
  5
9A8
100
AcDbEntity
  8
0
100
AcDbLine
 62
7
  6
CONTINUOUS
 10
76.9213346281
 20
102.5188681802
 11
76.9425982372
 21
102.3634300254
  0
LINE
  5
9A9
100
AcDbEntity
  8
0
100
AcDbLine
 62
7
  6
CONTINUOUS
 10
76.9065184504
 20
95.1586194175
 11
76.9115218132
 21
95.1218397598
  0
LINE
  5
9AA
100
AcDbEntity
  8
0
100
AcDbLine
 62
9
  6
CONTINUOUS
 10
31.94331265
 20
91.8355610285
 11
31.9238305309
 21
91.9806440545
  0
LINE
  5
9AB
100
AcDbEntity
  8
0
100
AcDbLine
 62
9
  6
CONTINUOUS
 10
33.9421552017
 20
92.100932781
 11
33.9247452518
 21
92.230819133
  0
LINE
  5
9AC
100
AcDbEntity
  8
0
100
AcDbLine
 62
9
  6
CONTINUOUS
 10
72.6487991865
 20
98.6576917574
 11
72.6540746292
 21
98.6180184122
  0
LINE
  5
9AD
100
AcDbEntity
  8
0
100
AcDbLine
 62
7
  6
CONTINUOUS
 10
76.9385347302
 20
102.3937307882
 11
76.9641957141
 21
102.1995834266
  0
LINE
  5
9AE
100
AcDbEntity
  8
0
100
AcDbLine
 62
7
  6
CONTINUOUS
 10
24.3886400931
 20
91.0965540393
 11
24.4360771579
 21
90.7367054929
  0
LINE
  5
9AF
100
AcDbEntity
  8
0
100
AcDbLine
 62
7
  6
CONTINUOUS
 10
76.791459487
 20
93.5135939495
 11
76.7958551985
 21
93.4800301065
  0
LINE
  5
9B0
100
AcDbEntity
  8
0
100
AcDbLine
 62
9
  6
CONTINUOUS
 10
74.5617592282
 20
100.5782673224
 11
74.5697889406
 21
100.5169122328
  0
LINE
  5
9B1
100
AcDbEntity
  8
0
100
AcDbLine
 62
7
  6
CONTINUOUS
 10
76.671982297
 20
93.4805854496
 11
76.6675895623
 21
93.5141838224
  0
LINE
  5
9B2
100
AcDbEntity
  8
0
100
AcDbLine
 62
9
  6
CONTINUOUS
 10
67.9420250928
 20
94.1544969331
 11
67.9504416362
 21
94.0888840066
  0
LINE
  5
9B3
100
AcDbEntity
  8
0
100
AcDbLine
 62
7
  6
CONTINUOUS
 10
76.9558976629
 20
102.2633278998
 11
76.9863053867
 21
102.0264359478
  0
LINE
  5
9B4
100
AcDbEntity
  8
0
100
AcDbLine
 62
9
  6
CONTINUOUS
 10
72.4156179166
 20
100.3605958116
 11
72.41974338
 21
100.3281181701
  0
LINE
  5
9B5
100
AcDbEntity
  8
0
100
AcDbLine
 62
9
  6
CONTINUOUS
 10
31.9238305309
 20
91.9806440545
 11
31.9060253814
 21
92.1216367951
  0
LINE
  5
9B6
100
AcDbEntity
  8
0
100
AcDbLine
 62
7
  6
CONTINUOUS
 10
77.011901672
 20
101.8235621892
 11
76.973793367
 21
102.1250576616
  0
LINE
  5
9B7
100
AcDbEntity
  8
0
100
AcDbLine
 62
9
  6
CONTINUOUS
 10
33.9247452518
 20
92.230819133
 11
33.9088397058
 21
92.3570222797
  0
LINE
  5
9B8
100
AcDbEntity
  8
0
100
AcDbLine
 62
7
  6
CONTINUOUS
 10
76.9115218132
 20
95.1218397598
 11
76.9163030127
 21
95.0837487289
  0
LINE
  5
9B9
100
AcDbEntity
  8
0
100
AcDbLine
 62
7
  6
CONTINUOUS
 10
77.009423592
 20
101.8436678029
 11
77.0333307938
 21
101.6504894595
  0
LINE
  5
9BA
100
AcDbEntity
  8
0
100
AcDbLine
 62
9
  6
CONTINUOUS
 10
72.53467233
 20
99.2365731891
 11
72.5415020672
 21
99.1811461816
  0
LINE
  5
9BB
100
AcDbEntity
  8
0
100
AcDbLine
 62
7
  6
CONTINUOUS
 10
77.0322527978
 20
101.6592776932
 11
77.0580119085
 21
101.4462633057
  0
LINE
  5
9BC
100
AcDbEntity
  8
0
100
AcDbLine
 62
7
  6
CONTINUOUS
 10
24.4029399099
 20
90.9860153186
 11
24.3450919184
 21
91.4667749808
  0
LINE
  5
9BD
100
AcDbEntity
  8
0
100
AcDbLine
 62
7
  6
CONTINUOUS
 10
76.7872572529
 20
93.5485749815
 11
76.791459487
 21
93.5135939495
  0
LINE
  5
9BE
100
AcDbEntity
  8
0
100
AcDbLine
 62
7
  6
CONTINUOUS
 10
76.6675895623
 20
93.5141838224
 11
76.6633913434
 21
93.5491919992
  0
LINE
  5
9BF
100
AcDbEntity
  8
0
100
AcDbLine
 62
9
  6
CONTINUOUS
 10
31.9060253814
 20
92.1216367951
 11
31.8897590727
 21
92.2588719524
  0
LINE
  5
9C0
100
AcDbEntity
  8
0
100
AcDbLine
 62
9
  6
CONTINUOUS
 10
33.9088397058
 20
92.3570222797
 11
33.8943130117
 21
92.4798488686
  0
LINE
  5
9C1
100
AcDbEntity
  8
0
100
AcDbLine
 62
7
  6
CONTINUOUS
 10
24.3461737243
 20
91.4569967425
 11
24.3886400931
 21
91.0965540393
  0
LINE
  5
9C2
100
AcDbEntity
  8
0
100
AcDbLine
 62
7
  6
CONTINUOUS
 10
77.0533667649
 20
101.4852366745
 11
77.0833499159
 21
101.2302137943
  0
LINE
  5
9C3
100
AcDbEntity
  8
0
100
AcDbLine
 62
9
  6
CONTINUOUS
 10
71.6080385661
 20
94.5265541047
 11
71.601484947
 21
94.5825148415
  0
LINE
  5
9C4
100
AcDbEntity
  8
0
100
AcDbLine
 62
9
  6
CONTINUOUS
 10
72.41974338
 20
100.3281181701
 11
72.4242323581
 21
100.2893885552
  0
LINE
  5
9C5
100
AcDbEntity
  8
0
100
AcDbLine
 62
7
  6
CONTINUOUS
 10
76.9163030127
 20
95.0837487289
 11
76.9208559034
 21
95.0443708199
  0
LINE
  5
9C6
100
AcDbEntity
  8
0
100
AcDbLine
 62
9
  6
CONTINUOUS
 10
74.5697889406
 20
100.5169122328
 11
74.5765202928
 21
100.4577318402
  0
LINE
  5
9C7
100
AcDbEntity
  8
0
100
AcDbLine
 62
7
  6
CONTINUOUS
 10
77.0751910737
 20
101.3006531044
 11
77.1092324085
 21
101.0016411541
  0
LINE
  5
9C8
100
AcDbEntity
  8
0
100
AcDbLine
 62
7
  6
CONTINUOUS
 10
77.1207665714
 20
100.8969818549
 11
77.0976575307
 21
101.1048638154
  0
LINE
  5
9C9
100
AcDbEntity
  8
0
100
AcDbLine
 62
9
  6
CONTINUOUS
 10
31.8897590727
 20
92.2588719524
 11
31.8749172478
 21
92.3925788747
  0
LINE
  5
9CA
100
AcDbEntity
  8
0
100
AcDbLine
 62
9
  6
CONTINUOUS
 10
72.4242323581
 20
100.2893885552
 11
72.4590195269
 21
99.9758630439
  0
LINE
  5
9CB
100
AcDbEntity
  8
0
100
AcDbLine
 62
9
  6
CONTINUOUS
 10
33.8943130117
 20
92.4798488686
 11
33.881061677
 21
92.5995101741
  0
LINE
  5
9CC
100
AcDbEntity
  8
0
100
AcDbLine
 62
9
  6
CONTINUOUS
 10
72.4590195269
 20
99.9758630439
 11
72.4877464501
 21
99.7152767056
  0
LINE
  5
9CD
100
AcDbEntity
  8
0
100
AcDbLine
 62
7
  6
CONTINUOUS
 10
76.7832561036
 20
93.5848902249
 11
76.7872572529
 21
93.5485749815
  0
CIRCLE
  5
9CE
100
AcDbEntity
  8
0
100
AcDbCircle
 62
9
  6
CONTINUOUS
 10
69.7558681114
 20
94.3541021162
 40
1.2714466077
  0
ELLIPSE
  5
9CF
100
AcDbEntity
  8
0
100
AcDbEllipse
 62
7
  6
CONTINUOUS
 10
21.1323005504
 20
108.9776696772
 30
0.0
 11
0.267186978
 21
-0.267186978
 31
0.0
 40
0.9924325091
 41
2.3599925885
 42
3.9231927187
  0
ELLIPSE
  5
9D0
100
AcDbEntity
  8
0
100
AcDbEllipse
 62
7
  6
CONTINUOUS
 10
80.3794356723
 20
108.9776696772
 30
0.0
 11
-0.267186978
 21
-0.267186978
 31
0.0
 40
0.9924325091
 41
2.3599925885
 42
3.9231927187
  0
ELLIPSE
  5
9D1
100
AcDbEntity
  8
0
100
AcDbEllipse
 62
7
  6
CONTINUOUS
 10
21.1323005504
 20
79.7305345553
 30
0.0
 11
0.267186978
 21
0.267186978
 31
0.0
 40
0.9924325091
 41
-3.9231927187
 42
-2.3599925885
  0
ELLIPSE
  5
9D2
100
AcDbEntity
  8
0
100
AcDbEllipse
 62
7
  6
CONTINUOUS
 10
80.3794356723
 20
79.7305345553
 30
0.0
 11
-0.267186978
 21
0.267186978
 31
0.0
 40
0.9924325091
 41
-3.9231927187
 42
-2.3599925885
  0
ENDSEC
  0
SECTION
  2
OBJECTS
  0
DICTIONARY
  5
C
100
AcDbDictionary
280
0
281
1
  3
ACAD_GROUP
350
D
  3
ACAD_MLINESTYLE
350
17
  3
ACAD_LAYOUT
350
1A
  3
ACAD_PLOTSETTINGS
350
19
  3
ACAD_PLOTSTYLENAME
350
E
  0
DICTIONARY
  5
D
102
{ACAD_REACTORS
330
C
102
}
100
AcDbDictionary
280
0
281
1
  0
ACDBDICTIONARYWDFLT
  5
E
102
{ACAD_REACTORS
330
C
102
}
100
AcDbDictionary
281
1
  3
Normal
350
F
100
AcDbDictionaryWithDefault
340
F
  0
DICTIONARY
  5
17
102
{ACAD_REACTORS
330
C
102
}
100
AcDbDictionary
280
0
281
1
  3
Standard
350
18
  0
DICTIONARY
  5
19
102
{ACAD_REACTORS
330
C
102
}
100
AcDbDictionary
281
1
  0
DICTIONARY
  5
1A
102
{ACAD_REACTORS
330
C
102
}
100
AcDbDictionary
281
1
  3
Model
350
9D3
  3
Layout1
350
9D4
  0
ACDBPLACEHOLDER
  5
F
102
{ACAD_REACTORS
330
E
102
}
  0
MLINESTYLE
  5
18
102
{ACAD_REACTORS
330
17
102
}
100
AcDbMlineStyle
  2
STANDARD
 70
0
  3

 62
256
 51
90.0
 52
90.0
 71
2
 49
0.5
 62
256
  6
BYLAYER
 49
-0.5
 62
256
  6
BYLAYER
  0
LAYOUT
  5
9D3
102
{ACAD_REACTORS
330
1A
102
}
100
AcDbPlotSettings
  1

  2
none_device
  4
ANSI_B_(17.00_x_11.00_Inches)
  6

 40
0.0
 41
0.0
 42
0.0
 43
0.0
 44
431.8
 45
279.4
 46
0.0
 47
0.0
 48
0.0
 49
0.0
140
0.0
141
0.0
142
1.0
143
1.0
 70
1024
 72
0
 73
0
 74
0
  7

 75
0
147
1.0
148
0.0
149
0.0
100
AcDbLayout
  1
Model
 70
0
 71
0
 10
0.0
 20
0.0
 11
17.0
 21
11.0
 12
0.0
 22
0.0
 32
0.0
 14
0.0
 24
0.0
 34
0.0
 15
0.0
 25
0.0
 35
0.0
146
0.0
 13
0.0
 23
0.0
 33
0.0
 16
1.0
 26
0.0
 36
0.0
 17
0.0
 27
1.0
 37
0.0
 76
0
330
218
345
0
346
0
  0
LAYOUT
  5
9D4
102
{ACAD_REACTORS
330
1A
102
}
100
AcDbPlotSettings
  1

  2
none_device
  4
ANSI_B_(17.00_x_11.00_Inches)
  6

 40
0.0
 41
0.0
 42
0.0
 43
0.0
 44
431.8
 45
279.4
 46
0.0
 47
0.0
 48
0.0
 49
0.0
140
0.0
141
0.0
142
1.0
143
1.0
 70
0
 72
0
 73
0
 74
0
  7

 75
0
147
1.0
148
0.0
149
0.0
100
AcDbLayout
  1
Layout1
 70
0
 71
1
 10
0.0
 20
0.0
 11
17.0
 21
11.0
 12
0.0
 22
0.0
 32
0.0
 14
0.0
 24
0.0
 34
0.0
 15
0.0
 25
0.0
 35
0.0
146
0.0
 13
0.0
 23
0.0
 33
0.0
 16
1.0
 26
0.0
 36
0.0
 17
0.0
 27
1.0
 37
0.0
 76
0
330
219
345
0
346
0
  0
ENDSEC
  0
EOF
