  0
SECTION
  2
HEADER
  9
$ACADVER
  1
AC1015
  9
$DWGCODEPAGE
  3
ANSI_1252
  9
$EXTMAX
 10
17.0
 20
11.0
 30
0.0
  9
$EXTMIN
 10
0.0
 20
0.0
 30
0.0
  9
$LIMMIN
 10
0.0
 20
0.0
  9
$LIMMAX
 10
17.0
 20
11.0
  9
$VIEWCTR
 10
8.5
 20
5.5
  9
$VIEWSIZE
 40
11.0
  9
$CLAYER
  8
0
  9
$LTSCALE
 40
0.935
  9
$CELTYPE
  6
BYLAYER
  9
$DIMSCALE
 40
1.0
  9
$DIMASZ
 40
0.1875
  9
$DIMEXO
 40
0.10625
  9
$DIMDLI
 40
0.646
  9
$DIMEXE
 40
0.306
  9
$DIMCEN
 40
0.153
  9
$DIMLFAC
 40
1.0
  9
$DIMBLK
  1
_FILLED
  9
$DIMTXT
 40
0.125
  9
$DIMTOL
 70
0
  9
$DIMLIM
 70
0
  9
$DIMTFAC
 40
1.0
  9
$PDMODE
 70
3
  9
$PDSIZE
 40
0.03125
  9
$HANDSEED
  5
9DA
  9
$TILEMODE
 70
1
  9
$MEASUREMENT
 70
0
  9
$INSUNITS
 70
1
  0
ENDSEC
  0
SECTION
  2
CLASSES
  0
CLASS
  1
ACDBDICTIONARYWDFLT
  2
AcDbDictionaryWithDefault
  3
AutoCAD 2000
 90
0
280
0
281
0
  0
CLASS
  1
ACDBPLACEHOLDER
  2
AcDbPlaceHolder
  3
AutoCAD 2000
 90
0
280
0
281
0
  0
CLASS
  1
LAYOUT
  2
AcDbLayout
  3
AutoCAD 2000
 90
0
280
0
281
0
  0
ENDSEC
  0
SECTION
  2
TABLES
  0
TABLE
  2
VPORT
  5
8
100
AcDbSymbolTable
 70
2
  0
VPORT
  5
1F4
100
AcDbSymbolTableRecord
100
AcDbViewportTableRecord
  2
*ACTIVE
 70
0
 10
0.0
 20
0.0
 11
1.0
 21
1.0
 12
8.5
 22
5.5
 13
0.0
 23
0.0
 14
1.0
 24
1.0
 15
0.0
 25
0.0
 16
0.0
 26
0.0
 36
1.0
 17
0.0
 27
0.0
 37
0.0
 40
11.0
 41
1.5454545455
 42
50.0
 43
0.0
 44
0.0
 50
0.0
 51
0.0
 71
0
 72
100
 73
1
 74
1
 75
0
 76
0
 77
0
 78
0
  0
ENDTAB
  0
TABLE
  2
LTYPE
  5
5
100
AcDbSymbolTable
 70
6
  0
LTYPE
  5
14
100
AcDbSymbolTableRecord
100
AcDbLinetypeTableRecord
  2
BYBLOCK
 70
0
  3

 72
65
 73
0
 40
0.0
  0
LTYPE
  5
15
100
AcDbSymbolTableRecord
100
AcDbLinetypeTableRecord
  2
BYLAYER
 70
0
  3

 72
65
 73
0
 40
0.0
  0
LTYPE
  5
16
100
AcDbSymbolTableRecord
100
AcDbLinetypeTableRecord
  2
CONTINUOUS
 70
64
  3
Solid line
 72
65
 73
0
 40
0.0
  0
LTYPE
  5
1F5
100
AcDbSymbolTableRecord
100
AcDbLinetypeTableRecord
  2
CENTER
 70
64
  3
____ _ ____ _ ____ _ ____ _ ____ _ ____ _ ____
 72
65
 73
4
 40
0.6
 49
0.375
 74
0
 49
-0.075
 74
0
 49
0.075
 74
0
 49
-0.075
 74
0
  0
LTYPE
  5
1F6
100
AcDbSymbolTableRecord
100
AcDbLinetypeTableRecord
  2
HIDDEN
 70
64
  3
- - - - - - - - - - - - - - - - - - - -
 72
65
 73
2
 40
0.2
 49
0.1
 74
0
 49
-0.1
 74
0
  0
LTYPE
  5
1F7
100
AcDbSymbolTableRecord
100
AcDbLinetypeTableRecord
  2
PHANTOM
 70
64
  3
_____ _ _ _____ _ _ _____ _ _ _____
 72
65
 73
6
 40
0.8
 49
0.45
 74
0
 49
-0.05
 74
0
 49
0.1
 74
0
 49
-0.05
 74
0
 49
0.1
 74
0
 49
-0.05
 74
0
  0
LTYPE
  5
1F8
100
AcDbSymbolTableRecord
100
AcDbLinetypeTableRecord
  2
DOT
 70
64
  3
. . . . . . . . . . . . . . . . . . . .
 72
65
 73
2
 40
0.2
 49
0.1
 74
0
 49
-0.1
 74
0
  0
LTYPE
  5
1F9
100
AcDbSymbolTableRecord
100
AcDbLinetypeTableRecord
  2
DASHED
 70
64
  3
- - - - - - - - - - - - - - - - - - - -
 72
65
 73
2
 40
0.2
 49
0.1
 74
0
 49
-0.1
 74
0
  0
ENDTAB
  0
TABLE
  2
LAYER
  5
2
100
AcDbSymbolTable
 70
36
  0
LAYER
  5
10
100
AcDbSymbolTableRecord
100
AcDbLayerTableRecord
  2
0
 70
0
 62
7
  6
CONTINUOUS
370
-3
390
F
  0
LAYER
  5
1FA
100
AcDbSymbolTableRecord
100
AcDbLayerTableRecord
  2
DEFAULT_1
 70
0
 62
7
  6
CENTER
370
-3
390
F
  0
LAYER
  5
1FB
100
AcDbSymbolTableRecord
100
AcDbLayerTableRecord
  2
DEFAULT_2
 70
0
 62
8
  6
HIDDEN
370
-3
390
F
  0
LAYER
  5
1FC
100
AcDbSymbolTableRecord
100
AcDbLayerTableRecord
  2
DEFAULT_3
 70
0
 62
7
  6
PHANTOM
370
-3
390
F
  0
LAYER
  5
1FD
100
AcDbSymbolTableRecord
100
AcDbLayerTableRecord
  2
1_CURVES
 70
0
 62
7
  6
CONTINUOUS
370
-3
390
F
  0
LAYER
  5
1FE
100
AcDbSymbolTableRecord
100
AcDbLayerTableRecord
  2
1_CURVES-DEGAGEMENT-COIL
 70
0
 62
7
  6
CONTINUOUS
370
-3
390
F
  0
LAYER
  5
1FF
100
AcDbSymbolTableRecord
100
AcDbLayerTableRecord
  2
1_CURVES-JETS
 70
0
 62
7
  6
CONTINUOUS
370
-3
390
F
  0
LAYER
  5
200
100
AcDbSymbolTableRecord
100
AcDbLayerTableRecord
  2
1_CURVES-TRAJECTOIRE-COIL
 70
0
 62
7
  6
CONTINUOUS
370
-3
390
F
  0
LAYER
  5
201
100
AcDbSymbolTableRecord
100
AcDbLayerTableRecord
  2
1_CURVES_CONTROLES
 70
0
 62
7
  6
CONTINUOUS
370
-3
390
F
  0
LAYER
  5
202
100
AcDbSymbolTableRecord
100
AcDbLayerTableRecord
  2
1_CURVES_IMPORT
 70
0
 62
7
  6
CONTINUOUS
370
-3
390
F
  0
LAYER
  5
203
100
AcDbSymbolTableRecord
100
AcDbLayerTableRecord
  2
1_CURVES_JETS
 70
0
 62
7
  6
CONTINUOUS
370
-3
390
F
  0
LAYER
  5
204
100
AcDbSymbolTableRecord
100
AcDbLayerTableRecord
  2
2_PLANES
 70
0
 62
7
  6
CONTINUOUS
370
-3
390
F
  0
LAYER
  5
205
100
AcDbSymbolTableRecord
100
AcDbLayerTableRecord
  2
2_PLANES-JETS
 70
0
 62
7
  6
CONTINUOUS
370
-3
390
F
  0
LAYER
  5
206
100
AcDbSymbolTableRecord
100
AcDbLayerTableRecord
  2
3_POINTS
 70
0
 62
7
  6
CONTINUOUS
370
-3
390
F
  0
LAYER
  5
207
100
AcDbSymbolTableRecord
100
AcDbLayerTableRecord
  2
3_POINTS-JETS
 70
0
 62
7
  6
CONTINUOUS
370
-3
390
F
  0
LAYER
  5
208
100
AcDbSymbolTableRecord
100
AcDbLayerTableRecord
  2
4_CSYS
 70
0
 62
7
  6
CONTINUOUS
370
-3
390
F
  0
LAYER
  5
209
100
AcDbSymbolTableRecord
100
AcDbLayerTableRecord
  2
5_AXIS
 70
0
 62
7
  6
CONTINUOUS
370
-3
390
F
  0
LAYER
  5
20A
100
AcDbSymbolTableRecord
100
AcDbLayerTableRecord
  2
6_SURFACES
 70
0
 62
7
  6
CONTINUOUS
370
-3
390
F
  0
LAYER
  5
20B
100
AcDbSymbolTableRecord
100
AcDbLayerTableRecord
  2
6_SURFACES-OFFSET-FIBRE-ACRYLIQ
 70
0
 62
7
  6
CONTINUOUS
370
-3
390
F
  0
LAYER
  5
20C
100
AcDbSymbolTableRecord
100
AcDbLayerTableRecord
  2
6_SURFACES-POUR-CADRES
 70
0
 62
7
  6
CONTINUOUS
370
-3
390
F
  0
LAYER
  5
20D
100
AcDbSymbolTableRecord
100
AcDbLayerTableRecord
  2
6_SURFACES-TOOLING
 70
0
 62
7
  6
CONTINUOUS
370
-3
390
F
  0
LAYER
  5
20E
100
AcDbSymbolTableRecord
100
AcDbLayerTableRecord
  2
6_SURFACES_AIRE
 70
0
 62
7
  6
CONTINUOUS
370
-3
390
F
  0
LAYER
  5
20F
100
AcDbSymbolTableRecord
100
AcDbLayerTableRecord
  2
6_SURFACES_OFFSET_CONDUIT
 70
0
 62
7
  6
CONTINUOUS
370
-3
390
F
  0
LAYER
  5
210
100
AcDbSymbolTableRecord
100
AcDbLayerTableRecord
  2
6_SURFACES_OFFSET_CONDUIT-PREPA
 70
0
 62
7
  6
CONTINUOUS
370
-3
390
F
  0
LAYER
  5
211
100
AcDbSymbolTableRecord
100
AcDbLayerTableRecord
  2
6_SURFACES_OFFSET_FIBRE
 70
0
 62
7
  6
CONTINUOUS
370
-3
390
F
  0
LAYER
  5
212
100
AcDbSymbolTableRecord
100
AcDbLayerTableRecord
  2
6_SURFACES_TOOLING
 70
0
 62
7
  6
CONTINUOUS
370
-3
390
F
  0
LAYER
  5
213
100
AcDbSymbolTableRecord
100
AcDbLayerTableRecord
  2
7_NOTES
 70
0
 62
7
  6
CONTINUOUS
370
-3
390
F
  0
LAYER
  5
214
100
AcDbSymbolTableRecord
100
AcDbLayerTableRecord
  2
8_ZONE-ROBINETERIE
 70
0
 62
7
  6
CONTINUOUS
370
-3
390
F
  0
LAYER
  5
215
100
AcDbSymbolTableRecord
100
AcDbLayerTableRecord
  2
XSEC_DATUMS
 70
0
 62
7
  6
CONTINUOUS
370
-3
390
F
  0
ENDTAB
  0
TABLE
  2
STYLE
  5
3
100
AcDbSymbolTable
 70
1
  0
STYLE
  5
11
100
AcDbSymbolTableRecord
100
AcDbTextStyleTableRecord
  2
STANDARD
 70
0
 40
0.0
 41
0.8
 50
0.0
 71
0
 42
0.2
  3
txt
  4

  0
STYLE
  5
216
100
AcDbSymbolTableRecord
100
AcDbTextStyleTableRecord
  2
TEXTSTYLE_1
 70
0
 40
0.0
 41
0.8
 50
0.0
 71
0
 42
0.2
  3
gdt
  4

  0
ENDTAB
  0
TABLE
  2
VIEW
  5
6
100
AcDbSymbolTable
 70
0
  0
ENDTAB
  0
TABLE
  2
UCS
  5
7
100
AcDbSymbolTable
 70
0
  0
ENDTAB
  0
TABLE
  2
APPID
  5
9
100
AcDbSymbolTable
 70
1
  0
APPID
  5
217
100
AcDbSymbolTableRecord
100
AcDbRegAppTableRecord
  2
ACAD
 70
0
  0
ENDTAB
  0
TABLE
  2
BLOCK_RECORD
  5
1
100
AcDbSymbolTable
 70
0
  0
BLOCK_RECORD
  5
218
100
AcDbSymbolTableRecord
100
AcDbBlockTableRecord
  2
*Model_Space
  0
BLOCK_RECORD
  5
219
100
AcDbSymbolTableRecord
100
AcDbBlockTableRecord
  2
*Paper_Space
  0
ENDTAB
  0
TABLE
  2
DIMSTYLE
  5
A
100
AcDbSymbolTable
 70
1
100
AcDbDimStyleTable
 71
0
  0
DIMSTYLE
105
21A
100
AcDbSymbolTableRecord
100
AcDbDimStyleTableRecord
  2
STANDARD
 70
0
  3

  4

 40
1.0
 41
0.1875
 42
0.0625
 43
0.38
 44
0.18
 45
0.0
 46
0.0
 47
0.00001
 48
0.00001
140
0.125
141
0.09
142
0.0
143
25.4
144
1.0
145
0.0
146
1.0
147
0.09
 71
0.0
 72
0.0
 73
1
 74
1
 75
0
 76
0
 77
0
 78
4
170
0
171
2
172
0
173
0
174
0
175
0
176
0
177
0
178
0
270
2
271
5
272
5
273
2
274
2
275
0
280
0
281
0
282
0
283
1
284
4
285
0
286
0
287
3
288
0
340
11
  0
ENDTAB
  0
ENDSEC
  0
SECTION
  2
BLOCKS
  0
BLOCK
  5
20
100
AcDbEntity
  8
0
100
AcDbBlockBegin
  2
*Model_Space
 70
0
 10
0.0
 20
0.0
 30
0.0
  3
*Model_Space
  1

  0
ENDBLK
  5
21
100
AcDbEntity
  8
0
100
AcDbBlockEnd
  0
BLOCK
  5
1C
100
AcDbEntity
  8
0
100
AcDbBlockBegin
  2
*Paper_Space
 70
0
 10
0.0
 20
0.0
 30
0.0
  3
*Paper_Space
  1

  0
ENDBLK
  5
1D
100
AcDbEntity
  8
0
100
AcDbBlockEnd
  0
ENDSEC
  0
SECTION
  2
ENTITIES
  0
LINE
  5
21B
100
AcDbEntity
  8
0
100
AcDbLine
 62
7
  6
CONTINUOUS
 10
25.1363456606
 20
100.8817041418
 11
25.0708567738
 21
100.6402766058
  0
LINE
  5
21C
100
AcDbEntity
  8
0
100
AcDbLine
 62
7
  6
CONTINUOUS
 10
25.1153617157
 20
100.805363381
 11
25.1843221479
 21
101.0528864409
  0
LINE
  5
21D
100
AcDbEntity
  8
0
100
AcDbLine
 62
7
  6
CONTINUOUS
 10
25.2002536794
 20
101.1088014577
 11
25.1363456606
 21
100.8817041418
  0
LINE
  5
21E
100
AcDbEntity
  8
0
100
AcDbLine
 62
7
  6
CONTINUOUS
 10
25.1843221479
 20
101.0528864409
 11
25.2517108341
 21
101.2864168022
  0
LINE
  5
21F
100
AcDbEntity
  8
0
100
AcDbLine
 62
7
  6
CONTINUOUS
 10
25.2624554891
 20
101.3228961927
 11
25.2002536794
 21
101.1088014577
  0
LINE
  5
220
100
AcDbEntity
  8
0
100
AcDbLine
 62
7
  6
CONTINUOUS
 10
25.322946642
 20
101.5247959082
 11
25.2517108341
 21
101.2864168022
  0
LINE
  5
221
100
AcDbEntity
  8
0
100
AcDbLine
 62
7
  6
CONTINUOUS
 10
25.3816714483
 20
101.7155433368
 11
25.3174944328
 21
101.5068284333
  0
LINE
  5
222
100
AcDbEntity
  8
0
100
AcDbLine
 62
7
  6
CONTINUOUS
 10
25.3815687585
 20
101.7152264176
 11
25.4439474085
 21
101.9122611646
  0
LINE
  5
223
100
AcDbEntity
  8
0
100
AcDbLine
 62
7
  6
CONTINUOUS
 10
25.4386582927
 20
101.8957606045
 11
25.5046272642
 21
102.0987539203
  0
LINE
  5
224
100
AcDbEntity
  8
0
100
AcDbLine
 62
7
  6
CONTINUOUS
 10
25.4939163271
 20
102.0662319873
 11
25.5635542876
 21
102.2752972589
  0
LINE
  5
225
100
AcDbEntity
  8
0
100
AcDbLine
 62
7
  6
CONTINUOUS
 10
25.5992802404
 20
102.3801918995
 11
25.5474475594
 21
102.227513768
  0
LINE
  5
226
100
AcDbEntity
  8
0
100
AcDbLine
 62
7
  6
CONTINUOUS
 10
25.5635542876
 20
102.2752972589
 11
25.620716471
 21
102.4425359578
  0
LINE
  5
227
100
AcDbEntity
  8
0
100
AcDbLine
 62
7
  6
CONTINUOUS
 10
25.6493447931
 20
102.5249616477
 11
25.5992802404
 21
102.3801918995
  0
LINE
  5
228
100
AcDbEntity
  8
0
100
AcDbLine
 62
7
  6
CONTINUOUS
 10
25.6975549098
 20
102.6627361288
 11
25.620716471
 21
102.4425359578
  0
LINE
  5
229
100
AcDbEntity
  8
0
100
AcDbLine
 62
7
  6
CONTINUOUS
 10
25.675984606
 20
102.601134654
 11
25.7290774677
 21
102.7521173016
  0
LINE
  5
22A
100
AcDbEntity
  8
0
100
AcDbLine
 62
7
  6
CONTINUOUS
 10
25.7439890338
 20
102.7934477442
 11
25.6975549098
 21
102.6627361288
  0
LINE
  5
22B
100
AcDbEntity
  8
0
100
AcDbLine
 62
9
  6
CONTINUOUS
 10
32.8274226059
 20
100.0149348759
 11
32.8533781914
 21
100.0874014232
  0
LINE
  5
22C
100
AcDbEntity
  8
0
100
AcDbLine
 62
7
  6
CONTINUOUS
 10
25.7290774677
 20
102.7521173016
 11
25.788543196
 21
102.9176318384
  0
LINE
  5
22D
100
AcDbEntity
  8
0
100
AcDbLine
 62
9
  6
CONTINUOUS
 10
32.8533781914
 20
100.0874014232
 11
32.8784224569
 21
100.1564087963
  0
LINE
  5
22E
100
AcDbEntity
  8
0
100
AcDbLine
 62
9
  6
CONTINUOUS
 10
32.8784224569
 20
100.1564087963
 11
32.9026610991
 21
100.2223913325
  0
LINE
  5
22F
100
AcDbEntity
  8
0
100
AcDbLine
 62
7
  6
CONTINUOUS
 10
25.8316783259
 20
103.0343926977
 11
25.7804390983
 21
102.8950507261
  0
LINE
  5
230
100
AcDbEntity
  8
0
100
AcDbLine
 62
9
  6
CONTINUOUS
 10
32.9026610991
 20
100.2223913325
 11
32.9260211176
 21
100.2852706944
  0
LINE
  5
231
100
AcDbEntity
  8
0
100
AcDbLine
 62
9
  6
CONTINUOUS
 10
32.9260211176
 20
100.2852706944
 11
32.9484593978
 21
100.3450097204
  0
LINE
  5
232
100
AcDbEntity
  8
0
100
AcDbLine
 62
9
  6
CONTINUOUS
 10
34.8149825245
 20
99.5882681297
 11
34.8542012043
 21
99.6913893532
  0
LINE
  5
233
100
AcDbEntity
  8
0
100
AcDbLine
 62
9
  6
CONTINUOUS
 10
32.9484593978
 20
100.3450097204
 11
32.9907773994
 21
100.4559909874
  0
LINE
  5
234
100
AcDbEntity
  8
0
100
AcDbLine
 62
7
  6
CONTINUOUS
 10
25.8299105621
 20
103.0295571227
 11
25.879019567
 21
103.156494336
  0
LINE
  5
235
100
AcDbEntity
  8
0
100
AcDbLine
 62
9
  6
CONTINUOUS
 10
34.8542012043
 20
99.6913893532
 11
34.8904446593
 21
99.7849086792
  0
LINE
  5
236
100
AcDbEntity
  8
0
100
AcDbLine
 62
9
  6
CONTINUOUS
 10
32.9907773994
 20
100.4559909874
 11
33.0300676744
 21
100.5571320801
  0
LINE
  5
237
100
AcDbEntity
  8
0
100
AcDbLine
 62
9
  6
CONTINUOUS
 10
34.8904446593
 20
99.7849086792
 11
34.9242633852
 21
99.8706892466
  0
LINE
  5
238
100
AcDbEntity
  8
0
100
AcDbLine
 62
9
  6
CONTINUOUS
 10
33.0300676744
 20
100.5571320801
 11
33.0667173778
 21
100.6499044719
  0
LINE
  5
239
100
AcDbEntity
  8
0
100
AcDbLine
 62
9
  6
CONTINUOUS
 10
34.9242633852
 20
99.8706892466
 11
34.9557747989
 21
99.9493917395
  0
LINE
  5
23A
100
AcDbEntity
  8
0
100
AcDbLine
 62
9
  6
CONTINUOUS
 10
33.0667173778
 20
100.6499044719
 11
33.1005516149
 21
100.7342863505
  0
LINE
  5
23B
100
AcDbEntity
  8
0
100
AcDbLine
 62
9
  6
CONTINUOUS
 10
34.9557747989
 20
99.9493917395
 11
34.9844567027
 21
100.0200418461
  0
LINE
  5
23C
100
AcDbEntity
  8
0
100
AcDbLine
 62
9
  6
CONTINUOUS
 10
33.1005516149
 20
100.7342863505
 11
33.1313043285
 21
100.809977276
  0
LINE
  5
23D
100
AcDbEntity
  8
0
100
AcDbLine
 62
7
  6
CONTINUOUS
 10
25.9149703081
 20
103.2434929142
 11
25.8732602871
 21
103.1418338021
  0
LINE
  5
23E
100
AcDbEntity
  8
0
100
AcDbLine
 62
9
  6
CONTINUOUS
 10
34.9844567027
 20
100.0200418461
 11
35.0103376684
 21
100.0829815408
  0
LINE
  5
23F
100
AcDbEntity
  8
0
100
AcDbLine
 62
9
  6
CONTINUOUS
 10
33.1313043285
 20
100.809977276
 11
33.1593967961
 21
100.8782888123
  0
LINE
  5
240
100
AcDbEntity
  8
0
100
AcDbLine
 62
9
  6
CONTINUOUS
 10
33.1593967961
 20
100.8782888123
 11
33.185626464
 21
100.9413144847
  0
LINE
  5
241
100
AcDbEntity
  8
0
100
AcDbLine
 62
9
  6
CONTINUOUS
 10
35.0103376684
 20
100.0829815408
 11
35.0456266675
 21
100.1675408963
  0
LINE
  5
242
100
AcDbEntity
  8
0
100
AcDbLine
 62
7
  6
CONTINUOUS
 10
25.879019567
 20
103.156494336
 11
25.9288766548
 21
103.275519402
  0
LINE
  5
243
100
AcDbEntity
  8
0
100
AcDbLine
 62
9
  6
CONTINUOUS
 10
33.185626464
 20
100.9413144847
 11
33.2223975303
 21
101.0284365778
  0
LINE
  5
244
100
AcDbEntity
  8
0
100
AcDbLine
 62
9
  6
CONTINUOUS
 10
35.0456266675
 20
100.1675408963
 11
35.0796643684
 21
100.2479721481
  0
LINE
  5
245
100
AcDbEntity
  8
0
100
AcDbLine
 62
9
  6
CONTINUOUS
 10
33.2223975303
 20
101.0284365778
 11
33.2621174926
 21
101.1218352905
  0
LINE
  5
246
100
AcDbEntity
  8
0
100
AcDbLine
 62
9
  6
CONTINUOUS
 10
35.0796643684
 20
100.2479721481
 11
35.1021509448
 21
100.3006216536
  0
LINE
  5
247
100
AcDbEntity
  8
0
100
AcDbLine
 62
9
  6
CONTINUOUS
 10
33.2621174926
 20
101.1218352905
 11
33.2781097323
 21
101.1590944787
  0
LINE
  5
248
100
AcDbEntity
  8
0
100
AcDbLine
 62
9
  6
CONTINUOUS
 10
35.1021509448
 20
100.3006216536
 11
35.1132992243
 21
100.326367483
  0
LINE
  5
249
100
AcDbEntity
  8
0
100
AcDbLine
 62
9
  6
CONTINUOUS
 10
33.2781097323
 20
101.1590944787
 11
33.2962086523
 21
101.2007330091
  0
LINE
  5
24A
100
AcDbEntity
  8
0
100
AcDbLine
 62
9
  6
CONTINUOUS
 10
35.1132992243
 20
100.326367483
 11
35.1243874349
 21
100.3515790793
  0
LINE
  5
24B
100
AcDbEntity
  8
0
100
AcDbLine
 62
7
  6
CONTINUOUS
 10
25.9582734454
 20
103.3417887443
 11
25.9149703081
 21
103.2434929142
  0
LINE
  5
24C
100
AcDbEntity
  8
0
100
AcDbLine
 62
9
  6
CONTINUOUS
 10
33.2962086523
 20
101.2007330091
 11
33.316877047
 21
101.2472855787
  0
LINE
  5
24D
100
AcDbEntity
  8
0
100
AcDbLine
 62
9
  6
CONTINUOUS
 10
35.1243874349
 20
100.3515790793
 11
35.1354156968
 21
100.3761060404
  0
LINE
  5
24E
100
AcDbEntity
  8
0
100
AcDbLine
 62
7
  6
CONTINUOUS
 10
25.9288766548
 20
103.275519402
 11
25.9805743872
 21
103.3898569426
  0
LINE
  5
24F
100
AcDbEntity
  8
0
100
AcDbLine
 62
9
  6
CONTINUOUS
 10
33.316877047
 20
101.2472855787
 11
33.3405693608
 21
101.2990930114
  0
LINE
  5
250
100
AcDbEntity
  8
0
100
AcDbLine
 62
9
  6
CONTINUOUS
 10
35.1354156968
 20
100.3761060404
 11
35.1465882761
 21
100.4002199741
  0
LINE
  5
251
100
AcDbEntity
  8
0
100
AcDbLine
 62
7
  6
CONTINUOUS
 10
26.00368408
 20
103.4381819293
 11
25.9582734454
 21
103.3417887443
  0
LINE
  5
252
100
AcDbEntity
  8
0
100
AcDbLine
 62
9
  6
CONTINUOUS
 10
33.3405693608
 20
101.2990930114
 11
33.3671507193
 21
101.3551426838
  0
LINE
  5
253
100
AcDbEntity
  8
0
100
AcDbLine
 62
9
  6
CONTINUOUS
 10
35.1465882761
 20
100.4002199741
 11
35.1583072077
 21
100.4245557355
  0
LINE
  5
254
100
AcDbEntity
  8
0
100
AcDbLine
 62
7
  6
CONTINUOUS
 10
25.9805743872
 20
103.3898569426
 11
26.0358575693
 21
103.5031058553
  0
LINE
  5
255
100
AcDbEntity
  8
0
100
AcDbLine
 62
9
  6
CONTINUOUS
 10
33.3671507193
 20
101.3551426838
 11
33.3963328547
 21
101.4142800902
  0
LINE
  5
256
100
AcDbEntity
  8
0
100
AcDbLine
 62
7
  6
CONTINUOUS
 10
26.052625454
 20
103.5357956787
 11
26.00368408
 21
103.4381819293
  0
LINE
  5
257
100
AcDbEntity
  8
0
100
AcDbLine
 62
9
  6
CONTINUOUS
 10
35.1583072077
 20
100.4245557355
 11
35.171214912
 21
100.4502367094
  0
LINE
  5
258
100
AcDbEntity
  8
0
100
AcDbLine
 62
9
  6
CONTINUOUS
 10
33.3963328547
 20
101.4142800902
 11
33.4280809017
 21
101.4760908425
  0
LINE
  5
259
100
AcDbEntity
  8
0
100
AcDbLine
 62
9
  6
CONTINUOUS
 10
35.171214912
 20
100.4502367094
 11
35.1861780875
 21
100.4788423573
  0
LINE
  5
25A
100
AcDbEntity
  8
0
100
AcDbLine
 62
7
  6
CONTINUOUS
 10
26.0358575693
 20
103.5031058553
 11
26.0938800119
 21
103.6138003502
  0
LINE
  5
25B
100
AcDbEntity
  8
0
100
AcDbLine
 62
7
  6
CONTINUOUS
 10
26.1038360405
 20
103.632060984
 11
26.052625454
 21
103.5357956787
  0
LINE
  5
25C
100
AcDbEntity
  8
0
100
AcDbLine
 62
9
  6
CONTINUOUS
 10
33.4280809017
 20
101.4760908425
 11
33.4630561817
 21
101.541445977
  0
LINE
  5
25D
100
AcDbEntity
  8
0
100
AcDbLine
 62
9
  6
CONTINUOUS
 10
35.1861780875
 20
100.4788423573
 11
35.2030172136
 21
100.509783098
  0
LINE
  5
25E
100
AcDbEntity
  8
0
100
AcDbLine
 62
9
  6
CONTINUOUS
 10
33.4630561817
 20
101.541445977
 11
33.5015170716
 21
101.6104022245
  0
LINE
  5
25F
100
AcDbEntity
  8
0
100
AcDbLine
 62
7
  6
CONTINUOUS
 10
26.0938800119
 20
103.6138003502
 11
26.1542868332
 21
103.7215218176
  0
LINE
  5
260
100
AcDbEntity
  8
0
100
AcDbLine
 62
7
  6
CONTINUOUS
 10
26.1563301436
 20
103.7250585788
 11
26.1038360405
 21
103.632060984
  0
LINE
  5
261
100
AcDbEntity
  8
0
100
AcDbLine
 62
9
  6
CONTINUOUS
 10
35.2030172136
 20
100.509783098
 11
35.2212878536
 21
100.5419119201
  0
LINE
  5
262
100
AcDbEntity
  8
0
100
AcDbLine
 62
9
  6
CONTINUOUS
 10
33.5015170716
 20
101.6104022245
 11
33.5432589965
 21
101.682096042
  0
LINE
  5
263
100
AcDbEntity
  8
0
100
AcDbLine
 62
9
  6
CONTINUOUS
 10
35.2212878536
 20
100.5419119201
 11
35.2410744384
 21
100.5751301085
  0
LINE
  5
264
100
AcDbEntity
  8
0
100
AcDbLine
 62
7
  6
CONTINUOUS
 10
26.1542868332
 20
103.7215218176
 11
26.2173489161
 21
103.8267276141
  0
LINE
  5
265
100
AcDbEntity
  8
0
100
AcDbLine
 62
9
  6
CONTINUOUS
 10
33.5432589965
 20
101.682096042
 11
33.5889678638
 21
101.7571202355
  0
LINE
  5
266
100
AcDbEntity
  8
0
100
AcDbLine
 62
9
  6
CONTINUOUS
 10
35.2410744384
 20
100.5751301085
 11
35.2625229632
 21
100.6094931313
  0
LINE
  5
267
100
AcDbEntity
  8
0
100
AcDbLine
 62
7
  6
CONTINUOUS
 10
26.2671569782
 20
103.9052197665
 11
26.2107035129
 21
103.8159624465
  0
LINE
  5
268
100
AcDbEntity
  8
0
100
AcDbLine
 62
9
  6
CONTINUOUS
 10
33.5889678638
 20
101.7571202355
 11
33.6394164889
 21
101.8360654629
  0
LINE
  5
269
100
AcDbEntity
  8
0
100
AcDbLine
 62
7
  6
CONTINUOUS
 10
26.2173489161
 20
103.8267276141
 11
26.2831187558
 21
103.9295879953
  0
LINE
  5
26A
100
AcDbEntity
  8
0
100
AcDbLine
 62
9
  6
CONTINUOUS
 10
35.2625229632
 20
100.6094931313
 11
35.286054704
 21
100.645414003
  0
LINE
  5
26B
100
AcDbEntity
  8
0
100
AcDbLine
 62
7
  6
CONTINUOUS
 10
26.3258896031
 20
103.9930916848
 11
26.2671569782
 21
103.9052197665
  0
LINE
  5
26C
100
AcDbEntity
  8
0
100
AcDbLine
 62
9
  6
CONTINUOUS
 10
33.6394164889
 20
101.8360654629
 11
33.6947947594
 21
101.9185658767
  0
LINE
  5
26D
100
AcDbEntity
  8
0
100
AcDbLine
 62
7
  6
CONTINUOUS
 10
26.2831187558
 20
103.9295879953
 11
26.3518966325
 21
104.030545654
  0
LINE
  5
26E
100
AcDbEntity
  8
0
100
AcDbLine
 62
9
  6
CONTINUOUS
 10
35.286054704
 20
100.645414003
 11
35.3120861545
 21
100.6831811068
  0
LINE
  5
26F
100
AcDbEntity
  8
0
100
AcDbLine
 62
7
  6
CONTINUOUS
 10
26.3872452845
 20
104.0801118438
 11
26.3258896031
 21
103.9930916848
  0
LINE
  5
270
100
AcDbEntity
  8
0
100
AcDbLine
 62
9
  6
CONTINUOUS
 10
33.6947947594
 20
101.9185658767
 11
33.7556581137
 21
102.0047033136
  0
LINE
  5
271
100
AcDbEntity
  8
0
100
AcDbLine
 62
7
  6
CONTINUOUS
 10
26.3518966325
 20
104.030545654
 11
26.4241251657
 21
104.1302887683
  0
LINE
  5
272
100
AcDbEntity
  8
0
100
AcDbLine
 62
9
  6
CONTINUOUS
 10
35.3120861545
 20
100.6831811068
 11
35.340615682
 21
100.7224378381
  0
LINE
  5
273
100
AcDbEntity
  8
0
100
AcDbLine
 62
7
  6
CONTINUOUS
 10
26.4509903519
 20
104.1659099346
 11
26.3872452845
 21
104.0801118438
  0
LINE
  5
274
100
AcDbEntity
  8
0
100
AcDbLine
 62
9
  6
CONTINUOUS
 10
33.7556581137
 20
102.0047033136
 11
33.8219387446
 21
102.093611294
  0
LINE
  5
275
100
AcDbEntity
  8
0
100
AcDbLine
 62
9
  6
CONTINUOUS
 10
35.340615682
 20
100.7224378381
 11
35.3717976168
 21
100.7630412435
  0
LINE
  5
276
100
AcDbEntity
  8
0
100
AcDbLine
 62
7
  6
CONTINUOUS
 10
26.4241251657
 20
104.1302887683
 11
26.4994298318
 21
104.2282511379
  0
LINE
  5
277
100
AcDbEntity
  8
0
100
AcDbLine
 62
7
  6
CONTINUOUS
 10
26.517077153
 20
104.2503823521
 11
26.4509903519
 21
104.1659099346
  0
LINE
  5
278
100
AcDbEntity
  8
0
100
AcDbLine
 62
9
  6
CONTINUOUS
 10
33.8219387446
 20
102.093611294
 11
33.8937836701
 21
102.1847678773
  0
LINE
  5
279
100
AcDbEntity
  8
0
100
AcDbLine
 62
9
  6
CONTINUOUS
 10
35.3717976168
 20
100.7630412435
 11
35.4055417382
 21
100.8045225079
  0
LINE
  5
27A
100
AcDbEntity
  8
0
100
AcDbLine
 62
9
  6
CONTINUOUS
 10
68.3578268708
 20
95.0482965848
 11
68.3211186936
 21
95.0031863981
  0
LINE
  5
27B
100
AcDbEntity
  8
0
100
AcDbLine
 62
7
  6
CONTINUOUS
 10
26.4994298318
 20
104.2282511379
 11
26.5776393019
 21
104.3241604515
  0
LINE
  5
27C
100
AcDbEntity
  8
0
100
AcDbLine
 62
7
  6
CONTINUOUS
 10
26.5852915304
 20
104.3332626272
 11
26.517077153
 21
104.2503823521
  0
LINE
  5
27D
100
AcDbEntity
  8
0
100
AcDbLine
 62
9
  6
CONTINUOUS
 10
33.8937836701
 20
102.1847678773
 11
33.9707583262
 21
102.2769806166
  0
LINE
  5
27E
100
AcDbEntity
  8
0
100
AcDbLine
 62
9
  6
CONTINUOUS
 10
35.4055417382
 20
100.8045225079
 11
35.4418904048
 21
100.8466132323
  0
LINE
  5
27F
100
AcDbEntity
  8
0
100
AcDbLine
 62
7
  6
CONTINUOUS
 10
26.5776393019
 20
104.3241604515
 11
26.6585866111
 21
104.4178232202
  0
LINE
  5
280
100
AcDbEntity
  8
0
100
AcDbLine
 62
9
  6
CONTINUOUS
 10
68.3956696728
 20
95.091881046
 11
68.3578268708
 21
95.0482965848
  0
LINE
  5
281
100
AcDbEntity
  8
0
100
AcDbLine
 62
9
  6
CONTINUOUS
 10
33.9707583262
 20
102.2769806166
 11
34.0526309758
 21
102.3694825525
  0
LINE
  5
282
100
AcDbEntity
  8
0
100
AcDbLine
 62
9
  6
CONTINUOUS
 10
71.1479691424
 20
92.6845876104
 11
71.1849500004
 21
92.7263096237
  0
LINE
  5
283
100
AcDbEntity
  8
0
100
AcDbLine
 62
7
  6
CONTINUOUS
 10
26.7274128894
 20
104.4933437378
 11
26.6553863667
 21
104.4142223799
  0
LINE
  5
284
100
AcDbEntity
  8
0
100
AcDbLine
 62
7
  6
CONTINUOUS
 10
26.6585866111
 20
104.4178232202
 11
26.7420440743
 21
104.5089414816
  0
LINE
  5
285
100
AcDbEntity
  8
0
100
AcDbLine
 62
9
  6
CONTINUOUS
 10
35.4418904048
 20
100.8466132323
 11
35.4806025145
 21
100.8887685687
  0
LINE
  5
286
100
AcDbEntity
  8
0
100
AcDbLine
 62
7
  6
CONTINUOUS
 10
76.7513764132
 20
95.0469133324
 11
76.7580650824
 21
95.0541430681
  0
LINE
  5
287
100
AcDbEntity
  8
0
100
AcDbLine
 62
9
  6
CONTINUOUS
 10
68.4346174242
 20
95.1339641983
 11
68.3956696728
 21
95.091881046
  0
LINE
  5
288
100
AcDbEntity
  8
0
100
AcDbLine
 62
9
  6
CONTINUOUS
 10
34.0526309758
 20
102.3694825525
 11
34.138497349
 21
102.4608445721
  0
LINE
  5
289
100
AcDbEntity
  8
0
100
AcDbLine
 62
9
  6
CONTINUOUS
 10
71.9580396085
 20
86.9003036063
 11
71.9185065708
 21
86.858306349
  0
LINE
  5
28A
100
AcDbEntity
  8
0
100
AcDbLine
 62
9
  6
CONTINUOUS
 10
71.108487008
 20
92.6427130566
 11
71.1479691424
 21
92.6845876104
  0
LINE
  5
28B
100
AcDbEntity
  8
0
100
AcDbLine
 62
7
  6
CONTINUOUS
 10
26.8013560506
 20
104.5706149881
 11
26.7274128894
 21
104.4933437378
  0
LINE
  5
28C
100
AcDbEntity
  8
0
100
AcDbLine
 62
7
  6
CONTINUOUS
 10
26.7420440743
 20
104.5089414816
 11
26.8280225231
 21
104.5975563449
  0
LINE
  5
28D
100
AcDbEntity
  8
0
100
AcDbLine
 62
9
  6
CONTINUOUS
 10
35.4806025145
 20
100.8887685687
 11
35.5215035843
 21
100.9306014973
  0
LINE
  5
28E
100
AcDbEntity
  8
0
100
AcDbLine
 62
7
  6
CONTINUOUS
 10
76.8060139409
 20
92.7045675178
 11
76.7991204653
 21
92.6975234755
  0
LINE
  5
28F
100
AcDbEntity
  8
0
100
AcDbLine
 62
9
  6
CONTINUOUS
 10
68.4746428602
 20
95.1745651084
 11
68.4346174242
 21
95.1339641983
  0
LINE
  5
290
100
AcDbEntity
  8
0
100
AcDbLine
 62
9
  6
CONTINUOUS
 10
73.4731892939
 20
85.4130709122
 11
73.3849681415
 21
85.3238788124
  0
LINE
  5
291
100
AcDbEntity
  8
0
100
AcDbLine
 62
9
  6
CONTINUOUS
 10
34.138497349
 20
102.4608445721
 11
34.2272306454
 21
102.5497213516
  0
LINE
  5
292
100
AcDbEntity
  8
0
100
AcDbLine
 62
9
  6
CONTINUOUS
 10
71.9185065708
 20
86.858306349
 11
71.8778105239
 21
86.8176797411
  0
LINE
  5
293
100
AcDbEntity
  8
0
100
AcDbLine
 62
9
  6
CONTINUOUS
 10
71.0659458294
 20
92.6003537472
 11
71.108487008
 21
92.6427130566
  0
LINE
  5
294
100
AcDbEntity
  8
0
100
AcDbLine
 62
7
  6
CONTINUOUS
 10
26.8771675587
 20
104.6459892723
 11
26.8013560506
 21
104.5706149881
  0
LINE
  5
295
100
AcDbEntity
  8
0
100
AcDbLine
 62
7
  6
CONTINUOUS
 10
26.8280225231
 20
104.5975563449
 11
26.9164782822
 21
104.6836298062
  0
LINE
  5
296
100
AcDbEntity
  8
0
100
AcDbLine
 62
9
  6
CONTINUOUS
 10
35.5215035843
 20
100.9306014973
 11
35.5639235604
 21
100.9713096421
  0
LINE
  5
297
100
AcDbEntity
  8
0
100
AcDbLine
 62
9
  6
CONTINUOUS
 10
68.5157384887
 20
95.213714423
 11
68.4746428602
 21
95.1745651084
  0
LINE
  5
298
100
AcDbEntity
  8
0
100
AcDbLine
 62
7
  6
CONTINUOUS
 10
75.5777865302
 20
83.0451990423
 11
75.6452928125
 21
83.109409795
  0
LINE
  5
299
100
AcDbEntity
  8
0
100
AcDbLine
 62
9
  6
CONTINUOUS
 10
73.3849681415
 20
85.3238788124
 11
73.2939177927
 21
85.2373626992
  0
LINE
  5
29A
100
AcDbEntity
  8
0
100
AcDbLine
 62
7
  6
CONTINUOUS
 10
26.9548036233
 20
104.7194245088
 11
26.8771675587
 21
104.6459892723
  0
LINE
  5
29B
100
AcDbEntity
  8
0
100
AcDbLine
 62
9
  6
CONTINUOUS
 10
34.2272306454
 20
102.5497213516
 11
34.3186099885
 21
102.6358269489
  0
LINE
  5
29C
100
AcDbEntity
  8
0
100
AcDbLine
 62
9
  6
CONTINUOUS
 10
71.8778105239
 20
86.8176797411
 11
71.8360364134
 21
86.7785033375
  0
LINE
  5
29D
100
AcDbEntity
  8
0
100
AcDbLine
 62
9
  6
CONTINUOUS
 10
71.0189315254
 20
92.556519355
 11
71.0659458294
 21
92.6003537472
  0
LINE
  5
29E
100
AcDbEntity
  8
0
100
AcDbLine
 62
7
  6
CONTINUOUS
 10
75.609069802
 20
83.0746661844
 11
75.5204464319
 21
82.9928411845
  0
LINE
  5
29F
100
AcDbEntity
  8
0
100
AcDbLine
 62
7
  6
CONTINUOUS
 10
26.9164782822
 20
104.6836298062
 11
27.0073471866
 21
104.7671012422
  0
LINE
  5
2A0
100
AcDbEntity
  8
0
100
AcDbLine
 62
7
  6
CONTINUOUS
 10
75.5088945053
 20
82.9824610463
 11
75.5777865302
 21
83.0451990423
  0
LINE
  5
2A1
100
AcDbEntity
  8
0
100
AcDbLine
 62
7
  6
CONTINUOUS
 10
27.034235693
 20
104.7908946546
 11
26.9548036233
 21
104.7194245088
  0
LINE
  5
2A2
100
AcDbEntity
  8
0
100
AcDbLine
 62
9
  6
CONTINUOUS
 10
35.5639235604
 20
100.9713096421
 11
35.6070671986
 21
101.010111574
  0
LINE
  5
2A3
100
AcDbEntity
  8
0
100
AcDbLine
 62
9
  6
CONTINUOUS
 10
68.5578929305
 20
95.2514297158
 11
68.5157384887
 21
95.213714423
  0
LINE
  5
2A4
100
AcDbEntity
  8
0
100
AcDbLine
 62
9
  6
CONTINUOUS
 10
73.2939177927
 20
85.2373626992
 11
73.2002192359
 21
85.1536973897
  0
LINE
  5
2A5
100
AcDbEntity
  8
0
100
AcDbLine
 62
9
  6
CONTINUOUS
 10
34.3186099885
 20
102.6358269489
 11
34.4117382081
 21
102.7183576626
  0
LINE
  5
2A6
100
AcDbEntity
  8
0
100
AcDbLine
 62
9
  6
CONTINUOUS
 10
71.8360364134
 20
86.7785033375
 11
71.793051215
 21
86.7406552346
  0
LINE
  5
2A7
100
AcDbEntity
  8
0
100
AcDbLine
 62
7
  6
CONTINUOUS
 10
75.5204464319
 20
82.9928411845
 11
75.4295411617
 21
82.9135252381
  0
LINE
  5
2A8
100
AcDbEntity
  8
0
100
AcDbLine
 62
7
  6
CONTINUOUS
 10
75.4386470805
 20
82.9212247636
 11
75.5088945053
 21
82.9824610463
  0
LINE
  5
2A9
100
AcDbEntity
  8
0
100
AcDbLine
 62
9
  6
CONTINUOUS
 10
70.9691256627
 20
92.5132590892
 11
71.0189315254
 21
92.556519355
  0
LINE
  5
2AA
100
AcDbEntity
  8
0
100
AcDbLine
 62
7
  6
CONTINUOUS
 10
27.0073471866
 20
104.7671012422
 11
27.1005762905
 21
104.8479166482
  0
LINE
  5
2AB
100
AcDbEntity
  8
0
100
AcDbLine
 62
7
  6
CONTINUOUS
 10
27.1154411581
 20
104.8603755173
 11
27.034235693
 21
104.7908946546
  0
LINE
  5
2AC
100
AcDbEntity
  8
0
100
AcDbLine
 62
9
  6
CONTINUOUS
 10
35.6070671986
 20
101.010111574
 11
35.651062332
 21
101.0471624713
  0
LINE
  5
2AD
100
AcDbEntity
  8
0
100
AcDbLine
 62
9
  6
CONTINUOUS
 10
68.6011254394
 20
95.2877460691
 11
68.5578929305
 21
95.2514297158
  0
LINE
  5
2AE
100
AcDbEntity
  8
0
100
AcDbLine
 62
9
  6
CONTINUOUS
 10
73.2002192359
 20
85.1536973897
 11
73.1040705157
 21
85.0730679704
  0
LINE
  5
2AF
100
AcDbEntity
  8
0
100
AcDbLine
 62
7
  6
CONTINUOUS
 10
75.3670849037
 20
82.861524719
 11
75.4386470805
 21
82.9212247636
  0
LINE
  5
2B0
100
AcDbEntity
  8
0
100
AcDbLine
 62
9
  6
CONTINUOUS
 10
34.4117382081
 20
102.7183576626
 11
34.5067168633
 21
102.7974734999
  0
LINE
  5
2B1
100
AcDbEntity
  8
0
100
AcDbLine
 62
9
  6
CONTINUOUS
 10
71.793051215
 20
86.7406552346
 11
71.7487140918
 21
86.7040086883
  0
LINE
  5
2B2
100
AcDbEntity
  8
0
100
AcDbLine
 62
7
  6
CONTINUOUS
 10
75.4295411617
 20
82.9135252381
 11
75.3364359306
 21
82.8367873066
  0
LINE
  5
2B3
100
AcDbEntity
  8
0
100
AcDbLine
 62
7
  6
CONTINUOUS
 10
27.1005762905
 20
104.8479166482
 11
27.1960882602
 21
104.9260181641
  0
LINE
  5
2B4
100
AcDbEntity
  8
0
100
AcDbLine
 62
7
  6
CONTINUOUS
 10
27.1983584027
 20
104.9278194642
 11
27.1154411581
 21
104.8603755173
  0
LINE
  5
2B5
100
AcDbEntity
  8
0
100
AcDbLine
 62
9
  6
CONTINUOUS
 10
70.9182539913
 20
92.4721749783
 11
70.9691256627
 21
92.5132590892
  0
LINE
  5
2B6
100
AcDbEntity
  8
0
100
AcDbLine
 62
7
  6
CONTINUOUS
 10
75.2942466997
 20
82.8033962399
 11
75.3670849037
 21
82.861524719
  0
LINE
  5
2B7
100
AcDbEntity
  8
0
100
AcDbLine
 62
9
  6
CONTINUOUS
 10
35.651062332
 20
101.0471624713
 11
35.6957584164
 21
101.0824083819
  0
LINE
  5
2B8
100
AcDbEntity
  8
0
100
AcDbLine
 62
9
  6
CONTINUOUS
 10
68.6454534607
 20
95.3226849639
 11
68.6011254394
 21
95.2877460691
  0
LINE
  5
2B9
100
AcDbEntity
  8
0
100
AcDbLine
 62
9
  6
CONTINUOUS
 10
73.1040705157
 20
85.0730679704
 11
73.0054640659
 21
84.9954440374
  0
LINE
  5
2BA
100
AcDbEntity
  8
0
100
AcDbLine
 62
9
  6
CONTINUOUS
 10
34.5067168633
 20
102.7974734999
 11
34.6035518325
 21
102.8732347855
  0
LINE
  5
2BB
100
AcDbEntity
  8
0
100
AcDbLine
 62
7
  6
CONTINUOUS
 10
75.3364359306
 20
82.8367873066
 11
75.2412040574
 21
82.7626960316
  0
LINE
  5
2BC
100
AcDbEntity
  8
0
100
AcDbLine
 62
9
  6
CONTINUOUS
 10
71.7487140918
 20
86.7040086883
 11
71.7031196326
 21
86.6686455652
  0
LINE
  5
2BD
100
AcDbEntity
  8
0
100
AcDbLine
 62
7
  6
CONTINUOUS
 10
27.1960882602
 20
104.9260181641
 11
27.2938083983
 21
105.0013469356
  0
LINE
  5
2BE
100
AcDbEntity
  8
0
100
AcDbLine
 62
7
  6
CONTINUOUS
 10
76.7580650824
 20
95.0541430681
 11
76.7648360414
 21
95.0593225962
  0
LINE
  5
2BF
100
AcDbEntity
  8
0
100
AcDbLine
 62
7
  6
CONTINUOUS
 10
75.22016858
 20
82.7468658745
 11
75.2942466997
 21
82.8033962399
  0
LINE
  5
2C0
100
AcDbEntity
  8
0
100
AcDbLine
 62
9
  6
CONTINUOUS
 10
70.8656289391
 20
92.4327435657
 11
70.9182539913
 21
92.4721749783
  0
LINE
  5
2C1
100
AcDbEntity
  8
0
100
AcDbLine
 62
9
  6
CONTINUOUS
 10
68.6909079374
 20
95.3562669323
 11
68.6454534607
 21
95.3226849639
  0
LINE
  5
2C2
100
AcDbEntity
  8
0
100
AcDbLine
 62
9
  6
CONTINUOUS
 10
35.6957584164
 20
101.0824083819
 11
35.7409590151
 21
101.1157800066
  0
LINE
  5
2C3
100
AcDbEntity
  8
0
100
AcDbLine
 62
9
  6
CONTINUOUS
 10
73.0054640659
 20
84.9954440374
 11
72.9044992125
 21
84.9208857036
  0
LINE
  5
2C4
100
AcDbEntity
  8
0
100
AcDbLine
 62
9
  6
CONTINUOUS
 10
34.6035518325
 20
102.8732347855
 11
34.7021929887
 21
102.9456472582
  0
LINE
  5
2C5
100
AcDbEntity
  8
0
100
AcDbLine
 62
7
  6
CONTINUOUS
 10
27.3691207731
 20
105.0564295191
 11
27.2829361408
 21
104.9931850321
  0
LINE
  5
2C6
100
AcDbEntity
  8
0
100
AcDbLine
 62
7
  6
CONTINUOUS
 10
75.2412040574
 20
82.7626960316
 11
75.1439318339
 21
82.6913119356
  0
LINE
  5
2C7
100
AcDbEntity
  8
0
100
AcDbLine
 62
7
  6
CONTINUOUS
 10
76.7991204653
 20
92.6975234755
 11
76.7922382907
 21
92.6924924991
  0
LINE
  5
2C8
100
AcDbEntity
  8
0
100
AcDbLine
 62
7
  6
CONTINUOUS
 10
75.1448902883
 20
82.6919660387
 11
75.22016858
 21
82.7468658745
  0
LINE
  5
2C9
100
AcDbEntity
  8
0
100
AcDbLine
 62
9
  6
CONTINUOUS
 10
71.7031196326
 20
86.6686455652
 11
71.6563870529
 21
86.6346681717
  0
LINE
  5
2CA
100
AcDbEntity
  8
0
100
AcDbLine
 62
7
  6
CONTINUOUS
 10
27.2938083983
 20
105.0013469356
 11
27.3936758496
 21
105.0738519411
  0
LINE
  5
2CB
100
AcDbEntity
  8
0
100
AcDbLine
 62
7
  6
CONTINUOUS
 10
75.0684396524
 20
82.6387144563
 11
75.1448902883
 21
82.6919660387
  0
LINE
  5
2CC
100
AcDbEntity
  8
0
100
AcDbLine
 62
7
  6
CONTINUOUS
 10
27.4568625273
 20
105.1175086929
 11
27.3691207731
 21
105.0564295191
  0
LINE
  5
2CD
100
AcDbEntity
  8
0
100
AcDbLine
 62
9
  6
CONTINUOUS
 10
72.9044992125
 20
84.9208857036
 11
72.8012124995
 21
84.8494446817
  0
LINE
  5
2CE
100
AcDbEntity
  8
0
100
AcDbLine
 62
9
  6
CONTINUOUS
 10
68.7375362901
 20
95.3885119497
 11
68.6909079374
 21
95.3562669323
  0
LINE
  5
2CF
100
AcDbEntity
  8
0
100
AcDbLine
 62
7
  6
CONTINUOUS
 10
75.1439318339
 20
82.6913119356
 11
75.0447116076
 21
82.6227070496
  0
LINE
  5
2D0
100
AcDbEntity
  8
0
100
AcDbLine
 62
9
  6
CONTINUOUS
 10
70.8115703172
 20
92.3954014394
 11
70.8656289391
 21
92.4327435657
  0
LINE
  5
2D1
100
AcDbEntity
  8
0
100
AcDbLine
 62
9
  6
CONTINUOUS
 10
35.7409590151
 20
101.1157800066
 11
35.7864047019
 21
101.1471451934
  0
LINE
  5
2D2
100
AcDbEntity
  8
0
100
AcDbLine
 62
9
  6
CONTINUOUS
 10
34.7021929887
 20
102.9456472582
 11
34.8028625267
 21
103.0148770049
  0
LINE
  5
2D3
100
AcDbEntity
  8
0
100
AcDbLine
 62
7
  6
CONTINUOUS
 10
27.3936758496
 20
105.0738519411
 11
27.4956516675
 21
105.1434910703
  0
LINE
  5
2D4
100
AcDbEntity
  8
0
100
AcDbLine
 62
9
  6
CONTINUOUS
 10
71.6563870529
 20
86.6346681717
 11
71.6087261345
 21
86.6022256564
  0
LINE
  5
2D5
100
AcDbEntity
  8
0
100
AcDbLine
 62
7
  6
CONTINUOUS
 10
74.9908468442
 20
82.5871323434
 11
75.0684396524
 21
82.6387144563
  0
LINE
  5
2D6
100
AcDbEntity
  8
0
100
AcDbLine
 62
7
  6
CONTINUOUS
 10
27.5460986368
 20
105.1763856809
 11
27.4568625273
 21
105.1175086929
  0
LINE
  5
2D7
100
AcDbEntity
  8
0
100
AcDbLine
 62
7
  6
CONTINUOUS
 10
75.0447116076
 20
82.6227070496
 11
74.9435985294
 21
82.5569154898
  0
LINE
  5
2D8
100
AcDbEntity
  8
0
100
AcDbLine
 62
9
  6
CONTINUOUS
 10
72.8012124995
 20
84.8494446817
 11
72.6957049189
 21
84.7812116893
  0
LINE
  5
2D9
100
AcDbEntity
  8
0
100
AcDbLine
 62
9
  6
CONTINUOUS
 10
68.7853382526
 20
95.4193965245
 11
68.7375362901
 21
95.3885119497
  0
LINE
  5
2DA
100
AcDbEntity
  8
0
100
AcDbLine
 62
9
  6
CONTINUOUS
 10
35.7864047019
 20
101.1471451934
 11
35.8321590331
 21
101.1766044524
  0
LINE
  5
2DB
100
AcDbEntity
  8
0
100
AcDbLine
 62
9
  6
CONTINUOUS
 10
34.8028625267
 20
103.0148770049
 11
34.9041615488
 21
103.0800023297
  0
LINE
  5
2DC
100
AcDbEntity
  8
0
100
AcDbLine
 62
7
  6
CONTINUOUS
 10
27.4956516675
 20
105.1434910703
 11
27.5995954281
 21
105.2101787341
  0
LINE
  5
2DD
100
AcDbEntity
  8
0
100
AcDbLine
 62
9
  6
CONTINUOUS
 10
70.7547541934
 20
92.3589841754
 11
70.8115703172
 21
92.3954014394
  0
LINE
  5
2DE
100
AcDbEntity
  8
0
100
AcDbLine
 62
9
  6
CONTINUOUS
 10
71.6087261345
 20
86.6022256564
 11
71.5603039023
 21
86.5714247783
  0
LINE
  5
2DF
100
AcDbEntity
  8
0
100
AcDbLine
 62
7
  6
CONTINUOUS
 10
74.9121445746
 20
82.5372416387
 11
74.9908468442
 21
82.5871323434
  0
LINE
  5
2E0
100
AcDbEntity
  8
0
100
AcDbLine
 62
7
  6
CONTINUOUS
 10
27.6367730099
 20
105.2330223675
 11
27.5460986368
 21
105.1763856809
  0
LINE
  5
2E1
100
AcDbEntity
  8
0
100
AcDbLine
 62
7
  6
CONTINUOUS
 10
74.9435985294
 20
82.5569154898
 11
74.8406416485
 21
82.4939745548
  0
LINE
  5
2E2
100
AcDbEntity
  8
0
100
AcDbLine
 62
7
  6
CONTINUOUS
 10
74.8323570301
 20
82.4890610608
 11
74.9121445746
 21
82.5372416387
  0
LINE
  5
2E3
100
AcDbEntity
  8
0
100
AcDbLine
 62
9
  6
CONTINUOUS
 10
72.6957049189
 20
84.7812116893
 11
72.5882696588
 21
84.7163708788
  0
LINE
  5
2E4
100
AcDbEntity
  8
0
100
AcDbLine
 62
9
  6
CONTINUOUS
 10
68.8343298079
 20
95.4489024601
 11
68.7853382526
 21
95.4193965245
  0
LINE
  5
2E5
100
AcDbEntity
  8
0
100
AcDbLine
 62
7
  6
CONTINUOUS
 10
27.5995954281
 20
105.2101787341
 11
27.7053845892
 21
105.2738319468
  0
LINE
  5
2E6
100
AcDbEntity
  8
0
100
AcDbLine
 62
9
  6
CONTINUOUS
 10
34.9041615488
 20
103.0800023297
 11
35.0049846883
 21
103.1405371583
  0
LINE
  5
2E7
100
AcDbEntity
  8
0
100
AcDbLine
 62
9
  6
CONTINUOUS
 10
35.8321590331
 20
101.1766044524
 11
35.8785207908
 21
101.2044028399
  0
LINE
  5
2E8
100
AcDbEntity
  8
0
100
AcDbLine
 62
9
  6
CONTINUOUS
 10
70.6931096083
 20
92.3223558914
 11
70.7547541934
 21
92.3589841754
  0
LINE
  5
2E9
100
AcDbEntity
  8
0
100
AcDbLine
 62
9
  6
CONTINUOUS
 10
71.5603039023
 20
86.5714247783
 11
71.5110612992
 21
86.5422193887
  0
LINE
  5
2EA
100
AcDbEntity
  8
0
100
AcDbLine
 62
7
  6
CONTINUOUS
 10
27.7288158505
 20
105.2873782493
 11
27.6367730099
 21
105.2330223675
  0
LINE
  5
2EB
100
AcDbEntity
  8
0
100
AcDbLine
 62
7
  6
CONTINUOUS
 10
74.7515399555
 20
82.4426214859
 11
74.8323570301
 21
82.4890610608
  0
LINE
  5
2EC
100
AcDbEntity
  8
0
100
AcDbLine
 62
7
  6
CONTINUOUS
 10
74.8406416485
 20
82.4939745548
 11
74.7359516176
 21
82.4339467271
  0
LINE
  5
2ED
100
AcDbEntity
  8
0
100
AcDbLine
 62
7
  6
CONTINUOUS
 10
27.7053845892
 20
105.2738319468
 11
27.8129265583
 21
105.3344007881
  0
LINE
  5
2EE
100
AcDbEntity
  8
0
100
AcDbLine
 62
9
  6
CONTINUOUS
 10
72.5882696588
 20
84.7163708788
 11
72.4790783838
 21
84.6550188084
  0
LINE
  5
2EF
100
AcDbEntity
  8
0
100
AcDbLine
 62
9
  6
CONTINUOUS
 10
35.0049846883
 20
103.1405371583
 11
35.1047064416
 21
103.1964071339
  0
LINE
  5
2F0
100
AcDbEntity
  8
0
100
AcDbLine
 62
9
  6
CONTINUOUS
 10
68.8845211985
 20
95.4770015754
 11
68.8343298079
 21
95.4489024601
  0
LINE
  5
2F1
100
AcDbEntity
  8
0
100
AcDbLine
 62
9
  6
CONTINUOUS
 10
35.8785207908
 20
101.2044028399
 11
35.9247226484
 21
101.2301619407
  0
LINE
  5
2F2
100
AcDbEntity
  8
0
100
AcDbLine
 62
7
  6
CONTINUOUS
 10
27.8221524368
 20
105.3394073877
 11
27.7288158505
 21
105.2873782493
  0
LINE
  5
2F3
100
AcDbEntity
  8
0
100
AcDbLine
 62
9
  6
CONTINUOUS
 10
71.5110612992
 20
86.5422193887
 11
71.4609565132
 21
86.5145706748
  0
LINE
  5
2F4
100
AcDbEntity
  8
0
100
AcDbLine
 62
9
  6
CONTINUOUS
 10
70.6285205406
 20
92.2868000259
 11
70.6931096083
 21
92.3223558914
  0
LINE
  5
2F5
100
AcDbEntity
  8
0
100
AcDbLine
 62
7
  6
CONTINUOUS
 10
74.6697344844
 20
82.3979493873
 11
74.7515399555
 21
82.4426214859
  0
LINE
  5
2F6
100
AcDbEntity
  8
0
100
AcDbLine
 62
7
  6
CONTINUOUS
 10
74.7359516176
 20
82.4339467271
 11
74.6296085208
 21
82.3768850519
  0
LINE
  5
2F7
100
AcDbEntity
  8
0
100
AcDbLine
 62
7
  6
CONTINUOUS
 10
27.8129265583
 20
105.3344007881
 11
27.9220851703
 21
105.391805675
  0
LINE
  5
2F8
100
AcDbEntity
  8
0
100
AcDbLine
 62
9
  6
CONTINUOUS
 10
35.1047064416
 20
103.1964071339
 11
35.2023896812
 21
103.2474454312
  0
LINE
  5
2F9
100
AcDbEntity
  8
0
100
AcDbLine
 62
9
  6
CONTINUOUS
 10
72.4790783838
 20
84.6550188084
 11
72.368233116
 21
84.5971878884
  0
LINE
  5
2FA
100
AcDbEntity
  8
0
100
AcDbLine
 62
9
  6
CONTINUOUS
 10
68.9359094847
 20
95.5036536435
 11
68.8845211985
 21
95.4770015754
  0
LINE
  5
2FB
100
AcDbEntity
  8
0
100
AcDbLine
 62
7
  6
CONTINUOUS
 10
74.5870086368
 20
82.3550766927
 11
74.6697344844
 21
82.3979493873
  0
LINE
  5
2FC
100
AcDbEntity
  8
0
100
AcDbLine
 62
9
  6
CONTINUOUS
 10
35.9247226484
 20
101.2301619407
 11
35.9700397856
 21
101.2536237978
  0
LINE
  5
2FD
100
AcDbEntity
  8
0
100
AcDbLine
 62
9
  6
CONTINUOUS
 10
70.5615560094
 20
92.2523624287
 11
70.6285205406
 21
92.2868000259
  0
LINE
  5
2FE
100
AcDbEntity
  8
0
100
AcDbLine
 62
9
  6
CONTINUOUS
 10
71.4609565132
 20
86.5145706748
 11
71.4100462042
 21
86.488500949
  0
LINE
  5
2FF
100
AcDbEntity
  8
0
100
AcDbLine
 62
7
  6
CONTINUOUS
 10
74.6296085208
 20
82.3768850519
 11
74.5217531132
 21
82.32285514
  0
LINE
  5
300
100
AcDbEntity
  8
0
100
AcDbLine
 62
7
  6
CONTINUOUS
 10
28.0125088438
 20
105.4363794502
 11
27.9167414534
 21
105.3890879736
  0
LINE
  5
301
100
AcDbEntity
  8
0
100
AcDbLine
 62
7
  6
CONTINUOUS
 10
74.5034372937
 20
82.3140415841
 11
74.5870086368
 21
82.3550766927
  0
LINE
  5
302
100
AcDbEntity
  8
0
100
AcDbLine
 62
7
  6
CONTINUOUS
 10
27.9220851703
 20
105.391805675
 11
28.0328686003
 21
105.4460526103
  0
LINE
  5
303
100
AcDbEntity
  8
0
100
AcDbLine
 62
9
  6
CONTINUOUS
 10
35.2023896812
 20
103.2474454312
 11
35.2975374803
 21
103.293746219
  0
LINE
  5
304
100
AcDbEntity
  8
0
100
AcDbLine
 62
9
  6
CONTINUOUS
 10
72.368233116
 20
84.5971878884
 11
72.2557789906
 21
84.5428767767
  0
LINE
  5
305
100
AcDbEntity
  8
0
100
AcDbLine
 62
9
  6
CONTINUOUS
 10
35.9700397856
 20
101.2536237978
 11
36.0141763227
 21
101.2748139067
  0
LINE
  5
306
100
AcDbEntity
  8
0
100
AcDbLine
 62
9
  6
CONTINUOUS
 10
68.9885547402
 20
95.5288438147
 11
68.9359094847
 21
95.5036536435
  0
LINE
  5
307
100
AcDbEntity
  8
0
100
AcDbLine
 62
9
  6
CONTINUOUS
 10
71.4100462042
 20
86.488500949
 11
71.3584246137
 21
86.4640544168
  0
LINE
  5
308
100
AcDbEntity
  8
0
100
AcDbLine
 62
9
  6
CONTINUOUS
 10
70.4944474415
 20
92.2207265925
 11
70.5615560094
 21
92.2523624287
  0
LINE
  5
309
100
AcDbEntity
  8
0
100
AcDbLine
 62
7
  6
CONTINUOUS
 10
74.5217531132
 20
82.32285514
 11
74.412559369
 21
82.2719437748
  0
LINE
  5
30A
100
AcDbEntity
  8
0
100
AcDbLine
 62
7
  6
CONTINUOUS
 10
74.419041007
 20
82.2748517711
 11
74.5034372937
 21
82.3140415841
  0
LINE
  5
30B
100
AcDbEntity
  8
0
100
AcDbLine
 62
7
  6
CONTINUOUS
 10
28.1094781096
 20
105.4812921218
 11
28.0125088438
 21
105.4363794502
  0
LINE
  5
30C
100
AcDbEntity
  8
0
100
AcDbLine
 62
7
  6
CONTINUOUS
 10
76.7648360414
 20
95.0593225962
 11
76.7716740071
 21
95.0624353804
  0
LINE
  5
30D
100
AcDbEntity
  8
0
100
AcDbLine
 62
7
  6
CONTINUOUS
 10
28.0328686003
 20
105.4460526103
 11
28.1452372908
 21
105.4971241565
  0
LINE
  5
30E
100
AcDbEntity
  8
0
100
AcDbLine
 62
9
  6
CONTINUOUS
 10
35.2975374803
 20
103.293746219
 11
35.3894104474
 21
103.3353500964
  0
LINE
  5
30F
100
AcDbEntity
  8
0
100
AcDbLine
 62
9
  6
CONTINUOUS
 10
72.2557789906
 20
84.5428767767
 11
72.1417654658
 21
84.4921034365
  0
LINE
  5
310
100
AcDbEntity
  8
0
100
AcDbLine
 62
9
  6
CONTINUOUS
 10
36.0141763227
 20
101.2748139067
 11
36.0567419359
 21
101.2937335961
  0
LINE
  5
311
100
AcDbEntity
  8
0
100
AcDbLine
 62
7
  6
CONTINUOUS
 10
76.7922382907
 20
92.6924924991
 11
76.7853841972
 21
92.6894777708
  0
LINE
  5
312
100
AcDbEntity
  8
0
100
AcDbLine
 62
9
  6
CONTINUOUS
 10
69.042504085
 20
95.5525387296
 11
68.9885547402
 21
95.5288438147
  0
LINE
  5
313
100
AcDbEntity
  8
0
100
AcDbLine
 62
7
  6
CONTINUOUS
 10
74.3338855159
 20
82.2375348195
 11
74.419041007
 21
82.2748517711
  0
LINE
  5
314
100
AcDbEntity
  8
0
100
AcDbLine
 62
9
  6
CONTINUOUS
 10
71.3584246137
 20
86.4640544168
 11
71.3061760369
 21
86.4412605645
  0
LINE
  5
315
100
AcDbEntity
  8
0
100
AcDbLine
 62
7
  6
CONTINUOUS
 10
28.207655832
 20
105.5238294155
 11
28.1094781096
 21
105.4812921218
  0
LINE
  5
316
100
AcDbEntity
  8
0
100
AcDbLine
 62
7
  6
CONTINUOUS
 10
74.412559369
 20
82.2719437748
 11
74.302007715
 21
82.2241404834
  0
LINE
  5
317
100
AcDbEntity
  8
0
100
AcDbLine
 62
9
  6
CONTINUOUS
 10
70.4305179967
 20
92.19332729
 11
70.4944474415
 21
92.2207265925
  0
LINE
  5
318
100
AcDbEntity
  8
0
100
AcDbLine
 62
9
  6
CONTINUOUS
 10
35.3894104474
 20
103.3353500964
 11
35.4775908279
 21
103.3724987297
  0
LINE
  5
319
100
AcDbEntity
  8
0
100
AcDbLine
 62
7
  6
CONTINUOUS
 10
28.1452372908
 20
105.4971241565
 11
28.2591982747
 21
105.545011052
  0
LINE
  5
31A
100
AcDbEntity
  8
0
100
AcDbLine
 62
7
  6
CONTINUOUS
 10
74.2479101399
 20
82.2020693423
 11
74.3338855159
 21
82.2375348195
  0
LINE
  5
31B
100
AcDbEntity
  8
0
100
AcDbLine
 62
9
  6
CONTINUOUS
 10
36.0567419359
 20
101.2937335961
 11
36.0976653776
 21
101.3105538703
  0
LINE
  5
31C
100
AcDbEntity
  8
0
100
AcDbLine
 62
9
  6
CONTINUOUS
 10
72.1417654658
 20
84.4921034365
 11
72.0262935223
 21
84.444912033
  0
LINE
  5
31D
100
AcDbEntity
  8
0
100
AcDbLine
 62
7
  6
CONTINUOUS
 10
28.3070187156
 20
105.5639714055
 11
28.207655832
 21
105.5238294155
  0
LINE
  5
31E
100
AcDbEntity
  8
0
100
AcDbLine
 62
9
  6
CONTINUOUS
 10
69.0978030673
 20
95.5746932077
 11
69.042504085
 21
95.5525387296
  0
LINE
  5
31F
100
AcDbEntity
  8
0
100
AcDbLine
 62
9
  6
CONTINUOUS
 10
71.3061760369
 20
86.4412605645
 11
71.2533627698
 21
86.4201379109
  0
LINE
  5
320
100
AcDbEntity
  8
0
100
AcDbLine
 62
7
  6
CONTINUOUS
 10
74.302007715
 20
82.2241404834
 11
74.1902258991
 21
82.1794909441
  0
LINE
  5
321
100
AcDbEntity
  8
0
100
AcDbLine
 62
9
  6
CONTINUOUS
 10
35.4775908279
 20
103.3724987297
 11
35.5614361806
 21
103.4053528657
  0
LINE
  5
322
100
AcDbEntity
  8
0
100
AcDbLine
 62
9
  6
CONTINUOUS
 10
70.3681108718
 20
92.1691535257
 11
70.4305179967
 21
92.19332729
  0
LINE
  5
323
100
AcDbEntity
  8
0
100
AcDbLine
 62
7
  6
CONTINUOUS
 10
74.1611099658
 20
82.1684518216
 11
74.2479101399
 21
82.2020693423
  0
LINE
  5
324
100
AcDbEntity
  8
0
100
AcDbLine
 62
7
  6
CONTINUOUS
 10
28.2591982747
 20
105.545011052
 11
28.3748960206
 21
105.5897494161
  0
LINE
  5
325
100
AcDbEntity
  8
0
100
AcDbLine
 62
9
  6
CONTINUOUS
 10
36.0976653776
 20
101.3105538703
 11
36.1367884888
 21
101.3254155363
  0
LINE
  5
326
100
AcDbEntity
  8
0
100
AcDbLine
 62
7
  6
CONTINUOUS
 10
28.4076493978
 20
105.6017337122
 11
28.3070187156
 21
105.5639714055
  0
LINE
  5
327
100
AcDbEntity
  8
0
100
AcDbLine
 62
9
  6
CONTINUOUS
 10
72.0262935223
 20
84.444912033
 11
71.9095143537
 21
84.4013572258
  0
LINE
  5
328
100
AcDbEntity
  8
0
100
AcDbLine
 62
7
  6
CONTINUOUS
 10
74.1902258991
 20
82.1794909441
 11
74.0769459319
 21
82.1379134854
  0
LINE
  5
329
100
AcDbEntity
  8
0
100
AcDbLine
 62
9
  6
CONTINUOUS
 10
71.2533627698
 20
86.4201379109
 11
71.2000205687
 21
86.4006938093
  0
LINE
  5
32A
100
AcDbEntity
  8
0
100
AcDbLine
 62
9
  6
CONTINUOUS
 10
35.5614361806
 20
103.4053528657
 11
35.6411759973
 21
103.4344185827
  0
LINE
  5
32B
100
AcDbEntity
  8
0
100
AcDbLine
 62
9
  6
CONTINUOUS
 10
69.1545108617
 20
95.5952561258
 11
69.0978030673
 21
95.5746932077
  0
LINE
  5
32C
100
AcDbEntity
  8
0
100
AcDbLine
 62
7
  6
CONTINUOUS
 10
74.0733834312
 20
82.1366562153
 11
74.1611099658
 21
82.1684518216
  0
LINE
  5
32D
100
AcDbEntity
  8
0
100
AcDbLine
 62
7
  6
CONTINUOUS
 10
28.3748960206
 20
105.5897494161
 11
28.4918786647
 21
105.6311856685
  0
LINE
  5
32E
100
AcDbEntity
  8
0
100
AcDbLine
 62
9
  6
CONTINUOUS
 10
36.1367884888
 20
101.3254155363
 11
36.1739656102
 21
101.3384596562
  0
LINE
  5
32F
100
AcDbEntity
  8
0
100
AcDbLine
 62
7
  6
CONTINUOUS
 10
28.5092366608
 20
105.6370131228
 11
28.4076493978
 21
105.6017337122
  0
LINE
  5
330
100
AcDbEntity
  8
0
100
AcDbLine
 62
9
  6
CONTINUOUS
 10
70.3070937037
 20
92.1481271627
 11
70.3681108718
 21
92.1691535257
  0
LINE
  5
331
100
AcDbEntity
  8
0
100
AcDbLine
 62
9
  6
CONTINUOUS
 10
35.6411759973
 20
103.4344185827
 11
35.7167480375
 21
103.4600379338
  0
LINE
  5
332
100
AcDbEntity
  8
0
100
AcDbLine
 62
7
  6
CONTINUOUS
 10
73.9845701102
 20
82.1066336473
 11
74.0733834312
 21
82.1366562153
  0
LINE
  5
333
100
AcDbEntity
  8
0
100
AcDbLine
 62
9
  6
CONTINUOUS
 10
71.9095143537
 20
84.4013572258
 11
71.7915246279
 21
84.3614724875
  0
LINE
  5
334
100
AcDbEntity
  8
0
100
AcDbLine
 62
7
  6
CONTINUOUS
 10
74.0769459319
 20
82.1379134854
 11
73.9617644815
 21
82.0992829239
  0
LINE
  5
335
100
AcDbEntity
  8
0
100
AcDbLine
 62
9
  6
CONTINUOUS
 10
71.2000205687
 20
86.4006938093
 11
71.1461841038
 21
86.3829332066
  0
LINE
  5
336
100
AcDbEntity
  8
0
100
AcDbLine
 62
9
  6
CONTINUOUS
 10
69.2126328413
 20
95.6141469346
 11
69.1545108617
 21
95.5952561258
  0
LINE
  5
337
100
AcDbEntity
  8
0
100
AcDbLine
 62
9
  6
CONTINUOUS
 10
36.1739656102
 20
101.3384596562
 11
36.2089256198
 21
101.3497809477
  0
LINE
  5
338
100
AcDbEntity
  8
0
100
AcDbLine
 62
7
  6
CONTINUOUS
 10
28.4918786647
 20
105.6311856685
 11
28.6099594348
 21
105.6692297644
  0
LINE
  5
339
100
AcDbEntity
  8
0
100
AcDbLine
 62
7
  6
CONTINUOUS
 10
28.6116776112
 20
105.6697570384
 11
28.5092366608
 21
105.6370131228
  0
LINE
  5
33A
100
AcDbEntity
  8
0
100
AcDbLine
 62
9
  6
CONTINUOUS
 10
35.7167480375
 20
103.4600379338
 11
35.788487789
 21
103.4826488101
  0
LINE
  5
33B
100
AcDbEntity
  8
0
100
AcDbLine
 62
7
  6
CONTINUOUS
 10
73.894841679
 20
82.0784491018
 11
73.9845701102
 21
82.1066336473
  0
LINE
  5
33C
100
AcDbEntity
  8
0
100
AcDbLine
 62
9
  6
CONTINUOUS
 10
70.2460001724
 20
92.1294571921
 11
70.3070937037
 21
92.1481271627
  0
LINE
  5
33D
100
AcDbEntity
  8
0
100
AcDbLine
 62
7
  6
CONTINUOUS
 10
73.9617644815
 20
82.0992829239
 11
73.845215323
 21
82.0637754738
  0
LINE
  5
33E
100
AcDbEntity
  8
0
100
AcDbLine
 62
9
  6
CONTINUOUS
 10
71.7915246279
 20
84.3614724875
 11
71.6723082436
 21
84.325258192
  0
LINE
  5
33F
100
AcDbEntity
  8
0
100
AcDbLine
 62
9
  6
CONTINUOUS
 10
36.2089256198
 20
101.3497809477
 11
36.2418448425
 21
101.3596141577
  0
LINE
  5
340
100
AcDbEntity
  8
0
100
AcDbLine
 62
9
  6
CONTINUOUS
 10
71.1461841038
 20
86.3829332066
 11
71.0919058244
 21
86.366868299
  0
LINE
  5
341
100
AcDbEntity
  8
0
100
AcDbLine
 62
9
  6
CONTINUOUS
 10
35.788487789
 20
103.4826488101
 11
35.8567498718
 21
103.502632347
  0
LINE
  5
342
100
AcDbEntity
  8
0
100
AcDbLine
 62
7
  6
CONTINUOUS
 10
28.6099594348
 20
105.6692297644
 11
28.7284875251
 21
105.7037272168
  0
LINE
  5
343
100
AcDbEntity
  8
0
100
AcDbLine
 62
7
  6
CONTINUOUS
 10
73.804074523
 20
82.0520954566
 11
73.894841679
 21
82.0784491018
  0
LINE
  5
344
100
AcDbEntity
  8
0
100
AcDbLine
 62
9
  6
CONTINUOUS
 10
69.2721822079
 20
95.6312816127
 11
69.2126328413
 21
95.6141469346
  0
LINE
  5
345
100
AcDbEntity
  8
0
100
AcDbLine
 62
7
  6
CONTINUOUS
 10
25.0450284728
 20
100.5425038687
 11
25.1153617157
 21
100.805363381
  0
LINE
  5
346
100
AcDbEntity
  8
0
100
AcDbLine
 62
9
  6
CONTINUOUS
 10
32.8004839498
 20
99.9386995848
 11
32.8274226059
 21
100.0149348759
  0
LINE
  5
347
100
AcDbEntity
  8
0
100
AcDbLine
 62
9
  6
CONTINUOUS
 10
34.7941356501
 20
99.532594171
 11
34.8149825245
 21
99.5882681297
  0
LINE
  5
348
100
AcDbEntity
  8
0
100
AcDbLine
 62
7
  6
CONTINUOUS
 10
75.6953508408
 20
83.1589406747
 11
75.609069802
 21
83.0746661844
  0
LINE
  5
349
100
AcDbEntity
  8
0
100
AcDbLine
 62
7
  6
CONTINUOUS
 10
25.0708567738
 20
100.6402766058
 11
25.0038455145
 21
100.3834602576
  0
LINE
  5
34A
100
AcDbEntity
  8
0
100
AcDbLine
 62
9
  6
CONTINUOUS
 10
32.7435655359
 20
99.7739349202
 11
32.772545108
 21
99.858466198
  0
LINE
  5
34B
100
AcDbEntity
  8
0
100
AcDbLine
 62
9
  6
CONTINUOUS
 10
32.772545108
 20
99.858466198
 11
32.8004839498
 21
99.9386995848
  0
LINE
  5
34C
100
AcDbEntity
  8
0
100
AcDbLine
 62
9
  6
CONTINUOUS
 10
34.7724971889
 20
99.4741520363
 11
34.7941356501
 21
99.532594171
  0
LINE
  5
34D
100
AcDbEntity
  8
0
100
AcDbLine
 62
9
  6
CONTINUOUS
 10
71.1849500004
 20
92.7263096237
 11
71.2199667405
 21
92.7682827261
  0
LINE
  5
34E
100
AcDbEntity
  8
0
100
AcDbLine
 62
7
  6
CONTINUOUS
 10
75.6452928125
 20
83.109409795
 11
75.7113768558
 21
83.1750609554
  0
LINE
  5
34F
100
AcDbEntity
  8
0
100
AcDbLine
 62
7
  6
CONTINUOUS
 10
24.9734348188
 20
100.2632133212
 11
25.0450284728
 21
100.5425038687
  0
LINE
  5
350
100
AcDbEntity
  8
0
100
AcDbLine
 62
9
  6
CONTINUOUS
 10
32.7135760466
 20
99.6850139024
 11
32.7435655359
 21
99.7739349202
  0
LINE
  5
351
100
AcDbEntity
  8
0
100
AcDbLine
 62
9
  6
CONTINUOUS
 10
34.727052085
 20
99.3489128492
 11
34.7501451127
 21
99.4130373187
  0
LINE
  5
352
100
AcDbEntity
  8
0
100
AcDbLine
 62
9
  6
CONTINUOUS
 10
34.7501451127
 20
99.4130373187
 11
34.7724971889
 21
99.4741520363
  0
LINE
  5
353
100
AcDbEntity
  8
0
100
AcDbLine
 62
7
  6
CONTINUOUS
 10
24.9008737021
 20
99.9658702568
 11
24.9734348188
 21
100.2632133212
  0
LINE
  5
354
100
AcDbEntity
  8
0
100
AcDbLine
 62
7
  6
CONTINUOUS
 10
25.0038455145
 20
100.3834602576
 11
24.935516866
 21
100.1096403945
  0
LINE
  5
355
100
AcDbEntity
  8
0
100
AcDbLine
 62
9
  6
CONTINUOUS
 10
32.6826424513
 20
99.5916638204
 11
32.7135760466
 21
99.6850139024
  0
LINE
  5
356
100
AcDbEntity
  8
0
100
AcDbLine
 62
9
  6
CONTINUOUS
 10
34.7032380191
 20
99.281546304
 11
34.727052085
 21
99.3489128492
  0
LINE
  5
357
100
AcDbEntity
  8
0
100
AcDbLine
 62
9
  6
CONTINUOUS
 10
68.3211186936
 20
95.0031863981
 11
68.2855798222
 21
94.95652297
  0
LINE
  5
358
100
AcDbEntity
  8
0
100
AcDbLine
 62
9
  6
CONTINUOUS
 10
73.5586088261
 20
85.5049469928
 11
73.4731892939
 21
85.4130709122
  0
LINE
  5
359
100
AcDbEntity
  8
0
100
AcDbLine
 62
7
  6
CONTINUOUS
 10
24.935516866
 20
100.1096403945
 11
24.8659787093
 21
99.8175500305
  0
LINE
  5
35A
100
AcDbEntity
  8
0
100
AcDbLine
 62
9
  6
CONTINUOUS
 10
32.6506775634
 20
99.4933745016
 11
32.6826424513
 21
99.5916638204
  0
LINE
  5
35B
100
AcDbEntity
  8
0
100
AcDbLine
 62
9
  6
CONTINUOUS
 10
34.6786064458
 20
99.2106743975
 11
34.7032380191
 21
99.281546304
  0
LINE
  5
35C
100
AcDbEntity
  8
0
100
AcDbLine
 62
9
  6
CONTINUOUS
 10
71.9962968349
 20
86.9435692206
 11
71.9580396085
 21
86.9003036063
  0
LINE
  5
35D
100
AcDbEntity
  8
0
100
AcDbLine
 62
7
  6
CONTINUOUS
 10
24.8275147916
 20
99.64917048
 11
24.9008737021
 21
99.9658702568
  0
LINE
  5
35E
100
AcDbEntity
  8
0
100
AcDbLine
 62
9
  6
CONTINUOUS
 10
32.6176431317
 20
99.3897489996
 11
32.6506775634
 21
99.4933745016
  0
LINE
  5
35F
100
AcDbEntity
  8
0
100
AcDbLine
 62
9
  6
CONTINUOUS
 10
34.6530121266
 20
99.1359572471
 11
34.6786064458
 21
99.2106743975
  0
LINE
  5
360
100
AcDbEntity
  8
0
100
AcDbLine
 62
7
  6
CONTINUOUS
 10
75.7113768558
 20
83.1750609554
 11
75.7760164724
 21
83.2421281761
  0
LINE
  5
361
100
AcDbEntity
  8
0
100
AcDbLine
 62
7
  6
CONTINUOUS
 10
75.7792169771
 20
83.2455990651
 11
75.6953508408
 21
83.1589406747
  0
LINE
  5
362
100
AcDbEntity
  8
0
100
AcDbLine
 62
7
  6
CONTINUOUS
 10
24.8659787093
 20
99.8175500305
 11
24.7955808463
 21
99.5050874226
  0
LINE
  5
363
100
AcDbEntity
  8
0
100
AcDbLine
 62
9
  6
CONTINUOUS
 10
32.5835220587
 20
99.2804046535
 11
32.6176431317
 21
99.3897489996
  0
LINE
  5
364
100
AcDbEntity
  8
0
100
AcDbLine
 62
9
  6
CONTINUOUS
 10
34.6264985425
 20
99.0573288093
 11
34.6530121266
 21
99.1359572471
  0
LINE
  5
365
100
AcDbEntity
  8
0
100
AcDbLine
 62
7
  6
CONTINUOUS
 10
24.7538403241
 20
99.311067549
 11
24.8275147916
 21
99.64917048
  0
LINE
  5
366
100
AcDbEntity
  8
0
100
AcDbLine
 62
9
  6
CONTINUOUS
 10
32.5483341356
 20
99.1650269361
 11
32.5835220587
 21
99.2804046535
  0
LINE
  5
367
100
AcDbEntity
  8
0
100
AcDbLine
 62
9
  6
CONTINUOUS
 10
34.5991574197
 20
98.9747801223
 11
34.6264985425
 21
99.0573288093
  0
LINE
  5
368
100
AcDbEntity
  8
0
100
AcDbLine
 62
9
  6
CONTINUOUS
 10
71.2199667405
 20
92.7682827261
 11
71.2536863263
 21
92.8112308845
  0
LINE
  5
369
100
AcDbEntity
  8
0
100
AcDbLine
 62
7
  6
CONTINUOUS
 10
24.7955808463
 20
99.5050874226
 11
24.7243794359
 21
99.1698586393
  0
LINE
  5
36A
100
AcDbEntity
  8
0
100
AcDbLine
 62
9
  6
CONTINUOUS
 10
32.5120203669
 20
99.0429878122
 11
32.5483341356
 21
99.1650269361
  0
LINE
  5
36B
100
AcDbEntity
  8
0
100
AcDbLine
 62
9
  6
CONTINUOUS
 10
34.5417094061
 20
98.7961973902
 11
34.5709090403
 21
98.8878559362
  0
LINE
  5
36C
100
AcDbEntity
  8
0
100
AcDbLine
 62
9
  6
CONTINUOUS
 10
34.5709090403
 20
98.8878559362
 11
34.5991574197
 21
98.9747801223
  0
LINE
  5
36D
100
AcDbEntity
  8
0
100
AcDbLine
 62
9
  6
CONTINUOUS
 10
73.6412081033
 20
85.5994593823
 11
73.5586088261
 21
85.5049469928
  0
LINE
  5
36E
100
AcDbEntity
  8
0
100
AcDbLine
 62
9
  6
CONTINUOUS
 10
32.4745855811
 20
98.9137938007
 11
32.5120203669
 21
99.0429878122
  0
LINE
  5
36F
100
AcDbEntity
  8
0
100
AcDbLine
 62
9
  6
CONTINUOUS
 10
34.5115422193
 20
98.6994668849
 11
34.5417094061
 21
98.7961973902
  0
LINE
  5
370
100
AcDbEntity
  8
0
100
AcDbLine
 62
9
  6
CONTINUOUS
 10
68.2855798222
 20
94.95652297
 11
68.2512548236
 21
94.9082821309
  0
LINE
  5
371
100
AcDbEntity
  8
0
100
AcDbLine
 62
9
  6
CONTINUOUS
 10
72.0331201501
 20
86.9879295727
 11
71.9962968349
 21
86.9435692206
  0
LINE
  5
372
100
AcDbEntity
  8
0
100
AcDbLine
 62
7
  6
CONTINUOUS
 10
75.7760164724
 20
83.2421281761
 11
75.8391827195
 21
83.3105821325
  0
LINE
  5
373
100
AcDbEntity
  8
0
100
AcDbLine
 62
7
  6
CONTINUOUS
 10
24.6801467296
 20
98.950084389
 11
24.7538403241
 21
99.311067549
  0
LINE
  5
374
100
AcDbEntity
  8
0
100
AcDbLine
 62
9
  6
CONTINUOUS
 10
34.4804262721
 20
98.5973899521
 11
34.5115422193
 21
98.6994668849
  0
LINE
  5
375
100
AcDbEntity
  8
0
100
AcDbLine
 62
7
  6
CONTINUOUS
 10
75.8606226918
 20
83.3345904768
 11
75.7792169771
 21
83.2455990651
  0
LINE
  5
376
100
AcDbEntity
  8
0
100
AcDbLine
 62
7
  6
CONTINUOUS
 10
24.7243794359
 20
99.1698586393
 11
24.6533632883
 21
98.8114732598
  0
LINE
  5
377
100
AcDbEntity
  8
0
100
AcDbLine
 62
9
  6
CONTINUOUS
 10
32.4359894867
 20
98.7767052743
 11
32.4745855811
 21
98.9137938007
  0
LINE
  5
378
100
AcDbEntity
  8
0
100
AcDbLine
 62
7
  6
CONTINUOUS
 10
24.6071610971
 20
98.5632087038
 11
24.6801467296
 21
98.950084389
  0
LINE
  5
379
100
AcDbEntity
  8
0
100
AcDbLine
 62
9
  6
CONTINUOUS
 10
32.3962753621
 20
98.6311711574
 11
32.4359894867
 21
98.7767052743
  0
LINE
  5
37A
100
AcDbEntity
  8
0
100
AcDbLine
 62
9
  6
CONTINUOUS
 10
34.4483104737
 20
98.4894111995
 11
34.4804262721
 21
98.5973899521
  0
LINE
  5
37B
100
AcDbEntity
  8
0
100
AcDbLine
 62
9
  6
CONTINUOUS
 10
71.2536863263
 20
92.8112308845
 11
71.2859176562
 21
92.8549002114
  0
LINE
  5
37C
100
AcDbEntity
  8
0
100
AcDbLine
 62
7
  6
CONTINUOUS
 10
24.6533632883
 20
98.8114732598
 11
24.5826396729
 21
98.4247618737
  0
LINE
  5
37D
100
AcDbEntity
  8
0
100
AcDbLine
 62
9
  6
CONTINUOUS
 10
32.3553753358
 20
98.4760981682
 11
32.3962753621
 21
98.6311711574
  0
LINE
  5
37E
100
AcDbEntity
  8
0
100
AcDbLine
 62
9
  6
CONTINUOUS
 10
34.4151989057
 20
98.3750906177
 11
34.4483104737
 21
98.4894111995
  0
LINE
  5
37F
100
AcDbEntity
  8
0
100
AcDbLine
 62
7
  6
CONTINUOUS
 10
75.8391827195
 20
83.3105821325
 11
75.9008593667
 21
83.3804054067
  0
LINE
  5
380
100
AcDbEntity
  8
0
100
AcDbLine
 62
7
  6
CONTINUOUS
 10
24.5349232161
 20
98.1447600578
 11
24.6071610971
 21
98.5632087038
  0
LINE
  5
381
100
AcDbEntity
  8
0
100
AcDbLine
 62
9
  6
CONTINUOUS
 10
34.3810564722
 20
98.2537782717
 11
34.4151989057
 21
98.3750906177
  0
LINE
  5
382
100
AcDbEntity
  8
0
100
AcDbLine
 62
9
  6
CONTINUOUS
 10
73.7209674732
 20
85.6966161044
 11
73.6412081033
 21
85.5994593823
  0
LINE
  5
383
100
AcDbEntity
  8
0
100
AcDbLine
 62
7
  6
CONTINUOUS
 10
75.9395157641
 20
83.4258628048
 11
75.8606226918
 21
83.3345904768
  0
LINE
  5
384
100
AcDbEntity
  8
0
100
AcDbLine
 62
7
  6
CONTINUOUS
 10
24.5826396729
 20
98.4247618737
 11
24.5149093705
 21
98.0216675173
  0
LINE
  5
385
100
AcDbEntity
  8
0
100
AcDbLine
 62
9
  6
CONTINUOUS
 10
32.3132038865
 20
98.3101080524
 11
32.3553753358
 21
98.4760981682
  0
LINE
  5
386
100
AcDbEntity
  8
0
100
AcDbLine
 62
9
  6
CONTINUOUS
 10
34.3459234463
 20
98.1249977786
 11
34.3810564722
 21
98.2537782717
  0
LINE
  5
387
100
AcDbEntity
  8
0
100
AcDbLine
 62
9
  6
CONTINUOUS
 10
68.2512548236
 20
94.9082821309
 11
68.2181831592
 21
94.8584214081
  0
LINE
  5
388
100
AcDbEntity
  8
0
100
AcDbLine
 62
9
  6
CONTINUOUS
 10
72.0684044277
 20
87.033257821
 11
72.0331201501
 21
86.9879295727
  0
LINE
  5
389
100
AcDbEntity
  8
0
100
AcDbLine
 62
9
  6
CONTINUOUS
 10
32.2701356581
 20
98.1334485957
 11
32.3132038865
 21
98.3101080524
  0
LINE
  5
38A
100
AcDbEntity
  8
0
100
AcDbLine
 62
7
  6
CONTINUOUS
 10
75.9008593667
 20
83.3804054067
 11
75.9610315458
 21
83.4515838057
  0
LINE
  5
38B
100
AcDbEntity
  8
0
100
AcDbLine
 62
7
  6
CONTINUOUS
 10
24.465791416
 20
97.7012657955
 11
24.5349232161
 21
98.1447600578
  0
LINE
  5
38C
100
AcDbEntity
  8
0
100
AcDbLine
 62
9
  6
CONTINUOUS
 10
34.3097320538
 20
97.9877578624
 11
34.3459234463
 21
98.1249977786
  0
LINE
  5
38D
100
AcDbEntity
  8
0
100
AcDbLine
 62
9
  6
CONTINUOUS
 10
71.2859176562
 20
92.8549002114
 11
71.3167037329
 21
92.8993234995
  0
LINE
  5
38E
100
AcDbEntity
  8
0
100
AcDbLine
 62
7
  6
CONTINUOUS
 10
76.8129027665
 20
92.7136134286
 11
76.8060139409
 21
92.7045675178
  0
LINE
  5
38F
100
AcDbEntity
  8
0
100
AcDbLine
 62
7
  6
CONTINUOUS
 10
24.5149093705
 20
98.0216675173
 11
24.4528713042
 21
97.611664112
  0
LINE
  5
390
100
AcDbEntity
  8
0
100
AcDbLine
 62
9
  6
CONTINUOUS
 10
32.2257017242
 20
97.9426319723
 11
32.2701356581
 21
98.1334485957
  0
LINE
  5
391
100
AcDbEntity
  8
0
100
AcDbLine
 62
9
  6
CONTINUOUS
 10
34.2724275378
 20
97.8409274709
 11
34.3097320538
 21
97.9877578624
  0
LINE
  5
392
100
AcDbEntity
  8
0
100
AcDbLine
 62
9
  6
CONTINUOUS
 10
73.7977625265
 20
85.7963121792
 11
73.7209674732
 21
85.6966161044
  0
LINE
  5
393
100
AcDbEntity
  8
0
100
AcDbLine
 62
7
  6
CONTINUOUS
 10
76.0158437276
 20
83.5193541367
 11
75.9395157641
 21
83.4258628048
  0
LINE
  5
394
100
AcDbEntity
  8
0
100
AcDbLine
 62
7
  6
CONTINUOUS
 10
24.4528713042
 20
97.611664112
 11
24.3966383171
 21
97.1969895925
  0
LINE
  5
395
100
AcDbEntity
  8
0
100
AcDbLine
 62
7
  6
CONTINUOUS
 10
24.4015183772
 20
97.2330998548
 11
24.465791416
 21
97.7012657955
  0
LINE
  5
396
100
AcDbEntity
  8
0
100
AcDbLine
 62
9
  6
CONTINUOUS
 10
32.1824862395
 20
97.7475074764
 11
32.2257017242
 21
97.9426319723
  0
LINE
  5
397
100
AcDbEntity
  8
0
100
AcDbLine
 62
9
  6
CONTINUOUS
 10
34.2342613145
 20
97.6844082145
 11
34.2724275378
 21
97.8409274709
  0
LINE
  5
398
100
AcDbEntity
  8
0
100
AcDbLine
 62
9
  6
CONTINUOUS
 10
72.1021875982
 20
87.0795959272
 11
72.0684044277
 21
87.033257821
  0
LINE
  5
399
100
AcDbEntity
  8
0
100
AcDbLine
 62
7
  6
CONTINUOUS
 10
75.9610315458
 20
83.4515838057
 11
76.0196662274
 21
83.5240783303
  0
LINE
  5
39A
100
AcDbEntity
  8
0
100
AcDbLine
 62
9
  6
CONTINUOUS
 10
32.1423968549
 20
97.5567723371
 11
32.1824862395
 21
97.7475074764
  0
LINE
  5
39B
100
AcDbEntity
  8
0
100
AcDbLine
 62
9
  6
CONTINUOUS
 10
34.1947468977
 20
97.5147719634
 11
34.2342613145
 21
97.6844082145
  0
LINE
  5
39C
100
AcDbEntity
  8
0
100
AcDbLine
 62
9
  6
CONTINUOUS
 10
68.2181831592
 20
94.8584214081
 11
68.1864162696
 21
94.8069016977
  0
LINE
  5
39D
100
AcDbEntity
  8
0
100
AcDbLine
 62
7
  6
CONTINUOUS
 10
76.7447852321
 20
95.0376582486
 11
76.7513764132
 21
95.0469133324
  0
LINE
  5
39E
100
AcDbEntity
  8
0
100
AcDbLine
 62
7
  6
CONTINUOUS
 10
24.3966383171
 20
97.1969895925
 11
24.3473521965
 21
96.7837410893
  0
LINE
  5
39F
100
AcDbEntity
  8
0
100
AcDbLine
 62
7
  6
CONTINUOUS
 10
24.3439608369
 20
96.7530420197
 11
24.4015183772
 21
97.2330998548
  0
LINE
  5
3A0
100
AcDbEntity
  8
0
100
AcDbLine
 62
9
  6
CONTINUOUS
 10
32.1053360727
 20
97.3707590347
 11
32.1423968549
 21
97.5567723371
  0
LINE
  5
3A1
100
AcDbEntity
  8
0
100
AcDbLine
 62
9
  6
CONTINUOUS
 10
34.156217414
 20
97.3408591146
 11
34.1947468977
 21
97.5147719634
  0
LINE
  5
3A2
100
AcDbEntity
  8
0
100
AcDbLine
 62
9
  6
CONTINUOUS
 10
71.3167037329
 20
92.8993234995
 11
71.3459864951
 21
92.9443885277
  0
LINE
  5
3A3
100
AcDbEntity
  8
0
100
AcDbLine
 62
9
  6
CONTINUOUS
 10
73.8713794802
 20
85.8982667884
 11
73.7977625265
 21
85.7963121792
  0
LINE
  5
3A4
100
AcDbEntity
  8
0
100
AcDbLine
 62
7
  6
CONTINUOUS
 10
76.0895740493
 20
83.61503811
 11
76.0158437276
 21
83.5193541367
  0
LINE
  5
3A5
100
AcDbEntity
  8
0
100
AcDbLine
 62
7
  6
CONTINUOUS
 10
76.0196662274
 20
83.5240783303
 11
76.0767409342
 21
83.5978673368
  0
LINE
  5
3A6
100
AcDbEntity
  8
0
100
AcDbLine
 62
7
  6
CONTINUOUS
 10
24.3473521965
 20
96.7837410893
 11
24.304625033
 21
96.3698149361
  0
LINE
  5
3A7
100
AcDbEntity
  8
0
100
AcDbLine
 62
9
  6
CONTINUOUS
 10
32.0718663618
 20
97.1934356613
 11
32.1053360727
 21
97.3707590347
  0
LINE
  5
3A8
100
AcDbEntity
  8
0
100
AcDbLine
 62
9
  6
CONTINUOUS
 10
34.1203597911
 20
97.1702879042
 11
34.156217414
 21
97.3408591146
  0
LINE
  5
3A9
100
AcDbEntity
  8
0
100
AcDbLine
 62
9
  6
CONTINUOUS
 10
72.1344977978
 20
87.126965299
 11
72.1021875982
 21
87.0795959272
  0
LINE
  5
3AA
100
AcDbEntity
  8
0
100
AcDbLine
 62
7
  6
CONTINUOUS
 10
24.2958144626
 20
96.275268817
 11
24.3439608369
 21
96.7530420197
  0
LINE
  5
3AB
100
AcDbEntity
  8
0
100
AcDbLine
 62
9
  6
CONTINUOUS
 10
32.0413448408
 20
97.0226946358
 11
32.0718663618
 21
97.1934356613
  0
LINE
  5
3AC
100
AcDbEntity
  8
0
100
AcDbLine
 62
9
  6
CONTINUOUS
 10
34.0871633605
 20
97.003660477
 11
34.1203597911
 21
97.1702879042
  0
LINE
  5
3AD
100
AcDbEntity
  8
0
100
AcDbLine
 62
9
  6
CONTINUOUS
 10
68.1864162696
 20
94.8069016977
 11
68.1560138482
 21
94.7536824294
  0
LINE
  5
3AE
100
AcDbEntity
  8
0
100
AcDbLine
 62
7
  6
CONTINUOUS
 10
76.6633913434
 20
93.0710641651
 11
76.6593951071
 21
93.1073982494
  0
LINE
  5
3AF
100
AcDbEntity
  8
0
100
AcDbLine
 62
7
  6
CONTINUOUS
 10
77.1066065456
 20
100.5470749491
 11
77.1331915295
 21
100.3042835634
  0
LINE
  5
3B0
100
AcDbEntity
  8
0
100
AcDbLine
 62
9
  6
CONTINUOUS
 10
72.4877464501
 20
99.2371488715
 11
72.4956986707
 21
99.1642884843
  0
LINE
  5
3B1
100
AcDbEntity
  8
0
100
AcDbLine
 62
9
  6
CONTINUOUS
 10
72.528359708
 20
98.8170872023
 11
72.53467233
 21
98.7584453549
  0
LINE
  5
3B2
100
AcDbEntity
  8
0
100
AcDbLine
 62
7
  6
CONTINUOUS
 10
77.1445230749
 20
100.1980832631
 11
77.1207665714
 21
100.4188540208
  0
LINE
  5
3B3
100
AcDbEntity
  8
0
100
AcDbLine
 62
7
  6
CONTINUOUS
 10
76.9208559034
 20
94.5662429858
 11
76.925165518
 21
94.5256836278
  0
LINE
  5
3B4
100
AcDbEntity
  8
0
100
AcDbLine
 62
9
  6
CONTINUOUS
 10
74.5765202928
 20
99.9796040061
 11
74.5820539673
 21
99.9270531209
  0
LINE
  5
3B5
100
AcDbEntity
  8
0
100
AcDbLine
 62
7
  6
CONTINUOUS
 10
77.1331915295
 20
100.3042835634
 11
77.1602711579
 21
100.0472798615
  0
LINE
  5
3B6
100
AcDbEntity
  8
0
100
AcDbLine
 62
9
  6
CONTINUOUS
 10
72.4956986707
 20
99.1642884843
 11
72.5034329803
 21
99.0902491977
  0
LINE
  5
3B7
100
AcDbEntity
  8
0
100
AcDbLine
 62
7
  6
CONTINUOUS
 10
24.3087009786
 20
91.3396940584
 11
24.3461737243
 21
90.9788689084
  0
LINE
  5
3B8
100
AcDbEntity
  8
0
100
AcDbLine
 62
9
  6
CONTINUOUS
 10
31.8749172478
 20
91.9144510405
 11
31.8613887051
 21
92.0449248347
  0
LINE
  5
3B9
100
AcDbEntity
  8
0
100
AcDbLine
 62
7
  6
CONTINUOUS
 10
77.1688455165
 20
99.9634880602
 11
77.1445230749
 21
100.1980832631
  0
LINE
  5
3BA
100
AcDbEntity
  8
0
100
AcDbLine
 62
9
  6
CONTINUOUS
 10
33.881061677
 20
92.12138234
 11
33.8689854563
 21
92.2381458359
  0
LINE
  5
3BB
100
AcDbEntity
  8
0
100
AcDbLine
 62
9
  6
CONTINUOUS
 10
72.6985024874
 20
97.5523342036
 11
72.7060213561
 21
97.4787271933
  0
LINE
  5
3BC
100
AcDbEntity
  8
0
100
AcDbLine
 62
7
  6
CONTINUOUS
 10
76.7794554933
 20
93.1443979726
 11
76.7832561036
 21
93.1067623907
  0
LINE
  5
3BD
100
AcDbEntity
  8
0
100
AcDbLine
 62
7
  6
CONTINUOUS
 10
76.6593951071
 20
93.1073982494
 11
76.6556002332
 21
93.1450430578
  0
LINE
  5
3BE
100
AcDbEntity
  8
0
100
AcDbLine
 62
7
  6
CONTINUOUS
 10
77.1936971351
 20
99.7142133436
 11
77.1602711579
 21
100.0472798615
  0
LINE
  5
3BF
100
AcDbEntity
  8
0
100
AcDbLine
 62
9
  6
CONTINUOUS
 10
74.5820539673
 20
99.9270531209
 11
74.6028490172
 21
99.7180492625
  0
LINE
  5
3C0
100
AcDbEntity
  8
0
100
AcDbLine
 62
7
  6
CONTINUOUS
 10
24.336966775
 20
91.0631864324
 11
24.2909357153
 21
91.5304876353
  0
LINE
  5
3C1
100
AcDbEntity
  8
0
100
AcDbLine
 62
9
  6
CONTINUOUS
 10
72.6916108176
 20
97.6225410379
 11
72.6985024874
 21
97.5523342036
  0
LINE
  5
3C2
100
AcDbEntity
  8
0
100
AcDbLine
 62
9
  6
CONTINUOUS
 10
72.7060213561
 20
97.4787271933
 11
72.7135536734
 21
97.4017899944
  0
LINE
  5
3C3
100
AcDbEntity
  8
0
100
AcDbLine
 62
7
  6
CONTINUOUS
 10
76.925165518
 20
94.5256836278
 11
76.9292180853
 21
94.484054662
  0
LINE
  5
3C4
100
AcDbEntity
  8
0
100
AcDbLine
 62
9
  6
CONTINUOUS
 10
31.8613887051
 20
92.0449248347
 11
31.8490857154
 21
92.1723325128
  0
LINE
  5
3C5
100
AcDbEntity
  8
0
100
AcDbLine
 62
9
  6
CONTINUOUS
 10
74.6028490172
 20
99.7180492625
 11
74.6208199268
 21
99.5318133006
  0
LINE
  5
3C6
100
AcDbEntity
  8
0
100
AcDbLine
 62
9
  6
CONTINUOUS
 10
33.8689854563
 20
92.2381458359
 11
33.8580059999
 21
92.3521537133
  0
LINE
  5
3C7
100
AcDbEntity
  8
0
100
AcDbLine
 62
9
  6
CONTINUOUS
 10
72.5034329803
 20
99.0902491977
 11
72.5105338697
 21
99.0165928348
  0
LINE
  5
3C8
100
AcDbEntity
  8
0
100
AcDbLine
 62
7
  6
CONTINUOUS
 10
77.2189485186
 20
99.4492212494
 11
77.1877064725
 21
99.7751839537
  0
LINE
  5
3C9
100
AcDbEntity
  8
0
100
AcDbLine
 62
9
  6
CONTINUOUS
 10
74.6208199268
 20
99.5318133006
 11
74.6337225222
 21
99.3944907458
  0
LINE
  5
3CA
100
AcDbEntity
  8
0
100
AcDbLine
 62
9
  6
CONTINUOUS
 10
72.5225852665
 20
98.8793166995
 11
72.528359708
 21
98.8170872023
  0
LINE
  5
3CB
100
AcDbEntity
  8
0
100
AcDbLine
 62
7
  6
CONTINUOUS
 10
76.7758554522
 20
93.1833454235
 11
76.7794554933
 21
93.1443979726
  0
LINE
  5
3CC
100
AcDbEntity
  8
0
100
AcDbLine
 62
7
  6
CONTINUOUS
 10
76.6556002332
 20
93.1450430578
 11
76.6520066252
 21
93.1839890659
  0
LINE
  5
3CD
100
AcDbEntity
  8
0
100
AcDbLine
 62
9
  6
CONTINUOUS
 10
74.6337225222
 20
99.3944907458
 11
74.6473393323
 21
99.2462002554
  0
LINE
  5
3CE
100
AcDbEntity
  8
0
100
AcDbLine
 62
9
  6
CONTINUOUS
 10
67.9359812668
 20
93.7423706242
 11
67.9420250928
 21
93.676369099
  0
LINE
  5
3CF
100
AcDbEntity
  8
0
100
AcDbLine
 62
7
  6
CONTINUOUS
 10
77.2445270211
 20
99.1675196866
 11
77.2154176539
 21
99.4871455213
  0
LINE
  5
3D0
100
AcDbEntity
  8
0
100
AcDbLine
 62
7
  6
CONTINUOUS
 10
24.2762115521
 20
91.7010546841
 11
24.3087009786
 21
91.3396940584
  0
LINE
  5
3D1
100
AcDbEntity
  8
0
100
AcDbLine
 62
9
  6
CONTINUOUS
 10
31.8490857154
 20
92.1723325128
 11
31.8379236412
 21
92.2968839144
  0
LINE
  5
3D2
100
AcDbEntity
  8
0
100
AcDbLine
 62
9
  6
CONTINUOUS
 10
33.8580059999
 20
92.3521537133
 11
33.848047656
 21
92.4635882935
  0
LINE
  5
3D3
100
AcDbEntity
  8
0
100
AcDbLine
 62
9
  6
CONTINUOUS
 10
72.5105338697
 20
99.0165928348
 11
72.5168991026
 21
98.9453500147
  0
LINE
  5
3D4
100
AcDbEntity
  8
0
100
AcDbLine
 62
9
  6
CONTINUOUS
 10
74.6473393323
 20
99.2462002554
 11
74.6606200858
 21
99.0973296399
  0
LINE
  5
3D5
100
AcDbEntity
  8
0
100
AcDbLine
 62
7
  6
CONTINUOUS
 10
76.9292180853
 20
94.484054662
 11
76.9330090285
 21
94.44138781
  0
LINE
  5
3D6
100
AcDbEntity
  8
0
100
AcDbLine
 62
9
  6
CONTINUOUS
 10
72.6856856536
 20
97.6896728994
 11
72.6916108176
 21
97.6225410379
  0
LINE
  5
3D7
100
AcDbEntity
  8
0
100
AcDbLine
 62
9
  6
CONTINUOUS
 10
72.7135536734
 20
97.4017899944
 11
72.7205512096
 21
97.3214761683
  0
LINE
  5
3D8
100
AcDbEntity
  8
0
100
AcDbLine
 62
9
  6
CONTINUOUS
 10
74.6606200858
 20
99.0973296399
 11
74.6774811371
 21
98.9017886164
  0
LINE
  5
3D9
100
AcDbEntity
  8
0
100
AcDbLine
 62
9
  6
CONTINUOUS
 10
72.5168991026
 20
98.9453500147
 11
72.5225852665
 21
98.8793166995
  0
LINE
  5
3DA
100
AcDbEntity
  8
0
100
AcDbLine
 62
7
  6
CONTINUOUS
 10
77.2432068478
 20
99.1822702825
 11
77.2709445112
 21
98.8596240802
  0
LINE
  5
3DB
100
AcDbEntity
  8
0
100
AcDbLine
 62
9
  6
CONTINUOUS
 10
72.6540746292
 20
98.1398905781
 11
72.657479626
 21
98.1000498244
  0
LINE
  5
3DC
100
AcDbEntity
  8
0
100
AcDbLine
 62
7
  6
CONTINUOUS
 10
76.6520066252
 20
93.1839890659
 11
76.6486220645
 21
93.2241441119
  0
LINE
  5
3DD
100
AcDbEntity
  8
0
100
AcDbLine
 62
7
  6
CONTINUOUS
 10
76.7724638543
 20
93.2235141089
 11
76.7758554522
 21
93.1833454235
  0
LINE
  5
3DE
100
AcDbEntity
  8
0
100
AcDbLine
 62
9
  6
CONTINUOUS
 10
71.6128019149
 20
93.9916935599
 11
71.6080385661
 21
94.0484262706
  0
LINE
  5
3DF
100
AcDbEntity
  8
0
100
AcDbLine
 62
9
  6
CONTINUOUS
 10
74.6774811371
 20
98.9017886164
 11
74.6907688668
 21
98.7427427943
  0
LINE
  5
3E0
100
AcDbEntity
  8
0
100
AcDbLine
 62
9
  6
CONTINUOUS
 10
31.8379236412
 20
92.2968839144
 11
31.8278286847
 21
92.4187501852
  0
LINE
  5
3E1
100
AcDbEntity
  8
0
100
AcDbLine
 62
9
  6
CONTINUOUS
 10
33.848047656
 20
92.4635882935
 11
33.8390435513
 21
92.5726082014
  0
LINE
  5
3E2
100
AcDbEntity
  8
0
100
AcDbLine
 62
9
  6
CONTINUOUS
 10
72.6805619305
 20
97.7532293018
 11
72.6856856536
 21
97.6896728994
  0
LINE
  5
3E3
100
AcDbEntity
  8
0
100
AcDbLine
 62
7
  6
CONTINUOUS
 10
76.9330090285
 20
94.44138781
 11
76.9365328839
 21
94.3977133191
  0
LINE
  5
3E4
100
AcDbEntity
  8
0
100
AcDbLine
 62
7
  6
CONTINUOUS
 10
24.2909357153
 20
91.5304876353
 11
24.2532017569
 21
91.9990284076
  0
LINE
  5
3E5
100
AcDbEntity
  8
0
100
AcDbLine
 62
7
  6
CONTINUOUS
 10
77.2702255827
 20
98.8681162684
 11
77.2983458912
 21
98.5184762217
  0
LINE
  5
3E6
100
AcDbEntity
  8
0
100
AcDbLine
 62
9
  6
CONTINUOUS
 10
74.6907688668
 20
98.7427427943
 11
74.7253696131
 21
98.3112360348
  0
LINE
  5
3E7
100
AcDbEntity
  8
0
100
AcDbLine
 62
7
  6
CONTINUOUS
 10
76.7692872331
 20
93.2648097691
 11
76.7724638543
 21
93.2235141089
  0
LINE
  5
3E8
100
AcDbEntity
  8
0
100
AcDbLine
 62
7
  6
CONTINUOUS
 10
76.6486220645
 20
93.2241441119
 11
76.6454530206
 21
93.2654115548
  0
LINE
  5
3E9
100
AcDbEntity
  8
0
100
AcDbLine
 62
9
  6
CONTINUOUS
 10
31.8278286847
 20
92.4187501852
 11
31.8187264733
 21
92.5381952585
  0
LINE
  5
3EA
100
AcDbEntity
  8
0
100
AcDbLine
 62
7
  6
CONTINUOUS
 10
24.248698671
 20
92.0631071317
 11
24.2762115521
 21
91.7010546841
  0
LINE
  5
3EB
100
AcDbEntity
  8
0
100
AcDbLine
 62
9
  6
CONTINUOUS
 10
33.8390435513
 20
92.5726082014
 11
33.8309262657
 21
92.6794570605
  0
LINE
  5
3EC
100
AcDbEntity
  8
0
100
AcDbLine
 62
9
  6
CONTINUOUS
 10
74.7253696131
 20
98.3112360348
 11
74.7422269397
 21
98.089013922
  0
LINE
  5
3ED
100
AcDbEntity
  8
0
100
AcDbLine
 62
9
  6
CONTINUOUS
 10
72.6719140561
 20
97.8687193627
 11
72.6805619305
 21
97.7532293018
  0
LINE
  5
3EE
100
AcDbEntity
  8
0
100
AcDbLine
 62
7
  6
CONTINUOUS
 10
77.2959108871
 20
98.5499668488
 11
77.3251970034
 21
98.1581050122
  0
LINE
  5
3EF
100
AcDbEntity
  8
0
100
AcDbLine
 62
7
  6
CONTINUOUS
 10
76.9365328839
 20
94.3977133191
 11
76.9397781864
 21
94.3531458703
  0
LINE
  5
3F0
100
AcDbEntity
  8
0
100
AcDbLine
 62
9
  6
CONTINUOUS
 10
72.7205512096
 20
97.3214761683
 11
72.7266250866
 21
97.2378423011
  0
LINE
  5
3F1
100
AcDbEntity
  8
0
100
AcDbLine
 62
9
  6
CONTINUOUS
 10
74.7422269397
 20
98.089013922
 11
74.7544983442
 21
97.9201083703
  0
LINE
  5
3F2
100
AcDbEntity
  8
0
100
AcDbLine
 62
9
  6
CONTINUOUS
 10
72.7325101043
 20
97.149834726
 11
72.7462381608
 21
96.9573007595
  0
LINE
  5
3F3
100
AcDbEntity
  8
0
100
AcDbLine
 62
9
  6
CONTINUOUS
 10
72.6682355503
 20
97.9209610585
 11
72.6719140561
 21
97.8687193627
  0
LINE
  5
3F4
100
AcDbEntity
  8
0
100
AcDbLine
 62
9
  6
CONTINUOUS
 10
31.8187264733
 20
92.5381952585
 11
31.8105726152
 21
92.6551497658
  0
LINE
  5
3F5
100
AcDbEntity
  8
0
100
AcDbLine
 62
7
  6
CONTINUOUS
 10
76.6454530206
 20
93.2654115548
 11
76.6424996873
 21
93.3077722922
  0
LINE
  5
3F6
100
AcDbEntity
  8
0
100
AcDbLine
 62
7
  6
CONTINUOUS
 10
76.7663261382
 20
93.3072116182
 11
76.7692872331
 21
93.2648097691
  0
LINE
  5
3F7
100
AcDbEntity
  8
0
100
AcDbLine
 62
9
  6
CONTINUOUS
 10
33.8309262657
 20
92.6794570605
 11
33.8236557963
 21
92.7840750114
  0
LINE
  5
3F8
100
AcDbEntity
  8
0
100
AcDbLine
 62
9
  6
CONTINUOUS
 10
74.7544983442
 20
97.9201083703
 11
74.7684421234
 21
97.7194364306
  0
LINE
  5
3F9
100
AcDbEntity
  8
0
100
AcDbLine
 62
7
  6
CONTINUOUS
 10
77.3461312964
 20
97.8543802106
 11
77.3212890578
 21
98.2122346146
  0
LINE
  5
3FA
100
AcDbEntity
  8
0
100
AcDbLine
 62
7
  6
CONTINUOUS
 10
77.3251970034
 20
98.1581050122
 11
77.3511560006
 21
97.7775493001
  0
LINE
  5
3FB
100
AcDbEntity
  8
0
100
AcDbLine
 62
9
  6
CONTINUOUS
 10
72.7266250866
 20
97.2378423011
 11
72.7325101043
 21
97.149834726
  0
LINE
  5
3FC
100
AcDbEntity
  8
0
100
AcDbLine
 62
9
  6
CONTINUOUS
 10
74.7684421234
 20
97.7194364306
 11
74.778396983
 21
97.570234449
  0
LINE
  5
3FD
100
AcDbEntity
  8
0
100
AcDbLine
 62
9
  6
CONTINUOUS
 10
72.6650044279
 20
97.9699138894
 11
72.6682355503
 21
97.9209610585
  0
LINE
  5
3FE
100
AcDbEntity
  8
0
100
AcDbLine
 62
7
  6
CONTINUOUS
 10
76.9397781864
 20
94.3531458703
 11
76.9427346333
 21
94.307803841
  0
LINE
  5
3FF
100
AcDbEntity
  8
0
100
AcDbLine
 62
9
  6
CONTINUOUS
 10
72.7462381608
 20
96.9573007595
 11
72.7531005718
 21
96.8511994201
  0
LINE
  5
400
100
AcDbEntity
  8
0
100
AcDbLine
 62
9
  6
CONTINUOUS
 10
74.778396983
 20
97.570234449
 11
74.788956175
 21
97.4057763543
  0
LINE
  5
401
100
AcDbEntity
  8
0
100
AcDbLine
 62
9
  6
CONTINUOUS
 10
31.8105726152
 20
92.6551497658
 11
31.8033206639
 21
92.7695686107
  0
LINE
  5
402
100
AcDbEntity
  8
0
100
AcDbLine
 62
9
  6
CONTINUOUS
 10
33.8236557963
 20
92.7840750114
 11
33.8171902896
 21
92.8864246761
  0
LINE
  5
403
100
AcDbEntity
  8
0
100
AcDbLine
 62
7
  6
CONTINUOUS
 10
76.7635815197
 20
93.3507028426
 11
76.7663261382
 21
93.3072116182
  0
LINE
  5
404
100
AcDbEntity
  8
0
100
AcDbLine
 62
7
  6
CONTINUOUS
 10
77.3701090522
 20
97.4744671157
 11
77.3461312964
 21
97.8543802106
  0
LINE
  5
405
100
AcDbEntity
  8
0
100
AcDbLine
 62
7
  6
CONTINUOUS
 10
76.6424996873
 20
93.3077722922
 11
76.6397628372
 21
93.3512092444
  0
LINE
  5
406
100
AcDbEntity
  8
0
100
AcDbLine
 62
7
  6
CONTINUOUS
 10
24.2532017569
 20
91.9990284076
 11
24.2238544122
 21
92.468389129
  0
LINE
  5
407
100
AcDbEntity
  8
0
100
AcDbLine
 62
7
  6
CONTINUOUS
 10
24.2261746726
 20
92.4256297379
 11
24.248698671
 21
92.0631071317
  0
LINE
  5
408
100
AcDbEntity
  8
0
100
AcDbLine
 62
7
  6
CONTINUOUS
 10
77.3511560006
 20
97.7775493001
 11
77.3759480775
 21
97.3762188929
  0
LINE
  5
409
100
AcDbEntity
  8
0
100
AcDbLine
 62
9
  6
CONTINUOUS
 10
74.788956175
 20
97.4057763543
 11
74.8001377868
 21
97.2232636599
  0
LINE
  5
40A
100
AcDbEntity
  8
0
100
AcDbLine
 62
9
  6
CONTINUOUS
 10
72.6622285619
 20
98.0158620983
 11
72.6650044279
 21
97.9699138894
  0
LINE
  5
40B
100
AcDbEntity
  8
0
100
AcDbLine
 62
9
  6
CONTINUOUS
 10
74.8001377868
 20
97.2232636599
 11
74.8060068153
 21
97.1238288058
  0
LINE
  5
40C
100
AcDbEntity
  8
0
100
AcDbLine
 62
9
  6
CONTINUOUS
 10
72.7531005718
 20
96.8511994201
 11
72.7597583816
 21
96.7383754098
  0
LINE
  5
40D
100
AcDbEntity
  8
0
100
AcDbLine
 62
7
  6
CONTINUOUS
 10
76.9427346333
 20
94.307803841
 11
76.9453987274
 21
94.2617255604
  0
LINE
  5
40E
100
AcDbEntity
  8
0
100
AcDbLine
 62
9
  6
CONTINUOUS
 10
31.8033206639
 20
92.7695686107
 11
31.7969108844
 21
92.8816504203
  0
LINE
  5
40F
100
AcDbEntity
  8
0
100
AcDbLine
 62
9
  6
CONTINUOUS
 10
33.8171902896
 20
92.8864246761
 11
33.8114762779
 21
92.9866845787
  0
LINE
  5
410
100
AcDbEntity
  8
0
100
AcDbLine
 62
7
  6
CONTINUOUS
 10
76.6397628372
 20
93.3512092444
 11
76.6372489177
 21
93.3956218132
  0
LINE
  5
411
100
AcDbEntity
  8
0
100
AcDbLine
 62
7
  6
CONTINUOUS
 10
76.7610602869
 20
93.395177998
 11
76.7635815197
 21
93.3507028426
  0
LINE
  5
412
100
AcDbEntity
  8
0
100
AcDbLine
 62
7
  6
CONTINUOUS
 10
77.3929775177
 20
97.0713063626
 11
77.3701090522
 21
97.4744671157
  0
LINE
  5
413
100
AcDbEntity
  8
0
100
AcDbLine
 62
9
  6
CONTINUOUS
 10
72.657479626
 20
98.1000498244
 11
72.6622285619
 21
98.0158620983
  0
LINE
  5
414
100
AcDbEntity
  8
0
100
AcDbLine
 62
9
  6
CONTINUOUS
 10
72.7597583816
 20
96.7383754098
 11
72.7665407176
 21
96.6182531998
  0
LINE
  5
415
100
AcDbEntity
  8
0
100
AcDbLine
 62
9
  6
CONTINUOUS
 10
74.8060068153
 20
97.1238288058
 11
74.8183183656
 21
96.9042739417
  0
LINE
  5
416
100
AcDbEntity
  8
0
100
AcDbLine
 62
9
  6
CONTINUOUS
 10
67.9323198971
 20
93.8089668353
 11
67.9359812668
 21
93.7423706242
  0
LINE
  5
417
100
AcDbEntity
  8
0
100
AcDbLine
 62
7
  6
CONTINUOUS
 10
77.3759480775
 20
97.3762188929
 11
77.3991581252
 21
96.9522792181
  0
LINE
  5
418
100
AcDbEntity
  8
0
100
AcDbLine
 62
9
  6
CONTINUOUS
 10
72.7665407176
 20
96.6182531998
 11
72.7734233221
 21
96.4913566591
  0
LINE
  5
419
100
AcDbEntity
  8
0
100
AcDbLine
 62
9
  6
CONTINUOUS
 10
74.8183183656
 20
96.9042739417
 11
74.8247542907
 21
96.7834147176
  0
LINE
  5
41A
100
AcDbEntity
  8
0
100
AcDbLine
 62
9
  6
CONTINUOUS
 10
72.7734233221
 20
96.4913566591
 11
72.7803562573
 21
96.3568384262
  0
LINE
  5
41B
100
AcDbEntity
  8
0
100
AcDbLine
 62
9
  6
CONTINUOUS
 10
31.7969108844
 20
92.8816504203
 11
31.7912894095
 21
92.9915986764
  0
LINE
  5
41C
100
AcDbEntity
  8
0
100
AcDbLine
 62
9
  6
CONTINUOUS
 10
74.8247542907
 20
96.7834147176
 11
74.8313276922
 21
96.6546482702
  0
LINE
  5
41D
100
AcDbEntity
  8
0
100
AcDbLine
 62
9
  6
CONTINUOUS
 10
33.8114762779
 20
92.9866845787
 11
33.8064656505
 21
93.0850354689
  0
LINE
  5
41E
100
AcDbEntity
  8
0
100
AcDbLine
 62
9
  6
CONTINUOUS
 10
71.6157075445
 20
93.934180218
 11
71.6128019149
 21
93.9916935599
  0
LINE
  5
41F
100
AcDbEntity
  8
0
100
AcDbLine
 62
7
  6
CONTINUOUS
 10
76.6372489177
 20
93.3956218132
 11
76.6349627602
 21
93.4409096573
  0
LINE
  5
420
100
AcDbEntity
  8
0
100
AcDbLine
 62
7
  6
CONTINUOUS
 10
76.7587675636
 20
93.4405323256
 11
76.7610602869
 21
93.395177998
  0
LINE
  5
421
100
AcDbEntity
  8
0
100
AcDbLine
 62
7
  6
CONTINUOUS
 10
76.9453987274
 20
94.2617255604
 11
76.9477659849
 21
94.2149497442
  0
LINE
  5
422
100
AcDbEntity
  8
0
100
AcDbLine
 62
7
  6
CONTINUOUS
 10
77.4142566652
 20
96.6421159339
 11
77.3929775177
 21
97.0713063626
  0
LINE
  5
423
100
AcDbEntity
  8
0
100
AcDbLine
 62
9
  6
CONTINUOUS
 10
74.8313276922
 20
96.6546482702
 11
74.8379162435
 21
96.5195846192
  0
LINE
  5
424
100
AcDbEntity
  8
0
100
AcDbLine
 62
9
  6
CONTINUOUS
 10
72.7803562573
 20
96.3568384262
 11
72.7870626517
 21
96.218546258
  0
LINE
  5
425
100
AcDbEntity
  8
0
100
AcDbLine
 62
7
  6
CONTINUOUS
 10
24.2086469396
 20
92.7886143569
 11
24.2261746726
 21
92.4256297379
  0
LINE
  5
426
100
AcDbEntity
  8
0
100
AcDbLine
 62
7
  6
CONTINUOUS
 10
77.3991581252
 20
96.9522792181
 11
77.4204683803
 21
96.5047735874
  0
LINE
  5
427
100
AcDbEntity
  8
0
100
AcDbLine
 62
9
  6
CONTINUOUS
 10
74.8379162435
 20
96.5195846192
 11
74.8444570139
 21
96.3785282284
  0
LINE
  5
428
100
AcDbEntity
  8
0
100
AcDbLine
 62
9
  6
CONTINUOUS
 10
31.7912894095
 20
92.9915986764
 11
31.7864192371
 21
93.0993674735
  0
LINE
  5
429
100
AcDbEntity
  8
0
100
AcDbLine
 62
9
  6
CONTINUOUS
 10
72.7870626517
 20
96.218546258
 11
72.7933394879
 21
96.0798239603
  0
LINE
  5
42A
100
AcDbEntity
  8
0
100
AcDbLine
 62
9
  6
CONTINUOUS
 10
33.8064656505
 20
93.0850354689
 11
33.8021252951
 21
93.1814330591
  0
LINE
  5
42B
100
AcDbEntity
  8
0
100
AcDbLine
 62
7
  6
CONTINUOUS
 10
24.2238544122
 20
92.468389129
 11
24.2028825642
 21
92.9380145678
  0
LINE
  5
42C
100
AcDbEntity
  8
0
100
AcDbLine
 62
7
  6
CONTINUOUS
 10
76.6349627602
 20
93.4409096573
 11
76.6329060288
 21
93.4870346109
  0
LINE
  5
42D
100
AcDbEntity
  8
0
100
AcDbLine
 62
7
  6
CONTINUOUS
 10
76.7567051753
 20
93.4867243889
 11
76.7587675636
 21
93.4405323256
  0
LINE
  5
42E
100
AcDbEntity
  8
0
100
AcDbLine
 62
9
  6
CONTINUOUS
 10
74.8444570139
 20
96.3785282284
 11
74.8507637338
 21
96.2347406315
  0
LINE
  5
42F
100
AcDbEntity
  8
0
100
AcDbLine
 62
7
  6
CONTINUOUS
 10
76.9477659849
 20
94.2149497442
 11
76.9498290122
 21
94.1675933702
  0
LINE
  5
430
100
AcDbEntity
  8
0
100
AcDbLine
 62
9
  6
CONTINUOUS
 10
72.7933394879
 20
96.0798239603
 11
72.7991631216
 21
95.9412890621
  0
LINE
  5
431
100
AcDbEntity
  8
0
100
AcDbLine
 62
7
  6
CONTINUOUS
 10
77.4337250455
 20
96.1774652255
 11
77.4142566652
 21
96.6421159339
  0
LINE
  5
432
100
AcDbEntity
  8
0
100
AcDbLine
 62
9
  6
CONTINUOUS
 10
74.8507637338
 20
96.2347406315
 11
74.856687845
 21
96.0914868044
  0
LINE
  5
433
100
AcDbEntity
  8
0
100
AcDbLine
 62
7
  6
CONTINUOUS
 10
77.4204683803
 20
96.5047735874
 11
77.4393120006
 21
96.0304781559
  0
LINE
  5
434
100
AcDbEntity
  8
0
100
AcDbLine
 62
9
  6
CONTINUOUS
 10
31.7864192371
 20
93.0993674735
 11
31.7822579676
 21
93.2050543506
  0
LINE
  5
435
100
AcDbEntity
  8
0
100
AcDbLine
 62
9
  6
CONTINUOUS
 10
33.8021252951
 20
93.1814330591
 11
33.7984173262
 21
93.2759624755
  0
LINE
  5
436
100
AcDbEntity
  8
0
100
AcDbLine
 62
9
  6
CONTINUOUS
 10
72.7991631216
 20
95.9412890621
 11
72.8044895737
 21
95.8045404777
  0
LINE
  5
437
100
AcDbEntity
  8
0
100
AcDbLine
 62
7
  6
CONTINUOUS
 10
76.6329060288
 20
93.4870346109
 11
76.6310801558
 21
93.5339666036
  0
LINE
  5
438
100
AcDbEntity
  8
0
100
AcDbLine
 62
7
  6
CONTINUOUS
 10
76.7548746896
 20
93.5337189897
 11
76.7567051753
 21
93.4867243889
  0
LINE
  5
439
100
AcDbEntity
  8
0
100
AcDbLine
 62
9
  6
CONTINUOUS
 10
74.856687845
 20
96.0914868044
 11
74.8622171678
 21
95.9490947474
  0
LINE
  5
43A
100
AcDbEntity
  8
0
100
AcDbLine
 62
7
  6
CONTINUOUS
 10
76.9498290122
 20
94.1675933702
 11
76.951581384
 21
94.1197749413
  0
LINE
  5
43B
100
AcDbEntity
  8
0
100
AcDbLine
 62
9
  6
CONTINUOUS
 10
74.8622171678
 20
95.9490947474
 11
74.8673099123
 21
95.8089045465
  0
LINE
  5
43C
100
AcDbEntity
  8
0
100
AcDbLine
 62
9
  6
CONTINUOUS
 10
72.8044895737
 20
95.8045404777
 11
72.8093420653
 21
95.6699312104
  0
LINE
  5
43D
100
AcDbEntity
  8
0
100
AcDbLine
 62
7
  6
CONTINUOUS
 10
77.4503621157
 20
95.69611103
 11
77.4337250455
 21
96.1774652255
  0
LINE
  5
43E
100
AcDbEntity
  8
0
100
AcDbLine
 62
7
  6
CONTINUOUS
 10
24.1961235616
 20
93.1515767816
 11
24.2086469396
 21
92.7886143569
  0
LINE
  5
43F
100
AcDbEntity
  8
0
100
AcDbLine
 62
9
  6
CONTINUOUS
 10
74.8673099123
 20
95.8089045465
 11
74.8719756002
 21
95.6711800319
  0
LINE
  5
440
100
AcDbEntity
  8
0
100
AcDbLine
 62
9
  6
CONTINUOUS
 10
31.7822579676
 20
93.2050543506
 11
31.7787763761
 21
93.3084314463
  0
LINE
  5
441
100
AcDbEntity
  8
0
100
AcDbLine
 62
9
  6
CONTINUOUS
 10
33.7984173262
 20
93.2759624755
 11
33.7953154881
 21
93.3684210685
  0
LINE
  5
442
100
AcDbEntity
  8
0
100
AcDbLine
 62
7
  6
CONTINUOUS
 10
76.6310801558
 20
93.5339666036
 11
76.629490975
 21
93.5815752964
  0
LINE
  5
443
100
AcDbEntity
  8
0
100
AcDbLine
 62
7
  6
CONTINUOUS
 10
76.7532818409
 20
93.5813857614
 11
76.7548746896
 21
93.5337189897
  0
LINE
  5
444
100
AcDbEntity
  8
0
100
AcDbLine
 62
9
  6
CONTINUOUS
 10
72.8093420653
 20
95.6699312104
 11
72.8137201785
 21
95.5383765645
  0
LINE
  5
445
100
AcDbEntity
  8
0
100
AcDbLine
 62
9
  6
CONTINUOUS
 10
74.8719756002
 20
95.6711800319
 11
74.8762051716
 21
95.5367100793
  0
LINE
  5
446
100
AcDbEntity
  8
0
100
AcDbLine
 62
7
  6
CONTINUOUS
 10
77.4393120006
 20
96.0304781559
 11
77.4553075382
 21
95.5227535572
  0
LINE
  5
447
100
AcDbEntity
  8
0
100
AcDbLine
 62
9
  6
CONTINUOUS
 10
72.8137201785
 20
95.5383765645
 11
72.8176240719
 21
95.4098081715
  0
LINE
  5
448
100
AcDbEntity
  8
0
100
AcDbLine
 62
7
  6
CONTINUOUS
 10
76.951581384
 20
94.1197749413
 11
76.9530210418
 21
94.071540044
  0
LINE
  5
449
100
AcDbEntity
  8
0
100
AcDbLine
 62
9
  6
CONTINUOUS
 10
74.8762051716
 20
95.5367100793
 11
74.8800250605
 21
95.4052274986
  0
LINE
  5
44A
100
AcDbEntity
  8
0
100
AcDbLine
 62
9
  6
CONTINUOUS
 10
31.7787763761
 20
93.3084314463
 11
31.7759395337
 21
93.4093318606
  0
LINE
  5
44B
100
AcDbEntity
  8
0
100
AcDbLine
 62
9
  6
CONTINUOUS
 10
33.7953154881
 20
93.3684210685
 11
33.7927883195
 21
93.4586634509
  0
LINE
  5
44C
100
AcDbEntity
  8
0
100
AcDbLine
 62
7
  6
CONTINUOUS
 10
76.629490975
 20
93.5815752964
 11
76.6281419678
 21
93.6297346273
  0
LINE
  5
44D
100
AcDbEntity
  8
0
100
AcDbLine
 62
7
  6
CONTINUOUS
 10
76.7519300381
 20
93.6295972971
 11
76.7532818409
 21
93.5813857614
  0
LINE
  5
44E
100
AcDbEntity
  8
0
100
AcDbLine
 62
9
  6
CONTINUOUS
 10
72.8176240719
 20
95.4098081715
 11
72.8210377989
 21
95.2847272531
  0
LINE
  5
44F
100
AcDbEntity
  8
0
100
AcDbLine
 62
7
  6
CONTINUOUS
 10
24.2028825642
 20
92.9380145678
 11
24.1903072735
 21
93.4071227307
  0
LINE
  5
450
100
AcDbEntity
  8
0
100
AcDbLine
 62
7
  6
CONTINUOUS
 10
77.4629860612
 20
95.2073810393
 11
77.4503621157
 21
95.69611103
  0
LINE
  5
451
100
AcDbEntity
  8
0
100
AcDbLine
 62
9
  6
CONTINUOUS
 10
74.8816659072
 20
95.3452476201
 11
74.8847061782
 21
95.2272606706
  0
LINE
  5
452
100
AcDbEntity
  8
0
100
AcDbLine
 62
9
  6
CONTINUOUS
 10
72.8210377989
 20
95.2847272531
 11
72.8240067596
 21
95.1623397753
  0
LINE
  5
453
100
AcDbEntity
  8
0
100
AcDbLine
 62
9
  6
CONTINUOUS
 10
74.8847061782
 20
95.2272606706
 11
74.8874542118
 21
95.1109298764
  0
LINE
  5
454
100
AcDbEntity
  8
0
100
AcDbLine
 62
7
  6
CONTINUOUS
 10
76.9530210418
 20
94.071540044
 11
76.9541449852
 21
94.0229366547
  0
LINE
  5
455
100
AcDbEntity
  8
0
100
AcDbLine
 62
7
  6
CONTINUOUS
 10
77.4553075382
 20
95.5227535572
 11
77.4675810464
 21
94.9908896672
  0
LINE
  5
456
100
AcDbEntity
  8
0
100
AcDbLine
 62
9
  6
CONTINUOUS
 10
31.7759395337
 20
93.4093318606
 11
31.7737080874
 21
93.5076663454
  0
LINE
  5
457
100
AcDbEntity
  8
0
100
AcDbLine
 62
7
  6
CONTINUOUS
 10
76.6281419678
 20
93.6297346273
 11
76.6270349335
 21
93.6783814486
  0
LINE
  5
458
100
AcDbEntity
  8
0
100
AcDbLine
 62
7
  6
CONTINUOUS
 10
76.7508209937
 20
93.6782893855
 11
76.7519300381
 21
93.6295972971
  0
LINE
  5
459
100
AcDbEntity
  8
0
100
AcDbLine
 62
9
  6
CONTINUOUS
 10
33.7927883195
 20
93.4586634509
 11
33.7908007045
 21
93.5466085408
  0
LINE
  5
45A
100
AcDbEntity
  8
0
100
AcDbLine
 62
9
  6
CONTINUOUS
 10
74.8874542118
 20
95.1109298764
 11
74.8899249508
 21
94.9962255529
  0
LINE
  5
45B
100
AcDbEntity
  8
0
100
AcDbLine
 62
9
  6
CONTINUOUS
 10
72.8240067596
 20
95.1623397753
 11
72.8265748943
 21
95.0419893473
  0
LINE
  5
45C
100
AcDbEntity
  8
0
100
AcDbLine
 62
7
  6
CONTINUOUS
 10
24.1886164076
 20
93.5139692248
 11
24.1961235616
 21
93.1515767816
  0
LINE
  5
45D
100
AcDbEntity
  8
0
100
AcDbLine
 62
9
  6
CONTINUOUS
 10
74.8899249508
 20
94.9962255529
 11
74.8921255272
 21
94.8832771583
  0
LINE
  5
45E
100
AcDbEntity
  8
0
100
AcDbLine
 62
9
  6
CONTINUOUS
 10
72.8265748943
 20
95.0419893473
 11
72.8287864604
 21
94.9237210284
  0
LINE
  5
45F
100
AcDbEntity
  8
0
100
AcDbLine
 62
7
  6
CONTINUOUS
 10
77.4718592478
 20
94.7301319523
 11
77.4629860612
 21
95.2073810393
  0
LINE
  5
460
100
AcDbEntity
  8
0
100
AcDbLine
 62
9
  6
CONTINUOUS
 10
67.9310921692
 20
93.8759742821
 11
67.9323198971
 21
93.8089668353
  0
LINE
  5
461
100
AcDbEntity
  8
0
100
AcDbLine
 62
7
  6
CONTINUOUS
 10
76.6270349335
 20
93.6783814486
 11
76.6261710696
 21
93.7274503077
  0
LINE
  5
462
100
AcDbEntity
  8
0
100
AcDbLine
 62
7
  6
CONTINUOUS
 10
76.749955795
 20
93.7273954731
 11
76.7508209937
 21
93.6782893855
  0
LINE
  5
463
100
AcDbEntity
  8
0
100
AcDbLine
 62
9
  6
CONTINUOUS
 10
31.7737080874
 20
93.5076663454
 11
31.7720447415
 21
93.6031539239
  0
LINE
  5
464
100
AcDbEntity
  8
0
100
AcDbLine
 62
9
  6
CONTINUOUS
 10
74.8921255272
 20
94.8832771583
 11
74.8940640824
 21
94.7721098355
  0
LINE
  5
465
100
AcDbEntity
  8
0
100
AcDbLine
 62
9
  6
CONTINUOUS
 10
33.7908007045
 20
93.5466085408
 11
33.7893193139
 21
93.6320035975
  0
LINE
  5
466
100
AcDbEntity
  8
0
100
AcDbLine
 62
9
  6
CONTINUOUS
 10
71.6166953138
 20
93.8759742821
 11
71.6157075445
 21
93.934180218
  0
LINE
  5
467
100
AcDbEntity
  8
0
100
AcDbLine
 62
7
  6
CONTINUOUS
 10
76.9541449852
 20
94.0229366547
 11
76.9549499281
 21
93.9740765769
  0
LINE
  5
468
100
AcDbEntity
  8
0
100
AcDbLine
 62
9
  6
CONTINUOUS
 10
72.8287864604
 20
94.9237210284
 11
72.8306899085
 21
94.8071830375
  0
LINE
  5
469
100
AcDbEntity
  8
0
100
AcDbLine
 62
9
  6
CONTINUOUS
 10
74.8940640824
 20
94.7721098355
 11
74.8957479393
 21
94.6629830175
  0
LINE
  5
46A
100
AcDbEntity
  8
0
100
AcDbLine
 62
9
  6
CONTINUOUS
 10
72.8306899085
 20
94.8071830375
 11
72.8322970844
 21
94.6929142751
  0
LINE
  5
46B
100
AcDbEntity
  8
0
100
AcDbLine
 62
9
  6
CONTINUOUS
 10
74.8957479393
 20
94.6629830175
 11
74.8971853203
 21
94.5562154983
  0
LINE
  5
46C
100
AcDbEntity
  8
0
100
AcDbLine
 62
7
  6
CONTINUOUS
 10
77.4675810464
 20
94.9908896672
 11
77.4750062923
 21
94.4428478339
  0
LINE
  5
46D
100
AcDbEntity
  8
0
100
AcDbLine
 62
7
  6
CONTINUOUS
 10
76.7493371703
 20
93.7767878961
 11
76.749955795
 21
93.7273954731
  0
LINE
  5
46E
100
AcDbEntity
  8
0
100
AcDbLine
 62
7
  6
CONTINUOUS
 10
76.6261710696
 20
93.7274503077
 11
76.6255532214
 21
93.7768144319
  0
LINE
  5
46F
100
AcDbEntity
  8
0
100
AcDbLine
 62
9
  6
CONTINUOUS
 10
31.7720447415
 20
93.6031539239
 11
31.7709008199
 21
93.6962076219
  0
LINE
  5
470
100
AcDbEntity
  8
0
100
AcDbLine
 62
9
  6
CONTINUOUS
 10
33.7893193139
 20
93.6320035975
 11
33.7883006427
 21
93.7152193115
  0
LINE
  5
471
100
AcDbEntity
  8
0
100
AcDbLine
 62
9
  6
CONTINUOUS
 10
72.8322970844
 20
94.6929142751
 11
72.8336201208
 21
94.5814391973
  0
LINE
  5
472
100
AcDbEntity
  8
0
100
AcDbLine
 62
9
  6
CONTINUOUS
 10
74.8971853203
 20
94.5562154983
 11
74.8983906027
 21
94.4516474157
  0
LINE
  5
473
100
AcDbEntity
  8
0
100
AcDbLine
 62
7
  6
CONTINUOUS
 10
77.4768336563
 20
94.28907544
 11
77.4718592478
 21
94.7301319523
  0
LINE
  5
474
100
AcDbEntity
  8
0
100
AcDbLine
 62
9
  6
CONTINUOUS
 10
72.8336201208
 20
94.5814391973
 11
72.834686285
 21
94.4724664331
  0
LINE
  5
475
100
AcDbEntity
  8
0
100
AcDbLine
 62
7
  6
CONTINUOUS
 10
76.9549499281
 20
93.9740765769
 11
76.9554331641
 21
93.9250633679
  0
LINE
  5
476
100
AcDbEntity
  8
0
100
AcDbLine
 62
7
  6
CONTINUOUS
 10
24.1903072735
 20
93.4071227307
 11
24.1861215199
 21
93.8759742821
  0
LINE
  5
477
100
AcDbEntity
  8
0
100
AcDbLine
 62
9
  6
CONTINUOUS
 10
74.8983906027
 20
94.4516474157
 11
74.9001563594
 21
94.2489664222
  0
LINE
  5
478
100
AcDbEntity
  8
0
100
AcDbLine
 62
7
  6
CONTINUOUS
 10
76.6255532214
 20
93.7768144319
 11
76.6251819853
 21
93.8263466745
  0
LINE
  5
479
100
AcDbEntity
  8
0
100
AcDbLine
 62
7
  6
CONTINUOUS
 10
76.7489655916
 20
93.8263383807
 11
76.7493371703
 21
93.7767878961
  0
LINE
  5
47A
100
AcDbEntity
  8
0
100
AcDbLine
 62
9
  6
CONTINUOUS
 10
31.7709008199
 20
93.6962076219
 11
31.7702373147
 21
93.7871893665
  0
LINE
  5
47B
100
AcDbEntity
  8
0
100
AcDbLine
 62
9
  6
CONTINUOUS
 10
33.7883006427
 20
93.7152193115
 11
33.7877098969
 21
93.7965799045
  0
LINE
  5
47C
100
AcDbEntity
  8
0
100
AcDbLine
 62
9
  6
CONTINUOUS
 10
72.834686285
 20
94.4724664331
 11
72.8361575326
 21
94.2616610731
  0
LINE
  5
47D
100
AcDbEntity
  8
0
100
AcDbLine
 62
7
  6
CONTINUOUS
 10
24.1861215214
 20
93.8759742821
 11
24.1886164076
 21
93.5139692248
  0
LINE
  5
47E
100
AcDbEntity
  8
0
100
AcDbLine
 62
7
  6
CONTINUOUS
 10
77.4750062923
 20
94.4428478339
 11
77.4779586869
 21
93.8759742746
  0
LINE
  5
47F
100
AcDbEntity
  8
0
100
AcDbLine
 62
9
  6
CONTINUOUS
 10
74.9001563594
 20
94.2489664222
 11
74.9011328882
 21
94.0570610512
  0
LINE
  5
480
100
AcDbEntity
  8
0
100
AcDbLine
 62
9
  6
CONTINUOUS
 10
72.8361575326
 20
94.2616610731
 11
72.8369425712
 21
94.0627871431
  0
LINE
  5
481
100
AcDbEntity
  8
0
100
AcDbLine
 62
7
  6
CONTINUOUS
 10
76.9554331641
 20
93.9250633679
 11
76.9555946538
 21
93.8759742823
  0
LINE
  5
482
100
AcDbEntity
  8
0
100
AcDbLine
 62
7
  6
CONTINUOUS
 10
77.4779586264
 20
93.8759742787
 11
77.4768336563
 21
94.28907544
  0
LINE
  5
483
100
AcDbEntity
  8
0
100
AcDbLine
 62
9
  6
CONTINUOUS
 10
31.7702373147
 20
93.7871893665
 11
31.7700233807
 21
93.8759742818
  0
LINE
  5
484
100
AcDbEntity
  8
0
100
AcDbLine
 62
9
  6
CONTINUOUS
 10
33.7877098969
 20
93.7965799045
 11
33.7875193732
 21
93.8759742821
  0
LINE
  5
485
100
AcDbEntity
  8
0
100
AcDbLine
 62
7
  6
CONTINUOUS
 10
76.6251819853
 20
93.8263466745
 11
76.625058539
 21
93.8759742825
  0
LINE
  5
486
100
AcDbEntity
  8
0
100
AcDbLine
 62
7
  6
CONTINUOUS
 10
76.7488420476
 20
93.8759742825
 11
76.7489655916
 21
93.8263383807
  0
LINE
  5
487
100
AcDbEntity
  8
0
100
AcDbLine
 62
9
  6
CONTINUOUS
 10
74.9011328882
 20
94.0570610512
 11
74.9014347026
 21
93.8759742845
  0
LINE
  5
488
100
AcDbEntity
  8
0
100
AcDbLine
 62
9
  6
CONTINUOUS
 10
72.8369425712
 20
94.0627871431
 11
72.8372166336
 21
93.8759742821
  0
LINE
  5
489
100
AcDbEntity
  8
0
100
AcDbLine
 62
7
  6
CONTINUOUS
 10
20.7558681114
 20
109.5024012703
 11
20.7558681114
 21
78.2495472939
  0
LINE
  5
48A
100
AcDbEntity
  8
DEFAULT_1
100
AcDbLine
 62
7
  6
CENTER
 10
69.7558681114
 20
90.7209742821
 11
69.7558681114
 21
97.0309742821
  0
LINE
  5
48B
100
AcDbEntity
  8
0
100
AcDbLine
 62
7
  6
CONTINUOUS
 10
80.7558681114
 20
78.2495472939
 11
80.7558681114
 21
109.5024012703
  0
LINE
  5
48C
100
AcDbEntity
  8
DEFAULT_1
100
AcDbLine
 62
7
  6
CENTER
 10
138.4648750443
 20
63.501391398
 11
138.4648750443
 21
63.3815278293
  0
LINE
  5
48D
100
AcDbEntity
  8
0
100
AcDbLine
 62
9
  6
CONTINUOUS
 10
72.8372166336
 20
93.8759742821
 11
72.8369426231
 21
93.6891806373
  0
LINE
  5
48E
100
AcDbEntity
  8
0
100
AcDbLine
 62
9
  6
CONTINUOUS
 10
74.9014347026
 20
93.8759742845
 11
74.901132888
 21
93.6948874709
  0
LINE
  5
48F
100
AcDbEntity
  8
0
100
AcDbLine
 62
7
  6
CONTINUOUS
 10
77.4771384188
 20
93.5172767304
 11
77.4779586264
 21
93.8759742787
  0
LINE
  5
490
100
AcDbEntity
  8
0
100
AcDbLine
 62
9
  6
CONTINUOUS
 10
31.7700233807
 20
93.8759742818
 11
31.7702373592
 21
93.9647684352
  0
LINE
  5
491
100
AcDbEntity
  8
0
100
AcDbLine
 62
9
  6
CONTINUOUS
 10
33.7875193732
 20
93.8759742821
 11
33.7877099352
 21
93.9553766421
  0
LINE
  5
492
100
AcDbEntity
  8
0
100
AcDbLine
 62
7
  6
CONTINUOUS
 10
76.625058539
 20
93.8759742825
 11
76.6251820283
 21
93.9256085692
  0
LINE
  5
493
100
AcDbEntity
  8
0
100
AcDbLine
 62
7
  6
CONTINUOUS
 10
76.7489655331
 20
93.9256012056
 11
76.7488420476
 21
93.8759742825
  0
LINE
  5
494
100
AcDbEntity
  8
0
100
AcDbLine
 62
7
  6
CONTINUOUS
 10
76.9555946538
 20
93.8759742823
 11
76.9554331758
 21
93.8268872186
  0
LINE
  5
495
100
AcDbEntity
  8
0
100
AcDbLine
 62
9
  6
CONTINUOUS
 10
72.8369426231
 20
93.6891806373
 11
72.8361577488
 21
93.4903284678
  0
LINE
  5
496
100
AcDbEntity
  8
0
100
AcDbLine
 62
9
  6
CONTINUOUS
 10
74.901132888
 20
93.6948874709
 11
74.90015636
 21
93.502982231
  0
LINE
  5
497
100
AcDbEntity
  8
0
100
AcDbLine
 62
7
  6
CONTINUOUS
 10
77.4779586869
 20
93.8759742746
 11
77.4751383254
 21
93.3126951572
  0
LINE
  5
498
100
AcDbEntity
  8
0
100
AcDbLine
 62
9
  6
CONTINUOUS
 10
72.8361577488
 20
93.4903284678
 11
72.8346868514
 21
93.2795465735
  0
LINE
  5
499
100
AcDbEntity
  8
0
100
AcDbLine
 62
9
  6
CONTINUOUS
 10
31.7702373592
 20
93.9647684352
 11
31.7709010052
 21
94.0557599245
  0
LINE
  5
49A
100
AcDbEntity
  8
0
100
AcDbLine
 62
9
  6
CONTINUOUS
 10
33.7877099352
 20
93.9553766421
 11
33.7883008022
 21
94.036745655
  0
LINE
  5
49B
100
AcDbEntity
  8
0
100
AcDbLine
 62
7
  6
CONTINUOUS
 10
76.6251820283
 20
93.9256085692
 11
76.6255534356
 21
93.9751555561
  0
LINE
  5
49C
100
AcDbEntity
  8
0
100
AcDbLine
 62
7
  6
CONTINUOUS
 10
76.749336876
 20
93.9751312511
 11
76.7489655331
 21
93.9256012056
  0
LINE
  5
49D
100
AcDbEntity
  8
0
100
AcDbLine
 62
7
  6
CONTINUOUS
 10
24.1894061427
 20
94.2913605688
 11
24.1861215214
 21
93.8759742821
  0
LINE
  5
49E
100
AcDbEntity
  8
0
100
AcDbLine
 62
9
  6
CONTINUOUS
 10
74.90015636
 20
93.502982231
 11
74.8983905997
 21
93.3003008617
  0
LINE
  5
49F
100
AcDbEntity
  8
0
100
AcDbLine
 62
7
  6
CONTINUOUS
 10
24.1861215199
 20
93.8759742821
 11
24.1905019423
 21
94.3556100477
  0
LINE
  5
4A0
100
AcDbEntity
  8
0
100
AcDbLine
 62
9
  6
CONTINUOUS
 10
72.8346868514
 20
93.2795465735
 11
72.8336209546
 21
93.1705864524
  0
LINE
  5
4A1
100
AcDbEntity
  8
0
100
AcDbLine
 62
7
  6
CONTINUOUS
 10
76.9554331758
 20
93.8268872186
 11
76.9549499995
 21
93.7778774072
  0
LINE
  5
4A2
100
AcDbEntity
  8
0
100
AcDbLine
 62
7
  6
CONTINUOUS
 10
77.4733225831
 20
93.1315551742
 11
77.4771384188
 21
93.5172767304
  0
LINE
  5
4A3
100
AcDbEntity
  8
0
100
AcDbLine
 62
9
  6
CONTINUOUS
 10
74.8983905997
 20
93.3003008617
 11
74.8971853194
 21
93.1957329834
  0
LINE
  5
4A4
100
AcDbEntity
  8
0
100
AcDbLine
 62
9
  6
CONTINUOUS
 10
72.8336209546
 20
93.1705864524
 11
72.8322982509
 21
93.0591244569
  0
LINE
  5
4A5
100
AcDbEntity
  8
0
100
AcDbLine
 62
9
  6
CONTINUOUS
 10
33.7883008022
 20
94.036745655
 11
33.7893196864
 21
94.1199701993
  0
LINE
  5
4A6
100
AcDbEntity
  8
0
100
AcDbLine
 62
9
  6
CONTINUOUS
 10
31.7709010052
 20
94.0557599245
 11
31.7720451744
 21
94.1488238414
  0
LINE
  5
4A7
100
AcDbEntity
  8
0
100
AcDbLine
 62
7
  6
CONTINUOUS
 10
76.6255534356
 20
93.9751555561
 11
76.6261717201
 21
94.0245413487
  0
LINE
  5
4A8
100
AcDbEntity
  8
0
100
AcDbLine
 62
7
  6
CONTINUOUS
 10
76.7499548568
 20
94.0244905186
 11
76.749336876
 21
93.9751312511
  0
LINE
  5
4A9
100
AcDbEntity
  8
0
100
AcDbLine
 62
9
  6
CONTINUOUS
 10
74.8971853194
 20
93.1957329834
 11
74.8957479409
 21
93.0889656609
  0
LINE
  5
4AA
100
AcDbEntity
  8
0
100
AcDbLine
 62
7
  6
CONTINUOUS
 10
77.4751383254
 20
93.3126951572
 11
77.4675777776
 21
92.7608828738
  0
LINE
  5
4AB
100
AcDbEntity
  8
0
100
AcDbLine
 62
9
  6
CONTINUOUS
 10
72.8322982509
 20
93.0591244569
 11
72.8306914782
 21
92.9448690813
  0
LINE
  5
4AC
100
AcDbEntity
  8
0
100
AcDbLine
 62
9
  6
CONTINUOUS
 10
74.8957479409
 20
93.0889656609
 11
74.8940640813
 21
92.9798386674
  0
LINE
  5
4AD
100
AcDbEntity
  8
0
100
AcDbLine
 62
7
  6
CONTINUOUS
 10
77.4667016933
 20
92.7165231812
 11
77.4733225831
 21
93.1315551742
  0
LINE
  5
4AE
100
AcDbEntity
  8
0
100
AcDbLine
 62
9
  6
CONTINUOUS
 10
72.8306914782
 20
92.9448690813
 11
72.828788511
 21
92.82834469
  0
LINE
  5
4AF
100
AcDbEntity
  8
0
100
AcDbLine
 62
7
  6
CONTINUOUS
 10
76.9549499995
 20
93.7778774072
 11
76.9541452132
 21
93.7290232864
  0
LINE
  5
4B0
100
AcDbEntity
  8
0
100
AcDbLine
 62
9
  6
CONTINUOUS
 10
71.6157070575
 20
93.8177535377
 11
71.6166953138
 21
93.8759742821
  0
LINE
  5
4B1
100
AcDbEntity
  8
0
100
AcDbLine
 62
9
  6
CONTINUOUS
 10
31.7720451744
 20
94.1488238414
 11
31.7737088876
 21
94.2443221928
  0
LINE
  5
4B2
100
AcDbEntity
  8
0
100
AcDbLine
 62
9
  6
CONTINUOUS
 10
33.7893196864
 20
94.1199701993
 11
33.7908013931
 21
94.2053745667
  0
LINE
  5
4B3
100
AcDbEntity
  8
0
100
AcDbLine
 62
9
  6
CONTINUOUS
 10
74.8940640813
 20
92.9798386674
 11
74.8921255214
 21
92.8686710885
  0
LINE
  5
4B4
100
AcDbEntity
  8
0
100
AcDbLine
 62
7
  6
CONTINUOUS
 10
76.6261717201
 20
94.0245413487
 11
76.6270364357
 21
94.0736415757
  0
LINE
  5
4B5
100
AcDbEntity
  8
0
100
AcDbLine
 62
7
  6
CONTINUOUS
 10
76.7508188996
 20
94.0735554137
 11
76.7499548568
 21
94.0244905186
  0
LINE
  5
4B6
100
AcDbEntity
  8
0
100
AcDbLine
 62
9
  6
CONTINUOUS
 10
67.9323194511
 20
93.9429695706
 11
67.9310921692
 21
93.8759742821
  0
LINE
  5
4B7
100
AcDbEntity
  8
0
100
AcDbLine
 62
9
  6
CONTINUOUS
 10
72.828788511
 20
92.82834469
 11
72.8265775058
 21
92.7100897426
  0
LINE
  5
4B8
100
AcDbEntity
  8
0
100
AcDbLine
 62
9
  6
CONTINUOUS
 10
74.8921255214
 20
92.8686710885
 11
74.8899249406
 21
92.755722504
  0
LINE
  5
4B9
100
AcDbEntity
  8
0
100
AcDbLine
 62
9
  6
CONTINUOUS
 10
72.8265775058
 20
92.7100897426
 11
72.8240100512
 21
92.5897533848
  0
LINE
  5
4BA
100
AcDbEntity
  8
0
100
AcDbLine
 62
9
  6
CONTINUOUS
 10
74.8899249406
 20
92.755722504
 11
74.8874541991
 21
92.6410181196
  0
LINE
  5
4BB
100
AcDbEntity
  8
0
100
AcDbLine
 62
9
  6
CONTINUOUS
 10
31.7737088876
 20
94.2443221928
 11
31.775940839
 21
94.3426681568
  0
LINE
  5
4BC
100
AcDbEntity
  8
0
100
AcDbLine
 62
9
  6
CONTINUOUS
 10
33.7908013931
 20
94.2053745667
 11
33.7927894431
 21
94.2933295809
  0
LINE
  5
4BD
100
AcDbEntity
  8
0
100
AcDbLine
 62
7
  6
CONTINUOUS
 10
76.6270364357
 20
94.0736415757
 11
76.6281450035
 21
94.1223337508
  0
LINE
  5
4BE
100
AcDbEntity
  8
0
100
AcDbLine
 62
7
  6
CONTINUOUS
 10
76.7519262999
 20
94.1222040799
 11
76.7508188996
 21
94.0735554137
  0
LINE
  5
4BF
100
AcDbEntity
  8
0
100
AcDbLine
 62
7
  6
CONTINUOUS
 10
77.4567040274
 20
92.279040038
 11
77.4667016933
 21
92.7165231812
  0
LINE
  5
4C0
100
AcDbEntity
  8
0
100
AcDbLine
 62
7
  6
CONTINUOUS
 10
76.9541452132
 20
93.7290232864
 11
76.9530214711
 21
93.6804247355
  0
LINE
  5
4C1
100
AcDbEntity
  8
0
100
AcDbLine
 62
7
  6
CONTINUOUS
 10
77.4675777776
 20
92.7608828738
 11
77.4548496532
 21
92.2152140386
  0
LINE
  5
4C2
100
AcDbEntity
  8
0
100
AcDbLine
 62
7
  6
CONTINUOUS
 10
24.1992850356
 20
94.7071129194
 11
24.1894061427
 21
94.2913605688
  0
LINE
  5
4C3
100
AcDbEntity
  8
0
100
AcDbLine
 62
9
  6
CONTINUOUS
 10
74.8874541991
 20
92.6410181196
 11
74.8847061686
 21
92.5246875178
  0
LINE
  5
4C4
100
AcDbEntity
  8
0
100
AcDbLine
 62
9
  6
CONTINUOUS
 10
72.8240100512
 20
92.5897533848
 11
72.8210419346
 21
92.4673817059
  0
LINE
  5
4C5
100
AcDbEntity
  8
0
100
AcDbLine
 62
9
  6
CONTINUOUS
 10
74.8847061686
 20
92.5246875178
 11
74.8816659089
 21
92.4067009656
  0
LINE
  5
4C6
100
AcDbEntity
  8
0
100
AcDbLine
 62
7
  6
CONTINUOUS
 10
24.1905019423
 20
94.3556100477
 11
24.2036610206
 21
94.8354869152
  0
LINE
  5
4C7
100
AcDbEntity
  8
0
100
AcDbLine
 62
9
  6
CONTINUOUS
 10
72.8210419346
 20
92.4673817059
 11
72.8176291855
 21
92.3423175424
  0
LINE
  5
4C8
100
AcDbEntity
  8
0
100
AcDbLine
 62
9
  6
CONTINUOUS
 10
31.775940839
 20
94.3426681568
 11
31.7787783328
 21
94.4435805132
  0
LINE
  5
4C9
100
AcDbEntity
  8
0
100
AcDbLine
 62
9
  6
CONTINUOUS
 10
33.7927894431
 20
94.2933295809
 11
33.7953171726
 21
94.3835822874
  0
LINE
  5
4CA
100
AcDbEntity
  8
0
100
AcDbLine
 62
7
  6
CONTINUOUS
 10
76.6281450035
 20
94.1223337508
 11
76.629496272
 21
94.1705458767
  0
LINE
  5
4CB
100
AcDbEntity
  8
0
100
AcDbLine
 62
7
  6
CONTINUOUS
 10
76.7532757831
 20
94.1703654761
 11
76.7519262999
 21
94.1222040799
  0
LINE
  5
4CC
100
AcDbEntity
  8
0
100
AcDbLine
 62
9
  6
CONTINUOUS
 10
74.8800250601
 20
92.3467210714
 11
74.8762054957
 21
92.2152492013
  0
LINE
  5
4CD
100
AcDbEntity
  8
0
100
AcDbLine
 62
7
  6
CONTINUOUS
 10
76.9530214711
 20
93.6804247355
 11
76.9515818809
 21
93.6321886643
  0
LINE
  5
4CE
100
AcDbEntity
  8
0
100
AcDbLine
 62
9
  6
CONTINUOUS
 10
72.8176291855
 20
92.3423175424
 11
72.8137263728
 21
92.2137665778
  0
LINE
  5
4CF
100
AcDbEntity
  8
0
100
AcDbLine
 62
7
  6
CONTINUOUS
 10
77.4424232644
 20
91.8164246448
 11
77.4567040274
 21
92.279040038
  0
LINE
  5
4D0
100
AcDbEntity
  8
0
100
AcDbLine
 62
9
  6
CONTINUOUS
 10
74.8762054957
 20
92.2152492013
 11
74.8719765033
 21
92.080796199
  0
LINE
  5
4D1
100
AcDbEntity
  8
0
100
AcDbLine
 62
7
  6
CONTINUOUS
 10
77.4548496532
 20
92.2152140386
 11
77.438236123
 21
91.6916588089
  0
LINE
  5
4D2
100
AcDbEntity
  8
0
100
AcDbLine
 62
9
  6
CONTINUOUS
 10
72.8137263728
 20
92.2137665778
 11
72.809349411
 21
92.0822295545
  0
LINE
  5
4D3
100
AcDbEntity
  8
0
100
AcDbLine
 62
7
  6
CONTINUOUS
 10
76.7548653551
 20
94.2179712391
 11
76.7532757831
 21
94.1703654761
  0
LINE
  5
4D4
100
AcDbEntity
  8
0
100
AcDbLine
 62
9
  6
CONTINUOUS
 10
33.7953171726
 20
94.3835822874
 11
33.7984197
 21
94.4760513797
  0
LINE
  5
4D5
100
AcDbEntity
  8
0
100
AcDbLine
 62
7
  6
CONTINUOUS
 10
76.629496272
 20
94.1705458767
 11
76.6310883501
 21
94.2182087163
  0
LINE
  5
4D6
100
AcDbEntity
  8
0
100
AcDbLine
 62
9
  6
CONTINUOUS
 10
31.7787783328
 20
94.4435805132
 11
31.7822607248
 21
94.5469697592
  0
LINE
  5
4D7
100
AcDbEntity
  8
0
100
AcDbLine
 62
9
  6
CONTINUOUS
 10
74.8719765033
 20
92.080796199
 11
74.8673121396
 21
91.9431074886
  0
LINE
  5
4D8
100
AcDbEntity
  8
0
100
AcDbLine
 62
9
  6
CONTINUOUS
 10
72.809349411
 20
92.0822295545
 11
72.8044988441
 21
91.9476565028
  0
LINE
  5
4D9
100
AcDbEntity
  8
0
100
AcDbLine
 62
9
  6
CONTINUOUS
 10
74.8673121396
 20
91.9431074886
 11
74.8622201835
 21
91.8029340684
  0
LINE
  5
4DA
100
AcDbEntity
  8
0
100
AcDbLine
 62
7
  6
CONTINUOUS
 10
76.9515818809
 20
93.6321886643
 11
76.9498295354
 21
93.5843682451
  0
LINE
  5
4DB
100
AcDbEntity
  8
0
100
AcDbLine
 62
7
  6
CONTINUOUS
 10
77.4250537745
 20
91.3550117318
 11
77.4424232644
 21
91.8164246448
  0
LINE
  5
4DC
100
AcDbEntity
  8
0
100
AcDbLine
 62
9
  6
CONTINUOUS
 10
72.8044988441
 20
91.9476565028
 11
72.7991730851
 21
91.8109059226
  0
LINE
  5
4DD
100
AcDbEntity
  8
0
100
AcDbLine
 62
9
  6
CONTINUOUS
 10
74.8622201835
 20
91.8029340684
 11
74.8566912546
 21
91.6605472717
  0
LINE
  5
4DE
100
AcDbEntity
  8
0
100
AcDbLine
 62
7
  6
CONTINUOUS
 10
76.6310883501
 20
94.2182087163
 11
76.6329179412
 21
94.2651993335
  0
LINE
  5
4DF
100
AcDbEntity
  8
0
100
AcDbLine
 62
7
  6
CONTINUOUS
 10
76.7566916263
 20
94.2648997014
 11
76.7548653551
 21
94.2179712391
  0
LINE
  5
4E0
100
AcDbEntity
  8
0
100
AcDbLine
 62
9
  6
CONTINUOUS
 10
33.7984197
 20
94.4760513797
 11
33.8021285002
 21
94.570591636
  0
LINE
  5
4E1
100
AcDbEntity
  8
0
100
AcDbLine
 62
9
  6
CONTINUOUS
 10
31.7822607248
 20
94.5469697592
 11
31.7864229593
 21
94.6526691786
  0
LINE
  5
4E2
100
AcDbEntity
  8
0
100
AcDbLine
 62
7
  6
CONTINUOUS
 10
24.2157655932
 20
95.1234793353
 11
24.1992850356
 21
94.7071129194
  0
LINE
  5
4E3
100
AcDbEntity
  8
0
100
AcDbLine
 62
7
  6
CONTINUOUS
 10
77.438236123
 20
91.6916588089
 11
77.4187389724
 21
91.2077574048
  0
LINE
  5
4E4
100
AcDbEntity
  8
0
100
AcDbLine
 62
9
  6
CONTINUOUS
 10
74.8566912546
 20
91.6605472717
 11
74.850761856
 21
91.5171638606
  0
LINE
  5
4E5
100
AcDbEntity
  8
0
100
AcDbLine
 62
9
  6
CONTINUOUS
 10
72.7991730851
 20
91.8109059226
 11
72.7933478945
 21
91.6723142693
  0
LINE
  5
4E6
100
AcDbEntity
  8
0
100
AcDbLine
 62
7
  6
CONTINUOUS
 10
76.9498295354
 20
93.5843682451
 11
76.9477666874
 21
93.5370137098
  0
LINE
  5
4E7
100
AcDbEntity
  8
0
100
AcDbLine
 62
9
  6
CONTINUOUS
 10
74.850761856
 20
91.5171638606
 11
74.8444346326
 21
91.3729236022
  0
LINE
  5
4E8
100
AcDbEntity
  8
0
100
AcDbLine
 62
7
  6
CONTINUOUS
 10
76.6329179412
 20
94.2651993335
 11
76.6349794876
 21
94.3113909405
  0
LINE
  5
4E9
100
AcDbEntity
  8
0
100
AcDbLine
 62
7
  6
CONTINUOUS
 10
76.7587489081
 20
94.3110238196
 11
76.7566916263
 21
94.2648997014
  0
LINE
  5
4EA
100
AcDbEntity
  8
0
100
AcDbLine
 62
9
  6
CONTINUOUS
 10
33.8021285002
 20
94.570591636
 11
33.8064698418
 21
94.6670004917
  0
LINE
  5
4EB
100
AcDbEntity
  8
0
100
AcDbLine
 62
9
  6
CONTINUOUS
 10
31.7864229593
 20
94.6526691786
 11
31.7912942763
 21
94.7604510026
  0
LINE
  5
4EC
100
AcDbEntity
  8
0
100
AcDbLine
 62
9
  6
CONTINUOUS
 10
72.7933478945
 20
91.6723142693
 11
72.7870614785
 21
91.5333772775
  0
LINE
  5
4ED
100
AcDbEntity
  8
0
100
AcDbLine
 62
7
  6
CONTINUOUS
 10
24.2036610206
 20
94.8354869152
 11
24.2256064459
 21
95.3158775962
  0
LINE
  5
4EE
100
AcDbEntity
  8
0
100
AcDbLine
 62
7
  6
CONTINUOUS
 10
77.4053061838
 20
90.922282446
 11
77.4250537745
 21
91.3550117318
  0
LINE
  5
4EF
100
AcDbEntity
  8
0
100
AcDbLine
 62
9
  6
CONTINUOUS
 10
74.8444346326
 20
91.3729236022
 11
74.837865352
 21
91.2312948394
  0
LINE
  5
4F0
100
AcDbEntity
  8
0
100
AcDbLine
 62
7
  6
CONTINUOUS
 10
77.4187389724
 20
91.2077574048
 11
77.3967719681
 21
90.7534762528
  0
LINE
  5
4F1
100
AcDbEntity
  8
0
100
AcDbLine
 62
9
  6
CONTINUOUS
 10
72.7870614785
 20
91.5333772775
 11
72.7803257702
 21
91.3945112258
  0
LINE
  5
4F2
100
AcDbEntity
  8
0
100
AcDbLine
 62
9
  6
CONTINUOUS
 10
74.837865352
 20
91.2312948394
 11
74.8312457727
 21
91.0956625506
  0
LINE
  5
4F3
100
AcDbEntity
  8
0
100
AcDbLine
 62
7
  6
CONTINUOUS
 10
76.7610356787
 20
94.3563110784
 11
76.7587489081
 21
94.3110238196
  0
LINE
  5
4F4
100
AcDbEntity
  8
0
100
AcDbLine
 62
9
  6
CONTINUOUS
 10
71.612799621
 20
93.7602209532
 11
71.6157070575
 21
93.8177535377
  0
LINE
  5
4F5
100
AcDbEntity
  8
0
100
AcDbLine
 62
7
  6
CONTINUOUS
 10
76.6349794876
 20
94.3113909405
 11
76.6372713311
 21
94.3567453953
  0
LINE
  5
4F6
100
AcDbEntity
  8
0
100
AcDbLine
 62
7
  6
CONTINUOUS
 10
76.9477666874
 20
93.5370137098
 11
76.9453996391
 21
93.4902398283
  0
LINE
  5
4F7
100
AcDbEntity
  8
0
100
AcDbLine
 62
9
  6
CONTINUOUS
 10
33.8064698418
 20
94.6670004917
 11
33.8114816235
 21
94.7653630866
  0
LINE
  5
4F8
100
AcDbEntity
  8
0
100
AcDbLine
 62
9
  6
CONTINUOUS
 10
31.7912942763
 20
94.7604510026
 11
31.7969170904
 21
94.8704127946
  0
LINE
  5
4F9
100
AcDbEntity
  8
0
100
AcDbLine
 62
9
  6
CONTINUOUS
 10
74.8312457727
 20
91.0956625506
 11
74.8246419129
 21
90.9663809113
  0
LINE
  5
4FA
100
AcDbEntity
  8
0
100
AcDbLine
 62
9
  6
CONTINUOUS
 10
72.7803257702
 20
91.3945112258
 11
72.7733570168
 21
91.2593378801
  0
LINE
  5
4FB
100
AcDbEntity
  8
0
100
AcDbLine
 62
7
  6
CONTINUOUS
 10
77.3837254035
 20
90.5121164375
 11
77.4053061838
 21
90.922282446
  0
LINE
  5
4FC
100
AcDbEntity
  8
0
100
AcDbLine
 62
9
  6
CONTINUOUS
 10
74.8246419129
 20
90.9663809113
 11
74.8181833163
 21
90.8451825165
  0
LINE
  5
4FD
100
AcDbEntity
  8
0
100
AcDbLine
 62
9
  6
CONTINUOUS
 10
72.7733570168
 20
91.2593378801
 11
72.7664448576
 21
91.1319338587
  0
LINE
  5
4FE
100
AcDbEntity
  8
0
100
AcDbLine
 62
9
  6
CONTINUOUS
 10
67.9359788813
 20
94.0095453928
 11
67.9323194511
 21
93.9429695706
  0
LINE
  5
4FF
100
AcDbEntity
  8
0
100
AcDbLine
 62
7
  6
CONTINUOUS
 10
24.2388256361
 20
95.5397158121
 11
24.2157655932
 21
95.1234793353
  0
LINE
  5
500
100
AcDbEntity
  8
0
100
AcDbLine
 62
7
  6
CONTINUOUS
 10
77.3967719681
 20
90.7534762528
 11
77.3729859852
 21
90.3251934241
  0
LINE
  5
501
100
AcDbEntity
  8
0
100
AcDbLine
 62
9
  6
CONTINUOUS
 10
74.8181833163
 20
90.8451825165
 11
74.8058333727
 21
90.6251378849
  0
LINE
  5
502
100
AcDbEntity
  8
0
100
AcDbLine
 62
9
  6
CONTINUOUS
 10
72.7664448576
 20
91.1319338587
 11
72.7596325092
 21
91.0113957742
  0
LINE
  5
503
100
AcDbEntity
  8
0
100
AcDbLine
 62
7
  6
CONTINUOUS
 10
76.7635501583
 20
94.4007214234
 11
76.7610356787
 21
94.3563110784
  0
LINE
  5
504
100
AcDbEntity
  8
0
100
AcDbLine
 62
9
  6
CONTINUOUS
 10
72.6621416745
 20
89.7344535992
 11
72.657369323
 21
89.6503901913
  0
LINE
  5
505
100
AcDbEntity
  8
0
100
AcDbLine
 62
7
  6
CONTINUOUS
 10
76.6372713311
 20
94.3567453953
 11
76.6397915244
 21
94.4012190475
  0
LINE
  5
506
100
AcDbEntity
  8
0
100
AcDbLine
 62
9
  6
CONTINUOUS
 10
33.8114816235
 20
94.7653630866
 11
33.8171969728
 21
94.8656351813
  0
LINE
  5
507
100
AcDbEntity
  8
0
100
AcDbLine
 62
9
  6
CONTINUOUS
 10
31.7969170904
 20
94.8704127946
 11
31.8033284221
 21
94.9825087102
  0
LINE
  5
508
100
AcDbEntity
  8
0
100
AcDbLine
 62
7
  6
CONTINUOUS
 10
76.9453996391
 20
93.4902398283
 11
76.9427356117
 21
93.4441606553
  0
LINE
  5
509
100
AcDbEntity
  8
0
100
AcDbLine
 62
9
  6
CONTINUOUS
 10
72.7596325092
 20
91.0113957742
 11
72.752945348
 21
90.8982941297
  0
LINE
  5
50A
100
AcDbEntity
  8
0
100
AcDbLine
 62
7
  6
CONTINUOUS
 10
77.3610313946
 20
90.1288298579
 11
77.3837254035
 21
90.5121164375
  0
LINE
  5
50B
100
AcDbEntity
  8
0
100
AcDbLine
 62
9
  6
CONTINUOUS
 10
74.8058333727
 20
90.6251378849
 11
74.7942291018
 21
90.4316093281
  0
LINE
  5
50C
100
AcDbEntity
  8
0
100
AcDbLine
 62
9
  6
CONTINUOUS
 10
72.6648920634
 20
89.7802792674
 11
72.6621416745
 21
89.7344535992
  0
LINE
  5
50D
100
AcDbEntity
  8
0
100
AcDbLine
 62
9
  6
CONTINUOUS
 10
74.7942291018
 20
90.4316093281
 11
74.7834141562
 21
90.2584337718
  0
LINE
  5
50E
100
AcDbEntity
  8
0
100
AcDbLine
 62
7
  6
CONTINUOUS
 10
77.3729859852
 20
90.3251934241
 11
77.3476714833
 21
89.9212142052
  0
LINE
  5
50F
100
AcDbEntity
  8
0
100
AcDbLine
 62
7
  6
CONTINUOUS
 10
76.6397915244
 20
94.4012190475
 11
76.6425350393
 21
94.4447089806
  0
LINE
  5
510
100
AcDbEntity
  8
0
100
AcDbLine
 62
7
  6
CONTINUOUS
 10
76.7662876062
 20
94.4441565031
 11
76.7635501583
 21
94.4007214234
  0
LINE
  5
511
100
AcDbEntity
  8
0
100
AcDbLine
 62
9
  6
CONTINUOUS
 10
33.8171969728
 20
94.8656351813
 11
33.8236640145
 21
94.9679975072
  0
LINE
  5
512
100
AcDbEntity
  8
0
100
AcDbLine
 62
9
  6
CONTINUOUS
 10
31.8033284221
 20
94.9825087102
 11
31.8105821543
 21
95.0969422064
  0
LINE
  5
513
100
AcDbEntity
  8
0
100
AcDbLine
 62
7
  6
CONTINUOUS
 10
24.2256064459
 20
95.3158775962
 11
24.2563151451
 21
95.7959639561
  0
LINE
  5
514
100
AcDbEntity
  8
0
100
AcDbLine
 62
9
  6
CONTINUOUS
 10
72.752945348
 20
90.8982941297
 11
72.7460566898
 21
90.7919797148
  0
LINE
  5
515
100
AcDbEntity
  8
0
100
AcDbLine
 62
7
  6
CONTINUOUS
 10
76.9427356117
 20
93.4441606553
 11
76.9397792131
 21
93.3988175785
  0
LINE
  5
516
100
AcDbEntity
  8
0
100
AcDbLine
 62
7
  6
CONTINUOUS
 10
77.3374096346
 20
89.7685943495
 11
77.3610313946
 21
90.1288298579
  0
LINE
  5
517
100
AcDbEntity
  8
0
100
AcDbLine
 62
9
  6
CONTINUOUS
 10
72.6681042053
 20
89.829095069
 11
72.6648920634
 21
89.7802792674
  0
LINE
  5
518
100
AcDbEntity
  8
0
100
AcDbLine
 62
9
  6
CONTINUOUS
 10
74.7834141562
 20
90.2584337718
 11
74.7731396729
 21
90.1023344133
  0
LINE
  5
519
100
AcDbEntity
  8
0
100
AcDbLine
 62
9
  6
CONTINUOUS
 10
72.7322942778
 20
90.5990401091
 11
72.7264031909
 21
90.5109287971
  0
LINE
  5
51A
100
AcDbEntity
  8
0
100
AcDbLine
 62
9
  6
CONTINUOUS
 10
74.7731396729
 20
90.1023344133
 11
74.7587986064
 21
89.8927712648
  0
LINE
  5
51B
100
AcDbEntity
  8
0
100
AcDbLine
 62
7
  6
CONTINUOUS
 10
77.3476714833
 20
89.9212142052
 11
77.3212499005
 21
89.5388989592
  0
LINE
  5
51C
100
AcDbEntity
  8
0
100
AcDbLine
 62
9
  6
CONTINUOUS
 10
33.8236640145
 20
94.9679975072
 11
33.8309362289
 21
95.0726285479
  0
LINE
  5
51D
100
AcDbEntity
  8
0
100
AcDbLine
 62
9
  6
CONTINUOUS
 10
31.8105821543
 20
95.0969422064
 11
31.8187380366
 21
95.2139118602
  0
LINE
  5
51E
100
AcDbEntity
  8
0
100
AcDbLine
 62
7
  6
CONTINUOUS
 10
76.769241703
 20
94.4865174676
 11
76.7662876062
 21
94.4441565031
  0
LINE
  5
51F
100
AcDbEntity
  8
0
100
AcDbLine
 62
7
  6
CONTINUOUS
 10
76.6425350393
 20
94.4447089806
 11
76.6454950838
 21
94.4871112144
  0
LINE
  5
520
100
AcDbEntity
  8
0
100
AcDbLine
 62
7
  6
CONTINUOUS
 10
24.2684457918
 20
95.9551046389
 11
24.2388256361
 21
95.5397158121
  0
LINE
  5
521
100
AcDbEntity
  8
0
100
AcDbLine
 62
9
  6
CONTINUOUS
 10
72.7460566898
 20
90.7919797148
 11
72.7322942778
 21
90.5990401091
  0
LINE
  5
522
100
AcDbEntity
  8
0
100
AcDbLine
 62
7
  6
CONTINUOUS
 10
77.3132074792
 20
89.4292090647
 11
77.3374096346
 21
89.7685943495
  0
LINE
  5
523
100
AcDbEntity
  8
0
100
AcDbLine
 62
9
  6
CONTINUOUS
 10
74.7587986064
 20
89.8927712648
 11
74.7459574608
 21
89.7135681299
  0
LINE
  5
524
100
AcDbEntity
  8
0
100
AcDbLine
 62
9
  6
CONTINUOUS
 10
72.6758492679
 20
89.9369443302
 11
72.6681042053
 21
89.829095069
  0
LINE
  5
525
100
AcDbEntity
  8
0
100
AcDbLine
 62
9
  6
CONTINUOUS
 10
72.7264031909
 20
90.5109287971
 11
72.7203019862
 21
90.4272593719
  0
LINE
  5
526
100
AcDbEntity
  8
0
100
AcDbLine
 62
7
  6
CONTINUOUS
 10
76.9397792131
 20
93.3988175785
 11
76.9365341032
 21
93.3542511291
  0
LINE
  5
527
100
AcDbEntity
  8
0
100
AcDbLine
 62
9
  6
CONTINUOUS
 10
74.7459574608
 20
89.7135681299
 11
74.7348773849
 21
89.5648376502
  0
LINE
  5
528
100
AcDbEntity
  8
0
100
AcDbLine
 62
7
  6
CONTINUOUS
 10
77.3212499005
 20
89.5388989592
 11
77.2939791768
 21
89.1774605285
  0
LINE
  5
529
100
AcDbEntity
  8
0
100
AcDbLine
 62
9
  6
CONTINUOUS
 10
33.8309362289
 20
95.0726285479
 11
33.8390554926
 21
95.1794910422
  0
LINE
  5
52A
100
AcDbEntity
  8
0
100
AcDbLine
 62
9
  6
CONTINUOUS
 10
31.8187380366
 20
95.2139118602
 11
31.8278425417
 21
95.3333727031
  0
LINE
  5
52B
100
AcDbEntity
  8
0
100
AcDbLine
 62
9
  6
CONTINUOUS
 10
72.6803758991
 20
89.9963553666
 11
72.6758492679
 21
89.9369443302
  0
LINE
  5
52C
100
AcDbEntity
  8
0
100
AcDbLine
 62
7
  6
CONTINUOUS
 10
76.772411581
 20
94.5277855867
 11
76.769241703
 21
94.4865174676
  0
LINE
  5
52D
100
AcDbEntity
  8
0
100
AcDbLine
 62
7
  6
CONTINUOUS
 10
76.6454950838
 20
94.4871112144
 11
76.6486706292
 21
94.5284074667
  0
LINE
  5
52E
100
AcDbEntity
  8
0
100
AcDbLine
 62
7
  6
CONTINUOUS
 10
77.2886592538
 20
89.1101076243
 11
77.3132074792
 21
89.4292090647
  0
LINE
  5
52F
100
AcDbEntity
  8
0
100
AcDbLine
 62
9
  6
CONTINUOUS
 10
74.7348773849
 20
89.5648376502
 11
74.722177468
 21
89.4003369296
  0
LINE
  5
530
100
AcDbEntity
  8
0
100
AcDbLine
 62
9
  6
CONTINUOUS
 10
74.722177468
 20
89.4003369296
 11
74.6909695967
 21
89.0116608466
  0
LINE
  5
531
100
AcDbEntity
  8
0
100
AcDbLine
 62
9
  6
CONTINUOUS
 10
72.685476576
 20
90.0597694957
 11
72.6803758991
 21
89.9963553666
  0
LINE
  5
532
100
AcDbEntity
  8
0
100
AcDbLine
 62
7
  6
CONTINUOUS
 10
76.9365341032
 20
93.3542511291
 11
76.9330104652
 21
93.3105777118
  0
LINE
  5
533
100
AcDbEntity
  8
0
100
AcDbLine
 62
7
  6
CONTINUOUS
 10
77.2640664084
 20
88.8103331608
 11
77.2939791768
 21
89.1774605285
  0
LINE
  5
534
100
AcDbEntity
  8
0
100
AcDbLine
 62
7
  6
CONTINUOUS
 10
24.2563151451
 20
95.7959639561
 11
24.2958144626
 21
96.275268817
  0
LINE
  5
535
100
AcDbEntity
  8
0
100
AcDbLine
 62
9
  6
CONTINUOUS
 10
33.8390554926
 20
95.1794910422
 11
33.848061831
 21
95.288525203
  0
LINE
  5
536
100
AcDbEntity
  8
0
100
AcDbLine
 62
9
  6
CONTINUOUS
 10
31.8278425417
 20
95.3333727031
 11
31.8379400866
 21
95.4552554444
  0
LINE
  5
537
100
AcDbEntity
  8
0
100
AcDbLine
 62
9
  6
CONTINUOUS
 10
74.6909695967
 20
89.0116608466
 11
74.6778489265
 21
88.8545057112
  0
LINE
  5
538
100
AcDbEntity
  8
0
100
AcDbLine
 62
9
  6
CONTINUOUS
 10
71.6080326638
 20
93.7034637097
 11
71.612799621
 21
93.7602209532
  0
LINE
  5
539
100
AcDbEntity
  8
0
100
AcDbLine
 62
7
  6
CONTINUOUS
 10
76.7757969423
 20
94.5679405432
 11
76.772411581
 21
94.5277855867
  0
LINE
  5
53A
100
AcDbEntity
  8
0
100
AcDbLine
 62
7
  6
CONTINUOUS
 10
76.6486706292
 20
94.5284074667
 11
76.6520610287
 21
94.5685757647
  0
LINE
  5
53B
100
AcDbEntity
  8
0
100
AcDbLine
 62
9
  6
CONTINUOUS
 10
74.6778489265
 20
88.8545057112
 11
74.6617469134
 21
88.6675026836
  0
LINE
  5
53C
100
AcDbEntity
  8
0
100
AcDbLine
 62
9
  6
CONTINUOUS
 10
72.657369323
 20
89.6503901913
 11
72.6539114864
 21
89.6105620413
  0
LINE
  5
53D
100
AcDbEntity
  8
0
100
AcDbLine
 62
7
  6
CONTINUOUS
 10
77.2661841044
 20
88.835439536
 11
77.2380855645
 21
88.5122130031
  0
LINE
  5
53E
100
AcDbEntity
  8
0
100
AcDbLine
 62
7
  6
CONTINUOUS
 10
24.304625033
 20
96.3698149361
 11
24.2684457918
 21
95.9551046389
  0
LINE
  5
53F
100
AcDbEntity
  8
0
100
AcDbLine
 62
9
  6
CONTINUOUS
 10
72.5233081689
 20
88.8807180405
 11
72.511937942
 21
88.7508563282
  0
LINE
  5
540
100
AcDbEntity
  8
0
100
AcDbLine
 62
9
  6
CONTINUOUS
 10
72.7203019862
 20
90.4272593719
 11
72.713254203
 21
90.3470099933
  0
LINE
  5
541
100
AcDbEntity
  8
0
100
AcDbLine
 62
9
  6
CONTINUOUS
 10
72.6913685668
 20
90.1267522174
 11
72.685476576
 21
90.0597694957
  0
LINE
  5
542
100
AcDbEntity
  8
0
100
AcDbLine
 62
9
  6
CONTINUOUS
 10
74.6617469134
 20
88.6675026836
 11
74.6491860776
 21
88.5261949505
  0
LINE
  5
543
100
AcDbEntity
  8
0
100
AcDbLine
 62
7
  6
CONTINUOUS
 10
76.9330104652
 20
93.3105777118
 11
76.9292196264
 21
93.267910468
  0
LINE
  5
544
100
AcDbEntity
  8
0
100
AcDbLine
 62
9
  6
CONTINUOUS
 10
33.848061831
 20
95.288525203
 11
33.8580226934
 21
95.3999747391
  0
LINE
  5
545
100
AcDbEntity
  8
0
100
AcDbLine
 62
9
  6
CONTINUOUS
 10
31.8379400866
 20
95.4552554444
 11
31.8491050776
 21
95.5798241216
  0
LINE
  5
546
100
AcDbEntity
  8
0
100
AcDbLine
 62
9
  6
CONTINUOUS
 10
67.9420181605
 20
94.0755163752
 11
67.9359788813
 21
94.0095453928
  0
LINE
  5
547
100
AcDbEntity
  8
0
100
AcDbLine
 62
9
  6
CONTINUOUS
 10
74.6491860776
 20
88.5261949505
 11
74.6358821966
 21
88.3807239741
  0
LINE
  5
548
100
AcDbEntity
  8
0
100
AcDbLine
 62
7
  6
CONTINUOUS
 10
77.2395749253
 20
88.528856292
 11
77.2099699626
 21
88.2069893469
  0
LINE
  5
549
100
AcDbEntity
  8
0
100
AcDbLine
 62
7
  6
CONTINUOUS
 10
76.6520610287
 20
94.5685757647
 11
76.6556598286
 21
94.6075228604
  0
LINE
  5
54A
100
AcDbEntity
  8
0
100
AcDbLine
 62
7
  6
CONTINUOUS
 10
76.779391372
 20
94.6068865394
 11
76.7757969423
 21
94.5679405432
  0
LINE
  5
54B
100
AcDbEntity
  8
0
100
AcDbLine
 62
9
  6
CONTINUOUS
 10
74.6358821966
 20
88.3807239741
 11
74.6227044639
 21
88.2400115538
  0
LINE
  5
54C
100
AcDbEntity
  8
0
100
AcDbLine
 62
9
  6
CONTINUOUS
 10
72.5289391503
 20
88.9405438371
 11
72.5233081689
 21
88.8807180405
  0
LINE
  5
54D
100
AcDbEntity
  8
0
100
AcDbLine
 62
9
  6
CONTINUOUS
 10
72.511937942
 20
88.7508563282
 11
72.5053772949
 21
88.6812776401
  0
LINE
  5
54E
100
AcDbEntity
  8
0
100
AcDbLine
 62
9
  6
CONTINUOUS
 10
74.6227044639
 20
88.2400115538
 11
74.6099791162
 21
88.1070761613
  0
LINE
  5
54F
100
AcDbEntity
  8
0
100
AcDbLine
 62
9
  6
CONTINUOUS
 10
33.8580226934
 20
95.3999747391
 11
33.8690049847
 21
95.5139983556
  0
LINE
  5
550
100
AcDbEntity
  8
0
100
AcDbLine
 62
9
  6
CONTINUOUS
 10
31.8491050776
 20
95.5798241216
 11
31.8614113498
 21
95.70724998
  0
LINE
  5
551
100
AcDbEntity
  8
0
100
AcDbLine
 62
7
  6
CONTINUOUS
 10
77.2154070764
 20
88.2646901198
 11
77.1819655174
 21
87.9188150027
  0
LINE
  5
552
100
AcDbEntity
  8
0
100
AcDbLine
 62
7
  6
CONTINUOUS
 10
76.9292196264
 20
93.267910468
 11
76.9251671484
 21
93.2262809613
  0
LINE
  5
553
100
AcDbEntity
  8
0
100
AcDbLine
 62
9
  6
CONTINUOUS
 10
72.6982100951
 20
90.1967718468
 11
72.6913685668
 21
90.1267522174
  0
LINE
  5
554
100
AcDbEntity
  8
0
100
AcDbLine
 62
9
  6
CONTINUOUS
 10
74.6099791162
 20
88.1070761613
 11
74.5978801009
 21
87.9837592098
  0
LINE
  5
555
100
AcDbEntity
  8
0
100
AcDbLine
 62
9
  6
CONTINUOUS
 10
72.713254203
 20
90.3470099933
 11
72.7056976873
 21
90.2702046819
  0
LINE
  5
556
100
AcDbEntity
  8
0
100
AcDbLine
 62
9
  6
CONTINUOUS
 10
74.5978801009
 20
87.9837592098
 11
74.5821560834
 21
87.8258822018
  0
LINE
  5
557
100
AcDbEntity
  8
0
100
AcDbLine
 62
7
  6
CONTINUOUS
 10
77.168393916
 20
87.7839341112
 11
77.1916354431
 21
88.0167503248
  0
LINE
  5
558
100
AcDbEntity
  8
0
100
AcDbLine
 62
7
  6
CONTINUOUS
 10
76.7831871295
 20
94.6445318597
 11
76.779391372
 21
94.6068865394
  0
LINE
  5
559
100
AcDbEntity
  8
0
100
AcDbLine
 62
7
  6
CONTINUOUS
 10
76.6556598286
 20
94.6075228604
 11
76.6594592268
 21
94.6451587422
  0
LINE
  5
55A
100
AcDbEntity
  8
0
100
AcDbLine
 62
9
  6
CONTINUOUS
 10
72.7056976873
 20
90.2702046819
 11
72.6982100951
 21
90.1967718468
  0
LINE
  5
55B
100
AcDbEntity
  8
0
100
AcDbLine
 62
7
  6
CONTINUOUS
 10
77.1819655174
 20
87.9188150027
 11
77.1542705578
 21
87.6467629327
  0
LINE
  5
55C
100
AcDbEntity
  8
0
100
AcDbLine
 62
9
  6
CONTINUOUS
 10
72.5053772949
 20
88.6812776401
 11
72.4980468211
 21
88.6097274252
  0
LINE
  5
55D
100
AcDbEntity
  8
0
100
AcDbLine
 62
9
  6
CONTINUOUS
 10
33.8690049847
 20
95.5139983556
 11
33.8810843938
 21
95.6307784531
  0
LINE
  5
55E
100
AcDbEntity
  8
0
100
AcDbLine
 62
9
  6
CONTINUOUS
 10
31.8614113498
 20
95.70724998
 11
31.8749435831
 21
95.8377429535
  0
LINE
  5
55F
100
AcDbEntity
  8
0
100
AcDbLine
 62
7
  6
CONTINUOUS
 10
77.1457208385
 20
87.5653100094
 11
77.168393916
 21
87.7839341112
  0
LINE
  5
560
100
AcDbEntity
  8
0
100
AcDbLine
 62
9
  6
CONTINUOUS
 10
74.5821560834
 20
87.8258822018
 11
74.5765287445
 21
87.7724447658
  0
LINE
  5
561
100
AcDbEntity
  8
0
100
AcDbLine
 62
7
  6
CONTINUOUS
 10
76.9251671484
 20
93.2262809613
 11
76.9208577088
 21
93.1857218604
  0
LINE
  5
562
100
AcDbEntity
  8
0
100
AcDbLine
 62
7
  6
CONTINUOUS
 10
77.1236984376
 20
87.3598505845
 11
77.1542705578
 21
87.6467629327
  0
LINE
  5
563
100
AcDbEntity
  8
0
100
AcDbLine
 62
9
  6
CONTINUOUS
 10
72.5351381771
 20
88.9975219639
 11
72.5289391503
 21
88.9405438371
  0
LINE
  5
564
100
AcDbEntity
  8
0
100
AcDbLine
 62
9
  6
CONTINUOUS
 10
72.4980468211
 20
88.6097274252
 11
72.48259659
 21
88.4679219624
  0
LINE
  5
565
100
AcDbEntity
  8
0
100
AcDbLine
 62
7
  6
CONTINUOUS
 10
76.787184291
 20
94.6808667404
 11
76.7831871295
 21
94.6445318597
  0
LINE
  5
566
100
AcDbEntity
  8
0
100
AcDbLine
 62
7
  6
CONTINUOUS
 10
76.6594592268
 20
94.6451587422
 11
76.6634591781
 21
94.6814746289
  0
LINE
  5
567
100
AcDbEntity
  8
0
100
AcDbLine
 62
7
  6
CONTINUOUS
 10
77.1269611586
 20
87.3899619731
 11
77.1001728148
 21
87.1475096814
  0
LINE
  5
568
100
AcDbEntity
  8
0
100
AcDbLine
 62
9
  6
CONTINUOUS
 10
33.8810843938
 20
95.6307784531
 11
33.8943393079
 21
95.7504572742
  0
LINE
  5
569
100
AcDbEntity
  8
0
100
AcDbLine
 62
9
  6
CONTINUOUS
 10
72.48259659
 20
88.4679219624
 11
72.4242598354
 21
87.9409311883
  0
LINE
  5
56A
100
AcDbEntity
  8
0
100
AcDbLine
 62
9
  6
CONTINUOUS
 10
31.8749435831
 20
95.8377429535
 11
31.8897895503
 21
95.971470116
  0
LINE
  5
56B
100
AcDbEntity
  8
0
100
AcDbLine
 62
9
  6
CONTINUOUS
 10
74.5765287445
 20
87.7724447658
 11
74.5697240186
 21
87.7126426504
  0
LINE
  5
56C
100
AcDbEntity
  8
0
100
AcDbLine
 62
7
  6
CONTINUOUS
 10
77.1023289523
 20
87.1667409365
 11
77.0739255945
 21
86.9185728563
  0
LINE
  5
56D
100
AcDbEntity
  8
0
100
AcDbLine
 62
7
  6
CONTINUOUS
 10
76.9208577088
 20
93.1857218604
 11
76.9163050112
 21
93.1463442544
  0
LINE
  5
56E
100
AcDbEntity
  8
0
100
AcDbLine
 62
9
  6
CONTINUOUS
 10
72.4242598354
 20
87.9409311883
 11
72.4197252226
 21
87.9018121065
  0
LINE
  5
56F
100
AcDbEntity
  8
0
100
AcDbLine
 62
9
  6
CONTINUOUS
 10
71.6014735221
 20
93.6474761032
 11
71.6080326638
 21
93.7034637097
  0
LINE
  5
570
100
AcDbEntity
  8
0
100
AcDbLine
 62
7
  6
CONTINUOUS
 10
77.0816447595
 20
86.9850676562
 11
77.0482318211
 21
86.7022462952
  0
LINE
  5
571
100
AcDbEntity
  8
0
100
AcDbLine
 62
9
  6
CONTINUOUS
 10
33.8943393079
 20
95.7504572742
 11
33.9088700283
 21
95.8733024568
  0
LINE
  5
572
100
AcDbEntity
  8
0
100
AcDbLine
 62
9
  6
CONTINUOUS
 10
31.8897895503
 20
95.971470116
 11
31.9060605165
 21
96.1087267533
  0
LINE
  5
573
100
AcDbEntity
  8
0
100
AcDbLine
 62
7
  6
CONTINUOUS
 10
76.7913834767
 20
94.7158759811
 11
76.787184291
 21
94.6808667404
  0
LINE
  5
574
100
AcDbEntity
  8
0
100
AcDbLine
 62
7
  6
CONTINUOUS
 10
76.6634591781
 20
94.6814746289
 11
76.6676602374
 21
94.7164566159
  0
LINE
  5
575
100
AcDbEntity
  8
0
100
AcDbLine
 62
7
  6
CONTINUOUS
 10
77.0422899394
 20
86.6529883588
 11
77.0616376728
 21
86.8140988366
  0
LINE
  5
576
100
AcDbEntity
  8
0
100
AcDbLine
 62
7
  6
CONTINUOUS
 10
77.0482318211
 20
86.7022462952
 11
77.0232502237
 21
86.4978435602
  0
LINE
  5
577
100
AcDbEntity
  8
0
100
AcDbLine
 62
9
  6
CONTINUOUS
 10
72.5418933903
 20
89.0519248507
 11
72.5351381771
 21
88.9975219639
  0
LINE
  5
578
100
AcDbEntity
  8
0
100
AcDbLine
 62
7
  6
CONTINUOUS
 10
76.9991863858
 20
86.3045589617
 11
77.0236626363
 21
86.5011654494
  0
LINE
  5
579
100
AcDbEntity
  8
0
100
AcDbLine
 62
7
  6
CONTINUOUS
 10
76.9163050112
 20
93.1463442544
 11
76.9115239675
 21
93.1082531231
  0
LINE
  5
57A
100
AcDbEntity
  8
0
100
AcDbLine
 62
9
  6
CONTINUOUS
 10
33.9088700283
 20
95.8733024568
 11
33.924780107
 21
95.9995254184
  0
LINE
  5
57B
100
AcDbEntity
  8
0
100
AcDbLine
 62
9
  6
CONTINUOUS
 10
31.9060605165
 20
96.1087267533
 11
31.9238709054
 21
96.2497423653
  0
LINE
  5
57C
100
AcDbEntity
  8
0
100
AcDbLine
 62
7
  6
CONTINUOUS
 10
76.9725303688
 20
86.0952673807
 11
77.0058126303
 21
86.3579448901
  0
LINE
  5
57D
100
AcDbEntity
  8
0
100
AcDbLine
 62
9
  6
CONTINUOUS
 10
72.4197252226
 20
87.9018121065
 11
72.4155793178
 21
87.8691986096
  0
LINE
  5
57E
100
AcDbEntity
  8
0
100
AcDbLine
 62
9
  6
CONTINUOUS
 10
67.9504273419
 20
94.1410949589
 11
67.9420181605
 21
94.0755163752
  0
LINE
  5
57F
100
AcDbEntity
  8
0
100
AcDbLine
 62
7
  6
CONTINUOUS
 10
76.9759120668
 20
86.121845052
 11
76.9535279714
 21
85.9487754266
  0
LINE
  5
580
100
AcDbEntity
  8
0
100
AcDbLine
 62
7
  6
CONTINUOUS
 10
76.7957771937
 20
94.7494754828
 11
76.7913834767
 21
94.7158759811
  0
LINE
  5
581
100
AcDbEntity
  8
0
100
AcDbLine
 62
7
  6
CONTINUOUS
 10
76.6676602374
 20
94.7164566159
 11
76.6720547877
 21
94.7500215344
  0
LINE
  5
582
100
AcDbEntity
  8
0
100
AcDbLine
 62
9
  6
CONTINUOUS
 10
74.5697240186
 20
87.7126426504
 11
74.5616469885
 21
87.6509932832
  0
LINE
  5
583
100
AcDbEntity
  8
0
100
AcDbLine
 62
9
  6
CONTINUOUS
 10
33.924780107
 20
95.9995254184
 11
33.9421951598
 21
96.1294329161
  0
LINE
  5
584
100
AcDbEntity
  8
0
100
AcDbLine
 62
9
  6
CONTINUOUS
 10
31.9238709054
 20
96.2497423653
 11
31.9433589181
 21
96.3948497782
  0
LINE
  5
585
100
AcDbEntity
  8
0
100
AcDbLine
 62
7
  6
CONTINUOUS
 10
76.9569371605
 20
85.9746870427
 11
76.9315528462
 21
85.7856812668
  0
LINE
  5
586
100
AcDbEntity
  8
0
100
AcDbLine
 62
9
  6
CONTINUOUS
 10
72.6539114864
 20
89.6105620413
 11
72.6485724472
 21
89.5708745509
  0
LINE
  5
587
100
AcDbEntity
  8
0
100
AcDbLine
 62
7
  6
CONTINUOUS
 10
76.9115239675
 20
93.1082531231
 11
76.9065207465
 21
93.0714732009
  0
LINE
  5
588
100
AcDbEntity
  8
0
100
AcDbLine
 62
7
  6
CONTINUOUS
 10
76.9268990997
 20
85.7521549199
 11
76.9417210731
 21
85.8601875563
  0
LINE
  5
589
100
AcDbEntity
  8
0
100
AcDbLine
 62
9
  6
CONTINUOUS
 10
72.5491000936
 20
89.1037027124
 11
72.5418933903
 21
89.0519248507
  0
LINE
  5
58A
100
AcDbEntity
  8
0
100
AcDbLine
 62
7
  6
CONTINUOUS
 10
76.9315528462
 20
85.7856812668
 11
76.9098681825
 21
85.6326745976
  0
LINE
  5
58B
100
AcDbEntity
  8
0
100
AcDbLine
 62
9
  6
CONTINUOUS
 10
33.9421951598
 20
96.1294329161
 11
33.9612462389
 21
96.2632800823
  0
LINE
  5
58C
100
AcDbEntity
  8
0
100
AcDbLine
 62
9
  6
CONTINUOUS
 10
31.9433589181
 20
96.3948497782
 11
31.9646688908
 21
96.5443261338
  0
LINE
  5
58D
100
AcDbEntity
  8
0
100
AcDbLine
 62
7
  6
CONTINUOUS
 10
76.800356991
 20
94.781586927
 11
76.7957771937
 21
94.7494754828
  0
LINE
  5
58E
100
AcDbEntity
  8
0
100
AcDbLine
 62
7
  6
CONTINUOUS
 10
76.6720547877
 20
94.7500215344
 11
76.6766343169
 21
94.7820923513
  0
LINE
  5
58F
100
AcDbEntity
  8
0
100
AcDbLine
 62
9
  6
CONTINUOUS
 10
72.4155793178
 20
87.8691986096
 11
72.4116199374
 21
87.8419356738
  0
LINE
  5
590
100
AcDbEntity
  8
0
100
AcDbLine
 62
7
  6
CONTINUOUS
 10
76.9065207465
 20
93.0714732009
 11
76.9013009028
 21
93.0360322211
  0
LINE
  5
591
100
AcDbEntity
  8
0
100
AcDbLine
 62
9
  6
CONTINUOUS
 10
74.5616469885
 20
87.6509932832
 11
74.5523876636
 21
87.5890702927
  0
LINE
  5
592
100
AcDbEntity
  8
0
100
AcDbLine
 62
9
  6
CONTINUOUS
 10
71.5931824238
 20
93.5922688158
 11
71.6014735221
 21
93.6474761032
  0
LINE
  5
593
100
AcDbEntity
  8
0
100
AcDbLine
 62
9
  6
CONTINUOUS
 10
33.9612462389
 20
96.2632800823
 11
33.98209012
 21
96.4014091068
  0
LINE
  5
594
100
AcDbEntity
  8
0
100
AcDbLine
 62
7
  6
CONTINUOUS
 10
76.8982543735
 20
85.5557528648
 11
76.9128033198
 21
85.6521734843
  0
LINE
  5
595
100
AcDbEntity
  8
0
100
AcDbLine
 62
9
  6
CONTINUOUS
 10
31.9646688908
 20
96.5443261338
 11
31.9879749733
 21
96.6985562827
  0
LINE
  5
596
100
AcDbEntity
  8
0
100
AcDbLine
 62
7
  6
CONTINUOUS
 10
76.8051234127
 20
94.8121997788
 11
76.800356991
 21
94.781586927
  0
LINE
  5
597
100
AcDbEntity
  8
0
100
AcDbLine
 62
7
  6
CONTINUOUS
 10
76.6766343169
 20
94.7820923513
 11
76.6813991956
 21
94.8126590552
  0
LINE
  5
598
100
AcDbEntity
  8
0
100
AcDbLine
 62
7
  6
CONTINUOUS
 10
76.9098681825
 20
85.6326745976
 11
76.8874864506
 21
85.4894864849
  0
LINE
  5
599
100
AcDbEntity
  8
0
100
AcDbLine
 62
9
  6
CONTINUOUS
 10
72.5569547441
 20
89.1538765551
 11
72.5491000936
 21
89.1037027124
  0
LINE
  5
59A
100
AcDbEntity
  8
0
100
AcDbLine
 62
7
  6
CONTINUOUS
 10
76.9013009028
 20
93.0360322211
 11
76.8958807843
 21
93.0020286624
  0
LINE
  5
59B
100
AcDbEntity
  8
0
100
AcDbLine
 62
9
  6
CONTINUOUS
 10
33.98209012
 20
96.4014091068
 11
34.0048884236
 21
96.5440897654
  0
LINE
  5
59C
100
AcDbEntity
  8
0
100
AcDbLine
 62
9
  6
CONTINUOUS
 10
31.9879749733
 20
96.6985562827
 11
32.0134571464
 21
96.857849408
  0
LINE
  5
59D
100
AcDbEntity
  8
0
100
AcDbLine
 62
9
  6
CONTINUOUS
 10
72.4116199374
 20
87.8419356738
 11
72.4073817871
 21
87.8160280617
  0
LINE
  5
59E
100
AcDbEntity
  8
0
100
AcDbLine
 62
9
  6
CONTINUOUS
 10
74.5523876636
 20
87.5890702927
 11
74.5423134878
 21
87.5277437423
  0
LINE
  5
59F
100
AcDbEntity
  8
0
100
AcDbLine
 62
7
  6
CONTINUOUS
 10
76.8821505251
 20
85.45819736
 11
76.8982543735
 21
85.5557528648
  0
LINE
  5
5A0
100
AcDbEntity
  8
0
100
AcDbLine
 62
9
  6
CONTINUOUS
 10
67.9612410653
 20
94.2065173892
 11
67.9504273419
 21
94.1410949589
  0
LINE
  5
5A1
100
AcDbEntity
  8
0
100
AcDbLine
 62
9
  6
CONTINUOUS
 10
32.0134571464
 20
96.857849408
 11
32.0413448408
 21
97.0226946358
  0
LINE
  5
5A2
100
AcDbEntity
  8
0
100
AcDbLine
 62
9
  6
CONTINUOUS
 10
34.0048884236
 20
96.5440897654
 11
34.02984875
 21
96.6917636831
  0
LINE
  5
5A3
100
AcDbEntity
  8
0
100
AcDbLine
 62
7
  6
CONTINUOUS
 10
76.8100774829
 20
94.841296939
 11
76.8051234127
 21
94.8121997788
  0
LINE
  5
5A4
100
AcDbEntity
  8
0
100
AcDbLine
 62
7
  6
CONTINUOUS
 10
76.6813991956
 20
94.8126590552
 11
76.6863503813
 21
94.8417057657
  0
LINE
  5
5A5
100
AcDbEntity
  8
0
100
AcDbLine
 62
9
  6
CONTINUOUS
 10
72.6485724472
 20
89.5708745509
 11
72.6416559421
 21
89.5304807168
  0
LINE
  5
5A6
100
AcDbEntity
  8
0
100
AcDbLine
 62
7
  6
CONTINUOUS
 10
76.8958807843
 20
93.0020286624
 11
76.8902778235
 21
92.9695524565
  0
LINE
  5
5A7
100
AcDbEntity
  8
0
100
AcDbLine
 62
9
  6
CONTINUOUS
 10
72.5658132201
 20
89.2034957909
 11
72.5569547441
 21
89.1538765551
  0
LINE
  5
5A8
100
AcDbEntity
  8
0
100
AcDbLine
 62
9
  6
CONTINUOUS
 10
34.02984875
 20
96.6917636831
 11
34.057184871
 21
96.8447805061
  0
LINE
  5
5A9
100
AcDbEntity
  8
0
100
AcDbLine
 62
9
  6
CONTINUOUS
 10
72.4073817871
 20
87.8160280617
 11
72.4024621558
 21
87.7884996904
  0
LINE
  5
5AA
100
AcDbEntity
  8
0
100
AcDbLine
 62
9
  6
CONTINUOUS
 10
74.5423134878
 20
87.5277437423
 11
74.5312761135
 21
87.4664788221
  0
LINE
  5
5AB
100
AcDbEntity
  8
0
100
AcDbLine
 62
7
  6
CONTINUOUS
 10
76.8874864506
 20
85.4894864849
 11
76.8633024539
 21
85.3561603489
  0
LINE
  5
5AC
100
AcDbEntity
  8
0
100
AcDbLine
 62
7
  6
CONTINUOUS
 10
76.864590982
 20
85.3617072702
 11
76.8821505251
 21
85.45819736
  0
LINE
  5
5AD
100
AcDbEntity
  8
0
100
AcDbLine
 62
9
  6
CONTINUOUS
 10
71.58321639
 20
93.5378560307
 11
71.5931824238
 21
93.5922688158
  0
LINE
  5
5AE
100
AcDbEntity
  8
0
100
AcDbLine
 62
7
  6
CONTINUOUS
 10
76.8152108013
 20
94.8688054677
 11
76.8100774829
 21
94.841296939
  0
LINE
  5
5AF
100
AcDbEntity
  8
0
100
AcDbLine
 62
7
  6
CONTINUOUS
 10
76.6863503813
 20
94.8417057657
 11
76.6914791217
 21
94.8691594164
  0
LINE
  5
5B0
100
AcDbEntity
  8
0
100
AcDbLine
 62
7
  6
CONTINUOUS
 10
76.8902778235
 20
92.9695524565
 11
76.8844987854
 21
92.9386249237
  0
LINE
  5
5B1
100
AcDbEntity
  8
0
100
AcDbLine
 62
9
  6
CONTINUOUS
 10
34.057184871
 20
96.8447805061
 11
34.0871633605
 21
97.003660477
  0
LINE
  5
5B2
100
AcDbEntity
  8
0
100
AcDbLine
 62
9
  6
CONTINUOUS
 10
72.4024621558
 20
87.7884996904
 11
72.3968547698
 21
87.7596301775
  0
LINE
  5
5B3
100
AcDbEntity
  8
0
100
AcDbLine
 62
9
  6
CONTINUOUS
 10
72.6416559421
 20
89.5304807168
 11
72.6334291566
 21
89.4882677171
  0
LINE
  5
5B4
100
AcDbEntity
  8
0
100
AcDbLine
 62
9
  6
CONTINUOUS
 10
74.5312761135
 20
87.4664788221
 11
74.5188132809
 21
87.4031150298
  0
LINE
  5
5B5
100
AcDbEntity
  8
0
100
AcDbLine
 62
7
  6
CONTINUOUS
 10
76.8844987854
 20
92.9386249237
 11
76.8785501473
 21
92.9092709833
  0
LINE
  5
5B6
100
AcDbEntity
  8
0
100
AcDbLine
 62
9
  6
CONTINUOUS
 10
67.9744272909
 20
94.2715155209
 11
67.9612410653
 21
94.2065173892
  0
LINE
  5
5B7
100
AcDbEntity
  8
0
100
AcDbLine
 62
7
  6
CONTINUOUS
 10
76.8451301128
 20
85.2663039928
 11
76.864590982
 21
85.3617072702
  0
LINE
  5
5B8
100
AcDbEntity
  8
0
100
AcDbLine
 62
7
  6
CONTINUOUS
 10
76.8205146132
 20
94.894660097
 11
76.8152108013
 21
94.8688054677
  0
LINE
  5
5B9
100
AcDbEntity
  8
0
100
AcDbLine
 62
7
  6
CONTINUOUS
 10
76.6914791217
 20
94.8691594164
 11
76.6967761885
 21
94.8949544472
  0
LINE
  5
5BA
100
AcDbEntity
  8
0
100
AcDbLine
 62
7
  6
CONTINUOUS
 10
76.8633024539
 20
85.3561603489
 11
76.8375506845
 21
85.2318711522
  0
LINE
  5
5BB
100
AcDbEntity
  8
0
100
AcDbLine
 62
9
  6
CONTINUOUS
 10
72.5761327287
 20
89.2527998482
 11
72.5658132201
 21
89.2034957909
  0
LINE
  5
5BC
100
AcDbEntity
  8
0
100
AcDbLine
 62
9
  6
CONTINUOUS
 10
72.3968547698
 20
87.7596301775
 11
72.3905328429
 21
87.7298421964
  0
LINE
  5
5BD
100
AcDbEntity
  8
0
100
AcDbLine
 62
9
  6
CONTINUOUS
 10
74.5188132809
 20
87.4031150298
 11
74.5046246417
 21
87.3367327409
  0
LINE
  5
5BE
100
AcDbEntity
  8
0
100
AcDbLine
 62
9
  6
CONTINUOUS
 10
71.5716287508
 20
93.4842469936
 11
71.58321639
 21
93.5378560307
  0
LINE
  5
5BF
100
AcDbEntity
  8
0
100
AcDbLine
 62
9
  6
CONTINUOUS
 10
72.6334291566
 20
89.4882677171
 11
72.6239215803
 21
89.4444794456
  0
LINE
  5
5C0
100
AcDbEntity
  8
0
100
AcDbLine
 62
7
  6
CONTINUOUS
 10
76.8785501473
 20
92.9092709833
 11
76.8724499407
 21
92.8815719818
  0
LINE
  5
5C1
100
AcDbEntity
  8
0
100
AcDbLine
 62
7
  6
CONTINUOUS
 10
76.8243006992
 20
85.1738285347
 11
76.8451301128
 21
85.2663039928
  0
LINE
  5
5C2
100
AcDbEntity
  8
0
100
AcDbLine
 62
7
  6
CONTINUOUS
 10
76.825988484
 20
94.9188408827
 11
76.8205146132
 21
94.894660097
  0
LINE
  5
5C3
100
AcDbEntity
  8
0
100
AcDbLine
 62
7
  6
CONTINUOUS
 10
76.6967761885
 20
94.8949544472
 11
76.702241402
 21
94.9190743629
  0
LINE
  5
5C4
100
AcDbEntity
  8
0
100
AcDbLine
 62
9
  6
CONTINUOUS
 10
72.3905328429
 20
87.7298421964
 11
72.38333255
 21
87.698715927
  0
LINE
  5
5C5
100
AcDbEntity
  8
0
100
AcDbLine
 62
9
  6
CONTINUOUS
 10
74.5046246417
 20
87.3367327409
 11
74.488354346
 21
87.2665784073
  0
LINE
  5
5C6
100
AcDbEntity
  8
0
100
AcDbLine
 62
7
  6
CONTINUOUS
 10
76.8375506845
 20
85.2318711522
 11
76.8104872167
 21
85.1176443141
  0
LINE
  5
5C7
100
AcDbEntity
  8
0
100
AcDbLine
 62
9
  6
CONTINUOUS
 10
72.6239215803
 20
89.4444794456
 11
72.6129933544
 21
89.3988541661
  0
LINE
  5
5C8
100
AcDbEntity
  8
0
100
AcDbLine
 62
7
  6
CONTINUOUS
 10
76.8724499407
 20
92.8815719818
 11
76.8662171629
 21
92.8555994963
  0
LINE
  5
5C9
100
AcDbEntity
  8
0
100
AcDbLine
 62
9
  6
CONTINUOUS
 10
67.9899713351
 20
94.3360053143
 11
67.9744272909
 21
94.2715155209
  0
LINE
  5
5CA
100
AcDbEntity
  8
0
100
AcDbLine
 62
9
  6
CONTINUOUS
 10
72.5882259079
 20
89.3025232278
 11
72.5761327287
 21
89.2527998482
  0
LINE
  5
5CB
100
AcDbEntity
  8
0
100
AcDbLine
 62
7
  6
CONTINUOUS
 10
76.8027793537
 20
85.0874356968
 11
76.8243006992
 21
85.1738285347
  0
LINE
  5
5CC
100
AcDbEntity
  8
0
100
AcDbLine
 62
9
  6
CONTINUOUS
 10
71.558468619
 20
93.4314483411
 11
71.5716287508
 21
93.4842469936
  0
LINE
  5
5CD
100
AcDbEntity
  8
0
100
AcDbLine
 62
9
  6
CONTINUOUS
 10
72.38333255
 20
87.698715927
 11
72.37500278
 21
87.6655201797
  0
LINE
  5
5CE
100
AcDbEntity
  8
0
100
AcDbLine
 62
7
  6
CONTINUOUS
 10
76.8316325502
 20
94.9413231228
 11
76.825988484
 21
94.9188408827
  0
LINE
  5
5CF
100
AcDbEntity
  8
0
100
AcDbLine
 62
7
  6
CONTINUOUS
 10
76.702241402
 20
94.9190743629
 11
76.7078747007
 21
94.9414955756
  0
LINE
  5
5D0
100
AcDbEntity
  8
0
100
AcDbLine
 62
9
  6
CONTINUOUS
 10
74.488354346
 20
87.2665784073
 11
74.4697275248
 21
87.1925119892
  0
LINE
  5
5D1
100
AcDbEntity
  8
0
100
AcDbLine
 62
9
  6
CONTINUOUS
 10
72.6129933544
 20
89.3988541661
 11
72.5882259079
 21
89.3025232278
  0
LINE
  5
5D2
100
AcDbEntity
  8
0
100
AcDbLine
 62
7
  6
CONTINUOUS
 10
76.8662171629
 20
92.8555994963
 11
76.8598590122
 21
92.8313712638
  0
LINE
  5
5D3
100
AcDbEntity
  8
0
100
AcDbLine
 62
7
  6
CONTINUOUS
 10
76.8104872167
 20
85.1176443141
 11
76.7809421068
 21
85.007971885
  0
LINE
  5
5D4
100
AcDbEntity
  8
0
100
AcDbLine
 62
9
  6
CONTINUOUS
 10
72.37500278
 20
87.6655201797
 11
72.3654177698
 21
87.6302801314
  0
LINE
  5
5D5
100
AcDbEntity
  8
0
100
AcDbLine
 62
9
  6
CONTINUOUS
 10
74.4697275248
 20
87.1925119892
 11
74.4483103068
 21
87.1139067513
  0
LINE
  5
5D6
100
AcDbEntity
  8
0
100
AcDbLine
 62
7
  6
CONTINUOUS
 10
76.7796889517
 20
85.0032054943
 11
76.8027793537
 21
85.0874356968
  0
LINE
  5
5D7
100
AcDbEntity
  8
0
100
AcDbLine
 62
9
  6
CONTINUOUS
 10
68.0077893172
 20
94.3996815655
 11
67.9899713351
 21
94.3360053143
  0
LINE
  5
5D8
100
AcDbEntity
  8
0
100
AcDbLine
 62
7
  6
CONTINUOUS
 10
76.8374367149
 20
94.9620424161
 11
76.8316325502
 21
94.9413231228
  0
LINE
  5
5D9
100
AcDbEntity
  8
0
100
AcDbLine
 62
7
  6
CONTINUOUS
 10
76.7078747007
 20
94.9414955756
 11
76.713667084
 21
94.9621593175
  0
LINE
  5
5DA
100
AcDbEntity
  8
0
100
AcDbLine
 62
9
  6
CONTINUOUS
 10
71.5437889526
 20
93.3794879113
 11
71.558468619
 21
93.4314483411
  0
LINE
  5
5DB
100
AcDbEntity
  8
0
100
AcDbLine
 62
7
  6
CONTINUOUS
 10
76.8598590122
 20
92.8313712638
 11
76.8533831682
 21
92.8089101545
  0
LINE
  5
5DC
100
AcDbEntity
  8
0
100
AcDbLine
 62
9
  6
CONTINUOUS
 10
72.3654177698
 20
87.6302801314
 11
72.3544069651
 21
87.5929494782
  0
LINE
  5
5DD
100
AcDbEntity
  8
0
100
AcDbLine
 62
9
  6
CONTINUOUS
 10
74.4483103068
 20
87.1139067513
 11
74.4238122383
 21
87.030847863
  0
LINE
  5
5DE
100
AcDbEntity
  8
0
100
AcDbLine
 62
7
  6
CONTINUOUS
 10
76.7543883817
 20
84.9181589746
 11
76.7796889517
 21
85.0032054943
  0
LINE
  5
5DF
100
AcDbEntity
  8
0
100
AcDbLine
 62
7
  6
CONTINUOUS
 10
76.7809421068
 20
85.007971885
 11
76.747877901
 21
84.8975644958
  0
LINE
  5
5E0
100
AcDbEntity
  8
0
100
AcDbLine
 62
7
  6
CONTINUOUS
 10
76.842115992
 20
94.9768956462
 11
76.8374367149
 21
94.9620424161
  0
LINE
  5
5E1
100
AcDbEntity
  8
0
100
AcDbLine
 62
7
  6
CONTINUOUS
 10
76.713667084
 20
94.9621593175
 11
76.7196099794
 21
94.9810146279
  0
LINE
  5
5E2
100
AcDbEntity
  8
0
100
AcDbLine
 62
9
  6
CONTINUOUS
 10
71.5276090843
 20
93.3282973303
 11
71.5437889526
 21
93.3794879113
  0
LINE
  5
5E3
100
AcDbEntity
  8
0
100
AcDbLine
 62
7
  6
CONTINUOUS
 10
76.8533831682
 20
92.8089101545
 11
76.846807081
 21
92.7882732942
  0
LINE
  5
5E4
100
AcDbEntity
  8
0
100
AcDbLine
 62
9
  6
CONTINUOUS
 10
74.4238122383
 20
87.030847863
 11
74.3958954582
 21
86.9433618893
  0
LINE
  5
5E5
100
AcDbEntity
  8
0
100
AcDbLine
 62
9
  6
CONTINUOUS
 10
68.0277733064
 20
94.4622810508
 11
68.0077893172
 21
94.3996815655
  0
LINE
  5
5E6
100
AcDbEntity
  8
0
100
AcDbLine
 62
9
  6
CONTINUOUS
 10
72.3544069651
 20
87.5929494782
 11
72.3418171306
 21
87.553556937
  0
LINE
  5
5E7
100
AcDbEntity
  8
0
100
AcDbLine
 62
7
  6
CONTINUOUS
 10
76.7268462171
 20
84.8326278425
 11
76.7543883817
 21
84.9181589746
  0
LINE
  5
5E8
100
AcDbEntity
  8
0
100
AcDbLine
 62
7
  6
CONTINUOUS
 10
76.747877901
 20
84.8975644958
 11
76.7111532031
 21
84.7867918242
  0
LINE
  5
5E9
100
AcDbEntity
  8
0
100
AcDbLine
 62
9
  6
CONTINUOUS
 10
74.3958954582
 20
86.9433618893
 11
74.3641317496
 21
86.851314998
  0
LINE
  5
5EA
100
AcDbEntity
  8
0
100
AcDbLine
 62
9
  6
CONTINUOUS
 10
72.3418171306
 20
87.553556937
 11
72.3274846363
 21
87.5121242106
  0
LINE
  5
5EB
100
AcDbEntity
  8
0
100
AcDbLine
 62
7
  6
CONTINUOUS
 10
76.6967423948
 20
84.7456792874
 11
76.7268462171
 21
84.8326278425
  0
LINE
  5
5EC
100
AcDbEntity
  8
0
100
AcDbLine
 62
9
  6
CONTINUOUS
 10
71.5099412896
 20
93.2778204937
 11
71.5276090843
 21
93.3282973303
  0
LINE
  5
5ED
100
AcDbEntity
  8
0
100
AcDbLine
 62
7
  6
CONTINUOUS
 10
76.846807081
 20
92.7882732942
 11
76.840148669
 21
92.7695082774
  0
LINE
  5
5EE
100
AcDbEntity
  8
0
100
AcDbLine
 62
7
  6
CONTINUOUS
 10
76.7196099794
 20
94.9810146279
 11
76.7256999616
 21
94.9980314835
  0
LINE
  5
5EF
100
AcDbEntity
  8
0
100
AcDbLine
 62
9
  6
CONTINUOUS
 10
68.0498214134
 20
94.5236449082
 11
68.0277733064
 21
94.4622810508
  0
LINE
  5
5F0
100
AcDbEntity
  8
0
100
AcDbLine
 62
7
  6
CONTINUOUS
 10
76.7111532031
 20
84.7867918242
 11
76.6700466686
 21
84.6735317358
  0
LINE
  5
5F1
100
AcDbEntity
  8
0
100
AcDbLine
 62
7
  6
CONTINUOUS
 10
76.6643017126
 20
84.6581279033
 11
76.6967423948
 21
84.7456792874
  0
LINE
  5
5F2
100
AcDbEntity
  8
0
100
AcDbLine
 62
9
  6
CONTINUOUS
 10
74.3641317496
 20
86.851314998
 11
74.3280321812
 21
86.7545639264
  0
LINE
  5
5F3
100
AcDbEntity
  8
0
100
AcDbLine
 62
9
  6
CONTINUOUS
 10
72.3274846363
 20
87.5121242106
 11
72.3111865173
 21
87.4685769211
  0
LINE
  5
5F4
100
AcDbEntity
  8
0
100
AcDbLine
 62
9
  6
CONTINUOUS
 10
71.4908055128
 20
93.2280511859
 11
71.5099412896
 21
93.2778204937
  0
LINE
  5
5F5
100
AcDbEntity
  8
0
100
AcDbLine
 62
7
  6
CONTINUOUS
 10
76.6700466686
 20
84.6735317358
 11
76.6252606878
 21
84.5599702972
  0
LINE
  5
5F6
100
AcDbEntity
  8
0
100
AcDbLine
 62
7
  6
CONTINUOUS
 10
76.6295349063
 20
84.5702183271
 11
76.6643017126
 21
84.6581279033
  0
LINE
  5
5F7
100
AcDbEntity
  8
0
100
AcDbLine
 62
7
  6
CONTINUOUS
 10
76.840148669
 20
92.7695082774
 11
76.8334165027
 21
92.7526332275
  0
LINE
  5
5F8
100
AcDbEntity
  8
0
100
AcDbLine
 62
9
  6
CONTINUOUS
 10
68.0738018379
 20
94.5835860869
 11
68.0498214134
 21
94.5236449082
  0
LINE
  5
5F9
100
AcDbEntity
  8
0
100
AcDbLine
 62
9
  6
CONTINUOUS
 10
74.3280321812
 20
86.7545639264
 11
74.2871769951
 21
86.6532731279
  0
LINE
  5
5FA
100
AcDbEntity
  8
0
100
AcDbLine
 62
9
  6
CONTINUOUS
 10
72.3111865173
 20
87.4685769211
 11
72.2926430251
 21
87.4227860827
  0
LINE
  5
5FB
100
AcDbEntity
  8
0
100
AcDbLine
 62
7
  6
CONTINUOUS
 10
76.7256999616
 20
94.9980314835
 11
76.7319354323
 21
95.0131806354
  0
LINE
  5
5FC
100
AcDbEntity
  8
0
100
AcDbLine
 62
9
  6
CONTINUOUS
 10
71.4702006679
 20
93.1789445586
 11
71.4908055128
 21
93.2280511859
  0
LINE
  5
5FD
100
AcDbEntity
  8
0
100
AcDbLine
 62
7
  6
CONTINUOUS
 10
76.5927640984
 20
84.4827276184
 11
76.6295349063
 21
84.5702183271
  0
LINE
  5
5FE
100
AcDbEntity
  8
0
100
AcDbLine
 62
7
  6
CONTINUOUS
 10
76.6252606878
 20
84.5599702972
 11
76.5771690539
 21
84.4474341403
  0
LINE
  5
5FF
100
AcDbEntity
  8
0
100
AcDbLine
 62
9
  6
CONTINUOUS
 10
74.2871769951
 20
86.6532731279
 11
74.2407895746
 21
86.5468957988
  0
LINE
  5
600
100
AcDbEntity
  8
0
100
AcDbLine
 62
9
  6
CONTINUOUS
 10
72.2926430251
 20
87.4227860827
 11
72.2717489513
 21
87.3750890677
  0
LINE
  5
601
100
AcDbEntity
  8
0
100
AcDbLine
 62
9
  6
CONTINUOUS
 10
68.0995898915
 20
94.6419860041
 11
68.0738018379
 21
94.5835860869
  0
LINE
  5
602
100
AcDbEntity
  8
0
100
AcDbLine
 62
7
  6
CONTINUOUS
 10
76.5543243643
 20
84.396566104
 11
76.5927640984
 21
84.4827276184
  0
LINE
  5
603
100
AcDbEntity
  8
0
100
AcDbLine
 62
7
  6
CONTINUOUS
 10
76.8334165027
 20
92.7526332275
 11
76.8266189049
 21
92.7376668643
  0
LINE
  5
604
100
AcDbEntity
  8
0
100
AcDbLine
 62
9
  6
CONTINUOUS
 10
71.4481672372
 20
93.1305648708
 11
71.4702006679
 21
93.1789445586
  0
LINE
  5
605
100
AcDbEntity
  8
0
100
AcDbLine
 62
7
  6
CONTINUOUS
 10
76.5771690539
 20
84.4474341403
 11
76.5260362132
 21
84.3363794349
  0
LINE
  5
606
100
AcDbEntity
  8
0
100
AcDbLine
 62
9
  6
CONTINUOUS
 10
74.2407895746
 20
86.5468957988
 11
74.1893194764
 21
86.4376934648
  0
LINE
  5
607
100
AcDbEntity
  8
0
100
AcDbLine
 62
7
  6
CONTINUOUS
 10
76.5141875823
 20
84.3115786184
 11
76.5543243643
 21
84.396566104
  0
LINE
  5
608
100
AcDbEntity
  8
0
100
AcDbLine
 62
9
  6
CONTINUOUS
 10
72.2717489513
 20
87.3750890677
 11
72.2481791455
 21
87.3253381848
  0
LINE
  5
609
100
AcDbEntity
  8
0
100
AcDbLine
 62
7
  6
CONTINUOUS
 10
76.7319354323
 20
95.0131806354
 11
76.7383015077
 21
95.026404129
  0
LINE
  5
60A
100
AcDbEntity
  8
0
100
AcDbLine
 62
9
  6
CONTINUOUS
 10
68.1270267511
 20
94.6986867936
 11
68.0995898915
 21
94.6419860041
  0
LINE
  5
60B
100
AcDbEntity
  8
0
100
AcDbLine
 62
9
  6
CONTINUOUS
 10
71.4247565143
 20
93.0829873785
 11
71.4481672372
 21
93.1305648708
  0
LINE
  5
60C
100
AcDbEntity
  8
0
100
AcDbLine
 62
7
  6
CONTINUOUS
 10
76.5260362132
 20
84.3363794349
 11
76.472328325
 21
84.2278962225
  0
LINE
  5
60D
100
AcDbEntity
  8
0
100
AcDbLine
 62
7
  6
CONTINUOUS
 10
76.4724637346
 20
84.2279739583
 11
76.5141875823
 21
84.3115786184
  0
LINE
  5
60E
100
AcDbEntity
  8
0
100
AcDbLine
 62
9
  6
CONTINUOUS
 10
74.1893194764
 20
86.4376934648
 11
74.1330913612
 21
86.3271694601
  0
LINE
  5
60F
100
AcDbEntity
  8
0
100
AcDbLine
 62
9
  6
CONTINUOUS
 10
72.2481791455
 20
87.3253381848
 11
72.2223326204
 21
87.274857663
  0
LINE
  5
610
100
AcDbEntity
  8
0
100
AcDbLine
 62
7
  6
CONTINUOUS
 10
76.8266189049
 20
92.7376668643
 11
76.8197748024
 21
92.7246505876
  0
LINE
  5
611
100
AcDbEntity
  8
0
100
AcDbLine
 62
7
  6
CONTINUOUS
 10
76.4290735845
 20
84.1455705643
 11
76.4724637346
 21
84.2279739583
  0
LINE
  5
612
100
AcDbEntity
  8
0
100
AcDbLine
 62
9
  6
CONTINUOUS
 10
68.1560138482
 20
94.7536824294
 11
68.1270267511
 21
94.6986867936
  0
LINE
  5
613
100
AcDbEntity
  8
0
100
AcDbLine
 62
9
  6
CONTINUOUS
 10
71.3999379895
 20
93.0361255596
 11
71.4247565143
 21
93.0829873785
  0
LINE
  5
614
100
AcDbEntity
  8
0
100
AcDbLine
 62
7
  6
CONTINUOUS
 10
76.472328325
 20
84.2278962225
 11
76.4158140445
 21
84.1214095187
  0
LINE
  5
615
100
AcDbEntity
  8
0
100
AcDbLine
 62
9
  6
CONTINUOUS
 10
74.1330913612
 20
86.3271694601
 11
74.0726219053
 21
86.2168596267
  0
LINE
  5
616
100
AcDbEntity
  8
0
100
AcDbLine
 62
9
  6
CONTINUOUS
 10
72.2223326204
 20
87.274857663
 11
72.194704084
 21
87.224818585
  0
LINE
  5
617
100
AcDbEntity
  8
0
100
AcDbLine
 62
7
  6
CONTINUOUS
 10
76.3839881579
 20
84.0642786517
 11
76.4290735845
 21
84.1455705643
  0
LINE
  5
618
100
AcDbEntity
  8
0
100
AcDbLine
 62
7
  6
CONTINUOUS
 10
76.4158140445
 20
84.1214095187
 11
76.3564338352
 21
84.0167291743
  0
LINE
  5
619
100
AcDbEntity
  8
0
100
AcDbLine
 62
9
  6
CONTINUOUS
 10
71.3736982716
 20
92.9899503384
 11
71.3999379895
 21
93.0361255596
  0
LINE
  5
61A
100
AcDbEntity
  8
0
100
AcDbLine
 62
7
  6
CONTINUOUS
 10
76.7383015077
 20
95.026404129
 11
76.7447852321
 21
95.0376582486
  0
LINE
  5
61B
100
AcDbEntity
  8
0
100
AcDbLine
 62
7
  6
CONTINUOUS
 10
76.3371666497
 20
83.9840316937
 11
76.3839881579
 21
84.0642786517
  0
LINE
  5
61C
100
AcDbEntity
  8
0
100
AcDbLine
 62
9
  6
CONTINUOUS
 10
74.0726219053
 20
86.2168596267
 11
74.0088945962
 21
86.108689106
  0
LINE
  5
61D
100
AcDbEntity
  8
0
100
AcDbLine
 62
9
  6
CONTINUOUS
 10
72.194704084
 20
87.224818585
 11
72.165322563
 21
87.1753426128
  0
LINE
  5
61E
100
AcDbEntity
  8
0
100
AcDbLine
 62
7
  6
CONTINUOUS
 10
76.3564338352
 20
84.0167291743
 11
76.2941384314
 21
83.9137907251
  0
LINE
  5
61F
100
AcDbEntity
  8
0
100
AcDbLine
 62
9
  6
CONTINUOUS
 10
71.3459864951
 20
92.9443885277
 11
71.3736982716
 21
92.9899503384
  0
LINE
  5
620
100
AcDbEntity
  8
0
100
AcDbLine
 62
7
  6
CONTINUOUS
 10
76.2885433193
 20
83.9047049749
 11
76.3371666497
 21
83.9840316937
  0
LINE
  5
621
100
AcDbEntity
  8
0
100
AcDbLine
 62
7
  6
CONTINUOUS
 10
76.8197748024
 20
92.7246505876
 11
76.8129027665
 21
92.7136134286
  0
LINE
  5
622
100
AcDbEntity
  8
0
100
AcDbLine
 62
9
  6
CONTINUOUS
 10
74.0088945962
 20
86.108689106
 11
73.9417444576
 21
86.0023739838
  0
LINE
  5
623
100
AcDbEntity
  8
0
100
AcDbLine
 62
9
  6
CONTINUOUS
 10
72.165322563
 20
87.1753426128
 11
72.1344977978
 21
87.126965299
  0
LINE
  5
624
100
AcDbEntity
  8
0
100
AcDbLine
 62
7
  6
CONTINUOUS
 10
76.2381639986
 20
83.8263832762
 11
76.2885433193
 21
83.9047049749
  0
LINE
  5
625
100
AcDbEntity
  8
0
100
AcDbLine
 62
7
  6
CONTINUOUS
 10
76.2941384314
 20
83.9137907251
 11
76.2288087796
 21
83.8123847876
  0
LINE
  5
626
100
AcDbEntity
  8
0
100
AcDbLine
 62
7
  6
CONTINUOUS
 10
76.186032836
 20
83.749081285
 11
76.2381639986
 21
83.8263832762
  0
LINE
  5
627
100
AcDbEntity
  8
0
100
AcDbLine
 62
9
  6
CONTINUOUS
 10
73.9417444576
 20
86.0023739838
 11
73.8713794802
 21
85.8982667884
  0
LINE
  5
628
100
AcDbEntity
  8
0
100
AcDbLine
 62
7
  6
CONTINUOUS
 10
76.2288087796
 20
83.8123847876
 11
76.1605947071
 21
83.7127559702
  0
LINE
  5
629
100
AcDbEntity
  8
0
100
AcDbLine
 62
7
  6
CONTINUOUS
 10
76.1322091406
 20
83.6728845664
 11
76.186032836
 21
83.749081285
  0
LINE
  5
62A
100
AcDbEntity
  8
0
100
AcDbLine
 62
7
  6
CONTINUOUS
 10
76.1605947071
 20
83.7127559702
 11
76.0895740493
 21
83.61503811
  0
LINE
  5
62B
100
AcDbEntity
  8
0
100
AcDbLine
 62
7
  6
CONTINUOUS
 10
76.0767409342
 20
83.5978673368
 11
76.1322091406
 21
83.6728845664
  0
LINE
  5
62C
100
AcDbEntity
  8
0
100
AcDbLine
 62
9
  6
CONTINUOUS
 10
36.2418448425
 20
101.3596141577
 11
36.2727947494
 21
101.3681347132
  0
LINE
  5
62D
100
AcDbEntity
  8
0
100
AcDbLine
 62
7
  6
CONTINUOUS
 10
73.845215323
 20
82.0637754738
 11
73.7271477775
 21
82.0314118572
  0
LINE
  5
62E
100
AcDbEntity
  8
0
100
AcDbLine
 62
9
  6
CONTINUOUS
 10
35.8567498718
 20
103.502632347
 11
35.9215820429
 21
103.5202488226
  0
LINE
  5
62F
100
AcDbEntity
  8
0
100
AcDbLine
 62
9
  6
CONTINUOUS
 10
71.6723082436
 20
84.325258192
 11
71.5521919112
 21
84.292812781
  0
LINE
  5
630
100
AcDbEntity
  8
0
100
AcDbLine
 62
9
  6
CONTINUOUS
 10
70.1829136152
 20
92.1125772996
 11
70.2460001724
 21
92.1294571921
  0
LINE
  5
631
100
AcDbEntity
  8
0
100
AcDbLine
 62
7
  6
CONTINUOUS
 10
73.7129940888
 20
82.0277401554
 11
73.804074523
 21
82.0520954566
  0
LINE
  5
632
100
AcDbEntity
  8
0
100
AcDbLine
 62
7
  6
CONTINUOUS
 10
28.8167384459
 20
105.7270202539
 11
28.7144299141
 21
105.6998292378
  0
LINE
  5
633
100
AcDbEntity
  8
0
100
AcDbLine
 62
9
  6
CONTINUOUS
 10
71.0919058244
 20
86.366868299
 11
71.0371553788
 21
86.3524912362
  0
LINE
  5
634
100
AcDbEntity
  8
0
100
AcDbLine
 62
7
  6
CONTINUOUS
 10
28.7284875251
 20
105.7037272168
 11
28.8464683617
 21
105.7344136651
  0
LINE
  5
635
100
AcDbEntity
  8
0
100
AcDbLine
 62
9
  6
CONTINUOUS
 10
36.2727947494
 20
101.3681347132
 11
36.3019468936
 21
101.375524602
  0
LINE
  5
636
100
AcDbEntity
  8
0
100
AcDbLine
 62
9
  6
CONTINUOUS
 10
35.9215820429
 20
103.5202488226
 11
35.983135518
 21
103.5357554776
  0
LINE
  5
637
100
AcDbEntity
  8
0
100
AcDbLine
 62
9
  6
CONTINUOUS
 10
69.3331762883
 20
95.6465711932
 11
69.2721822079
 21
95.6312816127
  0
LINE
  5
638
100
AcDbEntity
  8
0
100
AcDbLine
 62
7
  6
CONTINUOUS
 10
73.7271477775
 20
82.0314118572
 11
73.6092118747
 21
82.0025333678
  0
LINE
  5
639
100
AcDbEntity
  8
0
100
AcDbLine
 62
7
  6
CONTINUOUS
 10
73.6221788888
 20
82.0055378626
 11
73.7129940888
 21
82.0277401554
  0
LINE
  5
63A
100
AcDbEntity
  8
0
100
AcDbLine
 62
7
  6
CONTINUOUS
 10
28.9191386786
 20
105.7514972255
 11
28.8167384459
 21
105.7270202539
  0
LINE
  5
63B
100
AcDbEntity
  8
0
100
AcDbLine
 62
9
  6
CONTINUOUS
 10
71.5521919112
 20
84.292812781
 11
71.4311332063
 21
84.2641102879
  0
LINE
  5
63C
100
AcDbEntity
  8
0
100
AcDbLine
 62
9
  6
CONTINUOUS
 10
35.983135518
 20
103.5357554776
 11
36.0415659546
 21
103.5493859238
  0
LINE
  5
63D
100
AcDbEntity
  8
0
100
AcDbLine
 62
9
  6
CONTINUOUS
 10
36.3019468936
 20
101.375524602
 11
36.3294946945
 21
101.3819454529
  0
LINE
  5
63E
100
AcDbEntity
  8
0
100
AcDbLine
 62
9
  6
CONTINUOUS
 10
71.0371553788
 20
86.3524912362
 11
70.9822655089
 21
86.3398742455
  0
LINE
  5
63F
100
AcDbEntity
  8
0
100
AcDbLine
 62
9
  6
CONTINUOUS
 10
70.118645576
 20
92.097820606
 11
70.1829136152
 21
92.1125772996
  0
LINE
  5
640
100
AcDbEntity
  8
0
100
AcDbLine
 62
7
  6
CONTINUOUS
 10
28.8464683617
 20
105.7344136651
 11
28.9647464772
 21
105.7615286847
  0
LINE
  5
641
100
AcDbEntity
  8
0
100
AcDbLine
 62
7
  6
CONTINUOUS
 10
73.5319461109
 20
81.985519795
 11
73.6221788888
 21
82.0055378626
  0
LINE
  5
642
100
AcDbEntity
  8
0
100
AcDbLine
 62
9
  6
CONTINUOUS
 10
36.0415659546
 20
103.5493859238
 11
36.0970307932
 21
103.5613468374
  0
LINE
  5
643
100
AcDbEntity
  8
0
100
AcDbLine
 62
7
  6
CONTINUOUS
 10
73.6092118747
 20
82.0025333678
 11
73.4933504296
 21
81.9775922809
  0
LINE
  5
644
100
AcDbEntity
  8
0
100
AcDbLine
 62
9
  6
CONTINUOUS
 10
36.3294946945
 20
101.3819454529
 11
36.3554826027
 21
101.3875036085
  0
LINE
  5
645
100
AcDbEntity
  8
0
100
AcDbLine
 62
9
  6
CONTINUOUS
 10
69.3957441229
 20
95.6599394827
 11
69.3331762883
 21
95.6465711932
  0
LINE
  5
646
100
AcDbEntity
  8
0
100
AcDbLine
 62
7
  6
CONTINUOUS
 10
29.0216585272
 20
105.7733203727
 11
28.9191386786
 21
105.7514972255
  0
LINE
  5
647
100
AcDbEntity
  8
0
100
AcDbLine
 62
9
  6
CONTINUOUS
 10
71.4311332063
 20
84.2641102879
 11
71.3103752503
 21
84.2393956461
  0
LINE
  5
648
100
AcDbEntity
  8
0
100
AcDbLine
 62
7
  6
CONTINUOUS
 10
28.9647464772
 20
105.7615286847
 11
29.0833729512
 21
105.7851743108
  0
LINE
  5
649
100
AcDbEntity
  8
0
100
AcDbLine
 62
7
  6
CONTINUOUS
 10
73.4430425001
 20
81.9678280607
 11
73.5319461109
 21
81.985519795
  0
LINE
  5
64A
100
AcDbEntity
  8
0
100
AcDbLine
 62
9
  6
CONTINUOUS
 10
36.0970307932
 20
103.5613468374
 11
36.1497655366
 21
103.5718431876
  0
LINE
  5
64B
100
AcDbEntity
  8
0
100
AcDbLine
 62
9
  6
CONTINUOUS
 10
70.9822655089
 20
86.3398742455
 11
70.9273062526
 21
86.3290071728
  0
LINE
  5
64C
100
AcDbEntity
  8
0
100
AcDbLine
 62
9
  6
CONTINUOUS
 10
36.3554826027
 20
101.3875036085
 11
36.3799885396
 21
101.3923020513
  0
LINE
  5
64D
100
AcDbEntity
  8
0
100
AcDbLine
 62
9
  6
CONTINUOUS
 10
70.0531876283
 20
92.085248971
 11
70.118645576
 21
92.097820606
  0
LINE
  5
64E
100
AcDbEntity
  8
0
100
AcDbLine
 62
7
  6
CONTINUOUS
 10
29.1250655392
 20
105.7926009853
 11
29.0216585272
 21
105.7733203727
  0
LINE
  5
64F
100
AcDbEntity
  8
0
100
AcDbLine
 62
7
  6
CONTINUOUS
 10
73.4933504296
 20
81.9775922809
 11
73.3785344082
 21
81.9562763735
  0
LINE
  5
650
100
AcDbEntity
  8
0
100
AcDbLine
 62
9
  6
CONTINUOUS
 10
36.1497655366
 20
103.5718431876
 11
36.2000010613
 21
103.5810514685
  0
LINE
  5
651
100
AcDbEntity
  8
0
100
AcDbLine
 62
9
  6
CONTINUOUS
 10
36.3799885396
 20
101.3923020513
 11
36.4031087276
 21
101.3964367749
  0
LINE
  5
652
100
AcDbEntity
  8
0
100
AcDbLine
 62
9
  6
CONTINUOUS
 10
69.4595370462
 20
95.6712104863
 11
69.3957441229
 21
95.6599394827
  0
LINE
  5
653
100
AcDbEntity
  8
0
100
AcDbLine
 62
7
  6
CONTINUOUS
 10
73.3547578968
 20
81.9522846495
 11
73.4430425001
 21
81.9678280607
  0
LINE
  5
654
100
AcDbEntity
  8
0
100
AcDbLine
 62
9
  6
CONTINUOUS
 10
71.3103752503
 20
84.2393956461
 11
71.1904890489
 21
84.2186847002
  0
LINE
  5
655
100
AcDbEntity
  8
0
100
AcDbLine
 62
7
  6
CONTINUOUS
 10
29.0833729512
 20
105.7851743108
 11
29.2037335696
 21
105.805498804
  0
LINE
  5
656
100
AcDbEntity
  8
0
100
AcDbLine
 62
9
  6
CONTINUOUS
 10
36.2000010613
 20
103.5810514685
 11
36.247957007
 21
103.5891233514
  0
LINE
  5
657
100
AcDbEntity
  8
0
100
AcDbLine
 62
9
  6
CONTINUOUS
 10
70.9273062526
 20
86.3290071728
 11
70.8730632703
 21
86.3200005094
  0
LINE
  5
658
100
AcDbEntity
  8
0
100
AcDbLine
 62
9
  6
CONTINUOUS
 10
36.4031087276
 20
101.3964367749
 11
36.4249282191
 21
101.3999903691
  0
LINE
  5
659
100
AcDbEntity
  8
0
100
AcDbLine
 62
7
  6
CONTINUOUS
 10
29.2299314697
 20
105.8094744328
 11
29.1250655392
 21
105.7926009853
  0
LINE
  5
65A
100
AcDbEntity
  8
0
100
AcDbLine
 62
7
  6
CONTINUOUS
 10
73.3785344082
 20
81.9562763735
 11
73.2656730398
 21
81.938548938
  0
LINE
  5
65B
100
AcDbEntity
  8
0
100
AcDbLine
 62
9
  6
CONTINUOUS
 10
69.9871267991
 20
92.0750420086
 11
70.0531876283
 21
92.085248971
  0
LINE
  5
65C
100
AcDbEntity
  8
0
100
AcDbLine
 62
7
  6
CONTINUOUS
 10
73.267187143
 20
81.938809558
 11
73.3547578968
 21
81.9522846495
  0
LINE
  5
65D
100
AcDbEntity
  8
0
100
AcDbLine
 62
9
  6
CONTINUOUS
 10
36.247957007
 20
103.5891233514
 11
36.2939023724
 21
103.5961959625
  0
LINE
  5
65E
100
AcDbEntity
  8
0
100
AcDbLine
 62
7
  6
CONTINUOUS
 10
76.7716740071
 20
95.0624353804
 11
76.7785680647
 21
95.0634742824
  0
LINE
  5
65F
100
AcDbEntity
  8
0
100
AcDbLine
 62
9
  6
CONTINUOUS
 10
36.4249282191
 20
101.3999903691
 11
36.4455541533
 21
101.4030383114
  0
LINE
  5
660
100
AcDbEntity
  8
0
100
AcDbLine
 62
7
  6
CONTINUOUS
 10
76.7853841972
 20
92.6894777708
 11
76.7785680647
 21
92.6884742824
  0
LINE
  5
661
100
AcDbEntity
  8
0
100
AcDbLine
 62
9
  6
CONTINUOUS
 10
71.1904890489
 20
84.2186847002
 11
71.0732387494
 21
84.2020700973
  0
LINE
  5
662
100
AcDbEntity
  8
0
100
AcDbLine
 62
9
  6
CONTINUOUS
 10
36.2939023724
 20
103.5961959625
 11
36.3379543958
 21
103.6023772811
  0
LINE
  5
663
100
AcDbEntity
  8
0
100
AcDbLine
 62
9
  6
CONTINUOUS
 10
69.5243344913
 20
95.6802665887
 11
69.4595370462
 21
95.6712104863
  0
LINE
  5
664
100
AcDbEntity
  8
0
100
AcDbLine
 62
7
  6
CONTINUOUS
 10
29.2037335696
 20
105.805498804
 11
29.3277858692
 21
105.8227762331
  0
LINE
  5
665
100
AcDbEntity
  8
0
100
AcDbLine
 62
9
  6
CONTINUOUS
 10
70.8730632703
 20
86.3200005094
 11
70.8201105844
 21
86.3128385141
  0
LINE
  5
666
100
AcDbEntity
  8
0
100
AcDbLine
 62
7
  6
CONTINUOUS
 10
29.3368716107
 20
105.823928695
 11
29.2299314697
 21
105.8094744328
  0
LINE
  5
667
100
AcDbEntity
  8
0
100
AcDbLine
 62
9
  6
CONTINUOUS
 10
36.4455541533
 20
101.4030383114
 11
36.4651000713
 21
101.4056466797
  0
LINE
  5
668
100
AcDbEntity
  8
0
100
AcDbLine
 62
7
  6
CONTINUOUS
 10
73.1786619792
 20
81.9272508745
 11
73.267187143
 21
81.938809558
  0
LINE
  5
669
100
AcDbEntity
  8
0
100
AcDbLine
 62
9
  6
CONTINUOUS
 10
36.3379543958
 20
103.6023772811
 11
36.3803160894
 21
103.6077766516
  0
LINE
  5
66A
100
AcDbEntity
  8
0
100
AcDbLine
 62
7
  6
CONTINUOUS
 10
73.2656730398
 20
81.938548938
 11
73.1508943497
 21
81.9240357022
  0
LINE
  5
66B
100
AcDbEntity
  8
0
100
AcDbLine
 62
9
  6
CONTINUOUS
 10
36.4651000713
 20
101.4056466797
 11
36.4836876249
 21
101.4078739957
  0
LINE
  5
66C
100
AcDbEntity
  8
0
100
AcDbLine
 62
9
  6
CONTINUOUS
 10
69.9211138507
 20
92.0673007328
 11
69.9871267991
 21
92.0750420086
  0
LINE
  5
66D
100
AcDbEntity
  8
0
100
AcDbLine
 62
9
  6
CONTINUOUS
 10
36.3803160894
 20
103.6077766516
 11
36.4210789359
 21
103.612452743
  0
LINE
  5
66E
100
AcDbEntity
  8
0
100
AcDbLine
 62
9
  6
CONTINUOUS
 10
71.0732387494
 20
84.2020700973
 11
70.9604565048
 21
84.1893728765
  0
LINE
  5
66F
100
AcDbEntity
  8
0
100
AcDbLine
 62
7
  6
CONTINUOUS
 10
29.3277858692
 20
105.8227762331
 11
29.4538656767
 21
105.8367312085
  0
LINE
  5
670
100
AcDbEntity
  8
0
100
AcDbLine
 62
7
  6
CONTINUOUS
 10
73.0881529829
 20
81.9174348812
 11
73.1786619792
 21
81.9272508745
  0
LINE
  5
671
100
AcDbEntity
  8
0
100
AcDbLine
 62
9
  6
CONTINUOUS
 10
36.4836876249
 20
101.4078739957
 11
36.501447595
 21
101.4097721018
  0
LINE
  5
672
100
AcDbEntity
  8
0
100
AcDbLine
 62
9
  6
CONTINUOUS
 10
70.8201105844
 20
86.3128385141
 11
70.7692202023
 21
86.3074097716
  0
LINE
  5
673
100
AcDbEntity
  8
0
100
AcDbLine
 62
9
  6
CONTINUOUS
 10
69.5898162615
 20
95.6870077987
 11
69.5243344913
 21
95.6802665887
  0
LINE
  5
674
100
AcDbEntity
  8
0
100
AcDbLine
 62
9
  6
CONTINUOUS
 10
36.4210789359
 20
103.612452743
 11
36.4604020248
 21
103.6164573541
  0
LINE
  5
675
100
AcDbEntity
  8
0
100
AcDbLine
 62
7
  6
CONTINUOUS
 10
73.1508943497
 20
81.9240357022
 11
73.0307770849
 21
81.9122923631
  0
LINE
  5
676
100
AcDbEntity
  8
0
100
AcDbLine
 62
9
  6
CONTINUOUS
 10
36.501447595
 20
101.4097721018
 11
36.5183839809
 21
101.4113725024
  0
LINE
  5
677
100
AcDbEntity
  8
0
100
AcDbLine
 62
9
  6
CONTINUOUS
 10
36.4604020248
 20
103.6164573541
 11
36.4981366662
 21
103.6198712663
  0
LINE
  5
678
100
AcDbEntity
  8
0
100
AcDbLine
 62
7
  6
CONTINUOUS
 10
72.9938384848
 20
81.9093469927
 11
73.0881529829
 21
81.9174348812
  0
LINE
  5
679
100
AcDbEntity
  8
0
100
AcDbLine
 62
7
  6
CONTINUOUS
 10
29.5593921562
 20
105.8456789718
 11
29.4476737855
 21
105.8360971957
  0
LINE
  5
67A
100
AcDbEntity
  8
0
100
AcDbLine
 62
9
  6
CONTINUOUS
 10
70.9604565048
 20
84.1893728765
 11
70.8535596693
 21
84.180273653
  0
LINE
  5
67B
100
AcDbEntity
  8
0
100
AcDbLine
 62
9
  6
CONTINUOUS
 10
36.5183839809
 20
101.4113725024
 11
36.5345438661
 21
101.4127067599
  0
LINE
  5
67C
100
AcDbEntity
  8
0
100
AcDbLine
 62
7
  6
CONTINUOUS
 10
29.4538656767
 20
105.8367312085
 11
29.5818242614
 21
105.8471225599
  0
LINE
  5
67D
100
AcDbEntity
  8
0
100
AcDbLine
 62
9
  6
CONTINUOUS
 10
36.4981366662
 20
103.6198712663
 11
36.5342951149
 21
103.6227923705
  0
LINE
  5
67E
100
AcDbEntity
  8
0
100
AcDbLine
 62
9
  6
CONTINUOUS
 10
69.8550275079
 20
92.061984263
 11
69.9211138507
 21
92.0673007328
  0
LINE
  5
67F
100
AcDbEntity
  8
0
100
AcDbLine
 62
9
  6
CONTINUOUS
 10
70.7692202023
 20
86.3074097716
 11
70.7210881856
 21
86.303573354
  0
LINE
  5
680
100
AcDbEntity
  8
0
100
AcDbLine
 62
9
  6
CONTINUOUS
 10
36.5345438661
 20
101.4127067599
 11
36.5499952494
 21
101.4138060681
  0
LINE
  5
681
100
AcDbEntity
  8
0
100
AcDbLine
 62
7
  6
CONTINUOUS
 10
73.0307770849
 20
81.9122923631
 11
72.9048783107
 21
81.9034923052
  0
LINE
  5
682
100
AcDbEntity
  8
0
100
AcDbLine
 62
9
  6
CONTINUOUS
 10
36.5342951149
 20
103.6227923705
 11
36.5689538248
 21
103.625209672
  0
LINE
  5
683
100
AcDbEntity
  8
0
100
AcDbLine
 62
9
  6
CONTINUOUS
 10
69.6556013189
 20
95.6913682595
 11
69.5898162615
 21
95.6870077987
  0
LINE
  5
684
100
AcDbEntity
  8
0
100
AcDbLine
 62
7
  6
CONTINUOUS
 10
72.8920002927
 20
81.9028598864
 11
72.9938384848
 21
81.9093469927
  0
LINE
  5
685
100
AcDbEntity
  8
0
100
AcDbLine
 62
9
  6
CONTINUOUS
 10
36.5499952494
 20
101.4138060681
 11
36.5648642841
 21
101.4147011513
  0
LINE
  5
686
100
AcDbEntity
  8
0
100
AcDbLine
 62
7
  6
CONTINUOUS
 10
29.6698210044
 20
105.8522383311
 11
29.5593921562
 21
105.8456789718
  0
LINE
  5
687
100
AcDbEntity
  8
0
100
AcDbLine
 62
9
  6
CONTINUOUS
 10
36.5689538248
 20
103.625209672
 11
36.602186624
 21
103.6271804032
  0
LINE
  5
688
100
AcDbEntity
  8
0
100
AcDbLine
 62
9
  6
CONTINUOUS
 10
70.8535596693
 20
84.180273653
 11
70.7546889261
 21
84.174509747
  0
LINE
  5
689
100
AcDbEntity
  8
0
100
AcDbLine
 62
7
  6
CONTINUOUS
 10
29.5818242614
 20
105.8471225599
 11
29.709072832
 21
105.8541216985
  0
LINE
  5
68A
100
AcDbEntity
  8
0
100
AcDbLine
 62
9
  6
CONTINUOUS
 10
70.7210881856
 20
86.303573354
 11
70.675105175
 21
86.3012106814
  0
LINE
  5
68B
100
AcDbEntity
  8
0
100
AcDbLine
 62
9
  6
CONTINUOUS
 10
36.5648642841
 20
101.4147011513
 11
36.5792525611
 21
101.4154131404
  0
LINE
  5
68C
100
AcDbEntity
  8
0
100
AcDbLine
 62
9
  6
CONTINUOUS
 10
36.602186624
 20
103.6271804032
 11
36.6332179109
 21
103.6286155342
  0
LINE
  5
68D
100
AcDbEntity
  8
0
100
AcDbLine
 62
7
  6
CONTINUOUS
 10
72.7872985519
 20
81.8981380557
 11
72.8920002927
 21
81.9028598864
  0
LINE
  5
68E
100
AcDbEntity
  8
0
100
AcDbLine
 62
9
  6
CONTINUOUS
 10
69.788957055
 20
92.0590883366
 11
69.8550275079
 21
92.061984263
  0
LINE
  5
68F
100
AcDbEntity
  8
0
100
AcDbLine
 62
7
  6
CONTINUOUS
 10
72.9048783107
 20
81.9034923052
 11
72.7703626673
 21
81.8978958231
  0
LINE
  5
690
100
AcDbEntity
  8
0
100
AcDbLine
 62
9
  6
CONTINUOUS
 10
36.5792525611
 20
101.4154131404
 11
36.5931156171
 21
101.4159595727
  0
LINE
  5
691
100
AcDbEntity
  8
0
100
AcDbLine
 62
7
  6
CONTINUOUS
 10
29.7785277948
 20
105.8563128842
 11
29.6698210044
 21
105.8522383311
  0
LINE
  5
692
100
AcDbEntity
  8
0
100
AcDbLine
 62
9
  6
CONTINUOUS
 10
70.7546889261
 20
84.174509747
 11
70.6636446648
 21
84.1716216069
  0
LINE
  5
693
100
AcDbEntity
  8
0
100
AcDbLine
 62
9
  6
CONTINUOUS
 10
36.5931156171
 20
101.4159595727
 11
36.6055097693
 21
101.4163330711
  0
LINE
  5
694
100
AcDbEntity
  8
0
100
AcDbLine
 62
9
  6
CONTINUOUS
 10
36.6332179109
 20
103.6286155342
 11
36.6597518829
 21
103.6294107589
  0
LINE
  5
695
100
AcDbEntity
  8
0
100
AcDbLine
 62
9
  6
CONTINUOUS
 10
69.7216102895
 20
95.6933334987
 11
69.6556013189
 21
95.6913682595
  0
LINE
  5
696
100
AcDbEntity
  8
0
100
AcDbLine
 62
7
  6
CONTINUOUS
 10
29.709072832
 20
105.8541216985
 11
29.8307873986
 21
105.8573181865
  0
LINE
  5
697
100
AcDbEntity
  8
0
100
AcDbLine
 62
7
  6
CONTINUOUS
 10
72.6847885872
 20
81.8955551019
 11
72.7872985519
 21
81.8981380557
  0
LINE
  5
698
100
AcDbEntity
  8
0
100
AcDbLine
 62
9
  6
CONTINUOUS
 10
70.675105175
 20
86.3012106814
 11
70.630842653
 21
86.3001059438
  0
LINE
  5
699
100
AcDbEntity
  8
0
100
AcDbLine
 62
7
  6
CONTINUOUS
 10
72.7703626673
 20
81.8978958231
 11
72.6309861769
 21
81.8947978838
  0
LINE
  5
69A
100
AcDbEntity
  8
0
100
AcDbLine
 62
9
  6
CONTINUOUS
 10
36.6055097693
 20
101.4163330711
 11
36.6162771091
 21
101.4165454218
  0
LINE
  5
69B
100
AcDbEntity
  8
0
100
AcDbLine
 62
9
  6
CONTINUOUS
 10
36.6597518829
 20
103.6294107589
 11
36.6825577617
 21
103.6298291947
  0
LINE
  5
69C
100
AcDbEntity
  8
0
100
AcDbLine
 62
7
  6
CONTINUOUS
 10
29.8825089581
 20
105.8579729036
 11
29.7785277948
 21
105.8563128842
  0
LINE
  5
69D
100
AcDbEntity
  8
0
100
AcDbLine
 62
9
  6
CONTINUOUS
 10
70.6636446648
 20
84.1716216069
 11
70.5870133117
 21
84.1706524885
  0
LINE
  5
69E
100
AcDbEntity
  8
0
100
AcDbLine
 62
7
  6
CONTINUOUS
 10
72.5795666687
 20
81.8943563784
 11
72.6847885872
 21
81.8955551019
  0
LINE
  5
69F
100
AcDbEntity
  8
0
100
AcDbLine
 62
9
  6
CONTINUOUS
 10
36.6162771091
 20
101.4165454218
 11
36.6286205379
 21
101.416669348
  0
LINE
  5
6A0
100
AcDbEntity
  8
0
100
AcDbLine
 62
9
  6
CONTINUOUS
 10
69.7769533151
 20
86.2950161038
 11
69.5646499776
 21
86.2929931756
  0
LINE
  5
6A1
100
AcDbEntity
  8
0
100
AcDbLine
 62
9
  6
CONTINUOUS
 10
70.630842653
 20
86.3001059438
 11
70.583087949
 21
86.2996532886
  0
LINE
  5
6A2
100
AcDbEntity
  8
0
100
AcDbLine
 62
9
  6
CONTINUOUS
 10
36.6825577617
 20
103.6298291947
 11
36.7039959147
 21
103.6300207969
  0
LINE
  5
6A3
100
AcDbEntity
  8
0
100
AcDbLine
 62
9
  6
CONTINUOUS
 10
69.7229186465
 20
92.0586004341
 11
69.788957055
 21
92.0590883366
  0
LINE
  5
6A4
100
AcDbEntity
  8
0
100
AcDbLine
 62
7
  6
CONTINUOUS
 10
29.8307873986
 20
105.8573181865
 11
29.9535248267
 21
105.8582163996
  0
LINE
  5
6A5
100
AcDbEntity
  8
0
100
AcDbLine
 62
9
  6
CONTINUOUS
 10
69.5646499776
 20
86.2929931756
 11
69.4502001502
 21
86.2921686111
  0
LINE
  5
6A6
100
AcDbEntity
  8
0
100
AcDbLine
 62
7
  6
CONTINUOUS
 10
72.6309861769
 20
81.8947978838
 11
72.4911431884
 21
81.8939174768
  0
LINE
  5
6A7
100
AcDbEntity
  8
0
100
AcDbLine
 62
9
  6
CONTINUOUS
 10
70.4714513146
 20
86.2992544456
 11
69.7769533151
 21
86.2950161038
  0
LINE
  5
6A8
100
AcDbEntity
  8
0
100
AcDbLine
 62
7
  6
CONTINUOUS
 10
30.2875856521
 20
81.8950035088
 11
30.0087976483
 21
81.8938001202
  0
LINE
  5
6A9
100
AcDbEntity
  8
0
100
AcDbLine
 62
9
  6
CONTINUOUS
 10
70.583087949
 20
86.2996532886
 11
70.4714513146
 21
86.2992544456
  0
LINE
  5
6AA
100
AcDbEntity
  8
0
100
AcDbLine
 62
7
  6
CONTINUOUS
 10
72.4683928613
 20
81.8939987008
 11
72.5795666687
 21
81.8943563784
  0
LINE
  5
6AB
100
AcDbEntity
  8
0
100
AcDbLine
 62
9
  6
CONTINUOUS
 10
70.5870133117
 20
84.1706524885
 11
70.5244903283
 21
84.1704530971
  0
LINE
  5
6AC
100
AcDbEntity
  8
0
100
AcDbLine
 62
9
  6
CONTINUOUS
 10
36.6286205379
 20
101.416669348
 11
36.6813833499
 21
101.4168385533
  0
LINE
  5
6AD
100
AcDbEntity
  8
0
100
AcDbLine
 62
7
  6
CONTINUOUS
 10
72.3717941026
 20
105.8577903629
 11
72.1255784309
 21
105.8570057982
  0
LINE
  5
6AE
100
AcDbEntity
  8
0
100
AcDbLine
 62
7
  6
CONTINUOUS
 10
29.9906308827
 20
81.8937690155
 11
30.0847527679
 21
81.8940447613
  0
LINE
  5
6AF
100
AcDbEntity
  8
0
100
AcDbLine
 62
9
  6
CONTINUOUS
 10
36.920156161
 20
84.1223517289
 11
36.7649258125
 21
84.1218814573
  0
LINE
  5
6B0
100
AcDbEntity
  8
0
100
AcDbLine
 62
9
  6
CONTINUOUS
 10
37.4023192572
 20
101.4175081467
 11
38.3254276896
 21
101.4195141312
  0
LINE
  5
6B1
100
AcDbEntity
  8
0
100
AcDbLine
 62
7
  6
CONTINUOUS
 10
29.9872718783
 20
105.8581847116
 11
29.8825089581
 21
105.8579729036
  0
LINE
  5
6B2
100
AcDbEntity
  8
0
100
AcDbLine
 62
9
  6
CONTINUOUS
 10
69.0775403456
 20
101.4594670458
 11
69.3304310529
 21
101.4598972532
  0
LINE
  5
6B3
100
AcDbEntity
  8
0
100
AcDbLine
 62
9
  6
CONTINUOUS
 10
36.7039959147
 20
103.6300207969
 11
36.7467389615
 21
103.6301007756
  0
LINE
  5
6B4
100
AcDbEntity
  8
0
100
AcDbLine
 62
7
  6
CONTINUOUS
 10
30.281135239
 20
81.8950318215
 11
30.5122639804
 21
81.8953961386
  0
LINE
  5
6B5
100
AcDbEntity
  8
0
100
AcDbLine
 62
9
  6
CONTINUOUS
 10
38.8474236738
 20
84.1254422152
 11
36.920156161
 21
84.1223517289
  0
LINE
  5
6B6
100
AcDbEntity
  8
0
100
AcDbLine
 62
9
  6
CONTINUOUS
 10
69.363995065
 20
84.1698431992
 11
38.8474236738
 21
84.1254422152
  0
LINE
  5
6B7
100
AcDbEntity
  8
0
100
AcDbLine
 62
9
  6
CONTINUOUS
 10
50.6538615118
 20
101.4352849591
 11
64.2402356777
 21
101.453775537
  0
LINE
  5
6B8
100
AcDbEntity
  8
0
100
AcDbLine
 62
9
  6
CONTINUOUS
 10
44.3655801657
 20
101.4270103934
 11
50.6538615118
 21
101.4352849591
  0
LINE
  5
6B9
100
AcDbEntity
  8
0
100
AcDbLine
 62
9
  6
CONTINUOUS
 10
37.0830505111
 20
101.4171115412
 11
37.4023192572
 21
101.4175081467
  0
LINE
  5
6BA
100
AcDbEntity
  8
0
100
AcDbLine
 62
9
  6
CONTINUOUS
 10
38.3254276896
 20
101.4195141312
 11
44.3655801657
 21
101.4270103934
  0
LINE
  5
6BB
100
AcDbEntity
  8
0
100
AcDbLine
 62
9
  6
CONTINUOUS
 10
64.2402356777
 20
101.453775537
 11
67.4373192907
 21
101.4577798389
  0
LINE
  5
6BC
100
AcDbEntity
  8
0
100
AcDbLine
 62
9
  6
CONTINUOUS
 10
67.4373192907
 20
101.4577798389
 11
68.1772432844
 21
101.4586081918
  0
LINE
  5
6BD
100
AcDbEntity
  8
0
100
AcDbLine
 62
9
  6
CONTINUOUS
 10
68.1772432844
 20
101.4586081918
 11
68.3434222789
 21
101.4587836925
  0
LINE
  5
6BE
100
AcDbEntity
  8
0
100
AcDbLine
 62
9
  6
CONTINUOUS
 10
69.4502001502
 20
86.2921686111
 11
69.3315216997
 21
86.2920520236
  0
LINE
  5
6BF
100
AcDbEntity
  8
0
100
AcDbLine
 62
9
  6
CONTINUOUS
 10
36.9401496559
 20
101.4169877775
 11
37.0830505111
 21
101.4171115412
  0
LINE
  5
6C0
100
AcDbEntity
  8
0
100
AcDbLine
 62
9
  6
CONTINUOUS
 10
68.3434222789
 20
101.4587836925
 11
69.0775403456
 21
101.4594670458
  0
LINE
  5
6C1
100
AcDbEntity
  8
0
100
AcDbLine
 62
7
  6
CONTINUOUS
 10
71.8138565027
 20
105.8567553005
 11
72.1801048295
 21
105.8571122072
  0
LINE
  5
6C2
100
AcDbEntity
  8
0
100
AcDbLine
 62
9
  6
CONTINUOUS
 10
36.721510031
 20
101.4168332843
 11
36.9401496559
 21
101.4169877775
  0
LINE
  5
6C3
100
AcDbEntity
  8
0
100
AcDbLine
 62
9
  6
CONTINUOUS
 10
70.4685650945
 20
84.1705467156
 11
69.363995065
 21
84.1698431992
  0
LINE
  5
6C4
100
AcDbEntity
  8
0
100
AcDbLine
 62
7
  6
CONTINUOUS
 10
31.3941743676
 20
105.8569802654
 11
30.4631020731
 21
105.8565449104
  0
LINE
  5
6C5
100
AcDbEntity
  8
0
100
AcDbLine
 62
7
  6
CONTINUOUS
 10
71.9595247792
 20
81.895207942
 11
71.1125612224
 21
81.8949726021
  0
LINE
  5
6C6
100
AcDbEntity
  8
0
100
AcDbLine
 62
7
  6
CONTINUOUS
 10
72.3504236344
 20
105.8578258547
 11
72.5125407414
 21
105.8578681067
  0
LINE
  5
6C7
100
AcDbEntity
  8
0
100
AcDbLine
 62
7
  6
CONTINUOUS
 10
71.2427385226
 20
105.8569901182
 11
70.8976002343
 21
105.8569418359
  0
LINE
  5
6C8
100
AcDbEntity
  8
0
100
AcDbLine
 62
7
  6
CONTINUOUS
 10
21.1294411232
 20
77.8759742821
 11
80.3822950996
 21
77.8759742821
  0
LINE
  5
6C9
100
AcDbEntity
  8
0
100
AcDbLine
 62
7
  6
CONTINUOUS
 10
30.4277770744
 20
81.8952983135
 11
30.6334955232
 21
81.8953092604
  0
LINE
  5
6CA
100
AcDbEntity
  8
0
100
AcDbLine
 62
7
  6
CONTINUOUS
 10
71.3480214528
 20
81.8949523618
 11
30.9145138885
 21
81.8949784522
  0
LINE
  5
6CB
100
AcDbEntity
  8
0
100
AcDbLine
 62
9
  6
CONTINUOUS
 10
36.7649258125
 20
84.1218814573
 11
36.721866965
 21
84.1218765687
  0
LINE
  5
6CC
100
AcDbEntity
  8
0
100
AcDbLine
 62
9
  6
CONTINUOUS
 10
77.969606765
 20
93.8759864266
 11
77.7303540802
 21
93.8759810561
  0
LINE
  5
6CD
100
AcDbEntity
  8
DEFAULT_1
100
AcDbLine
 62
7
  6
CENTER
 10
77.1591914817
 20
93.8759742821
 11
77.7303540802
 21
93.8759810561
  0
LINE
  5
6CE
100
AcDbEntity
  8
DEFAULT_1
100
AcDbLine
 62
7
  6
CENTER
 10
23.9299606398
 20
93.8759840289
 11
18.722316078
 21
93.8759742821
  0
LINE
  5
6CF
100
AcDbEntity
  8
0
100
AcDbLine
 62
9
  6
CONTINUOUS
 10
77.1591914817
 20
93.8759742821
 11
76.9555946538
 21
93.8759742823
  0
LINE
  5
6D0
100
AcDbEntity
  8
0
100
AcDbLine
 62
9
  6
CONTINUOUS
 10
67.9310921781
 20
93.8759742821
 11
67.7579211806
 21
93.8759742821
  0
LINE
  5
6D1
100
AcDbEntity
  8
DEFAULT_1
100
AcDbLine
 62
7
  6
CENTER
 10
67.7579211806
 20
93.8759742821
 11
31.7700233807
 21
93.8759742819
  0
LINE
  5
6D2
100
AcDbEntity
  8
0
100
AcDbLine
 62
9
  6
CONTINUOUS
 10
31.7700233807
 20
93.8759742819
 11
31.2677121243
 21
93.875974282
  0
LINE
  5
6D3
100
AcDbEntity
  8
DEFAULT_1
100
AcDbLine
 62
7
  6
CENTER
 10
67.9310921781
 20
93.8759742821
 11
71.6166953114
 21
93.8759742821
  0
LINE
  5
6D4
100
AcDbEntity
  8
0
100
AcDbLine
 62
9
  6
CONTINUOUS
 10
71.6166953114
 20
93.8759742821
 11
71.7793203372
 21
93.8759742821
  0
LINE
  5
6D5
100
AcDbEntity
  8
DEFAULT_1
100
AcDbLine
 62
7
  6
CENTER
 10
71.7793203372
 20
93.8759742821
 11
76.9555946538
 21
93.8759742823
  0
LINE
  5
6D6
100
AcDbEntity
  8
DEFAULT_1
100
AcDbLine
 62
7
  6
CENTER
 10
31.2677121243
 20
93.875974282
 11
23.9337260611
 21
93.8759832725
  0
LINE
  5
6D7
100
AcDbEntity
  8
DEFAULT_1
100
AcDbLine
 62
7
  6
CENTER
 10
77.969606765
 20
93.8759864266
 11
81.4389834532
 21
93.8759742821
  0
LINE
  5
6D8
100
AcDbEntity
  8
0
100
AcDbLine
 62
7
  6
CONTINUOUS
 10
70.7144878837
 20
105.8569320805
 11
70.9809188719
 21
105.8569466606
  0
LINE
  5
6D9
100
AcDbEntity
  8
0
100
AcDbLine
 62
7
  6
CONTINUOUS
 10
70.5089810059
 20
105.8569345145
 11
70.7499561046
 21
105.8569364432
  0
LINE
  5
6DA
100
AcDbEntity
  8
0
100
AcDbLine
 62
7
  6
CONTINUOUS
 10
70.5239122554
 20
105.8569349142
 11
31.77831414
 21
105.8569367736
  0
LINE
  5
6DB
100
AcDbEntity
  8
0
100
AcDbLine
 62
7
  6
CONTINUOUS
 10
21.1294411232
 20
109.8759742821
 11
80.3822950996
 21
109.8759742821
  0
LINE
  5
6DC
100
AcDbEntity
  8
0
100
AcDbLine
 62
9
  6
CONTINUOUS
 10
23.9337260611
 20
93.8759832725
 11
23.9299606398
 21
93.8759840289
  0
LINE
  5
6DD
100
AcDbEntity
  8
0
100
AcDbLine
 62
9
  6
CONTINUOUS
 10
36.6813833499
 20
101.4168385533
 11
36.721510031
 21
101.4168332843
  0
LINE
  5
6DE
100
AcDbEntity
  8
0
100
AcDbLine
 62
7
  6
CONTINUOUS
 10
31.3717784274
 20
105.8569966786
 11
31.7844737771
 21
105.8569382687
  0
LINE
  5
6DF
100
AcDbEntity
  8
0
100
AcDbLine
 62
7
  6
CONTINUOUS
 10
71.9936587684
 20
105.8567228659
 11
71.2023799268
 21
105.8569901158
  0
LINE
  5
6E0
100
AcDbEntity
  8
0
100
AcDbLine
 62
7
  6
CONTINUOUS
 10
71.861657377
 20
81.89520311
 11
72.0964956379
 21
81.8950816931
  0
LINE
  5
6E1
100
AcDbEntity
  8
0
100
AcDbLine
 62
9
  6
CONTINUOUS
 10
36.8444820938
 20
86.3350656917
 11
36.6599298629
 21
86.3351419525
  0
LINE
  5
6E2
100
AcDbEntity
  8
0
100
AcDbLine
 62
9
  6
CONTINUOUS
 10
69.7985362643
 20
103.5816050445
 11
70.5874762302
 21
103.5812925558
  0
LINE
  5
6E3
100
AcDbEntity
  8
0
100
AcDbLine
 62
9
  6
CONTINUOUS
 10
69.0791317127
 20
86.2924794266
 11
68.507710845
 21
86.2930000495
  0
LINE
  5
6E4
100
AcDbEntity
  8
0
100
AcDbLine
 62
7
  6
CONTINUOUS
 10
31.0386626722
 20
81.8949353344
 11
30.5819475085
 21
81.8953627994
  0
LINE
  5
6E5
100
AcDbEntity
  8
0
100
AcDbLine
 62
9
  6
CONTINUOUS
 10
68.507710845
 20
86.2930000495
 11
68.3503660267
 21
86.2931575896
  0
LINE
  5
6E6
100
AcDbEntity
  8
0
100
AcDbLine
 62
9
  6
CONTINUOUS
 10
69.3304310529
 20
101.4598972532
 11
69.4493612332
 21
101.4597829714
  0
LINE
  5
6E7
100
AcDbEntity
  8
0
100
AcDbLine
 62
7
  6
CONTINUOUS
 10
30.7613865017
 20
81.8951531003
 11
30.8963222739
 21
81.8949929752
  0
LINE
  5
6E8
100
AcDbEntity
  8
0
100
AcDbLine
 62
7
  6
CONTINUOUS
 10
30.6334955232
 20
81.8953092604
 11
30.7613865017
 21
81.8951531003
  0
LINE
  5
6E9
100
AcDbEntity
  8
0
100
AcDbLine
 62
9
  6
CONTINUOUS
 10
68.3503660267
 20
86.2931575896
 11
65.906734025
 21
86.2960271201
  0
LINE
  5
6EA
100
AcDbEntity
  8
0
100
AcDbLine
 62
9
  6
CONTINUOUS
 10
36.8734615908
 20
86.3350313326
 11
36.8444820938
 21
86.3350656917
  0
LINE
  5
6EB
100
AcDbEntity
  8
0
100
AcDbLine
 62
9
  6
CONTINUOUS
 10
43.6422532565
 20
86.3258623829
 11
38.4187600999
 21
86.332292347
  0
LINE
  5
6EC
100
AcDbEntity
  8
0
100
AcDbLine
 62
9
  6
CONTINUOUS
 10
69.4807056207
 20
103.581981971
 11
69.7985362643
 21
103.5816050445
  0
LINE
  5
6ED
100
AcDbEntity
  8
0
100
AcDbLine
 62
9
  6
CONTINUOUS
 10
69.111689123
 20
103.5824274807
 11
69.4807056207
 21
103.581981971
  0
LINE
  5
6EE
100
AcDbEntity
  8
0
100
AcDbLine
 62
9
  6
CONTINUOUS
 10
46.0248375734
 20
86.3227943514
 11
43.6422532565
 21
86.3258623829
  0
LINE
  5
6EF
100
AcDbEntity
  8
0
100
AcDbLine
 62
9
  6
CONTINUOUS
 10
65.906734025
 20
86.2960271201
 11
61.189671763
 21
86.3022704526
  0
LINE
  5
6F0
100
AcDbEntity
  8
0
100
AcDbLine
 62
9
  6
CONTINUOUS
 10
61.189671763
 20
86.3022704526
 11
46.0248375734
 21
86.3227943514
  0
LINE
  5
6F1
100
AcDbEntity
  8
0
100
AcDbLine
 62
9
  6
CONTINUOUS
 10
37.7751329727
 20
86.3338006214
 11
36.8734615908
 21
86.3350313326
  0
LINE
  5
6F2
100
AcDbEntity
  8
0
100
AcDbLine
 62
9
  6
CONTINUOUS
 10
50.8246721431
 20
103.608541718
 11
69.111689123
 21
103.5824274807
  0
LINE
  5
6F3
100
AcDbEntity
  8
0
100
AcDbLine
 62
9
  6
CONTINUOUS
 10
36.7467389615
 20
103.6301007756
 11
50.8246721431
 21
103.608541718
  0
LINE
  5
6F4
100
AcDbEntity
  8
0
100
AcDbLine
 62
9
  6
CONTINUOUS
 10
70.5244903283
 20
84.1704530971
 11
70.4685650945
 21
84.1705467156
  0
LINE
  5
6F5
100
AcDbEntity
  8
0
100
AcDbLine
 62
9
  6
CONTINUOUS
 10
69.3315216997
 20
86.2920520236
 11
69.0791317127
 21
86.2924794266
  0
LINE
  5
6F6
100
AcDbEntity
  8
0
100
AcDbLine
 62
7
  6
CONTINUOUS
 10
30.0087976483
 20
81.8938001202
 11
29.8822336162
 21
81.8940307796
  0
LINE
  5
6F7
100
AcDbEntity
  8
0
100
AcDbLine
 62
9
  6
CONTINUOUS
 10
38.4187600999
 20
86.332292347
 11
37.7751329727
 21
86.3338006214
  0
LINE
  5
6F8
100
AcDbEntity
  8
0
100
AcDbLine
 62
7
  6
CONTINUOUS
 10
30.2169148741
 20
105.85722069
 11
30.506975712
 21
105.8565424803
  0
LINE
  5
6F9
100
AcDbEntity
  8
0
100
AcDbLine
 62
7
  6
CONTINUOUS
 10
30.0973606988
 20
105.8578688134
 11
29.9535248267
 21
105.8582163996
  0
LINE
  5
6FA
100
AcDbEntity
  8
0
100
AcDbLine
 62
7
  6
CONTINUOUS
 10
72.4911431884
 20
81.8939174768
 11
72.0304565232
 21
81.8951944924
  0
LINE
  5
6FB
100
AcDbEntity
  8
0
100
AcDbLine
 62
7
  6
CONTINUOUS
 10
72.593998951
 20
105.8575955185
 11
72.486475427
 21
105.8579039237
  0
LINE
  5
6FC
100
AcDbEntity
  8
0
100
AcDbLine
 62
9
  6
CONTINUOUS
 10
36.721866965
 20
84.1218765687
 11
36.7005707953
 21
84.1219451048
  0
LINE
  5
6FD
100
AcDbEntity
  8
0
100
AcDbLine
 62
7
  6
CONTINUOUS
 10
30.3345930844
 20
105.8568145923
 11
30.2126615715
 21
105.8572329338
  0
LINE
  5
6FE
100
AcDbEntity
  8
0
100
AcDbLine
 62
9
  6
CONTINUOUS
 10
70.2784146988
 20
101.4536060278
 11
70.5834217206
 21
101.4522932421
  0
LINE
  5
6FF
100
AcDbEntity
  8
0
100
AcDbLine
 62
9
  6
CONTINUOUS
 10
36.6599298629
 20
86.3351419525
 11
36.6261924524
 21
86.3352986665
  0
LINE
  5
700
100
AcDbEntity
  8
0
100
AcDbLine
 62
7
  6
CONTINUOUS
 10
30.0823692977
 20
105.8580168517
 11
30.2169148741
 21
105.85722069
  0
LINE
  5
701
100
AcDbEntity
  8
0
100
AcDbLine
 62
9
  6
CONTINUOUS
 10
69.8741476073
 20
101.4561640221
 11
70.2784146988
 21
101.4536060278
  0
LINE
  5
702
100
AcDbEntity
  8
0
100
AcDbLine
 62
9
  6
CONTINUOUS
 10
69.7876269798
 20
95.6928937842
 11
69.7216102895
 21
95.6933334987
  0
LINE
  5
703
100
AcDbEntity
  8
0
100
AcDbLine
 62
9
  6
CONTINUOUS
 10
69.4493612332
 20
101.4597829714
 11
69.5640539045
 21
101.4589593473
  0
LINE
  5
704
100
AcDbEntity
  8
0
100
AcDbLine
 62
9
  6
CONTINUOUS
 10
69.6735392956
 20
101.4578699204
 11
69.8741476073
 21
101.4561640221
  0
LINE
  5
705
100
AcDbEntity
  8
0
100
AcDbLine
 62
7
  6
CONTINUOUS
 10
72.5125407414
 20
105.8578681067
 11
72.6671559787
 21
105.8564890201
  0
LINE
  5
706
100
AcDbEntity
  8
0
100
AcDbLine
 62
9
  6
CONTINUOUS
 10
70.5834217206
 20
101.4522932421
 11
70.6311414344
 21
101.4518374994
  0
LINE
  5
707
100
AcDbEntity
  8
0
100
AcDbLine
 62
9
  6
CONTINUOUS
 10
36.7005707953
 20
84.1219451048
 11
36.6789129069
 21
84.1221562387
  0
LINE
  5
708
100
AcDbEntity
  8
0
100
AcDbLine
 62
9
  6
CONTINUOUS
 10
69.5640539045
 20
101.4589593473
 11
69.6735392956
 21
101.4578699204
  0
LINE
  5
709
100
AcDbEntity
  8
0
100
AcDbLine
 62
9
  6
CONTINUOUS
 10
36.6261924524
 20
86.3352986665
 11
36.6142150454
 21
86.3354329997
  0
LINE
  5
70A
100
AcDbEntity
  8
0
100
AcDbLine
 62
7
  6
CONTINUOUS
 10
29.8134334866
 20
81.8948877021
 11
29.9018608226
 21
81.8938326456
  0
LINE
  5
70B
100
AcDbEntity
  8
0
100
AcDbLine
 62
9
  6
CONTINUOUS
 10
70.5874762302
 20
103.5812925558
 11
70.6642260123
 21
103.5803122869
  0
LINE
  5
70C
100
AcDbEntity
  8
0
100
AcDbLine
 62
7
  6
CONTINUOUS
 10
72.7004143366
 20
105.8561069205
 11
72.593998951
 21
105.8575955185
  0
LINE
  5
70D
100
AcDbEntity
  8
0
100
AcDbLine
 62
7
  6
CONTINUOUS
 10
29.8822336162
 20
81.8940307796
 11
29.7587623203
 21
81.8961536553
  0
LINE
  5
70E
100
AcDbEntity
  8
0
100
AcDbLine
 62
9
  6
CONTINUOUS
 10
36.6789129069
 20
84.1221562387
 11
36.6556774313
 21
84.1226411063
  0
LINE
  5
70F
100
AcDbEntity
  8
0
100
AcDbLine
 62
9
  6
CONTINUOUS
 10
36.6142150454
 20
86.3354329997
 11
36.6037047799
 21
86.3356617823
  0
LINE
  5
710
100
AcDbEntity
  8
0
100
AcDbLine
 62
7
  6
CONTINUOUS
 10
72.6671559787
 20
105.8564890201
 11
72.8131754858
 21
105.8528538486
  0
LINE
  5
711
100
AcDbEntity
  8
0
100
AcDbLine
 62
9
  6
CONTINUOUS
 10
70.6311414344
 20
101.4518374994
 11
70.675370258
 21
101.4507271823
  0
LINE
  5
712
100
AcDbEntity
  8
0
100
AcDbLine
 62
7
  6
CONTINUOUS
 10
29.7195121292
 20
81.8975463574
 11
29.8134334866
 21
81.8948877021
  0
LINE
  5
713
100
AcDbEntity
  8
0
100
AcDbLine
 62
9
  6
CONTINUOUS
 10
69.6568847612
 20
92.0605191271
 11
69.7229186465
 21
92.0586004341
  0
LINE
  5
714
100
AcDbEntity
  8
0
100
AcDbLine
 62
7
  6
CONTINUOUS
 10
72.8131550506
 20
105.8527004927
 11
72.7004143366
 21
105.8561069205
  0
LINE
  5
715
100
AcDbEntity
  8
0
100
AcDbLine
 62
9
  6
CONTINUOUS
 10
36.6037047799
 20
86.3356617823
 11
36.5911742469
 21
86.3360609329
  0
LINE
  5
716
100
AcDbEntity
  8
0
100
AcDbLine
 62
9
  6
CONTINUOUS
 10
70.6642260123
 20
103.5803122869
 11
70.7553998852
 21
103.5774065966
  0
LINE
  5
717
100
AcDbEntity
  8
0
100
AcDbLine
 62
9
  6
CONTINUOUS
 10
36.6556774313
 20
84.1226411063
 11
36.6286358639
 21
84.123526384
  0
LINE
  5
718
100
AcDbEntity
  8
0
100
AcDbLine
 62
9
  6
CONTINUOUS
 10
36.5911742469
 20
86.3360609329
 11
36.5769906617
 21
86.3366378167
  0
LINE
  5
719
100
AcDbEntity
  8
0
100
AcDbLine
 62
9
  6
CONTINUOUS
 10
69.8536740209
 20
95.6900478378
 11
69.7876269798
 21
95.6928937842
  0
LINE
  5
71A
100
AcDbEntity
  8
0
100
AcDbLine
 62
7
  6
CONTINUOUS
 10
29.7587623203
 20
81.8961536553
 11
29.6348298618
 21
81.9015270387
  0
LINE
  5
71B
100
AcDbEntity
  8
0
100
AcDbLine
 62
7
  6
CONTINUOUS
 10
29.6233651027
 20
81.9020294719
 11
29.7195121292
 21
81.8975463574
  0
LINE
  5
71C
100
AcDbEntity
  8
0
100
AcDbLine
 62
9
  6
CONTINUOUS
 10
36.6286358639
 20
84.123526384
 11
36.5970443416
 21
84.1250461226
  0
LINE
  5
71D
100
AcDbEntity
  8
0
100
AcDbLine
 62
7
  6
CONTINUOUS
 10
72.9264135566
 20
105.8471981601
 11
72.8131550506
 21
105.8527004927
  0
LINE
  5
71E
100
AcDbEntity
  8
0
100
AcDbLine
 62
9
  6
CONTINUOUS
 10
36.5769906617
 20
86.3366378167
 11
36.5624674331
 21
86.3373784811
  0
LINE
  5
71F
100
AcDbEntity
  8
0
100
AcDbLine
 62
9
  6
CONTINUOUS
 10
70.675370258
 20
101.4507271823
 11
70.7213667345
 21
101.4483561894
  0
LINE
  5
720
100
AcDbEntity
  8
0
100
AcDbLine
 62
7
  6
CONTINUOUS
 10
72.8131754858
 20
105.8528538486
 11
72.9490850851
 21
105.8457149931
  0
LINE
  5
721
100
AcDbEntity
  8
0
100
AcDbLine
 62
9
  6
CONTINUOUS
 10
70.7553998852
 20
103.5774065966
 11
70.854350152
 21
103.5716199824
  0
LINE
  5
722
100
AcDbEntity
  8
0
100
AcDbLine
 62
9
  6
CONTINUOUS
 10
36.5970443416
 20
84.1250461226
 11
36.5633814531
 21
84.1270991109
  0
LINE
  5
723
100
AcDbEntity
  8
0
100
AcDbLine
 62
9
  6
CONTINUOUS
 10
36.5624674331
 20
86.3373784811
 11
36.5475743702
 21
86.338303169
  0
LINE
  5
724
100
AcDbEntity
  8
0
100
AcDbLine
 62
9
  6
CONTINUOUS
 10
69.5910724104
 20
92.0648349399
 11
69.6568847612
 21
92.0605191271
  0
LINE
  5
725
100
AcDbEntity
  8
0
100
AcDbLine
 62
7
  6
CONTINUOUS
 10
29.6348298618
 20
81.9015270387
 11
29.5111666184
 21
81.9100596844
  0
LINE
  5
726
100
AcDbEntity
  8
0
100
AcDbLine
 62
7
  6
CONTINUOUS
 10
29.5258007543
 20
81.9088724228
 11
29.6233651027
 21
81.9020294719
  0
LINE
  5
727
100
AcDbEntity
  8
0
100
AcDbLine
 62
9
  6
CONTINUOUS
 10
36.5633814531
 20
84.1270991109
 11
36.5285328296
 21
84.1295905675
  0
LINE
  5
728
100
AcDbEntity
  8
0
100
AcDbLine
 62
9
  6
CONTINUOUS
 10
36.5475743702
 20
86.338303169
 11
36.5320349909
 21
86.3394376837
  0
LINE
  5
729
100
AcDbEntity
  8
0
100
AcDbLine
 62
7
  6
CONTINUOUS
 10
73.0369146573
 20
105.839091759
 11
72.9264135566
 21
105.8471981601
  0
LINE
  5
72A
100
AcDbEntity
  8
0
100
AcDbLine
 62
7
  6
CONTINUOUS
 10
72.9490850851
 20
105.8457149931
 11
73.0768455566
 21
105.8355610694
  0
LINE
  5
72B
100
AcDbEntity
  8
0
100
AcDbLine
 62
9
  6
CONTINUOUS
 10
69.9197395471
 20
95.6847831242
 11
69.8536740209
 21
95.6900478378
  0
LINE
  5
72C
100
AcDbEntity
  8
0
100
AcDbLine
 62
9
  6
CONTINUOUS
 10
70.7213667345
 20
101.4483561894
 11
70.7695424233
 21
101.444509193
  0
LINE
  5
72D
100
AcDbEntity
  8
0
100
AcDbLine
 62
9
  6
CONTINUOUS
 10
36.5285328296
 20
84.1295905675
 11
36.4921983791
 21
84.1325888062
  0
LINE
  5
72E
100
AcDbEntity
  8
0
100
AcDbLine
 62
9
  6
CONTINUOUS
 10
36.5320349909
 20
86.3394376837
 11
36.5157371441
 21
86.340812598
  0
LINE
  5
72F
100
AcDbEntity
  8
0
100
AcDbLine
 62
9
  6
CONTINUOUS
 10
70.854350152
 20
103.5716199824
 11
70.9612858132
 21
103.5624942656
  0
LINE
  5
730
100
AcDbEntity
  8
0
100
AcDbLine
 62
7
  6
CONTINUOUS
 10
29.428362354
 20
81.9177438331
 11
29.5258007543
 21
81.9088724228
  0
LINE
  5
731
100
AcDbEntity
  8
0
100
AcDbLine
 62
9
  6
CONTINUOUS
 10
36.4921983791
 20
84.1325888062
 11
36.4542108653
 21
84.1360945758
  0
LINE
  5
732
100
AcDbEntity
  8
0
100
AcDbLine
 62
9
  6
CONTINUOUS
 10
36.5157371441
 20
86.340812598
 11
36.4986708043
 21
86.3424579506
  0
LINE
  5
733
100
AcDbEntity
  8
0
100
AcDbLine
 62
7
  6
CONTINUOUS
 10
73.1444948017
 20
105.8286339192
 11
73.0369146573
 21
105.839091759
  0
LINE
  5
734
100
AcDbEntity
  8
0
100
AcDbLine
 62
7
  6
CONTINUOUS
 10
29.5111666184
 20
81.9100596844
 11
29.3864810494
 21
81.9222566037
  0
LINE
  5
735
100
AcDbEntity
  8
0
100
AcDbLine
 62
9
  6
CONTINUOUS
 10
69.5255618758
 20
92.0715334369
 11
69.5910724104
 21
92.0648349399
  0
LINE
  5
736
100
AcDbEntity
  8
0
100
AcDbLine
 62
9
  6
CONTINUOUS
 10
36.4542108653
 20
84.1360945758
 11
36.414626763
 21
84.1402006889
  0
LINE
  5
737
100
AcDbEntity
  8
0
100
AcDbLine
 62
9
  6
CONTINUOUS
 10
70.7695424233
 20
101.444509193
 11
70.8204601156
 21
101.4390684749
  0
LINE
  5
738
100
AcDbEntity
  8
0
100
AcDbLine
 62
7
  6
CONTINUOUS
 10
73.0768455566
 20
105.8355610694
 11
73.1963777471
 21
105.8226122479
  0
LINE
  5
739
100
AcDbEntity
  8
0
100
AcDbLine
 62
9
  6
CONTINUOUS
 10
36.4986708043
 20
86.3424579506
 11
36.4807860809
 21
86.344406063
  0
LINE
  5
73A
100
AcDbEntity
  8
0
100
AcDbLine
 62
7
  6
CONTINUOUS
 10
29.33300265
 20
81.9285027656
 11
29.428362354
 21
81.9177438331
  0
LINE
  5
73B
100
AcDbEntity
  8
0
100
AcDbLine
 62
9
  6
CONTINUOUS
 10
70.9612858132
 20
103.5624942656
 11
71.074111179
 21
103.5497671585
  0
LINE
  5
73C
100
AcDbEntity
  8
0
100
AcDbLine
 62
9
  6
CONTINUOUS
 10
69.9857078338
 20
95.6770987128
 11
69.9197395471
 21
95.6847831242
  0
LINE
  5
73D
100
AcDbEntity
  8
0
100
AcDbLine
 62
9
  6
CONTINUOUS
 10
36.414626763
 20
84.1402006889
 11
36.3736233536
 21
84.1449867593
  0
LINE
  5
73E
100
AcDbEntity
  8
0
100
AcDbLine
 62
9
  6
CONTINUOUS
 10
36.4807860809
 20
86.344406063
 11
36.4620597269
 21
86.3466898497
  0
LINE
  5
73F
100
AcDbEntity
  8
0
100
AcDbLine
 62
7
  6
CONTINUOUS
 10
73.2467249533
 20
105.8160165323
 11
73.1444948017
 21
105.8286339192
  0
LINE
  5
740
100
AcDbEntity
  8
0
100
AcDbLine
 62
7
  6
CONTINUOUS
 10
29.3864810494
 20
81.9222566037
 11
29.2632850105
 21
81.9376873181
  0
LINE
  5
741
100
AcDbEntity
  8
0
100
AcDbLine
 62
9
  6
CONTINUOUS
 10
36.3736233536
 20
84.1449867593
 11
36.3310118104
 21
84.1505072026
  0
LINE
  5
742
100
AcDbEntity
  8
0
100
AcDbLine
 62
7
  6
CONTINUOUS
 10
29.2393015537
 20
81.9411132782
 11
29.33300265
 21
81.9285027656
  0
LINE
  5
743
100
AcDbEntity
  8
0
100
AcDbLine
 62
9
  6
CONTINUOUS
 10
70.8204601156
 20
101.4390684749
 11
70.8734249159
 21
101.4318935448
  0
LINE
  5
744
100
AcDbEntity
  8
0
100
AcDbLine
 62
9
  6
CONTINUOUS
 10
36.4620597269
 20
86.3466898497
 11
36.4423546276
 21
86.3493631733
  0
LINE
  5
745
100
AcDbEntity
  8
0
100
AcDbLine
 62
9
  6
CONTINUOUS
 10
69.4607291534
 20
92.0805498269
 11
69.5255618758
 21
92.0715334369
  0
LINE
  5
746
100
AcDbEntity
  8
0
100
AcDbLine
 62
7
  6
CONTINUOUS
 10
73.1963777471
 20
105.8226122479
 11
73.3122872785
 21
105.8064262667
  0
LINE
  5
747
100
AcDbEntity
  8
0
100
AcDbLine
 62
9
  6
CONTINUOUS
 10
71.074111179
 20
103.5497671585
 11
71.1914036427
 21
103.5331200588
  0
LINE
  5
748
100
AcDbEntity
  8
0
100
AcDbLine
 62
9
  6
CONTINUOUS
 10
36.3310118104
 20
84.1505072026
 11
36.2866783672
 21
84.1568230699
  0
LINE
  5
749
100
AcDbEntity
  8
0
100
AcDbLine
 62
7
  6
CONTINUOUS
 10
76.7785680647
 20
95.0634742824
 11
76.7853819052
 21
95.0624714652
  0
LINE
  5
74A
100
AcDbEntity
  8
0
100
AcDbLine
 62
9
  6
CONTINUOUS
 10
36.4423546276
 20
86.3493631733
 11
36.4215455933
 21
86.352486941
  0
LINE
  5
74B
100
AcDbEntity
  8
0
100
AcDbLine
 62
7
  6
CONTINUOUS
 10
76.7785680647
 20
92.6884742824
 11
76.7716799652
 21
92.6895113774
  0
LINE
  5
74C
100
AcDbEntity
  8
0
100
AcDbLine
 62
7
  6
CONTINUOUS
 10
73.347126371
 20
105.8009136488
 11
73.2467249533
 21
105.8160165323
  0
LINE
  5
74D
100
AcDbEntity
  8
0
100
AcDbLine
 62
9
  6
CONTINUOUS
 10
70.0516258384
 20
95.6669694443
 11
69.9857078338
 21
95.6770987128
  0
LINE
  5
74E
100
AcDbEntity
  8
0
100
AcDbLine
 62
7
  6
CONTINUOUS
 10
29.2632850105
 20
81.9376873181
 11
29.144408814
 21
81.9560098297
  0
LINE
  5
74F
100
AcDbEntity
  8
0
100
AcDbLine
 62
9
  6
CONTINUOUS
 10
36.2866783672
 20
84.1568230699
 11
36.2404207531
 21
84.1640469097
  0
LINE
  5
750
100
AcDbEntity
  8
0
100
AcDbLine
 62
7
  6
CONTINUOUS
 10
29.147803121
 20
81.9554514695
 11
29.2393015537
 21
81.9411132782
  0
LINE
  5
751
100
AcDbEntity
  8
0
100
AcDbLine
 62
9
  6
CONTINUOUS
 10
36.4215455933
 20
86.352486941
 11
36.3995268268
 21
86.3561274963
  0
LINE
  5
752
100
AcDbEntity
  8
0
100
AcDbLine
 62
9
  6
CONTINUOUS
 10
70.8734249159
 20
101.4318935448
 11
70.9276781605
 21
101.4228735013
  0
LINE
  5
753
100
AcDbEntity
  8
0
100
AcDbLine
 62
7
  6
CONTINUOUS
 10
73.3122872785
 20
105.8064262667
 11
73.4292775227
 21
105.7866946842
  0
LINE
  5
754
100
AcDbEntity
  8
0
100
AcDbLine
 62
9
  6
CONTINUOUS
 10
36.2404207531
 20
84.1640469097
 11
36.1921212451
 21
84.1722901467
  0
LINE
  5
755
100
AcDbEntity
  8
0
100
AcDbLine
 62
9
  6
CONTINUOUS
 10
71.1914036427
 20
103.5331200588
 11
71.3113186419
 21
103.5123751514
  0
LINE
  5
756
100
AcDbEntity
  8
0
100
AcDbLine
 62
7
  6
CONTINUOUS
 10
73.4484873503
 20
105.7831009884
 11
73.347126371
 21
105.8009136488
  0
LINE
  5
757
100
AcDbEntity
  8
0
100
AcDbLine
 62
9
  6
CONTINUOUS
 10
69.3968869219
 20
92.0917863691
 11
69.4607291534
 21
92.0805498269
  0
LINE
  5
758
100
AcDbEntity
  8
0
100
AcDbLine
 62
7
  6
CONTINUOUS
 10
29.0575676656
 20
81.9716402803
 11
29.147803121
 21
81.9554514695
  0
LINE
  5
759
100
AcDbEntity
  8
0
100
AcDbLine
 62
9
  6
CONTINUOUS
 10
36.3995268268
 20
86.3561274963
 11
36.376197616
 21
86.3603607193
  0
LINE
  5
75A
100
AcDbEntity
  8
0
100
AcDbLine
 62
7
  6
CONTINUOUS
 10
29.144408814
 20
81.9560098297
 11
29.0276055494
 21
81.9774637087
  0
LINE
  5
75B
100
AcDbEntity
  8
0
100
AcDbLine
 62
9
  6
CONTINUOUS
 10
36.1921212451
 20
84.1722901467
 11
36.1415098175
 21
84.1816923639
  0
LINE
  5
75C
100
AcDbEntity
  8
0
100
AcDbLine
 62
9
  6
CONTINUOUS
 10
70.1169936547
 20
95.6544756334
 11
70.0516258384
 21
95.6669694443
  0
LINE
  5
75D
100
AcDbEntity
  8
0
100
AcDbLine
 62
9
  6
CONTINUOUS
 10
70.9276781605
 20
101.4228735013
 11
70.9826464893
 21
101.4119928653
  0
LINE
  5
75E
100
AcDbEntity
  8
0
100
AcDbLine
 62
9
  6
CONTINUOUS
 10
36.376197616
 20
86.3603607193
 11
36.3514685172
 21
86.365271838
  0
LINE
  5
75F
100
AcDbEntity
  8
0
100
AcDbLine
 62
7
  6
CONTINUOUS
 10
73.4292775227
 20
105.7866946842
 11
73.546976077
 21
105.76323621
  0
LINE
  5
760
100
AcDbEntity
  8
0
100
AcDbLine
 62
9
  6
CONTINUOUS
 10
36.1415098175
 20
84.1816923639
 11
36.0883593228
 21
84.1924095111
  0
LINE
  5
761
100
AcDbEntity
  8
0
100
AcDbLine
 62
7
  6
CONTINUOUS
 10
28.9678883161
 20
81.9897395344
 11
29.0575676656
 21
81.9716402803
  0
LINE
  5
762
100
AcDbEntity
  8
0
100
AcDbLine
 62
7
  6
CONTINUOUS
 10
73.5505777444
 20
105.7624654349
 11
73.4484873503
 21
105.7831009884
  0
LINE
  5
763
100
AcDbEntity
  8
0
100
AcDbLine
 62
9
  6
CONTINUOUS
 10
71.3113186419
 20
103.5123751514
 11
71.432091701
 21
103.4876265855
  0
LINE
  5
764
100
AcDbEntity
  8
0
100
AcDbLine
 62
7
  6
CONTINUOUS
 10
29.0276055494
 20
81.9774637087
 11
28.9117167502
 21
82.0021145709
  0
LINE
  5
765
100
AcDbEntity
  8
0
100
AcDbLine
 62
9
  6
CONTINUOUS
 10
69.3342648023
 20
92.1051249178
 11
69.3968869219
 21
92.0917863691
  0
LINE
  5
766
100
AcDbEntity
  8
0
100
AcDbLine
 62
9
  6
CONTINUOUS
 10
36.3514685172
 20
86.365271838
 11
36.3252380161
 21
86.3709597202
  0
LINE
  5
767
100
AcDbEntity
  8
0
100
AcDbLine
 62
9
  6
CONTINUOUS
 10
36.0883593228
 20
84.1924095111
 11
36.0324421518
 21
84.2046213045
  0
LINE
  5
768
100
AcDbEntity
  8
0
100
AcDbLine
 62
7
  6
CONTINUOUS
 10
28.8786106836
 20
82.0098146811
 11
28.9678883161
 21
81.9897395344
  0
LINE
  5
769
100
AcDbEntity
  8
0
100
AcDbLine
 62
9
  6
CONTINUOUS
 10
70.1812171088
 20
95.6397920428
 11
70.1169936547
 21
95.6544756334
  0
LINE
  5
76A
100
AcDbEntity
  8
0
100
AcDbLine
 62
7
  6
CONTINUOUS
 10
73.546976077
 20
105.76323621
 11
73.6672883367
 21
105.7356201197
  0
LINE
  5
76B
100
AcDbEntity
  8
0
100
AcDbLine
 62
9
  6
CONTINUOUS
 10
70.9826464893
 20
101.4119928653
 11
71.0375407035
 21
101.3993625352
  0
LINE
  5
76C
100
AcDbEntity
  8
0
100
AcDbLine
 62
9
  6
CONTINUOUS
 10
36.0324421518
 20
84.2046213045
 11
35.9735263178
 21
84.2185359736
  0
LINE
  5
76D
100
AcDbEntity
  8
0
100
AcDbLine
 62
9
  6
CONTINUOUS
 10
36.3252380161
 20
86.3709597202
 11
36.2974327491
 21
86.3775281382
  0
LINE
  5
76E
100
AcDbEntity
  8
0
100
AcDbLine
 62
9
  6
CONTINUOUS
 10
71.432091701
 20
103.4876265855
 11
71.5531594016
 21
103.4588902443
  0
LINE
  5
76F
100
AcDbEntity
  8
0
100
AcDbLine
 62
7
  6
CONTINUOUS
 10
28.9117167502
 20
82.0021145709
 11
28.7963073966
 21
82.0301422823
  0
LINE
  5
770
100
AcDbEntity
  8
0
100
AcDbLine
 62
7
  6
CONTINUOUS
 10
28.7893504579
 20
82.0319402308
 11
28.8786106836
 21
82.0098146811
  0
LINE
  5
771
100
AcDbEntity
  8
0
100
AcDbLine
 62
9
  6
CONTINUOUS
 10
69.2732181193
 20
92.1203883572
 11
69.3342648023
 21
92.1051249178
  0
LINE
  5
772
100
AcDbEntity
  8
0
100
AcDbLine
 62
7
  6
CONTINUOUS
 10
73.7590446321
 20
105.7121620198
 11
73.6545348649
 21
105.7387314291
  0
LINE
  5
773
100
AcDbEntity
  8
0
100
AcDbLine
 62
9
  6
CONTINUOUS
 10
35.9735263178
 20
84.2185359736
 11
35.911464166
 21
84.2343618134
  0
LINE
  5
774
100
AcDbEntity
  8
0
100
AcDbLine
 62
9
  6
CONTINUOUS
 10
36.2974327491
 20
86.3775281382
 11
36.2680201712
 21
86.3850827398
  0
LINE
  5
775
100
AcDbEntity
  8
0
100
AcDbLine
 62
7
  6
CONTINUOUS
 10
73.6672883367
 20
105.7356201197
 11
73.78808428
 21
105.7042862732
  0
LINE
  5
776
100
AcDbEntity
  8
0
100
AcDbLine
 62
9
  6
CONTINUOUS
 10
71.0375407035
 20
101.3993625352
 11
71.0922930578
 21
101.3849720932
  0
LINE
  5
777
100
AcDbEntity
  8
0
100
AcDbLine
 62
9
  6
CONTINUOUS
 10
70.2446869772
 20
95.6228670095
 11
70.1812171088
 21
95.6397920428
  0
LINE
  5
778
100
AcDbEntity
  8
0
100
AcDbLine
 62
9
  6
CONTINUOUS
 10
71.5531594016
 20
103.4588902443
 11
71.6732812355
 21
103.4264111116
  0
LINE
  5
779
100
AcDbEntity
  8
0
100
AcDbLine
 62
7
  6
CONTINUOUS
 10
28.7000905322
 20
82.0561488238
 11
28.7893504579
 21
82.0319402308
  0
LINE
  5
77A
100
AcDbEntity
  8
0
100
AcDbLine
 62
7
  6
CONTINUOUS
 10
28.7963073966
 20
82.0301422823
 11
28.6802705619
 21
82.0618144847
  0
LINE
  5
77B
100
AcDbEntity
  8
0
100
AcDbLine
 62
9
  6
CONTINUOUS
 10
35.911464166
 20
84.2343618134
 11
35.846111008
 21
84.2523336984
  0
LINE
  5
77C
100
AcDbEntity
  8
0
100
AcDbLine
 62
9
  6
CONTINUOUS
 10
36.2680201712
 20
86.3850827398
 11
36.2367896398
 21
86.3937927259
  0
LINE
  5
77D
100
AcDbEntity
  8
0
100
AcDbLine
 62
7
  6
CONTINUOUS
 10
73.8633630723
 20
105.6828650169
 11
73.7590446321
 21
105.7121620198
  0
LINE
  5
77E
100
AcDbEntity
  8
0
100
AcDbLine
 62
9
  6
CONTINUOUS
 10
69.2136169891
 20
92.1375003815
 11
69.2732181193
 21
92.1203883572
  0
LINE
  5
77F
100
AcDbEntity
  8
0
100
AcDbLine
 62
7
  6
CONTINUOUS
 10
73.78808428
 20
105.7042862732
 11
73.9079587667
 21
105.6694873825
  0
LINE
  5
780
100
AcDbEntity
  8
0
100
AcDbLine
 62
7
  6
CONTINUOUS
 10
28.6105036247
 20
82.0825492728
 11
28.7000905322
 21
82.0561488238
  0
LINE
  5
781
100
AcDbEntity
  8
0
100
AcDbLine
 62
9
  6
CONTINUOUS
 10
35.846111008
 20
84.2523336984
 11
35.7772993672
 21
84.2727173163
  0
LINE
  5
782
100
AcDbEntity
  8
0
100
AcDbLine
 62
9
  6
CONTINUOUS
 10
71.0922930578
 20
101.3849720932
 11
71.1465740104
 21
101.368893301
  0
LINE
  5
783
100
AcDbEntity
  8
0
100
AcDbLine
 62
9
  6
CONTINUOUS
 10
36.2367896398
 20
86.3937927259
 11
36.2035393356
 21
86.4038527604
  0
LINE
  5
784
100
AcDbEntity
  8
0
100
AcDbLine
 62
7
  6
CONTINUOUS
 10
28.6802705619
 20
82.0618144847
 11
28.5644634996
 21
82.096933466
  0
LINE
  5
785
100
AcDbEntity
  8
0
100
AcDbLine
 62
9
  6
CONTINUOUS
 10
71.6732812355
 20
103.4264111116
 11
71.7924998833
 21
103.3901631075
  0
LINE
  5
786
100
AcDbEntity
  8
0
100
AcDbLine
 62
9
  6
CONTINUOUS
 10
70.3073421273
 20
95.6037397418
 11
70.2446869772
 21
95.6228670095
  0
LINE
  5
787
100
AcDbEntity
  8
0
100
AcDbLine
 62
7
  6
CONTINUOUS
 10
73.9669171792
 20
105.6510305778
 11
73.8633630723
 21
105.6828650169
  0
LINE
  5
788
100
AcDbEntity
  8
0
100
AcDbLine
 62
7
  6
CONTINUOUS
 10
28.5211359498
 20
82.1109875706
 11
28.6105036247
 21
82.0825492728
  0
LINE
  5
789
100
AcDbEntity
  8
0
100
AcDbLine
 62
9
  6
CONTINUOUS
 10
35.7772993672
 20
84.2727173163
 11
35.7049762077
 21
84.295779261
  0
LINE
  5
78A
100
AcDbEntity
  8
0
100
AcDbLine
 62
7
  6
CONTINUOUS
 10
73.9079587667
 20
105.6694873825
 11
74.0266425482
 21
105.6313541668
  0
LINE
  5
78B
100
AcDbEntity
  8
0
100
AcDbLine
 62
9
  6
CONTINUOUS
 10
69.1554456375
 20
92.1563713205
 11
69.2136169891
 21
92.1375003815
  0
LINE
  5
78C
100
AcDbEntity
  8
0
100
AcDbLine
 62
9
  6
CONTINUOUS
 10
36.2035393356
 20
86.4038527604
 11
36.1682345279
 21
86.4154315982
  0
LINE
  5
78D
100
AcDbEntity
  8
0
100
AcDbLine
 62
9
  6
CONTINUOUS
 10
71.1465740104
 20
101.368893301
 11
71.2004129816
 21
101.3511185075
  0
LINE
  5
78E
100
AcDbEntity
  8
0
100
AcDbLine
 62
7
  6
CONTINUOUS
 10
28.5644634996
 20
82.096933466
 11
28.4491985396
 21
82.1354551529
  0
LINE
  5
78F
100
AcDbEntity
  8
0
100
AcDbLine
 62
7
  6
CONTINUOUS
 10
74.0687356676
 20
105.6169212493
 11
73.9669171792
 21
105.6510305778
  0
LINE
  5
790
100
AcDbEntity
  8
0
100
AcDbLine
 62
9
  6
CONTINUOUS
 10
71.7924998833
 20
103.3901631075
 11
71.9104918136
 21
103.3502438238
  0
LINE
  5
791
100
AcDbEntity
  8
0
100
AcDbLine
 62
7
  6
CONTINUOUS
 10
28.4323967685
 20
82.1413591104
 11
28.5211359498
 21
82.1109875706
  0
LINE
  5
792
100
AcDbEntity
  8
0
100
AcDbLine
 62
9
  6
CONTINUOUS
 10
35.7049762077
 20
84.295779261
 11
35.6287880927
 21
84.3219075317
  0
LINE
  5
793
100
AcDbEntity
  8
0
100
AcDbLine
 62
9
  6
CONTINUOUS
 10
70.3699058639
 20
95.5821382949
 11
70.3073421273
 21
95.6037397418
  0
LINE
  5
794
100
AcDbEntity
  8
0
100
AcDbLine
 62
7
  6
CONTINUOUS
 10
74.0266425482
 20
105.6313541668
 11
74.143239205
 21
105.5901437759
  0
LINE
  5
795
100
AcDbEntity
  8
0
100
AcDbLine
 62
9
  6
CONTINUOUS
 10
36.1682345279
 20
86.4154315982
 11
36.1307333318
 21
86.4287564419
  0
LINE
  5
796
100
AcDbEntity
  8
0
100
AcDbLine
 62
9
  6
CONTINUOUS
 10
69.0986900278
 20
92.1769171403
 11
69.1554456375
 21
92.1563713205
  0
LINE
  5
797
100
AcDbEntity
  8
0
100
AcDbLine
 62
7
  6
CONTINUOUS
 10
74.1692694003
 20
105.5804276735
 11
74.0687356676
 21
105.6169212493
  0
LINE
  5
798
100
AcDbEntity
  8
0
100
AcDbLine
 62
9
  6
CONTINUOUS
 10
71.2004129816
 20
101.3511185075
 11
71.2537570055
 21
101.3316599689
  0
LINE
  5
799
100
AcDbEntity
  8
0
100
AcDbLine
 62
7
  6
CONTINUOUS
 10
28.4491985396
 20
82.1354551529
 11
28.3350035259
 21
82.1771862712
  0
LINE
  5
79A
100
AcDbEntity
  8
0
100
AcDbLine
 62
7
  6
CONTINUOUS
 10
28.3443696594
 20
82.1736245033
 11
28.4323967685
 21
82.1413591104
  0
LINE
  5
79B
100
AcDbEntity
  8
0
100
AcDbLine
 62
9
  6
CONTINUOUS
 10
35.6287880927
 20
84.3219075317
 11
35.5483734333
 21
84.3515583563
  0
LINE
  5
79C
100
AcDbEntity
  8
0
100
AcDbLine
 62
9
  6
CONTINUOUS
 10
71.9104918136
 20
103.3502438238
 11
72.0272724005
 21
103.3066539
  0
LINE
  5
79D
100
AcDbEntity
  8
0
100
AcDbLine
 62
9
  6
CONTINUOUS
 10
36.1307333318
 20
86.4287564419
 11
36.0913152312
 21
86.4439187867
  0
LINE
  5
79E
100
AcDbEntity
  8
0
100
AcDbLine
 62
7
  6
CONTINUOUS
 10
74.143239205
 20
105.5901437759
 11
74.2582251102
 21
105.5457296301
  0
LINE
  5
79F
100
AcDbEntity
  8
0
100
AcDbLine
 62
9
  6
CONTINUOUS
 10
70.4327666959
 20
95.5577042275
 11
70.3699058639
 21
95.5821382949
  0
LINE
  5
7A0
100
AcDbEntity
  8
0
100
AcDbLine
 62
7
  6
CONTINUOUS
 10
28.2572931657
 20
82.2077066231
 11
28.3443696594
 21
82.1736245033
  0
LINE
  5
7A1
100
AcDbEntity
  8
0
100
AcDbLine
 62
7
  6
CONTINUOUS
 10
74.2686138503
 20
105.5415416842
 11
74.1692694003
 21
105.5804276735
  0
LINE
  5
7A2
100
AcDbEntity
  8
0
100
AcDbLine
 62
9
  6
CONTINUOUS
 10
35.5483734333
 20
84.3515583563
 11
35.4638599205
 21
84.3850574282
  0
LINE
  5
7A3
100
AcDbEntity
  8
0
100
AcDbLine
 62
7
  6
CONTINUOUS
 10
28.3350035259
 20
82.1771862712
 11
28.2226003998
 21
82.2218945613
  0
LINE
  5
7A4
100
AcDbEntity
  8
0
100
AcDbLine
 62
9
  6
CONTINUOUS
 10
69.0433442079
 20
92.1990573225
 11
69.0986900278
 21
92.1769171403
  0
LINE
  5
7A5
100
AcDbEntity
  8
0
100
AcDbLine
 62
9
  6
CONTINUOUS
 10
71.2537570055
 20
101.3316599689
 11
71.3065712898
 21
101.3105227262
  0
LINE
  5
7A6
100
AcDbEntity
  8
0
100
AcDbLine
 62
9
  6
CONTINUOUS
 10
72.0272724005
 20
103.3066539
 11
72.1427445916
 21
103.2594269765
  0
LINE
  5
7A7
100
AcDbEntity
  8
0
100
AcDbLine
 62
9
  6
CONTINUOUS
 10
36.0913152312
 20
86.4439187867
 11
36.0501356847
 21
86.4610551127
  0
LINE
  5
7A8
100
AcDbEntity
  8
0
100
AcDbLine
 62
7
  6
CONTINUOUS
 10
28.1711116549
 20
82.2436140739
 11
28.2572931657
 21
82.2077066231
  0
LINE
  5
7A9
100
AcDbEntity
  8
0
100
AcDbLine
 62
7
  6
CONTINUOUS
 10
74.2582251102
 20
105.5457296301
 11
74.3717800078
 21
105.4980722599
  0
LINE
  5
7AA
100
AcDbEntity
  8
0
100
AcDbLine
 62
9
  6
CONTINUOUS
 10
35.4638599205
 20
84.3850574282
 11
35.3750710168
 21
84.4228953578
  0
LINE
  5
7AB
100
AcDbEntity
  8
0
100
AcDbLine
 62
9
  6
CONTINUOUS
 10
70.4966502287
 20
95.5302279031
 11
70.4327666959
 21
95.5577042275
  0
LINE
  5
7AC
100
AcDbEntity
  8
0
100
AcDbLine
 62
7
  6
CONTINUOUS
 10
28.2226003998
 20
82.2218945613
 11
28.1117191996
 21
82.2696529057
  0
LINE
  5
7AD
100
AcDbEntity
  8
0
100
AcDbLine
 62
9
  6
CONTINUOUS
 10
71.3065712898
 20
101.3105227262
 11
71.3588200912
 21
101.2877142223
  0
LINE
  5
7AE
100
AcDbEntity
  8
0
100
AcDbLine
 62
9
  6
CONTINUOUS
 10
68.9893497558
 20
92.2227402316
 11
69.0433442079
 21
92.1990573225
  0
LINE
  5
7AF
100
AcDbEntity
  8
0
100
AcDbLine
 62
7
  6
CONTINUOUS
 10
76.7853819052
 20
95.0624714652
 11
76.7922343652
 21
95.0594583635
  0
LINE
  5
7B0
100
AcDbEntity
  8
0
100
AcDbLine
 62
7
  6
CONTINUOUS
 10
28.085852976
 20
82.2813285828
 11
28.1711116549
 21
82.2436140739
  0
LINE
  5
7B1
100
AcDbEntity
  8
0
100
AcDbLine
 62
9
  6
CONTINUOUS
 10
72.1427445916
 20
103.2594269765
 11
72.256757284
 21
103.2086176804
  0
LINE
  5
7B2
100
AcDbEntity
  8
0
100
AcDbLine
 62
9
  6
CONTINUOUS
 10
36.0501356847
 20
86.4610551127
 11
36.0073364569
 21
86.4803127839
  0
LINE
  5
7B3
100
AcDbEntity
  8
0
100
AcDbLine
 62
7
  6
CONTINUOUS
 10
74.4641903832
 20
105.4564081349
 11
74.3668639025
 21
105.5002222532
  0
LINE
  5
7B4
100
AcDbEntity
  8
0
100
AcDbLine
 62
7
  6
CONTINUOUS
 10
74.3717800078
 20
105.4980722599
 11
74.4838973652
 21
105.4471674844
  0
LINE
  5
7B5
100
AcDbEntity
  8
0
100
AcDbLine
 62
7
  6
CONTINUOUS
 10
76.7716799652
 20
92.6895113774
 11
76.7648457829
 21
92.6926200344
  0
LINE
  5
7B6
100
AcDbEntity
  8
0
100
AcDbLine
 62
9
  6
CONTINUOUS
 10
35.3750710168
 20
84.4228953578
 11
35.2826539476
 21
84.4652277909
  0
LINE
  5
7B7
100
AcDbEntity
  8
0
100
AcDbLine
 62
7
  6
CONTINUOUS
 10
28.1117191996
 20
82.2696529057
 11
28.0023108957
 21
82.3204652544
  0
LINE
  5
7B8
100
AcDbEntity
  8
0
100
AcDbLine
 62
7
  6
CONTINUOUS
 10
28.001505228
 20
82.3208536537
 11
28.085852976
 21
82.2813285828
  0
LINE
  5
7B9
100
AcDbEntity
  8
0
100
AcDbLine
 62
9
  6
CONTINUOUS
 10
70.5633482906
 20
95.498700389
 11
70.4966502287
 21
95.5302279031
  0
LINE
  5
7BA
100
AcDbEntity
  8
0
100
AcDbLine
 62
9
  6
CONTINUOUS
 10
71.3588200912
 20
101.2877142223
 11
71.4104413684
 21
101.2632528759
  0
LINE
  5
7BB
100
AcDbEntity
  8
0
100
AcDbLine
 62
9
  6
CONTINUOUS
 10
68.936661821
 20
92.247920109
 11
68.9893497558
 21
92.2227402316
  0
LINE
  5
7BC
100
AcDbEntity
  8
0
100
AcDbLine
 62
7
  6
CONTINUOUS
 10
74.560460942
 20
105.4101518148
 11
74.4641903832
 21
105.4564081349
  0
LINE
  5
7BD
100
AcDbEntity
  8
0
100
AcDbLine
 62
9
  6
CONTINUOUS
 10
72.256757284
 20
103.2086176804
 11
72.3692094923
 21
103.1542701803
  0
LINE
  5
7BE
100
AcDbEntity
  8
0
100
AcDbLine
 62
9
  6
CONTINUOUS
 10
36.0073364569
 20
86.4803127839
 11
35.9629700372
 21
86.5018708686
  0
LINE
  5
7BF
100
AcDbEntity
  8
0
100
AcDbLine
 62
7
  6
CONTINUOUS
 10
74.4838973652
 20
105.4471674844
 11
74.5947041548
 21
105.3929639453
  0
LINE
  5
7C0
100
AcDbEntity
  8
0
100
AcDbLine
 62
9
  6
CONTINUOUS
 10
35.2826539476
 20
84.4652277909
 11
35.1870504197
 21
84.5122791291
  0
LINE
  5
7C1
100
AcDbEntity
  8
0
100
AcDbLine
 62
7
  6
CONTINUOUS
 10
27.918059708
 20
82.3621892589
 11
28.001505228
 21
82.3208536537
  0
LINE
  5
7C2
100
AcDbEntity
  8
0
100
AcDbLine
 62
7
  6
CONTINUOUS
 10
28.0023108957
 20
82.3204652544
 11
27.894434634
 21
82.3743061442
  0
LINE
  5
7C3
100
AcDbEntity
  8
0
100
AcDbLine
 62
7
  6
CONTINUOUS
 10
74.6556377183
 20
105.3614657012
 11
74.560460942
 21
105.4101518148
  0
LINE
  5
7C4
100
AcDbEntity
  8
0
100
AcDbLine
 62
9
  6
CONTINUOUS
 10
71.4104413684
 20
101.2632528759
 11
71.4613510699
 21
101.2371680302
  0
LINE
  5
7C5
100
AcDbEntity
  8
0
100
AcDbLine
 62
9
  6
CONTINUOUS
 10
70.6298099695
 20
95.4644610155
 11
70.5633482906
 21
95.498700389
  0
LINE
  5
7C6
100
AcDbEntity
  8
0
100
AcDbLine
 62
9
  6
CONTINUOUS
 10
68.8852326511
 20
92.2745636288
 11
68.936661821
 21
92.247920109
  0
LINE
  5
7C7
100
AcDbEntity
  8
0
100
AcDbLine
 62
9
  6
CONTINUOUS
 10
72.3692094923
 20
103.1542701803
 11
72.4800516865
 21
103.0964024474
  0
LINE
  5
7C8
100
AcDbEntity
  8
0
100
AcDbLine
 62
7
  6
CONTINUOUS
 10
27.835534671
 20
82.4053277203
 11
27.918059708
 21
82.3621892589
  0
LINE
  5
7C9
100
AcDbEntity
  8
0
100
AcDbLine
 62
9
  6
CONTINUOUS
 10
35.9629700372
 20
86.5018708686
 11
35.9174891763
 21
86.525695031
  0
LINE
  5
7CA
100
AcDbEntity
  8
0
100
AcDbLine
 62
7
  6
CONTINUOUS
 10
74.5947041548
 20
105.3929639453
 11
74.7039796048
 21
105.3355637058
  0
LINE
  5
7CB
100
AcDbEntity
  8
0
100
AcDbLine
 62
9
  6
CONTINUOUS
 10
35.1870504197
 20
84.5122791291
 11
35.0890244084
 21
84.5640709211
  0
LINE
  5
7CC
100
AcDbEntity
  8
0
100
AcDbLine
 62
7
  6
CONTINUOUS
 10
27.894434634
 20
82.3743061442
 11
27.7881050502
 21
82.4311683475
  0
LINE
  5
7CD
100
AcDbEntity
  8
0
100
AcDbLine
 62
7
  6
CONTINUOUS
 10
74.7496080698
 20
105.3104087793
 11
74.6556377183
 21
105.3614657012
  0
LINE
  5
7CE
100
AcDbEntity
  8
0
100
AcDbLine
 62
7
  6
CONTINUOUS
 10
27.7539256706
 20
82.4502730988
 11
27.835534671
 21
82.4053277203
  0
LINE
  5
7CF
100
AcDbEntity
  8
0
100
AcDbLine
 62
9
  6
CONTINUOUS
 10
70.6941297782
 20
95.4290080347
 11
70.6298099695
 21
95.4644610155
  0
LINE
  5
7D0
100
AcDbEntity
  8
0
100
AcDbLine
 62
9
  6
CONTINUOUS
 10
71.4613510699
 20
101.2371680302
 11
71.5114548158
 21
101.2095039294
  0
LINE
  5
7D1
100
AcDbEntity
  8
0
100
AcDbLine
 62
9
  6
CONTINUOUS
 10
68.8350018079
 20
92.3026559189
 11
68.8852326511
 21
92.2745636288
  0
LINE
  5
7D2
100
AcDbEntity
  8
0
100
AcDbLine
 62
9
  6
CONTINUOUS
 10
72.4800516865
 20
103.0964024474
 11
72.5892388085
 21
103.0350130266
  0
LINE
  5
7D3
100
AcDbEntity
  8
0
100
AcDbLine
 62
7
  6
CONTINUOUS
 10
74.7039796048
 20
105.3355637058
 11
74.8115808106
 21
105.2750293131
  0
LINE
  5
7D4
100
AcDbEntity
  8
0
100
AcDbLine
 62
9
  6
CONTINUOUS
 10
35.9174891763
 20
86.525695031
 11
35.8712612072
 21
86.5517658994
  0
LINE
  5
7D5
100
AcDbEntity
  8
0
100
AcDbLine
 62
9
  6
CONTINUOUS
 10
35.0890244084
 20
84.5640709211
 11
34.9890688639
 21
84.6206925788
  0
LINE
  5
7D6
100
AcDbEntity
  8
0
100
AcDbLine
 62
7
  6
CONTINUOUS
 10
27.7881050502
 20
82.4311683475
 11
27.6834066446
 21
82.4910011076
  0
LINE
  5
7D7
100
AcDbEntity
  8
0
100
AcDbLine
 62
7
  6
CONTINUOUS
 10
74.8422637659
 20
105.2570326252
 11
74.7496080698
 21
105.3104087793
  0
LINE
  5
7D8
100
AcDbEntity
  8
0
100
AcDbLine
 62
7
  6
CONTINUOUS
 10
27.6732921078
 20
82.496990149
 11
27.7539256706
 21
82.4502730988
  0
LINE
  5
7D9
100
AcDbEntity
  8
0
100
AcDbLine
 62
9
  6
CONTINUOUS
 10
71.5114548158
 20
101.2095039294
 11
71.5606959253
 21
101.1802828802
  0
LINE
  5
7DA
100
AcDbEntity
  8
0
100
AcDbLine
 62
9
  6
CONTINUOUS
 10
70.7556073811
 20
95.3924396535
 11
70.6941297782
 21
95.4290080347
  0
LINE
  5
7DB
100
AcDbEntity
  8
0
100
AcDbLine
 62
7
  6
CONTINUOUS
 10
74.8115808106
 20
105.2750293131
 11
74.9174011434
 21
105.2114279562
  0
LINE
  5
7DC
100
AcDbEntity
  8
0
100
AcDbLine
 62
9
  6
CONTINUOUS
 10
68.7859721521
 20
92.3321566557
 11
68.8350018079
 21
92.3026559189
  0
LINE
  5
7DD
100
AcDbEntity
  8
0
100
AcDbLine
 62
9
  6
CONTINUOUS
 10
72.5892388085
 20
103.0350130266
 11
72.6966682614
 21
102.9701346686
  0
LINE
  5
7DE
100
AcDbEntity
  8
0
100
AcDbLine
 62
9
  6
CONTINUOUS
 10
35.8712612072
 20
86.5517658994
 11
35.8249385415
 21
86.5798565643
  0
LINE
  5
7DF
100
AcDbEntity
  8
0
100
AcDbLine
 62
9
  6
CONTINUOUS
 10
34.9890688639
 20
84.6206925788
 11
34.8881373374
 21
84.6819558217
  0
LINE
  5
7E0
100
AcDbEntity
  8
0
100
AcDbLine
 62
7
  6
CONTINUOUS
 10
27.6834066446
 20
82.4910011076
 11
27.5803988183
 21
82.5537685616
  0
LINE
  5
7E1
100
AcDbEntity
  8
0
100
AcDbLine
 62
7
  6
CONTINUOUS
 10
74.9335537107
 20
105.2013718753
 11
74.8422637659
 21
105.2570326252
  0
LINE
  5
7E2
100
AcDbEntity
  8
0
100
AcDbLine
 62
9
  6
CONTINUOUS
 10
71.5606959253
 20
101.1802828802
 11
71.6091162649
 21
101.1494660656
  0
LINE
  5
7E3
100
AcDbEntity
  8
0
100
AcDbLine
 62
7
  6
CONTINUOUS
 10
27.5151250518
 20
82.5956375895
 11
27.5936762671
 21
82.5454544155
  0
LINE
  5
7E4
100
AcDbEntity
  8
0
100
AcDbLine
 62
7
  6
CONTINUOUS
 10
74.9174011434
 20
105.2114279562
 11
75.0213018515
 21
105.1448351475
  0
LINE
  5
7E5
100
AcDbEntity
  8
0
100
AcDbLine
 62
9
  6
CONTINUOUS
 10
70.8123565652
 20
95.3560243116
 11
70.7556073811
 21
95.3924396535
  0
LINE
  5
7E6
100
AcDbEntity
  8
0
100
AcDbLine
 62
7
  6
CONTINUOUS
 10
75.0234027525
 20
105.1434692334
 11
74.9335537107
 21
105.2013718753
  0
LINE
  5
7E7
100
AcDbEntity
  8
0
100
AcDbLine
 62
9
  6
CONTINUOUS
 10
68.7381331508
 20
92.3630377125
 11
68.7859721521
 21
92.3321566557
  0
LINE
  5
7E8
100
AcDbEntity
  8
0
100
AcDbLine
 62
9
  6
CONTINUOUS
 10
72.6966682614
 20
102.9701346686
 11
72.8021679633
 21
102.9018644414
  0
LINE
  5
7E9
100
AcDbEntity
  8
0
100
AcDbLine
 62
7
  6
CONTINUOUS
 10
27.5803988183
 20
82.5537685616
 11
27.4791715044
 21
82.6194187996
  0
LINE
  5
7EA
100
AcDbEntity
  8
0
100
AcDbLine
 62
9
  6
CONTINUOUS
 10
34.8881373374
 20
84.6819558217
 11
34.7869190103
 21
84.747729723
  0
LINE
  5
7EB
100
AcDbEntity
  8
0
100
AcDbLine
 62
9
  6
CONTINUOUS
 10
35.8249385415
 20
86.5798565643
 11
35.7792309383
 21
86.609612785
  0
LINE
  5
7EC
100
AcDbEntity
  8
0
100
AcDbLine
 62
7
  6
CONTINUOUS
 10
27.4376886016
 20
82.6475109783
 11
27.5151250518
 21
82.5956375895
  0
LINE
  5
7ED
100
AcDbEntity
  8
0
100
AcDbLine
 62
7
  6
CONTINUOUS
 10
75.1117748278
 20
105.0833520731
 11
75.0234027525
 21
105.1434692334
  0
LINE
  5
7EE
100
AcDbEntity
  8
0
100
AcDbLine
 62
9
  6
CONTINUOUS
 10
71.6091162649
 20
101.1494660656
 11
71.6567747556
 21
101.1170074852
  0
LINE
  5
7EF
100
AcDbEntity
  8
0
100
AcDbLine
 62
7
  6
CONTINUOUS
 10
75.0213018515
 20
105.1448351475
 11
75.1232363991
 21
105.0752884633
  0
LINE
  5
7F0
100
AcDbEntity
  8
0
100
AcDbLine
 62
7
  6
CONTINUOUS
 10
27.4791715044
 20
82.6194187996
 11
27.3798025115
 21
82.6879119782
  0
LINE
  5
7F1
100
AcDbEntity
  8
0
100
AcDbLine
 62
9
  6
CONTINUOUS
 10
68.6914691098
 20
92.395280587
 11
68.7381331508
 21
92.3630377125
  0
LINE
  5
7F2
100
AcDbEntity
  8
0
100
AcDbLine
 62
9
  6
CONTINUOUS
 10
70.8663895468
 20
95.3186563623
 11
70.8123565652
 21
95.3560243116
  0
LINE
  5
7F3
100
AcDbEntity
  8
0
100
AcDbLine
 62
9
  6
CONTINUOUS
 10
72.8021679633
 20
102.9018644414
 11
72.9054447544
 21
102.8303867691
  0
LINE
  5
7F4
100
AcDbEntity
  8
0
100
AcDbLine
 62
9
  6
CONTINUOUS
 10
34.7869190103
 20
84.747729723
 11
34.686463216
 21
84.817538801
  0
LINE
  5
7F5
100
AcDbEntity
  8
0
100
AcDbLine
 62
9
  6
CONTINUOUS
 10
35.7792309383
 20
86.609612785
 11
35.7338438568
 21
86.6412741241
  0
LINE
  5
7F6
100
AcDbEntity
  8
0
100
AcDbLine
 62
7
  6
CONTINUOUS
 10
27.3613994917
 20
82.7010512779
 11
27.4376886016
 21
82.6475109783
  0
LINE
  5
7F7
100
AcDbEntity
  8
0
100
AcDbLine
 62
7
  6
CONTINUOUS
 10
75.1986271773
 20
105.0210483943
 11
75.1117748278
 21
105.0833520731
  0
LINE
  5
7F8
100
AcDbEntity
  8
0
100
AcDbLine
 62
7
  6
CONTINUOUS
 10
75.1232363991
 20
105.0752884633
 11
75.2231399295
 21
105.002829546
  0
LINE
  5
7F9
100
AcDbEntity
  8
0
100
AcDbLine
 62
9
  6
CONTINUOUS
 10
71.6567747556
 20
101.1170074852
 11
71.7035036481
 21
101.0830145058
  0
LINE
  5
7FA
100
AcDbEntity
  8
0
100
AcDbLine
 62
7
  6
CONTINUOUS
 10
76.7922343652
 20
95.0594583635
 11
76.7991156095
 21
95.054429345
  0
LINE
  5
7FB
100
AcDbEntity
  8
0
100
AcDbLine
 62
7
  6
CONTINUOUS
 10
27.3798025115
 20
82.6879119782
 11
27.2823876134
 21
82.7591760349
  0
LINE
  5
7FC
100
AcDbEntity
  8
0
100
AcDbLine
 62
7
  6
CONTINUOUS
 10
27.2862960832
 20
82.7562352867
 11
27.3613994917
 21
82.7010512779
  0
LINE
  5
7FD
100
AcDbEntity
  8
0
100
AcDbLine
 62
9
  6
CONTINUOUS
 10
68.6459805481
 20
92.4288614686
 11
68.6914691098
 21
92.395280587
  0
LINE
  5
7FE
100
AcDbEntity
  8
0
100
AcDbLine
 62
9
  6
CONTINUOUS
 10
72.9054447544
 20
102.8303867691
 11
73.00639802
 21
102.7557921228
  0
LINE
  5
7FF
100
AcDbEntity
  8
0
100
AcDbLine
 62
9
  6
CONTINUOUS
 10
34.686463216
 20
84.817538801
 11
34.5881254975
 21
84.8904671506
  0
LINE
  5
800
100
AcDbEntity
  8
0
100
AcDbLine
 62
9
  6
CONTINUOUS
 10
35.7338438568
 20
86.6412741241
 11
35.6887155913
 21
86.6749414675
  0
LINE
  5
801
100
AcDbEntity
  8
0
100
AcDbLine
 62
9
  6
CONTINUOUS
 10
70.9189764652
 20
95.2792111684
 11
70.8663895468
 21
95.3186563623
  0
LINE
  5
802
100
AcDbEntity
  8
0
100
AcDbLine
 62
7
  6
CONTINUOUS
 10
75.2839047366
 20
104.9565990219
 11
75.1986271773
 21
105.0210483943
  0
LINE
  5
803
100
AcDbEntity
  8
0
100
AcDbLine
 62
7
  6
CONTINUOUS
 10
76.7648457829
 20
92.6926200344
 11
76.7580764434
 21
92.6977950234
  0
LINE
  5
804
100
AcDbEntity
  8
0
100
AcDbLine
 62
7
  6
CONTINUOUS
 10
27.2124111586
 20
82.813034005
 11
27.2862960832
 21
82.7562352867
  0
LINE
  5
805
100
AcDbEntity
  8
0
100
AcDbLine
 62
7
  6
CONTINUOUS
 10
75.2231399295
 20
105.002829546
 11
75.3209286526
 21
104.927521709
  0
LINE
  5
806
100
AcDbEntity
  8
0
100
AcDbLine
 62
7
  6
CONTINUOUS
 10
27.2823876134
 20
82.7591760349
 11
27.1870228581
 21
82.8331479619
  0
LINE
  5
807
100
AcDbEntity
  8
0
100
AcDbLine
 62
9
  6
CONTINUOUS
 10
71.7035036481
 20
101.0830145058
 11
71.749092468
 21
101.0476368517
  0
LINE
  5
808
100
AcDbEntity
  8
0
100
AcDbLine
 62
9
  6
CONTINUOUS
 10
68.6016197569
 20
92.4638003759
 11
68.6459805481
 21
92.4288614686
  0
LINE
  5
809
100
AcDbEntity
  8
0
100
AcDbLine
 62
9
  6
CONTINUOUS
 10
73.00639802
 20
102.7557921228
 11
73.1049921994
 21
102.6781314214
  0
LINE
  5
80A
100
AcDbEntity
  8
0
100
AcDbLine
 62
9
  6
CONTINUOUS
 10
34.5881254975
 20
84.8904671506
 11
34.4916205095
 21
84.9667236961
  0
LINE
  5
80B
100
AcDbEntity
  8
0
100
AcDbLine
 62
7
  6
CONTINUOUS
 10
75.3675567901
 20
104.8900376457
 11
75.2839047366
 21
104.9565990219
  0
LINE
  5
80C
100
AcDbEntity
  8
0
100
AcDbLine
 62
9
  6
CONTINUOUS
 10
35.6887155913
 20
86.6749414675
 11
35.6441171445
 21
86.7104755017
  0
LINE
  5
80D
100
AcDbEntity
  8
0
100
AcDbLine
 62
7
  6
CONTINUOUS
 10
27.1397763414
 20
82.8714218361
 11
27.2124111586
 21
82.813034005
  0
LINE
  5
80E
100
AcDbEntity
  8
0
100
AcDbLine
 62
9
  6
CONTINUOUS
 10
70.9698045693
 20
95.2381203788
 11
70.9189764652
 21
95.2792111684
  0
LINE
  5
80F
100
AcDbEntity
  8
0
100
AcDbLine
 62
7
  6
CONTINUOUS
 10
75.3209286526
 20
104.927521709
 11
75.4165292048
 21
104.8494133304
  0
LINE
  5
810
100
AcDbEntity
  8
0
100
AcDbLine
 62
7
  6
CONTINUOUS
 10
27.1870228581
 20
82.8331479619
 11
27.0937852325
 21
82.9097607515
  0
LINE
  5
811
100
AcDbEntity
  8
0
100
AcDbLine
 62
9
  6
CONTINUOUS
 10
71.749092468
 20
101.0476368517
 11
71.7934230526
 21
101.0109760176
  0
LINE
  5
812
100
AcDbEntity
  8
0
100
AcDbLine
 62
7
  6
CONTINUOUS
 10
75.4495275323
 20
104.8214136703
 11
75.3675567901
 21
104.8900376457
  0
LINE
  5
813
100
AcDbEntity
  8
0
100
AcDbLine
 62
9
  6
CONTINUOUS
 10
73.1049921994
 20
102.6781314214
 11
73.2011274332
 21
102.5974651076
  0
LINE
  5
814
100
AcDbEntity
  8
0
100
AcDbLine
 62
9
  6
CONTINUOUS
 10
68.5583556336
 20
92.500117837
 11
68.6016197569
 21
92.4638003759
  0
LINE
  5
815
100
AcDbEntity
  8
0
100
AcDbLine
 62
7
  6
CONTINUOUS
 10
27.0684334699
 20
82.9313653699
 11
27.1397763414
 21
82.8714218361
  0
LINE
  5
816
100
AcDbEntity
  8
0
100
AcDbLine
 62
9
  6
CONTINUOUS
 10
34.4916205095
 20
84.9667236961
 11
34.3969246205
 21
85.0463798775
  0
LINE
  5
817
100
AcDbEntity
  8
0
100
AcDbLine
 62
9
  6
CONTINUOUS
 10
35.6441171445
 20
86.7104755017
 11
35.6002230951
 21
86.7478242183
  0
LINE
  5
818
100
AcDbEntity
  8
0
100
AcDbLine
 62
7
  6
CONTINUOUS
 10
75.4165292048
 20
104.8494133304
 11
75.5098454502
 21
104.768590858
  0
LINE
  5
819
100
AcDbEntity
  8
0
100
AcDbLine
 62
9
  6
CONTINUOUS
 10
71.0195477148
 20
95.1948742094
 11
70.9698045693
 21
95.2381203788
  0
LINE
  5
81A
100
AcDbEntity
  8
0
100
AcDbLine
 62
7
  6
CONTINUOUS
 10
27.0937852325
 20
82.9097607515
 11
27.002768702
 21
82.9889412025
  0
LINE
  5
81B
100
AcDbEntity
  8
0
100
AcDbLine
 62
7
  6
CONTINUOUS
 10
26.9984311067
 20
82.992826691
 11
27.0684334699
 21
82.9313653699
  0
LINE
  5
81C
100
AcDbEntity
  8
0
100
AcDbLine
 62
7
  6
CONTINUOUS
 10
75.529762723
 20
104.7507705283
 11
75.4495275323
 21
104.8214136703
  0
LINE
  5
81D
100
AcDbEntity
  8
0
100
AcDbLine
 62
9
  6
CONTINUOUS
 10
71.7934230526
 20
101.0109760176
 11
71.8364019614
 21
100.9731129505
  0
LINE
  5
81E
100
AcDbEntity
  8
0
100
AcDbLine
 62
9
  6
CONTINUOUS
 10
73.2011274332
 20
102.5974651076
 11
73.2948105618
 21
102.5137632673
  0
LINE
  5
81F
100
AcDbEntity
  8
0
100
AcDbLine
 62
9
  6
CONTINUOUS
 10
68.5161706398
 20
92.5378353087
 11
68.5583556336
 21
92.500117837
  0
LINE
  5
820
100
AcDbEntity
  8
0
100
AcDbLine
 62
9
  6
CONTINUOUS
 10
34.3969246205
 20
85.0463798775
 11
34.3040981809
 21
85.129446576
  0
LINE
  5
821
100
AcDbEntity
  8
0
100
AcDbLine
 62
9
  6
CONTINUOUS
 10
35.6002230951
 20
86.7478242183
 11
35.5572165438
 21
86.7869012635
  0
LINE
  5
822
100
AcDbEntity
  8
0
100
AcDbLine
 62
7
  6
CONTINUOUS
 10
26.9297807023
 20
83.0557937178
 11
26.9984311067
 21
82.992826691
  0
LINE
  5
823
100
AcDbEntity
  8
0
100
AcDbLine
 62
7
  6
CONTINUOUS
 10
75.5098454502
 20
104.768590858
 11
75.6007797796
 21
104.6851335634
  0
LINE
  5
824
100
AcDbEntity
  8
0
100
AcDbLine
 62
7
  6
CONTINUOUS
 10
27.002768702
 20
82.9889412025
 11
26.9140183799
 21
83.0706448877
  0
LINE
  5
825
100
AcDbEntity
  8
0
100
AcDbLine
 62
7
  6
CONTINUOUS
 10
75.6082069498
 20
104.6781598259
 11
75.529762723
 21
104.7507705283
  0
LINE
  5
826
100
AcDbEntity
  8
0
100
AcDbLine
 62
9
  6
CONTINUOUS
 10
71.0664943783
 20
95.1510655719
 11
71.0195477148
 21
95.1948742094
  0
LINE
  5
827
100
AcDbEntity
  8
0
100
AcDbLine
 62
9
  6
CONTINUOUS
 10
71.8364019614
 20
100.9731129505
 11
71.8781700546
 21
100.9339208485
  0
LINE
  5
828
100
AcDbEntity
  8
0
100
AcDbLine
 62
9
  6
CONTINUOUS
 10
73.2948105618
 20
102.5137632673
 11
73.3858439068
 21
102.4272109914
  0
LINE
  5
829
100
AcDbEntity
  8
0
100
AcDbLine
 62
9
  6
CONTINUOUS
 10
34.3040981809
 20
85.129446576
 11
34.2130528226
 21
85.2160689194
  0
LINE
  5
82A
100
AcDbEntity
  8
0
100
AcDbLine
 62
9
  6
CONTINUOUS
 10
68.4750453754
 20
92.5769879199
 11
68.5161706398
 21
92.5378353087
  0
LINE
  5
82B
100
AcDbEntity
  8
0
100
AcDbLine
 62
7
  6
CONTINUOUS
 10
26.862500758
 20
83.1202509745
 11
26.9297807023
 21
83.0557937178
  0
LINE
  5
82C
100
AcDbEntity
  8
0
100
AcDbLine
 62
9
  6
CONTINUOUS
 10
35.5572165438
 20
86.7869012635
 11
35.5150096053
 21
86.8278151012
  0
LINE
  5
82D
100
AcDbEntity
  8
0
100
AcDbLine
 62
7
  6
CONTINUOUS
 10
75.6007797796
 20
104.6851335634
 11
75.6892632497
 21
104.5991113537
  0
LINE
  5
82E
100
AcDbEntity
  8
0
100
AcDbLine
 62
7
  6
CONTINUOUS
 10
26.9140183799
 20
83.0706448877
 11
26.8276009695
 21
83.1548121838
  0
LINE
  5
82F
100
AcDbEntity
  8
0
100
AcDbLine
 62
9
  6
CONTINUOUS
 10
71.108968764
 20
95.1087398106
 11
71.0664943783
 21
95.1510655719
  0
LINE
  5
830
100
AcDbEntity
  8
0
100
AcDbLine
 62
9
  6
CONTINUOUS
 10
71.8781700546
 20
100.9339208485
 11
71.9188601813
 21
100.8932779245
  0
LINE
  5
831
100
AcDbEntity
  8
0
100
AcDbLine
 62
7
  6
CONTINUOUS
 10
26.796618684
 20
83.1861707276
 11
26.862500758
 21
83.1202509745
  0
LINE
  5
832
100
AcDbEntity
  8
0
100
AcDbLine
 62
9
  6
CONTINUOUS
 10
34.2130528226
 20
85.2160689194
 11
34.124757217
 21
85.3053577395
  0
LINE
  5
833
100
AcDbEntity
  8
0
100
AcDbLine
 62
9
  6
CONTINUOUS
 10
73.3858439068
 20
102.4272109914
 11
73.4740466653
 21
102.3379833117
  0
LINE
  5
834
100
AcDbEntity
  8
0
100
AcDbLine
 62
9
  6
CONTINUOUS
 10
68.4349912663
 20
92.6175931437
 11
68.4750453754
 21
92.5769879199
  0
LINE
  5
835
100
AcDbEntity
  8
0
100
AcDbLine
 62
7
  6
CONTINUOUS
 10
76.7991156095
 20
95.054429345
 11
76.8060087306
 21
95.0473871285
  0
LINE
  5
836
100
AcDbEntity
  8
0
100
AcDbLine
 62
7
  6
CONTINUOUS
 10
75.7595020346
 20
104.5272339912
 11
75.6847983227
 21
104.6036349637
  0
LINE
  5
837
100
AcDbEntity
  8
0
100
AcDbLine
 62
7
  6
CONTINUOUS
 10
75.6892632497
 20
104.5991113537
 11
75.7752065585
 21
104.5106063818
  0
LINE
  5
838
100
AcDbEntity
  8
0
100
AcDbLine
 62
7
  6
CONTINUOUS
 10
26.8276009695
 20
83.1548121838
 11
26.7435456662
 21
83.2414154784
  0
LINE
  5
839
100
AcDbEntity
  8
0
100
AcDbLine
 62
9
  6
CONTINUOUS
 10
35.5150096053
 20
86.8278151012
 11
35.4743946235
 21
86.8697665529
  0
LINE
  5
83A
100
AcDbEntity
  8
0
100
AcDbLine
 62
7
  6
CONTINUOUS
 10
26.7321631559
 20
83.253523589
 11
26.796618684
 21
83.1861707276
  0
LINE
  5
83B
100
AcDbEntity
  8
0
100
AcDbLine
 62
9
  6
CONTINUOUS
 10
71.1483919546
 20
95.066898119
 11
71.108968764
 21
95.1087398106
  0
LINE
  5
83C
100
AcDbEntity
  8
0
100
AcDbLine
 62
9
  6
CONTINUOUS
 10
71.9188601813
 20
100.8932779245
 11
71.9583863889
 21
100.8512647671
  0
LINE
  5
83D
100
AcDbEntity
  8
0
100
AcDbLine
 62
9
  6
CONTINUOUS
 10
34.124757217
 20
85.3053577395
 11
34.0394993875
 21
85.3969339415
  0
LINE
  5
83E
100
AcDbEntity
  8
0
100
AcDbLine
 62
7
  6
CONTINUOUS
 10
75.8322705499
 20
104.4490039695
 11
75.7595020346
 21
104.5272339912
  0
LINE
  5
83F
100
AcDbEntity
  8
0
100
AcDbLine
 62
9
  6
CONTINUOUS
 10
73.4740466653
 20
102.3379833117
 11
73.5594471581
 21
102.2460713259
  0
LINE
  5
840
100
AcDbEntity
  8
0
100
AcDbLine
 62
9
  6
CONTINUOUS
 10
68.3960158932
 20
92.6596814654
 11
68.4349912663
 21
92.6175931437
  0
LINE
  5
841
100
AcDbEntity
  8
0
100
AcDbLine
 62
7
  6
CONTINUOUS
 10
76.7580764434
 20
92.6977950234
 11
76.7513872056
 21
92.705021835
  0
LINE
  5
842
100
AcDbEntity
  8
0
100
AcDbLine
 62
7
  6
CONTINUOUS
 10
26.7435456662
 20
83.2414154784
 11
26.6618690921
 21
83.3304461979
  0
LINE
  5
843
100
AcDbEntity
  8
0
100
AcDbLine
 62
7
  6
CONTINUOUS
 10
75.7752065585
 20
104.5106063818
 11
75.858573173
 21
104.4196611814
  0
LINE
  5
844
100
AcDbEntity
  8
0
100
AcDbLine
 62
7
  6
CONTINUOUS
 10
26.6691488791
 20
83.3222990461
 11
26.7321631559
 21
83.253523589
  0
LINE
  5
845
100
AcDbEntity
  8
0
100
AcDbLine
 62
9
  6
CONTINUOUS
 10
35.4743946235
 20
86.8697665529
 11
35.4360506667
 21
86.9119265302
  0
LINE
  5
846
100
AcDbEntity
  8
0
100
AcDbLine
 62
9
  6
CONTINUOUS
 10
71.1853325172
 20
95.0251939472
 11
71.1483919546
 21
95.066898119
  0
LINE
  5
847
100
AcDbEntity
  8
0
100
AcDbLine
 62
7
  6
CONTINUOUS
 10
75.9030801634
 20
104.3689712641
 11
75.8322705499
 21
104.4490039695
  0
LINE
  5
848
100
AcDbEntity
  8
0
100
AcDbLine
 62
9
  6
CONTINUOUS
 10
71.9583863889
 20
100.8512647671
 11
71.9966351032
 21
100.8079844857
  0
LINE
  5
849
100
AcDbEntity
  8
0
100
AcDbLine
 62
7
  6
CONTINUOUS
 10
26.6075879545
 20
83.392490768
 11
26.6691488791
 21
83.3222990461
  0
LINE
  5
84A
100
AcDbEntity
  8
0
100
AcDbLine
 62
9
  6
CONTINUOUS
 10
34.0394993875
 20
85.3969339415
 11
33.9583317761
 21
85.4894970106
  0
LINE
  5
84B
100
AcDbEntity
  8
0
100
AcDbLine
 62
9
  6
CONTINUOUS
 10
73.5594471581
 20
102.2460713259
 11
73.6420267808
 21
102.15152242
  0
LINE
  5
84C
100
AcDbEntity
  8
0
100
AcDbLine
 62
9
  6
CONTINUOUS
 10
68.3581462451
 20
92.7032722112
 11
68.3960158932
 21
92.6596814654
  0
LINE
  5
84D
100
AcDbEntity
  8
0
100
AcDbLine
 62
7
  6
CONTINUOUS
 10
26.6618690921
 20
83.3304461979
 11
26.5826756698
 21
83.4217876026
  0
LINE
  5
84E
100
AcDbEntity
  8
0
100
AcDbLine
 62
7
  6
CONTINUOUS
 10
75.858573173
 20
104.4196611814
 11
75.9393192078
 21
104.3263189939
  0
LINE
  5
84F
100
AcDbEntity
  8
0
100
AcDbLine
 62
9
  6
CONTINUOUS
 10
35.4360506667
 20
86.9119265302
 11
35.4001060615
 21
86.9539453081
  0
LINE
  5
850
100
AcDbEntity
  8
0
100
AcDbLine
 62
7
  6
CONTINUOUS
 10
75.971907689
 20
104.2871581608
 11
75.9030801634
 21
104.3689712641
  0
LINE
  5
851
100
AcDbEntity
  8
0
100
AcDbLine
 62
7
  6
CONTINUOUS
 10
26.5475168723
 20
83.4640568221
 11
26.6075879545
 21
83.392490768
  0
LINE
  5
852
100
AcDbEntity
  8
0
100
AcDbLine
 62
9
  6
CONTINUOUS
 10
71.2203169166
 20
94.983233042
 11
71.1853325172
 21
95.0251939472
  0
LINE
  5
853
100
AcDbEntity
  8
0
100
AcDbLine
 62
9
  6
CONTINUOUS
 10
71.9966351032
 20
100.8079844857
 11
72.0334488047
 21
100.7636100907
  0
LINE
  5
854
100
AcDbEntity
  8
0
100
AcDbLine
 62
9
  6
CONTINUOUS
 10
33.9583317761
 20
85.4894970106
 11
33.8821434103
 21
85.5816041054
  0
LINE
  5
855
100
AcDbEntity
  8
0
100
AcDbLine
 62
9
  6
CONTINUOUS
 10
73.6420267808
 20
102.15152242
 11
73.7217648565
 21
102.0543296246
  0
LINE
  5
856
100
AcDbEntity
  8
0
100
AcDbLine
 62
7
  6
CONTINUOUS
 10
26.5826756698
 20
83.4217876026
 11
26.5059899683
 21
83.5154401049
  0
LINE
  5
857
100
AcDbEntity
  8
0
100
AcDbLine
 62
7
  6
CONTINUOUS
 10
75.9393192078
 20
104.3263189939
 11
76.0173774189
 21
104.2306598485
  0
LINE
  5
858
100
AcDbEntity
  8
0
100
AcDbLine
 62
9
  6
CONTINUOUS
 10
68.3214117981
 20
92.7483900462
 11
68.3581462451
 21
92.7032722112
  0
LINE
  5
859
100
AcDbEntity
  8
0
100
AcDbLine
 62
9
  6
CONTINUOUS
 10
35.4001060615
 20
86.9539453081
 11
35.3667672232
 21
86.9953047113
  0
LINE
  5
85A
100
AcDbEntity
  8
0
100
AcDbLine
 62
7
  6
CONTINUOUS
 10
26.4889105635
 20
83.5370420655
 11
26.5475168723
 21
83.4640568221
  0
LINE
  5
85B
100
AcDbEntity
  8
0
100
AcDbLine
 62
7
  6
CONTINUOUS
 10
76.038704034
 20
104.2036239592
 11
75.971907689
 21
104.2871581608
  0
LINE
  5
85C
100
AcDbEntity
  8
0
100
AcDbLine
 62
9
  6
CONTINUOUS
 10
71.2540061363
 20
94.9402974417
 11
71.2203169166
 21
94.983233042
  0
LINE
  5
85D
100
AcDbEntity
  8
0
100
AcDbLine
 62
9
  6
CONTINUOUS
 10
33.8821434103
 20
85.5816041054
 11
33.8111466182
 21
85.6724860099
  0
LINE
  5
85E
100
AcDbEntity
  8
0
100
AcDbLine
 62
9
  6
CONTINUOUS
 10
72.0334488047
 20
100.7636100907
 11
72.0687229934
 21
100.7182678071
  0
LINE
  5
85F
100
AcDbEntity
  8
0
100
AcDbLine
 62
7
  6
CONTINUOUS
 10
26.5059899683
 20
83.5154401049
 11
26.4320681712
 21
83.6110436751
  0
LINE
  5
860
100
AcDbEntity
  8
0
100
AcDbLine
 62
9
  6
CONTINUOUS
 10
73.7217648565
 20
102.0543296246
 11
73.798536328
 21
101.9545987044
  0
LINE
  5
861
100
AcDbEntity
  8
0
100
AcDbLine
 62
7
  6
CONTINUOUS
 10
76.0173774189
 20
104.2306598485
 11
76.0927023019
 21
104.1327258094
  0
LINE
  5
862
100
AcDbEntity
  8
0
100
AcDbLine
 62
7
  6
CONTINUOUS
 10
26.4319658063
 20
83.6111797975
 11
26.4889105635
 21
83.5370420655
  0
LINE
  5
863
100
AcDbEntity
  8
0
100
AcDbLine
 62
9
  6
CONTINUOUS
 10
68.2858472572
 20
92.7950625142
 11
68.3214117981
 21
92.7483900462
  0
LINE
  5
864
100
AcDbEntity
  8
0
100
AcDbLine
 62
7
  6
CONTINUOUS
 10
76.8060087306
 20
95.0473871285
 11
76.8128977779
 21
95.0383424187
  0
LINE
  5
865
100
AcDbEntity
  8
0
100
AcDbLine
 62
9
  6
CONTINUOUS
 10
35.3667672232
 20
86.9953047113
 11
35.3359909797
 21
87.0357319514
  0
LINE
  5
866
100
AcDbEntity
  8
0
100
AcDbLine
 62
7
  6
CONTINUOUS
 10
76.1034375935
 20
104.1183990144
 11
76.038704034
 21
104.2036239592
  0
LINE
  5
867
100
AcDbEntity
  8
0
100
AcDbLine
 62
9
  6
CONTINUOUS
 10
33.8111466182
 20
85.6724860099
 11
33.7457513193
 21
85.7609600222
  0
LINE
  5
868
100
AcDbEntity
  8
0
100
AcDbLine
 62
9
  6
CONTINUOUS
 10
71.286209197
 20
94.8966406849
 11
71.2540061363
 21
94.9402974417
  0
LINE
  5
869
100
AcDbEntity
  8
0
100
AcDbLine
 62
7
  6
CONTINUOUS
 10
26.3768728712
 20
83.6862254633
 11
26.4319658063
 21
83.6111797975
  0
LINE
  5
86A
100
AcDbEntity
  8
0
100
AcDbLine
 62
7
  6
CONTINUOUS
 10
26.4320681712
 20
83.6110436751
 11
26.3611908634
 21
83.7082257141
  0
LINE
  5
86B
100
AcDbEntity
  8
0
100
AcDbLine
 62
9
  6
CONTINUOUS
 10
72.0687229934
 20
100.7182678071
 11
72.1024956837
 21
100.6719156801
  0
LINE
  5
86C
100
AcDbEntity
  8
0
100
AcDbLine
 62
7
  6
CONTINUOUS
 10
76.0927023019
 20
104.1327258094
 11
76.1651847527
 21
104.0326740135
  0
LINE
  5
86D
100
AcDbEntity
  8
0
100
AcDbLine
 62
9
  6
CONTINUOUS
 10
73.798536328
 20
101.9545987044
 11
73.8721271723
 21
101.8526112469
  0
LINE
  5
86E
100
AcDbEntity
  8
0
100
AcDbLine
 62
7
  6
CONTINUOUS
 10
76.1660327179
 20
104.0315924451
 11
76.1034375935
 21
104.1183990144
  0
LINE
  5
86F
100
AcDbEntity
  8
0
100
AcDbLine
 62
9
  6
CONTINUOUS
 10
35.3359909797
 20
87.0357319514
 11
35.3078721686
 21
87.0747494485
  0
LINE
  5
870
100
AcDbEntity
  8
0
100
AcDbLine
 62
7
  6
CONTINUOUS
 10
76.7513872056
 20
92.705021835
 11
76.744793216
 21
92.7142777948
  0
LINE
  5
871
100
AcDbEntity
  8
0
100
AcDbLine
 62
9
  6
CONTINUOUS
 10
68.2514970394
 20
92.843314085
 11
68.2858472572
 21
92.7950625142
  0
LINE
  5
872
100
AcDbEntity
  8
0
100
AcDbLine
 62
7
  6
CONTINUOUS
 10
26.3236262118
 20
83.7621574813
 11
26.3768728712
 21
83.6862254633
  0
LINE
  5
873
100
AcDbEntity
  8
0
100
AcDbLine
 62
9
  6
CONTINUOUS
 10
33.7457513193
 20
85.7609600222
 11
33.6857594355
 21
85.846563707
  0
LINE
  5
874
100
AcDbEntity
  8
0
100
AcDbLine
 62
9
  6
CONTINUOUS
 10
71.3169671642
 20
94.8522324628
 11
71.286209197
 21
94.8966406849
  0
LINE
  5
875
100
AcDbEntity
  8
0
100
AcDbLine
 62
7
  6
CONTINUOUS
 10
26.3611908634
 20
83.7082257141
 11
26.2933094106
 21
83.8070243424
  0
LINE
  5
876
100
AcDbEntity
  8
0
100
AcDbLine
 62
7
  6
CONTINUOUS
 10
76.226424746
 20
103.9432873885
 11
76.1660327179
 21
104.0315924451
  0
LINE
  5
877
100
AcDbEntity
  8
0
100
AcDbLine
 62
9
  6
CONTINUOUS
 10
35.3078721686
 20
87.0747494485
 11
35.2822324871
 21
87.1122485743
  0
LINE
  5
878
100
AcDbEntity
  8
0
100
AcDbLine
 62
9
  6
CONTINUOUS
 10
72.1024956837
 20
100.6719156801
 11
72.1347948026
 21
100.6245326642
  0
LINE
  5
879
100
AcDbEntity
  8
0
100
AcDbLine
 62
7
  6
CONTINUOUS
 10
76.1651847527
 20
104.0326740135
 11
76.2347280254
 21
103.9306283488
  0
LINE
  5
87A
100
AcDbEntity
  8
0
100
AcDbLine
 62
9
  6
CONTINUOUS
 10
73.8721271723
 20
101.8526112469
 11
73.9424649904
 21
101.7484716066
  0
LINE
  5
87B
100
AcDbEntity
  8
0
100
AcDbLine
 62
7
  6
CONTINUOUS
 10
26.2723501648
 20
83.838772734
 11
26.3236262118
 21
83.7621574813
  0
LINE
  5
87C
100
AcDbEntity
  8
0
100
AcDbLine
 62
9
  6
CONTINUOUS
 10
33.6857594355
 20
85.846563707
 11
33.6312085561
 21
85.9284729259
  0
LINE
  5
87D
100
AcDbEntity
  8
0
100
AcDbLine
 62
9
  6
CONTINUOUS
 10
68.2184010287
 20
92.8931867244
 11
68.2514970394
 21
92.843314085
  0
LINE
  5
87E
100
AcDbEntity
  8
0
100
AcDbLine
 62
9
  6
CONTINUOUS
 10
35.2822324871
 20
87.1122485743
 11
35.259040747
 21
87.1479251445
  0
LINE
  5
87F
100
AcDbEntity
  8
0
100
AcDbLine
 62
9
  6
CONTINUOUS
 10
71.3462232038
 20
94.8071834521
 11
71.3169671642
 21
94.8522324628
  0
LINE
  5
880
100
AcDbEntity
  8
0
100
AcDbLine
 62
7
  6
CONTINUOUS
 10
76.2845491076
 20
103.8535921435
 11
76.226424746
 21
103.9432873885
  0
LINE
  5
881
100
AcDbEntity
  8
0
100
AcDbLine
 62
7
  6
CONTINUOUS
 10
26.2933094106
 20
83.8070243424
 11
26.2286481781
 21
83.9070417873
  0
LINE
  5
882
100
AcDbEntity
  8
0
100
AcDbLine
 62
7
  6
CONTINUOUS
 10
76.2347280254
 20
103.9306283488
 11
76.3012495406
 21
103.8267306269
  0
LINE
  5
883
100
AcDbEntity
  8
0
100
AcDbLine
 62
7
  6
CONTINUOUS
 10
26.2228453516
 20
83.9163712744
 11
26.2723501648
 21
83.838772734
  0
LINE
  5
884
100
AcDbEntity
  8
0
100
AcDbLine
 62
9
  6
CONTINUOUS
 10
72.1347948026
 20
100.6245326642
 11
72.1656079975
 21
100.5761419123
  0
LINE
  5
885
100
AcDbEntity
  8
0
100
AcDbLine
 62
9
  6
CONTINUOUS
 10
33.6312085561
 20
85.9284729259
 11
33.5815157109
 21
86.0068224732
  0
LINE
  5
886
100
AcDbEntity
  8
0
100
AcDbLine
 62
9
  6
CONTINUOUS
 10
73.9424649904
 20
101.7484716066
 11
74.0095892532
 21
101.6421205475
  0
LINE
  5
887
100
AcDbEntity
  8
0
100
AcDbLine
 62
7
  6
CONTINUOUS
 10
76.8128977779
 20
95.0383424187
 11
76.819770251
 21
95.0273059574
  0
LINE
  5
888
100
AcDbEntity
  8
0
100
AcDbLine
 62
9
  6
CONTINUOUS
 10
35.259040747
 20
87.1479251445
 11
35.2378902938
 21
87.1820642135
  0
LINE
  5
889
100
AcDbEntity
  8
0
100
AcDbLine
 62
9
  6
CONTINUOUS
 10
68.1866109375
 20
92.9447191361
 11
68.2184010287
 21
92.8931867244
  0
LINE
  5
88A
100
AcDbEntity
  8
0
100
AcDbLine
 62
7
  6
CONTINUOUS
 10
76.3402950974
 20
103.7626834426
 11
76.2845491076
 21
103.8535921435
  0
LINE
  5
88B
100
AcDbEntity
  8
0
100
AcDbLine
 62
7
  6
CONTINUOUS
 10
26.175047205
 20
83.9950019354
 11
26.2228453516
 21
83.9163712744
  0
LINE
  5
88C
100
AcDbEntity
  8
0
100
AcDbLine
 62
9
  6
CONTINUOUS
 10
71.37391027
 20
94.7616376218
 11
71.3462232038
 21
94.8071834521
  0
LINE
  5
88D
100
AcDbEntity
  8
0
100
AcDbLine
 62
7
  6
CONTINUOUS
 10
26.2286481781
 20
83.9070417873
 11
26.1666687523
 21
84.0092131305
  0
LINE
  5
88E
100
AcDbEntity
  8
0
100
AcDbLine
 62
9
  6
CONTINUOUS
 10
33.5815157109
 20
86.0068224732
 11
33.5364529549
 21
86.0813242016
  0
LINE
  5
88F
100
AcDbEntity
  8
0
100
AcDbLine
 62
7
  6
CONTINUOUS
 10
76.3012495406
 20
103.8267306269
 11
76.3645883555
 21
103.7212464179
  0
LINE
  5
890
100
AcDbEntity
  8
0
100
AcDbLine
 62
9
  6
CONTINUOUS
 10
72.1656079975
 20
100.5761419123
 11
72.1949787208
 21
100.5266503396
  0
LINE
  5
891
100
AcDbEntity
  8
0
100
AcDbLine
 62
9
  6
CONTINUOUS
 10
35.2378902938
 20
87.1820642135
 11
35.2183606781
 21
87.2150865848
  0
LINE
  5
892
100
AcDbEntity
  8
0
100
AcDbLine
 62
9
  6
CONTINUOUS
 10
74.0095892532
 20
101.6421205475
 11
74.073287556
 21
101.5339175763
  0
LINE
  5
893
100
AcDbEntity
  8
0
100
AcDbLine
 62
7
  6
CONTINUOUS
 10
76.39373646
 20
103.6704391226
 11
76.3402950974
 21
103.7626834426
  0
LINE
  5
894
100
AcDbEntity
  8
0
100
AcDbLine
 62
7
  6
CONTINUOUS
 10
26.1286756274
 20
84.0752152596
 11
26.175047205
 21
83.9950019354
  0
LINE
  5
895
100
AcDbEntity
  8
0
100
AcDbLine
 62
9
  6
CONTINUOUS
 10
33.5364529549
 20
86.0813242016
 11
33.4952959733
 21
86.1525089582
  0
LINE
  5
896
100
AcDbEntity
  8
0
100
AcDbLine
 62
7
  6
CONTINUOUS
 10
76.744793216
 20
92.7142777948
 11
76.7383046841
 21
92.7255383842
  0
LINE
  5
897
100
AcDbEntity
  8
0
100
AcDbLine
 62
9
  6
CONTINUOUS
 10
68.1561865451
 20
92.9979517117
 11
68.1866109375
 21
92.9447191361
  0
LINE
  5
898
100
AcDbEntity
  8
0
100
AcDbLine
 62
7
  6
CONTINUOUS
 10
26.1666687523
 20
84.0092131305
 11
26.1066766109
 21
84.1147636886
  0
LINE
  5
899
100
AcDbEntity
  8
0
100
AcDbLine
 62
9
  6
CONTINUOUS
 10
71.40012679
 20
94.7154788815
 11
71.37391027
 21
94.7616376218
  0
LINE
  5
89A
100
AcDbEntity
  8
0
100
AcDbLine
 62
9
  6
CONTINUOUS
 10
35.2183606781
 20
87.2150865848
 11
35.2003247546
 21
87.2470205895
  0
LINE
  5
89B
100
AcDbEntity
  8
0
100
AcDbLine
 62
7
  6
CONTINUOUS
 10
76.3645883555
 20
103.7212464179
 11
76.4248828148
 21
103.6139283338
  0
LINE
  5
89C
100
AcDbEntity
  8
0
100
AcDbLine
 62
9
  6
CONTINUOUS
 10
33.4952959733
 20
86.1525089582
 11
33.4573704104
 21
86.2209542557
  0
LINE
  5
89D
100
AcDbEntity
  8
0
100
AcDbLine
 62
9
  6
CONTINUOUS
 10
72.1949787208
 20
100.5266503396
 11
72.2225938315
 21
100.476599625
  0
LINE
  5
89E
100
AcDbEntity
  8
0
100
AcDbLine
 62
7
  6
CONTINUOUS
 10
26.0832429681
 20
84.157913136
 11
26.1286756274
 21
84.0752152596
  0
LINE
  5
89F
100
AcDbEntity
  8
0
100
AcDbLine
 62
9
  6
CONTINUOUS
 10
74.073287556
 20
101.5339175763
 11
74.1337229428
 21
101.4235828645
  0
LINE
  5
8A0
100
AcDbEntity
  8
0
100
AcDbLine
 62
7
  6
CONTINUOUS
 10
76.4448851838
 20
103.5768562452
 11
76.39373646
 21
103.6704391226
  0
LINE
  5
8A1
100
AcDbEntity
  8
0
100
AcDbLine
 62
9
  6
CONTINUOUS
 10
35.2003247546
 20
87.2470205895
 11
35.1837240866
 21
87.277723193
  0
LINE
  5
8A2
100
AcDbEntity
  8
0
100
AcDbLine
 62
7
  6
CONTINUOUS
 10
26.1066766109
 20
84.1147636886
 11
26.0493644443
 21
84.2224249843
  0
LINE
  5
8A3
100
AcDbEntity
  8
0
100
AcDbLine
 62
9
  6
CONTINUOUS
 10
33.4573704104
 20
86.2209542557
 11
33.4228923883
 21
86.2857826235
  0
LINE
  5
8A4
100
AcDbEntity
  8
0
100
AcDbLine
 62
9
  6
CONTINUOUS
 10
71.4249233529
 20
94.6686344242
 11
71.40012679
 21
94.7154788815
  0
LINE
  5
8A5
100
AcDbEntity
  8
0
100
AcDbLine
 62
9
  6
CONTINUOUS
 10
68.1271790409
 20
93.0529605358
 11
68.1561865451
 21
92.9979517117
  0
LINE
  5
8A6
100
AcDbEntity
  8
0
100
AcDbLine
 62
7
  6
CONTINUOUS
 10
76.819770251
 20
95.0273059574
 11
76.8266146006
 21
95.0142905284
  0
LINE
  5
8A7
100
AcDbEntity
  8
0
100
AcDbLine
 62
7
  6
CONTINUOUS
 10
76.4248828148
 20
103.6139283338
 11
76.4822059629
 21
103.5046677612
  0
LINE
  5
8A8
100
AcDbEntity
  8
0
100
AcDbLine
 62
7
  6
CONTINUOUS
 10
26.0393073189
 20
84.2420903578
 11
26.0832429681
 21
84.157913136
  0
LINE
  5
8A9
100
AcDbEntity
  8
0
100
AcDbLine
 62
9
  6
CONTINUOUS
 10
35.1837240866
 20
87.277723193
 11
35.169031416
 21
87.30598926
  0
LINE
  5
8AA
100
AcDbEntity
  8
0
100
AcDbLine
 62
7
  6
CONTINUOUS
 10
76.4938158311
 20
103.4817538691
 11
76.4448851838
 21
103.5768562452
  0
LINE
  5
8AB
100
AcDbEntity
  8
0
100
AcDbLine
 62
9
  6
CONTINUOUS
 10
72.2225938315
 20
100.476599625
 11
72.2484213787
 21
100.4261183183
  0
LINE
  5
8AC
100
AcDbEntity
  8
0
100
AcDbLine
 62
9
  6
CONTINUOUS
 10
33.4228923883
 20
86.2857826235
 11
33.3916203734
 21
86.3470532445
  0
LINE
  5
8AD
100
AcDbEntity
  8
0
100
AcDbLine
 62
9
  6
CONTINUOUS
 10
74.1337229428
 20
101.4235828645
 11
74.1899098013
 21
101.3130490714
  0
LINE
  5
8AE
100
AcDbEntity
  8
0
100
AcDbLine
 62
9
  6
CONTINUOUS
 10
35.169031416
 20
87.30598926
 11
35.1564256684
 21
87.3312305836
  0
LINE
  5
8AF
100
AcDbEntity
  8
0
100
AcDbLine
 62
7
  6
CONTINUOUS
 10
26.0493644443
 20
84.2224249843
 11
25.995437692
 21
84.3307349871
  0
LINE
  5
8B0
100
AcDbEntity
  8
0
100
AcDbLine
 62
7
  6
CONTINUOUS
 10
25.9972566763
 20
84.3270601929
 11
26.0393073189
 21
84.2420903578
  0
LINE
  5
8B1
100
AcDbEntity
  8
0
100
AcDbLine
 62
9
  6
CONTINUOUS
 10
71.4483134989
 20
94.6210748239
 11
71.4249233529
 21
94.6686344242
  0
LINE
  5
8B2
100
AcDbEntity
  8
0
100
AcDbLine
 62
9
  6
CONTINUOUS
 10
33.3916203734
 20
86.3470532445
 11
33.3628579579
 21
86.4057181566
  0
LINE
  5
8B3
100
AcDbEntity
  8
0
100
AcDbLine
 62
7
  6
CONTINUOUS
 10
76.4822059629
 20
103.5046677612
 11
76.5365927575
 21
103.3933139454
  0
LINE
  5
8B4
100
AcDbEntity
  8
0
100
AcDbLine
 62
9
  6
CONTINUOUS
 10
68.0997227186
 20
93.1096755567
 11
68.1271790409
 21
93.0529605358
  0
LINE
  5
8B5
100
AcDbEntity
  8
0
100
AcDbLine
 62
7
  6
CONTINUOUS
 10
76.5406581998
 20
103.3848530165
 11
76.4938158311
 21
103.4817538691
  0
LINE
  5
8B6
100
AcDbEntity
  8
0
100
AcDbLine
 62
7
  6
CONTINUOUS
 10
76.7383046841
 20
92.7255383842
 11
76.7319320741
 21
92.7387754949
  0
LINE
  5
8B7
100
AcDbEntity
  8
0
100
AcDbLine
 62
9
  6
CONTINUOUS
 10
35.1564256684
 20
87.3312305836
 11
35.1449014904
 21
87.3553148608
  0
LINE
  5
8B8
100
AcDbEntity
  8
0
100
AcDbLine
 62
9
  6
CONTINUOUS
 10
72.2484213787
 20
100.4261183183
 11
72.2719695658
 21
100.3763747432
  0
LINE
  5
8B9
100
AcDbEntity
  8
0
100
AcDbLine
 62
9
  6
CONTINUOUS
 10
33.3628579579
 20
86.4057181566
 11
33.3366833121
 21
86.4612405656
  0
LINE
  5
8BA
100
AcDbEntity
  8
0
100
AcDbLine
 62
9
  6
CONTINUOUS
 10
74.1899098013
 20
101.3130490714
 11
74.241327594
 21
101.2038651861
  0
LINE
  5
8BB
100
AcDbEntity
  8
0
100
AcDbLine
 62
7
  6
CONTINUOUS
 10
25.9571136753
 20
84.4127691068
 11
25.9972566763
 21
84.3270601929
  0
LINE
  5
8BC
100
AcDbEntity
  8
0
100
AcDbLine
 62
7
  6
CONTINUOUS
 10
25.995437692
 20
84.3307349871
 11
25.9441635845
 21
84.4414996732
  0
LINE
  5
8BD
100
AcDbEntity
  8
0
100
AcDbLine
 62
9
  6
CONTINUOUS
 10
35.1449014904
 20
87.3553148608
 11
35.1337392243
 21
87.3795318829
  0
LINE
  5
8BE
100
AcDbEntity
  8
0
100
AcDbLine
 62
9
  6
CONTINUOUS
 10
33.3366833121
 20
86.4612405656
 11
33.3134440794
 21
86.5123107795
  0
LINE
  5
8BF
100
AcDbEntity
  8
0
100
AcDbLine
 62
9
  6
CONTINUOUS
 10
71.4703278656
 20
94.5727131467
 11
71.4483134989
 21
94.6210748239
  0
LINE
  5
8C0
100
AcDbEntity
  8
0
100
AcDbLine
 62
7
  6
CONTINUOUS
 10
76.8266146006
 20
95.0142905284
 11
76.833412432
 21
94.9993249171
  0
LINE
  5
8C1
100
AcDbEntity
  8
0
100
AcDbLine
 62
7
  6
CONTINUOUS
 10
76.5365927575
 20
103.3933139454
 11
76.5882831278
 21
103.2792449265
  0
LINE
  5
8C2
100
AcDbEntity
  8
0
100
AcDbLine
 62
7
  6
CONTINUOUS
 10
76.5852585714
 20
103.2864448587
 11
76.5406581998
 21
103.3848530165
  0
LINE
  5
8C3
100
AcDbEntity
  8
0
100
AcDbLine
 62
9
  6
CONTINUOUS
 10
35.1337392243
 20
87.3795318829
 11
35.1226661308
 21
87.404250007
  0
LINE
  5
8C4
100
AcDbEntity
  8
0
100
AcDbLine
 62
7
  6
CONTINUOUS
 10
25.9196815229
 20
84.4974063586
 11
25.9571136753
 21
84.4127691068
  0
LINE
  5
8C5
100
AcDbEntity
  8
0
100
AcDbLine
 62
9
  6
CONTINUOUS
 10
33.3134440794
 20
86.5123107795
 11
33.2932293524
 21
86.5580142986
  0
LINE
  5
8C6
100
AcDbEntity
  8
0
100
AcDbLine
 62
9
  6
CONTINUOUS
 10
68.0739157102
 20
93.1680919171
 11
68.0997227186
 21
93.1096755567
  0
LINE
  5
8C7
100
AcDbEntity
  8
0
100
AcDbLine
 62
9
  6
CONTINUOUS
 10
35.1226661308
 20
87.404250007
 11
35.1115726962
 21
87.4295442113
  0
LINE
  5
8C8
100
AcDbEntity
  8
0
100
AcDbLine
 62
9
  6
CONTINUOUS
 10
72.2719695658
 20
100.3763747432
 11
72.2928402637
 21
100.3286937912
  0
LINE
  5
8C9
100
AcDbEntity
  8
0
100
AcDbLine
 62
9
  6
CONTINUOUS
 10
74.241327594
 20
101.2038651861
 11
74.2876601948
 21
101.0975219579
  0
LINE
  5
8CA
100
AcDbEntity
  8
0
100
AcDbLine
 62
9
  6
CONTINUOUS
 10
33.2932293524
 20
86.5580142986
 11
33.2597973882
 21
86.635548994
  0
LINE
  5
8CB
100
AcDbEntity
  8
0
100
AcDbLine
 62
9
  6
CONTINUOUS
 10
35.1115726962
 20
87.4295442113
 11
35.0891930342
 21
87.4815891182
  0
LINE
  5
8CC
100
AcDbEntity
  8
0
100
AcDbLine
 62
7
  6
CONTINUOUS
 10
25.9441635845
 20
84.4414996732
 11
25.8956391093
 21
84.555016195
  0
LINE
  5
8CD
100
AcDbEntity
  8
0
100
AcDbLine
 62
9
  6
CONTINUOUS
 10
33.2597973882
 20
86.635548994
 11
33.2084641903
 21
86.7563908411
  0
LINE
  5
8CE
100
AcDbEntity
  8
0
100
AcDbLine
 62
9
  6
CONTINUOUS
 10
35.0891930342
 20
87.4815891182
 11
35.0438566665
 21
87.5886154002
  0
LINE
  5
8CF
100
AcDbEntity
  8
0
100
AcDbLine
 62
7
  6
CONTINUOUS
 10
76.627647667
 20
103.1863383287
 11
76.5852585714
 21
103.2864448587
  0
LINE
  5
8D0
100
AcDbEntity
  8
0
100
AcDbLine
 62
9
  6
CONTINUOUS
 10
33.2084641903
 20
86.7563908411
 11
33.1836245644
 21
86.8154170404
  0
LINE
  5
8D1
100
AcDbEntity
  8
0
100
AcDbLine
 62
7
  6
CONTINUOUS
 10
76.5882831278
 20
103.2792449265
 11
76.6367352035
 21
103.1637657066
  0
LINE
  5
8D2
100
AcDbEntity
  8
0
100
AcDbLine
 62
9
  6
CONTINUOUS
 10
71.4909148899
 20
94.5236252055
 11
71.4703278656
 21
94.5727131467
  0
LINE
  5
8D3
100
AcDbEntity
  8
0
100
AcDbLine
 62
9
  6
CONTINUOUS
 10
35.0438566665
 20
87.5886154002
 11
35.0084039261
 21
87.673642786
  0
LINE
  5
8D4
100
AcDbEntity
  8
0
100
AcDbLine
 62
7
  6
CONTINUOUS
 10
25.8830064997
 20
84.5855568344
 11
25.9196815229
 21
84.4974063586
  0
LINE
  5
8D5
100
AcDbEntity
  8
0
100
AcDbLine
 62
9
  6
CONTINUOUS
 10
33.1836245644
 20
86.8154170404
 11
33.1572687051
 21
86.8788064759
  0
LINE
  5
8D6
100
AcDbEntity
  8
0
100
AcDbLine
 62
7
  6
CONTINUOUS
 10
76.7319320741
 20
92.7387754949
 11
76.7256883134
 21
92.7539474925
  0
LINE
  5
8D7
100
AcDbEntity
  8
0
100
AcDbLine
 62
9
  6
CONTINUOUS
 10
33.1572687051
 20
86.8788064759
 11
33.1290128545
 21
86.9475785698
  0
LINE
  5
8D8
100
AcDbEntity
  8
0
100
AcDbLine
 62
9
  6
CONTINUOUS
 10
35.0084039261
 20
87.673642786
 11
34.9823508365
 21
87.7370619594
  0
LINE
  5
8D9
100
AcDbEntity
  8
0
100
AcDbLine
 62
9
  6
CONTINUOUS
 10
33.1290128545
 20
86.9475785698
 11
33.0980659516
 21
87.0238214893
  0
LINE
  5
8DA
100
AcDbEntity
  8
0
100
AcDbLine
 62
9
  6
CONTINUOUS
 10
34.9823508365
 20
87.7370619594
 11
34.9534827003
 21
87.8082431308
  0
LINE
  5
8DB
100
AcDbEntity
  8
0
100
AcDbLine
 62
9
  6
CONTINUOUS
 10
72.2928402637
 20
100.3286937912
 11
72.3113612364
 21
100.2829224079
  0
LINE
  5
8DC
100
AcDbEntity
  8
0
100
AcDbLine
 62
9
  6
CONTINUOUS
 10
74.2876601948
 20
101.0975219579
 11
74.3284625009
 21
100.9962742408
  0
LINE
  5
8DD
100
AcDbEntity
  8
0
100
AcDbLine
 62
9
  6
CONTINUOUS
 10
33.0980659516
 20
87.0238214893
 11
33.0640766796
 21
87.1086798934
  0
LINE
  5
8DE
100
AcDbEntity
  8
0
100
AcDbLine
 62
9
  6
CONTINUOUS
 10
68.0499172462
 20
93.2280512845
 11
68.0739157102
 21
93.1680919171
  0
LINE
  5
8DF
100
AcDbEntity
  8
0
100
AcDbLine
 62
9
  6
CONTINUOUS
 10
34.9534827003
 20
87.8082431308
 11
34.9218681101
 21
87.8872891713
  0
LINE
  5
8E0
100
AcDbEntity
  8
0
100
AcDbLine
 62
7
  6
CONTINUOUS
 10
76.833412432
 20
94.9993249171
 11
76.8401449087
 21
94.9824502961
  0
LINE
  5
8E1
100
AcDbEntity
  8
0
100
AcDbLine
 62
7
  6
CONTINUOUS
 10
25.8956391093
 20
84.555016195
 11
25.8480804348
 21
84.6743489948
  0
LINE
  5
8E2
100
AcDbEntity
  8
0
100
AcDbLine
 62
7
  6
CONTINUOUS
 10
76.667401966
 20
103.0857011638
 11
76.627647667
 21
103.1863383287
  0
LINE
  5
8E3
100
AcDbEntity
  8
0
100
AcDbLine
 62
9
  6
CONTINUOUS
 10
33.0640766796
 20
87.1086798934
 11
33.0273644537
 21
87.2017181538
  0
LINE
  5
8E4
100
AcDbEntity
  8
0
100
AcDbLine
 62
9
  6
CONTINUOUS
 10
34.9218681101
 20
87.8872891713
 11
34.8880303801
 21
87.9732177955
  0
LINE
  5
8E5
100
AcDbEntity
  8
0
100
AcDbLine
 62
7
  6
CONTINUOUS
 10
25.84541384
 20
84.6815523845
 11
25.8830064997
 21
84.5855568344
  0
LINE
  5
8E6
100
AcDbEntity
  8
0
100
AcDbLine
 62
9
  6
CONTINUOUS
 10
33.0273644537
 20
87.2017181538
 11
32.9880712146
 21
87.3029902131
  0
LINE
  5
8E7
100
AcDbEntity
  8
0
100
AcDbLine
 62
9
  6
CONTINUOUS
 10
34.8880303801
 20
87.9732177955
 11
34.8517887505
 21
88.0668439781
  0
LINE
  5
8E8
100
AcDbEntity
  8
0
100
AcDbLine
 62
7
  6
CONTINUOUS
 10
76.6367352035
 20
103.1637657066
 11
76.6815923238
 21
103.0475565066
  0
LINE
  5
8E9
100
AcDbEntity
  8
0
100
AcDbLine
 62
9
  6
CONTINUOUS
 10
71.5100339237
 20
94.4738757386
 11
71.4909148899
 21
94.5236252055
  0
LINE
  5
8EA
100
AcDbEntity
  8
0
100
AcDbLine
 62
9
  6
CONTINUOUS
 10
32.9880712146
 20
87.3029902131
 11
32.94576037
 21
87.4140915644
  0
LINE
  5
8EB
100
AcDbEntity
  8
0
100
AcDbLine
 62
9
  6
CONTINUOUS
 10
34.8517887505
 20
88.0668439781
 11
34.8125749513
 21
88.1700777987
  0
LINE
  5
8EC
100
AcDbEntity
  8
0
100
AcDbLine
 62
9
  6
CONTINUOUS
 10
32.94576037
 20
87.4140915644
 11
32.9233304659
 21
87.4738838954
  0
LINE
  5
8ED
100
AcDbEntity
  8
0
100
AcDbLine
 62
7
  6
CONTINUOUS
 10
25.8480804348
 20
84.6743489948
 11
25.7998162224
 21
84.8033359702
  0
LINE
  5
8EE
100
AcDbEntity
  8
0
100
AcDbLine
 62
9
  6
CONTINUOUS
 10
34.8125749513
 20
88.1700777987
 11
34.7917424819
 21
88.225782931
  0
LINE
  5
8EF
100
AcDbEntity
  8
0
100
AcDbLine
 62
9
  6
CONTINUOUS
 10
72.3113612364
 20
100.2829224079
 11
72.3276399291
 21
100.2393923118
  0
LINE
  5
8F0
100
AcDbEntity
  8
0
100
AcDbLine
 62
9
  6
CONTINUOUS
 10
74.3284625009
 20
100.9962742408
 11
74.3645129709
 21
100.8995701732
  0
LINE
  5
8F1
100
AcDbEntity
  8
0
100
AcDbLine
 62
9
  6
CONTINUOUS
 10
32.9233304659
 20
87.4738838954
 11
32.8999889968
 21
87.5367937907
  0
LINE
  5
8F2
100
AcDbEntity
  8
0
100
AcDbLine
 62
9
  6
CONTINUOUS
 10
34.7917424819
 20
88.225782931
 11
34.7701287944
 21
88.2842370561
  0
LINE
  5
8F3
100
AcDbEntity
  8
0
100
AcDbLine
 62
9
  6
CONTINUOUS
 10
32.8999889968
 20
87.5367937907
 11
32.8757776891
 21
87.602787781
  0
LINE
  5
8F4
100
AcDbEntity
  8
0
100
AcDbLine
 62
7
  6
CONTINUOUS
 10
76.7041060894
 20
102.9855387521
 11
76.667401966
 21
103.0857011638
  0
LINE
  5
8F5
100
AcDbEntity
  8
0
100
AcDbLine
 62
9
  6
CONTINUOUS
 10
34.7701287944
 20
88.2842370561
 11
34.7478134852
 21
88.3453437987
  0
LINE
  5
8F6
100
AcDbEntity
  8
0
100
AcDbLine
 62
7
  6
CONTINUOUS
 10
25.7667991282
 20
84.8945390729
 11
25.8068698891
 21
84.7843413748
  0
LINE
  5
8F7
100
AcDbEntity
  8
0
100
AcDbLine
 62
9
  6
CONTINUOUS
 10
32.8757776891
 20
87.602787781
 11
32.8507690217
 21
87.67178702
  0
LINE
  5
8F8
100
AcDbEntity
  8
0
100
AcDbLine
 62
7
  6
CONTINUOUS
 10
25.7998162224
 20
84.8033359702
 11
25.7506059811
 21
84.9399539083
  0
LINE
  5
8F9
100
AcDbEntity
  8
0
100
AcDbLine
 62
9
  6
CONTINUOUS
 10
34.7478134852
 20
88.3453437987
 11
34.7247686289
 21
88.4094379479
  0
LINE
  5
8FA
100
AcDbEntity
  8
0
100
AcDbLine
 62
9
  6
CONTINUOUS
 10
68.0278522696
 20
93.2894347873
 11
68.0499172462
 21
93.2280512845
  0
LINE
  5
8FB
100
AcDbEntity
  8
0
100
AcDbLine
 62
9
  6
CONTINUOUS
 10
32.8507690217
 20
87.67178702
 11
32.8248594483
 21
87.744221309
  0
LINE
  5
8FC
100
AcDbEntity
  8
0
100
AcDbLine
 62
7
  6
CONTINUOUS
 10
76.7256883134
 20
92.7539474925
 11
76.7195879156
 21
92.7709997642
  0
LINE
  5
8FD
100
AcDbEntity
  8
0
100
AcDbLine
 62
7
  6
CONTINUOUS
 10
25.7667991282
 20
84.8945390729
 11
25.6996319842
 21
85.0831784078
  0
LINE
  5
8FE
100
AcDbEntity
  8
0
100
AcDbLine
 62
7
  6
CONTINUOUS
 10
76.8401449087
 20
94.9824502961
 11
76.8468035537
 21
94.963685771
  0
LINE
  5
8FF
100
AcDbEntity
  8
0
100
AcDbLine
 62
7
  6
CONTINUOUS
 10
76.6815923238
 20
103.0475565066
 11
76.7225387901
 21
102.9318697099
  0
LINE
  5
900
100
AcDbEntity
  8
0
100
AcDbLine
 62
7
  6
CONTINUOUS
 10
25.6816722243
 20
85.1344482492
 11
25.725152384
 21
85.0114766238
  0
LINE
  5
901
100
AcDbEntity
  8
0
100
AcDbLine
 62
9
  6
CONTINUOUS
 10
34.7247686289
 20
88.4094379479
 11
34.7010114795
 21
88.4767513354
  0
LINE
  5
902
100
AcDbEntity
  8
0
100
AcDbLine
 62
9
  6
CONTINUOUS
 10
32.8248594483
 20
87.744221309
 11
32.7979777986
 21
87.8203974724
  0
LINE
  5
903
100
AcDbEntity
  8
0
100
AcDbLine
 62
9
  6
CONTINUOUS
 10
71.5276861244
 20
94.4234198313
 11
71.5100339237
 21
94.4738757386
  0
LINE
  5
904
100
AcDbEntity
  8
0
100
AcDbLine
 62
7
  6
CONTINUOUS
 10
25.6364079066
 20
85.2641799861
 11
25.6996319842
 21
85.0831784078
  0
LINE
  5
905
100
AcDbEntity
  8
0
100
AcDbLine
 62
9
  6
CONTINUOUS
 10
32.7979777986
 20
87.8203974724
 11
32.7701085869
 21
87.9005370937
  0
LINE
  5
906
100
AcDbEntity
  8
0
100
AcDbLine
 62
9
  6
CONTINUOUS
 10
34.7010114795
 20
88.4767513354
 11
34.6764445737
 21
88.5475427342
  0
LINE
  5
907
100
AcDbEntity
  8
0
100
AcDbLine
 62
9
  6
CONTINUOUS
 10
72.3276399291
 20
100.2393923118
 11
72.3419550523
 21
100.1979764231
  0
LINE
  5
908
100
AcDbEntity
  8
0
100
AcDbLine
 62
7
  6
CONTINUOUS
 10
25.5893018711
 20
85.4009202292
 11
25.6469546002
 21
85.233850932
  0
LINE
  5
909
100
AcDbEntity
  8
0
100
AcDbLine
 62
9
  6
CONTINUOUS
 10
74.3645129709
 20
100.8995701732
 11
74.3962349386
 21
100.8075627344
  0
LINE
  5
90A
100
AcDbEntity
  8
0
100
AcDbLine
 62
9
  6
CONTINUOUS
 10
32.7701085869
 20
87.9005370937
 11
32.7412116159
 21
87.9849391782
  0
LINE
  5
90B
100
AcDbEntity
  8
0
100
AcDbLine
 62
9
  6
CONTINUOUS
 10
34.6764445737
 20
88.5475427342
 11
34.6509204138
 21
88.6221533677
  0
LINE
  5
90C
100
AcDbEntity
  8
0
100
AcDbLine
 62
7
  6
CONTINUOUS
 10
76.7377663339
 20
102.8861470742
 11
76.7041060894
 21
102.9855387521
  0
LINE
  5
90D
100
AcDbEntity
  8
0
100
AcDbLine
 62
7
  6
CONTINUOUS
 10
25.5923019745
 20
85.3921575254
 11
25.5358530493
 21
85.5590400431
  0
LINE
  5
90E
100
AcDbEntity
  8
0
100
AcDbLine
 62
9
  6
CONTINUOUS
 10
32.7412116159
 20
87.9849391782
 11
32.7113233965
 21
88.0736761498
  0
LINE
  5
90F
100
AcDbEntity
  8
0
100
AcDbLine
 62
9
  6
CONTINUOUS
 10
34.6509204138
 20
88.6221533677
 11
34.6244917413
 21
88.7006276277
  0
LINE
  5
910
100
AcDbEntity
  8
0
100
AcDbLine
 62
9
  6
CONTINUOUS
 10
32.7113233965
 20
88.0736761498
 11
32.6805197784
 21
88.1667529696
  0
LINE
  5
911
100
AcDbEntity
  8
0
100
AcDbLine
 62
9
  6
CONTINUOUS
 10
34.6244917413
 20
88.7006276277
 11
34.5972640586
 21
88.782939722
  0
LINE
  5
912
100
AcDbEntity
  8
0
100
AcDbLine
 62
7
  6
CONTINUOUS
 10
25.5404171374
 20
85.5453961264
 11
25.4777008727
 21
85.7353102774
  0
LINE
  5
913
100
AcDbEntity
  8
0
100
AcDbLine
 62
9
  6
CONTINUOUS
 10
32.6805197784
 20
88.1667529696
 11
32.6486984213
 21
88.2647226106
  0
LINE
  5
914
100
AcDbEntity
  8
0
100
AcDbLine
 62
9
  6
CONTINUOUS
 10
34.5972640586
 20
88.782939722
 11
34.5691427513
 21
88.8695840708
  0
LINE
  5
915
100
AcDbEntity
  8
0
100
AcDbLine
 62
7
  6
CONTINUOUS
 10
25.48981339
 20
85.6982170744
 11
25.4178312727
 21
85.9215444615
  0
LINE
  5
916
100
AcDbEntity
  8
0
100
AcDbLine
 62
7
  6
CONTINUOUS
 10
76.7225387901
 20
102.9318697099
 11
76.7588794283
 21
102.8189415747
  0
LINE
  5
917
100
AcDbEntity
  8
0
100
AcDbLine
 62
9
  6
CONTINUOUS
 10
68.0078525498
 20
93.3520559043
 11
68.0278522696
 21
93.2894347873
  0
LINE
  5
918
100
AcDbEntity
  8
0
100
AcDbLine
 62
9
  6
CONTINUOUS
 10
72.3419550523
 20
100.1979764231
 11
72.35452978
 21
100.1585988009
  0
LINE
  5
919
100
AcDbEntity
  8
0
100
AcDbLine
 62
9
  6
CONTINUOUS
 10
74.3962349386
 20
100.8075627344
 11
74.424114033
 21
100.7201159252
  0
LINE
  5
91A
100
AcDbEntity
  8
0
100
AcDbLine
 62
7
  6
CONTINUOUS
 10
76.8468035537
 20
94.963685771
 11
76.8533795903
 21
94.9430502209
  0
LINE
  5
91B
100
AcDbEntity
  8
0
100
AcDbLine
 62
9
  6
CONTINUOUS
 10
32.6486984213
 20
88.2647226106
 11
32.6158085897
 21
88.3680177815
  0
LINE
  5
91C
100
AcDbEntity
  8
0
100
AcDbLine
 62
9
  6
CONTINUOUS
 10
34.5691427513
 20
88.8695840708
 11
34.5400708428
 21
88.9609519103
  0
LINE
  5
91D
100
AcDbEntity
  8
0
100
AcDbLine
 62
7
  6
CONTINUOUS
 10
25.3832874267
 20
86.0312341634
 11
25.4374430741
 21
85.8599847227
  0
LINE
  5
91E
100
AcDbEntity
  8
0
100
AcDbLine
 62
9
  6
CONTINUOUS
 10
71.5438515275
 20
94.3722515228
 11
71.5276861244
 21
94.4234198313
  0
LINE
  5
91F
100
AcDbEntity
  8
0
100
AcDbLine
 62
7
  6
CONTINUOUS
 10
76.8374752318
 20
92.7897763986
 11
76.8421164399
 21
92.7750539322
  0
LINE
  5
920
100
AcDbEntity
  8
0
100
AcDbLine
 62
7
  6
CONTINUOUS
 10
76.7195879156
 20
92.7709997642
 11
76.713633922
 21
92.7899009756
  0
LINE
  5
921
100
AcDbEntity
  8
0
100
AcDbLine
 62
7
  6
CONTINUOUS
 10
25.4178312727
 20
85.9215444615
 11
25.3562533955
 21
86.1183021745
  0
LINE
  5
922
100
AcDbEntity
  8
0
100
AcDbLine
 62
9
  6
CONTINUOUS
 10
32.6158085897
 20
88.3680177815
 11
32.5818369512
 21
88.4770074004
  0
LINE
  5
923
100
AcDbEntity
  8
0
100
AcDbLine
 62
9
  6
CONTINUOUS
 10
34.5400708428
 20
88.9609519103
 11
34.5100354492
 21
89.0573694401
  0
LINE
  5
924
100
AcDbEntity
  8
0
100
AcDbLine
 62
7
  6
CONTINUOUS
 10
76.7680766668
 20
102.7887117329
 11
76.7377663339
 21
102.8861470742
  0
LINE
  5
925
100
AcDbEntity
  8
0
100
AcDbLine
 62
7
  6
CONTINUOUS
 10
25.3273197568
 20
86.2127744656
 11
25.3832874267
 21
86.0312341634
  0
LINE
  5
926
100
AcDbEntity
  8
0
100
AcDbLine
 62
9
  6
CONTINUOUS
 10
32.5818369512
 20
88.4770074004
 11
32.546803004
 21
88.5920048667
  0
LINE
  5
927
100
AcDbEntity
  8
0
100
AcDbLine
 62
9
  6
CONTINUOUS
 10
34.5100354492
 20
89.0573694401
 11
34.4790557477
 21
89.1591104662
  0
LINE
  5
928
100
AcDbEntity
  8
0
100
AcDbLine
 62
7
  6
CONTINUOUS
 10
25.3562533955
 20
86.1183021745
 11
25.2929903345
 21
86.3264451704
  0
LINE
  5
929
100
AcDbEntity
  8
0
100
AcDbLine
 62
7
  6
CONTINUOUS
 10
25.2694992379
 20
86.4052353919
 11
25.3273197568
 21
86.2127744656
  0
LINE
  5
92A
100
AcDbEntity
  8
0
100
AcDbLine
 62
9
  6
CONTINUOUS
 10
32.546803004
 20
88.5920048667
 11
32.5106474167
 21
88.7136367908
  0
LINE
  5
92B
100
AcDbEntity
  8
0
100
AcDbLine
 62
9
  6
CONTINUOUS
 10
34.4790557477
 20
89.1591104662
 11
34.4470802266
 21
89.2667292122
  0
LINE
  5
92C
100
AcDbEntity
  8
0
100
AcDbLine
 62
7
  6
CONTINUOUS
 10
25.2929903345
 20
86.3264451704
 11
25.2280319425
 21
86.5466481192
  0
LINE
  5
92D
100
AcDbEntity
  8
0
100
AcDbLine
 62
9
  6
CONTINUOUS
 10
72.35452978
 20
100.1585988009
 11
72.3655263946
 21
100.1212846554
  0
LINE
  5
92E
100
AcDbEntity
  8
0
100
AcDbLine
 62
9
  6
CONTINUOUS
 10
74.424114033
 20
100.7201159252
 11
74.4485768223
 21
100.6371006006
  0
LINE
  5
92F
100
AcDbEntity
  8
0
100
AcDbLine
 62
7
  6
CONTINUOUS
 10
25.2098495137
 20
86.6096899536
 11
25.2694992379
 21
86.4052353919
  0
LINE
  5
930
100
AcDbEntity
  8
0
100
AcDbLine
 62
9
  6
CONTINUOUS
 10
32.5106474167
 20
88.7136367908
 11
32.4733736002
 21
88.8423979871
  0
LINE
  5
931
100
AcDbEntity
  8
0
100
AcDbLine
 62
9
  6
CONTINUOUS
 10
34.4470802266
 20
89.2667292122
 11
34.4141112868
 21
89.380667366
  0
LINE
  5
932
100
AcDbEntity
  8
0
100
AcDbLine
 62
7
  6
CONTINUOUS
 10
76.7588794283
 20
102.8189415747
 11
76.7913960049
 21
102.7065006982
  0
LINE
  5
933
100
AcDbEntity
  8
0
100
AcDbLine
 62
7
  6
CONTINUOUS
 10
76.8533795903
 20
94.9430502209
 11
76.8598553825
 21
94.9205905048
  0
LINE
  5
934
100
AcDbEntity
  8
0
100
AcDbLine
 62
7
  6
CONTINUOUS
 10
25.2280319425
 20
86.5466481192
 11
25.1614870884
 21
86.780031853
  0
LINE
  5
935
100
AcDbEntity
  8
0
100
AcDbLine
 62
7
  6
CONTINUOUS
 10
25.1483533573
 20
86.8269541808
 11
25.2098495137
 21
86.6096899536
  0
LINE
  5
936
100
AcDbEntity
  8
0
100
AcDbLine
 62
7
  6
CONTINUOUS
 10
76.7955586971
 20
102.6915692486
 11
76.7680766668
 21
102.7887117329
  0
LINE
  5
937
100
AcDbEntity
  8
0
100
AcDbLine
 62
9
  6
CONTINUOUS
 10
71.5585180597
 20
94.3203142415
 11
71.5438515275
 21
94.3722515228
  0
LINE
  5
938
100
AcDbEntity
  8
0
100
AcDbLine
 62
9
  6
CONTINUOUS
 10
32.4733736002
 20
88.8423979871
 11
32.4349430904
 21
88.97901793
  0
LINE
  5
939
100
AcDbEntity
  8
0
100
AcDbLine
 62
9
  6
CONTINUOUS
 10
34.4141112868
 20
89.380667366
 11
34.3801153606
 21
89.5015662442
  0
LINE
  5
93A
100
AcDbEntity
  8
0
100
AcDbLine
 62
7
  6
CONTINUOUS
 10
76.8316822338
 20
92.8104379901
 11
76.8374752318
 21
92.7897763986
  0
LINE
  5
93B
100
AcDbEntity
  8
0
100
AcDbLine
 62
7
  6
CONTINUOUS
 10
76.713633922
 20
92.7899009756
 11
76.7078307377
 21
92.8106188839
  0
LINE
  5
93C
100
AcDbEntity
  8
0
100
AcDbLine
 62
9
  6
CONTINUOUS
 10
67.990020086
 20
93.4157560492
 11
68.0078525498
 21
93.3520559043
  0
LINE
  5
93D
100
AcDbEntity
  8
0
100
AcDbLine
 62
7
  6
CONTINUOUS
 10
25.1614870884
 20
86.780031853
 11
25.0933954182
 21
87.0274906555
  0
LINE
  5
93E
100
AcDbEntity
  8
0
100
AcDbLine
 62
7
  6
CONTINUOUS
 10
25.0850925535
 20
87.058428779
 11
25.1483533573
 21
86.8269541808
  0
LINE
  5
93F
100
AcDbEntity
  8
0
100
AcDbLine
 62
9
  6
CONTINUOUS
 10
32.4349430904
 20
88.97901793
 11
32.3953997941
 21
89.1240401578
  0
LINE
  5
940
100
AcDbEntity
  8
0
100
AcDbLine
 62
9
  6
CONTINUOUS
 10
34.3801153606
 20
89.5015662442
 11
34.3451328757
 21
89.6298974141
  0
LINE
  5
941
100
AcDbEntity
  8
0
100
AcDbLine
 62
9
  6
CONTINUOUS
 10
74.4485768223
 20
100.6371006006
 11
74.4699606922
 21
100.5585450926
  0
LINE
  5
942
100
AcDbEntity
  8
0
100
AcDbLine
 62
9
  6
CONTINUOUS
 10
72.3655263946
 20
100.1212846554
 11
72.3750967631
 21
100.0860680787
  0
LINE
  5
943
100
AcDbEntity
  8
0
100
AcDbLine
 62
7
  6
CONTINUOUS
 10
25.0200907375
 20
87.305206997
 11
25.0933954182
 21
87.0274906555
  0
LINE
  5
944
100
AcDbEntity
  8
0
100
AcDbLine
 62
9
  6
CONTINUOUS
 10
32.3953997941
 20
89.1240401578
 11
32.3546758309
 21
89.2785514588
  0
LINE
  5
945
100
AcDbEntity
  8
0
100
AcDbLine
 62
9
  6
CONTINUOUS
 10
34.3451328757
 20
89.6298974141
 11
34.3090973922
 21
89.7666415736
  0
LINE
  5
946
100
AcDbEntity
  8
0
100
AcDbLine
 62
7
  6
CONTINUOUS
 10
76.8598553825
 20
94.9205905048
 11
76.8662137513
 21
94.8963626713
  0
LINE
  5
947
100
AcDbEntity
  8
0
100
AcDbLine
 62
7
  6
CONTINUOUS
 10
76.7913960049
 20
102.7065006982
 11
76.8202788982
 21
102.5948008496
  0
LINE
  5
948
100
AcDbEntity
  8
0
100
AcDbLine
 62
9
  6
CONTINUOUS
 10
72.587830297
 20
98.4510353905
 11
72.612986623
 21
98.3530727044
  0
LINE
  5
949
100
AcDbEntity
  8
0
100
AcDbLine
 62
7
  6
CONTINUOUS
 10
76.82033844
 20
102.5949142292
 11
76.7955586971
 21
102.6915692486
  0
LINE
  5
94A
100
AcDbEntity
  8
0
100
AcDbLine
 62
9
  6
CONTINUOUS
 10
34.3090973922
 20
89.7666415736
 11
34.2719652076
 21
89.9128775547
  0
LINE
  5
94B
100
AcDbEntity
  8
0
100
AcDbLine
 62
9
  6
CONTINUOUS
 10
32.3546758309
 20
89.2785514588
 11
32.3126969354
 21
89.443876382
  0
LINE
  5
94C
100
AcDbEntity
  8
0
100
AcDbLine
 62
7
  6
CONTINUOUS
 10
25.0239544533
 20
87.2903788426
 11
24.9532773113
 21
87.5697946623
  0
LINE
  5
94D
100
AcDbEntity
  8
0
100
AcDbLine
 62
9
  6
CONTINUOUS
 10
74.4699606922
 20
100.5585450926
 11
74.4885537858
 21
100.4845438939
  0
LINE
  5
94E
100
AcDbEntity
  8
0
100
AcDbLine
 62
7
  6
CONTINUOUS
 10
76.826048179
 20
92.8328572247
 11
76.8316822338
 21
92.8104379901
  0
LINE
  5
94F
100
AcDbEntity
  8
0
100
AcDbLine
 62
7
  6
CONTINUOUS
 10
76.7078307377
 20
92.8106188839
 11
76.702187677
 21
92.8330996507
  0
LINE
  5
950
100
AcDbEntity
  8
0
100
AcDbLine
 62
9
  6
CONTINUOUS
 10
72.3750967631
 20
100.0860680787
 11
72.3834129097
 21
100.0528984432
  0
LINE
  5
951
100
AcDbEntity
  8
0
100
AcDbLine
 62
9
  6
CONTINUOUS
 10
71.571666578
 20
94.2675389851
 11
71.5585180597
 21
94.3203142415
  0
LINE
  5
952
100
AcDbEntity
  8
0
100
AcDbLine
 62
9
  6
CONTINUOUS
 10
34.2719652076
 20
89.9128775547
 11
34.2339552501
 21
90.0688233559
  0
LINE
  5
953
100
AcDbEntity
  8
0
100
AcDbLine
 62
9
  6
CONTINUOUS
 10
32.3126969354
 20
89.443876382
 11
32.2698016643
 21
89.619900457
  0
LINE
  5
954
100
AcDbEntity
  8
0
100
AcDbLine
 62
9
  6
CONTINUOUS
 10
72.5756166067
 20
98.5014880329
 11
72.587830297
 21
98.4510353905
  0
LINE
  5
955
100
AcDbEntity
  8
0
100
AcDbLine
 62
9
  6
CONTINUOUS
 10
67.9744629241
 20
93.4802724731
 11
67.990020086
 21
93.4157560492
  0
LINE
  5
956
100
AcDbEntity
  8
0
100
AcDbLine
 62
7
  6
CONTINUOUS
 10
24.953505131
 20
87.5690272344
 11
24.8816568494
 21
87.8674006014
  0
LINE
  5
957
100
AcDbEntity
  8
0
100
AcDbLine
 62
7
  6
CONTINUOUS
 10
76.8662137513
 20
94.8963626713
 11
76.8724467765
 21
94.8703903513
  0
LINE
  5
958
100
AcDbEntity
  8
0
100
AcDbLine
 62
9
  6
CONTINUOUS
 10
72.612986623
 20
98.3530727044
 11
72.6240717641
 21
98.3067998794
  0
LINE
  5
959
100
AcDbEntity
  8
0
100
AcDbLine
 62
9
  6
CONTINUOUS
 10
34.2339552501
 20
90.0688233559
 11
34.1945588302
 21
90.2380041017
  0
LINE
  5
95A
100
AcDbEntity
  8
0
100
AcDbLine
 62
9
  6
CONTINUOUS
 10
32.2698016643
 20
89.619900457
 11
32.2254955535
 21
89.8102240517
  0
LINE
  5
95B
100
AcDbEntity
  8
0
100
AcDbLine
 62
9
  6
CONTINUOUS
 10
74.4885537858
 20
100.4845438939
 11
74.5047956837
 21
100.4144463965
  0
LINE
  5
95C
100
AcDbEntity
  8
0
100
AcDbLine
 62
9
  6
CONTINUOUS
 10
72.3834129097
 20
100.0528984432
 11
72.3906005996
 21
100.021800773
  0
LINE
  5
95D
100
AcDbEntity
  8
0
100
AcDbLine
 62
7
  6
CONTINUOUS
 10
24.8853647191
 20
87.8514258888
 11
24.809262717
 21
88.1845093145
  0
LINE
  5
95E
100
AcDbEntity
  8
0
100
AcDbLine
 62
7
  6
CONTINUOUS
 10
76.8432966434
 20
102.4943580156
 11
76.82033844
 21
102.5949142292
  0
LINE
  5
95F
100
AcDbEntity
  8
0
100
AcDbLine
 62
7
  6
CONTINUOUS
 10
76.8205819348
 20
92.8569760794
 11
76.826048179
 21
92.8328572247
  0
LINE
  5
960
100
AcDbEntity
  8
0
100
AcDbLine
 62
7
  6
CONTINUOUS
 10
76.702187677
 20
92.8330996507
 11
76.6967146766
 21
92.8572796049
  0
LINE
  5
961
100
AcDbEntity
  8
0
100
AcDbLine
 62
7
  6
CONTINUOUS
 10
76.8202788982
 20
102.5948008496
 11
76.846607098
 21
102.4785027704
  0
LINE
  5
962
100
AcDbEntity
  8
0
100
AcDbLine
 62
9
  6
CONTINUOUS
 10
34.1945588302
 20
90.2380041017
 11
34.1561072884
 21
90.4115997806
  0
LINE
  5
963
100
AcDbEntity
  8
0
100
AcDbLine
 62
9
  6
CONTINUOUS
 10
32.2254955535
 20
89.8102240517
 11
32.1823631367
 21
90.0050117191
  0
LINE
  5
964
100
AcDbEntity
  8
0
100
AcDbLine
 62
7
  6
CONTINUOUS
 10
76.8724467765
 20
94.8703903513
 11
76.8785470769
 21
94.8426921176
  0
LINE
  5
965
100
AcDbEntity
  8
0
100
AcDbLine
 62
9
  6
CONTINUOUS
 10
72.6240717641
 20
98.3067998794
 11
72.6336706166
 21
98.2625434191
  0
LINE
  5
966
100
AcDbEntity
  8
0
100
AcDbLine
 62
9
  6
CONTINUOUS
 10
71.5832439945
 20
94.2139542638
 11
71.571666578
 21
94.2675389851
  0
LINE
  5
967
100
AcDbEntity
  8
0
100
AcDbLine
 62
7
  6
CONTINUOUS
 10
24.7452037004
 20
88.4824403717
 11
24.8160778463
 21
88.1541022147
  0
LINE
  5
968
100
AcDbEntity
  8
0
100
AcDbLine
 62
7
  6
CONTINUOUS
 10
24.809262717
 20
88.1845093145
 11
24.7365776548
 21
88.5232685468
  0
LINE
  5
969
100
AcDbEntity
  8
0
100
AcDbLine
 62
9
  6
CONTINUOUS
 10
74.5047956837
 20
100.4144463965
 11
74.5189642411
 21
100.3480957937
  0
LINE
  5
96A
100
AcDbEntity
  8
0
100
AcDbLine
 62
9
  6
CONTINUOUS
 10
72.3906005996
 20
100.021800773
 11
72.3969137122
 21
99.9920286561
  0
LINE
  5
96B
100
AcDbEntity
  8
0
100
AcDbLine
 62
9
  6
CONTINUOUS
 10
32.1823631367
 20
90.0050117191
 11
32.1422947955
 21
90.195675021
  0
LINE
  5
96C
100
AcDbEntity
  8
0
100
AcDbLine
 62
9
  6
CONTINUOUS
 10
34.1561072884
 20
90.4115997806
 11
34.1202704768
 21
90.5820971305
  0
LINE
  5
96D
100
AcDbEntity
  8
0
100
AcDbLine
 62
9
  6
CONTINUOUS
 10
72.5653196403
 20
98.5510188162
 11
72.5756166067
 21
98.5014880329
  0
LINE
  5
96E
100
AcDbEntity
  8
0
100
AcDbLine
 62
7
  6
CONTINUOUS
 10
76.8152837768
 20
92.882770199
 11
76.8205819348
 21
92.8569760794
  0
LINE
  5
96F
100
AcDbEntity
  8
0
100
AcDbLine
 62
7
  6
CONTINUOUS
 10
76.6967146766
 20
92.8572796049
 11
76.6914117712
 21
92.8831333703
  0
LINE
  5
970
100
AcDbEntity
  8
0
100
AcDbLine
 62
7
  6
CONTINUOUS
 10
24.6753187355
 20
88.826922043
 11
24.7452037004
 21
88.4824403717
  0
LINE
  5
971
100
AcDbEntity
  8
0
100
AcDbLine
 62
9
  6
CONTINUOUS
 10
67.9612649766
 20
93.5453012588
 11
67.9744629241
 21
93.4802724731
  0
LINE
  5
972
100
AcDbEntity
  8
0
100
AcDbLine
 62
7
  6
CONTINUOUS
 10
76.8785470769
 20
94.8426921176
 11
76.8844958082
 21
94.8133389433
  0
LINE
  5
973
100
AcDbEntity
  8
0
100
AcDbLine
 62
7
  6
CONTINUOUS
 10
76.8657117938
 20
102.3834805532
 11
76.8432966434
 21
102.4943580156
  0
LINE
  5
974
100
AcDbEntity
  8
0
100
AcDbLine
 62
7
  6
CONTINUOUS
 10
24.7365776548
 20
88.5232685468
 11
24.6638407987
 21
88.8855843513
  0
LINE
  5
975
100
AcDbEntity
  8
0
100
AcDbLine
 62
9
  6
CONTINUOUS
 10
32.1422947955
 20
90.195675021
 11
32.1052348187
 21
90.381711874
  0
LINE
  5
976
100
AcDbEntity
  8
0
100
AcDbLine
 62
9
  6
CONTINUOUS
 10
34.1202704768
 20
90.5820971305
 11
34.0870757527
 21
90.7487401244
  0
LINE
  5
977
100
AcDbEntity
  8
0
100
AcDbLine
 62
7
  6
CONTINUOUS
 10
76.846607098
 20
102.4785027704
 11
76.8715382944
 21
102.3520632668
  0
LINE
  5
978
100
AcDbEntity
  8
0
100
AcDbLine
 62
9
  6
CONTINUOUS
 10
74.5189642411
 20
100.3480957937
 11
74.5314134616
 21
100.2847411778
  0
LINE
  5
979
100
AcDbEntity
  8
0
100
AcDbLine
 62
9
  6
CONTINUOUS
 10
72.6336706166
 20
98.2625434191
 11
72.6419234908
 21
98.2200332342
  0
LINE
  5
97A
100
AcDbEntity
  8
0
100
AcDbLine
 62
9
  6
CONTINUOUS
 10
72.3969137122
 20
99.9920286561
 11
72.4025191768
 21
99.9631418847
  0
LINE
  5
97B
100
AcDbEntity
  8
0
100
AcDbLine
 62
9
  6
CONTINUOUS
 10
32.1052348187
 20
90.381711874
 11
32.0717769283
 21
90.5589999139
  0
LINE
  5
97C
100
AcDbEntity
  8
0
100
AcDbLine
 62
9
  6
CONTINUOUS
 10
34.0870757527
 20
90.7487401244
 11
34.0571076933
 21
90.9075885289
  0
LINE
  5
97D
100
AcDbEntity
  8
0
100
AcDbLine
 62
7
  6
CONTINUOUS
 10
24.6086223559
 20
89.1812452971
 11
24.6753187355
 21
88.826922043
  0
LINE
  5
97E
100
AcDbEntity
  8
0
100
AcDbLine
 62
7
  6
CONTINUOUS
 10
76.8101540901
 20
92.9102220001
 11
76.8152837768
 21
92.882770199
  0
LINE
  5
97F
100
AcDbEntity
  8
0
100
AcDbLine
 62
7
  6
CONTINUOUS
 10
76.8844958082
 20
94.8133389433
 11
76.8902750529
 21
94.7824115408
  0
LINE
  5
980
100
AcDbEntity
  8
0
100
AcDbLine
 62
7
  6
CONTINUOUS
 10
76.6914117712
 20
92.8831333703
 11
76.6862795584
 21
92.9106400629
  0
LINE
  5
981
100
AcDbEntity
  8
0
100
AcDbLine
 62
7
  6
CONTINUOUS
 10
24.6638407987
 20
88.8855843513
 11
24.5919526126
 21
89.2734944586
  0
LINE
  5
982
100
AcDbEntity
  8
0
100
AcDbLine
 62
9
  6
CONTINUOUS
 10
71.5932011111
 20
94.1595676484
 11
71.5832439945
 21
94.2139542638
  0
LINE
  5
983
100
AcDbEntity
  8
0
100
AcDbLine
 62
7
  6
CONTINUOUS
 10
76.8865166903
 20
102.2685706376
 11
76.8657117938
 21
102.3834805532
  0
LINE
  5
984
100
AcDbEntity
  8
0
100
AcDbLine
 62
9
  6
CONTINUOUS
 10
74.5314134616
 20
100.2847411778
 11
74.5424504975
 21
100.2234116404
  0
LINE
  5
985
100
AcDbEntity
  8
0
100
AcDbLine
 62
9
  6
CONTINUOUS
 10
32.0717769283
 20
90.5589999139
 11
32.0412666087
 21
90.7297038982
  0
LINE
  5
986
100
AcDbEntity
  8
0
100
AcDbLine
 62
9
  6
CONTINUOUS
 10
34.0571076933
 20
90.9075885289
 11
34.0297810823
 21
91.060574384
  0
LINE
  5
987
100
AcDbEntity
  8
0
100
AcDbLine
 62
9
  6
CONTINUOUS
 10
72.4025191768
 20
99.9631418847
 11
72.4074359863
 21
99.9356014721
  0
LINE
  5
988
100
AcDbEntity
  8
0
100
AcDbLine
 62
9
  6
CONTINUOUS
 10
72.5565119126
 20
98.6007149392
 11
72.5653196403
 21
98.5510188162
  0
LINE
  5
989
100
AcDbEntity
  8
0
100
AcDbLine
 62
7
  6
CONTINUOUS
 10
24.5458048978
 20
89.5411451378
 11
24.6086223559
 21
89.1812452971
  0
LINE
  5
98A
100
AcDbEntity
  8
0
100
AcDbLine
 62
7
  6
CONTINUOUS
 10
76.8715382944
 20
102.3520632668
 11
76.8950267648
 21
102.2163479145
  0
LINE
  5
98B
100
AcDbEntity
  8
0
100
AcDbLine
 62
7
  6
CONTINUOUS
 10
76.8902750529
 20
94.7824115408
 11
76.8958782253
 21
94.7499353331
  0
LINE
  5
98C
100
AcDbEntity
  8
0
100
AcDbLine
 62
7
  6
CONTINUOUS
 10
76.8052019258
 20
92.9392667769
 11
76.8101540901
 21
92.9102220001
  0
LINE
  5
98D
100
AcDbEntity
  8
0
100
AcDbLine
 62
7
  6
CONTINUOUS
 10
76.6862795584
 20
92.9106400629
 11
76.6813266025
 21
92.9397352715
  0
LINE
  5
98E
100
AcDbEntity
  8
0
100
AcDbLine
 62
9
  6
CONTINUOUS
 10
72.6419234908
 20
98.2200332342
 11
72.6487991865
 21
98.1795639233
  0
LINE
  5
98F
100
AcDbEntity
  8
0
100
AcDbLine
 62
7
  6
CONTINUOUS
 10
24.5919526126
 20
89.2734944586
 11
24.5210621305
 21
89.692627912
  0
LINE
  5
990
100
AcDbEntity
  8
0
100
AcDbLine
 62
9
  6
CONTINUOUS
 10
32.0412666087
 20
90.7297038982
 11
32.0133884027
 21
90.8945171153
  0
LINE
  5
991
100
AcDbEntity
  8
0
100
AcDbLine
 62
9
  6
CONTINUOUS
 10
34.0297810823
 20
91.060574384
 11
34.0048289824
 21
91.208220572
  0
LINE
  5
992
100
AcDbEntity
  8
0
100
AcDbLine
 62
9
  6
CONTINUOUS
 10
67.9504416362
 20
93.6107561725
 11
67.9612649766
 21
93.5453012588
  0
LINE
  5
993
100
AcDbEntity
  8
0
100
AcDbLine
 62
9
  6
CONTINUOUS
 10
74.5424504975
 20
100.2234116404
 11
74.5525185877
 21
100.1620376201
  0
LINE
  5
994
100
AcDbEntity
  8
0
100
AcDbLine
 62
9
  6
CONTINUOUS
 10
72.4074359863
 20
99.9356014721
 11
72.4116701302
 21
99.9096875017
  0
LINE
  5
995
100
AcDbEntity
  8
0
100
AcDbLine
 62
7
  6
CONTINUOUS
 10
24.4884653776
 20
89.8994821387
 11
24.5458048978
 21
89.5411451378
  0
LINE
  5
996
100
AcDbEntity
  8
0
100
AcDbLine
 62
9
  6
CONTINUOUS
 10
32.0133884027
 20
90.8945171153
 11
31.9879146162
 21
91.0537805523
  0
LINE
  5
997
100
AcDbEntity
  8
0
100
AcDbLine
 62
9
  6
CONTINUOUS
 10
34.0048289824
 20
91.208220572
 11
33.9820379517
 21
91.3508754805
  0
LINE
  5
998
100
AcDbEntity
  8
0
100
AcDbLine
 62
7
  6
CONTINUOUS
 10
76.8958782253
 20
94.7499353331
 11
76.9012984816
 21
94.7159321446
  0
LINE
  5
999
100
AcDbEntity
  8
0
100
AcDbLine
 62
7
  6
CONTINUOUS
 10
76.9044880842
 20
102.1555922292
 11
76.8865166903
 21
102.2685706376
  0
LINE
  5
99A
100
AcDbEntity
  8
0
100
AcDbLine
 62
7
  6
CONTINUOUS
 10
76.800435911
 20
92.9698323397
 11
76.8052019258
 21
92.9392667769
  0
LINE
  5
99B
100
AcDbEntity
  8
0
100
AcDbLine
 62
7
  6
CONTINUOUS
 10
76.6813266025
 20
92.9397352715
 11
76.6765611521
 21
92.9703470252
  0
LINE
  5
99C
100
AcDbEntity
  8
0
100
AcDbLine
 62
9
  6
CONTINUOUS
 10
72.5487067829
 20
98.6509124185
 11
72.5565119126
 21
98.6007149392
  0
LINE
  5
99D
100
AcDbEntity
  8
0
100
AcDbLine
 62
7
  6
CONTINUOUS
 10
24.5210621305
 20
89.692627912
 11
24.4536627783
 21
90.134116827
  0
LINE
  5
99E
100
AcDbEntity
  8
0
100
AcDbLine
 62
9
  6
CONTINUOUS
 10
31.9879146162
 20
91.0537805523
 11
31.9646159955
 21
91.207982865
  0
LINE
  5
99F
100
AcDbEntity
  8
0
100
AcDbLine
 62
7
  6
CONTINUOUS
 10
76.8950267648
 20
102.2163479145
 11
76.9171291983
 21
102.0700131862
  0
LINE
  5
9A0
100
AcDbEntity
  8
0
100
AcDbLine
 62
9
  6
CONTINUOUS
 10
33.9820379517
 20
91.3508754805
 11
33.9612005383
 21
91.4889803601
  0
LINE
  5
9A1
100
AcDbEntity
  8
0
100
AcDbLine
 62
9
  6
CONTINUOUS
 10
71.601484947
 20
94.1043870074
 11
71.5932011111
 21
94.1595676484
  0
LINE
  5
9A2
100
AcDbEntity
  8
0
100
AcDbLine
 62
9
  6
CONTINUOUS
 10
74.5525185877
 20
100.1620376201
 11
74.5617592282
 21
100.1001394883
  0
LINE
  5
9A3
100
AcDbEntity
  8
0
100
AcDbLine
 62
7
  6
CONTINUOUS
 10
76.9012984816
 20
94.7159321446
 11
76.9065184504
 21
94.6804915834
  0
LINE
  5
9A4
100
AcDbEntity
  8
0
100
AcDbLine
 62
7
  6
CONTINUOUS
 10
24.4360771579
 20
90.2585776588
 11
24.4884653776
 21
89.8994821387
  0
LINE
  5
9A5
100
AcDbEntity
  8
0
100
AcDbLine
 62
9
  6
CONTINUOUS
 10
72.4116701302
 20
99.9096875017
 11
72.4156179166
 21
99.8824679775
  0
LINE
  5
9A6
100
AcDbEntity
  8
0
100
AcDbLine
 62
7
  6
CONTINUOUS
 10
76.9213726046
 20
102.0390997788
 11
76.9044880842
 21
102.1555922292
  0
LINE
  5
9A7
100
AcDbEntity
  8
0
100
AcDbLine
 62
7
  6
CONTINUOUS
 10
76.7958551985
 20
93.0019022724
 11
76.800435911
 21
92.9698323397
  0
LINE
  5
9A8
100
AcDbEntity
  8
0
100
AcDbLine
 62
9
  6
CONTINUOUS
 10
31.9646159955
 20
91.207982865
 11
31.94331265
 21
91.3574331944
  0
LINE
  5
9A9
100
AcDbEntity
  8
0
100
AcDbLine
 62
7
  6
CONTINUOUS
 10
76.6765611521
 20
92.9703470252
 11
76.671982297
 21
93.0024576155
  0
LINE
  5
9AA
100
AcDbEntity
  8
0
100
AcDbLine
 62
9
  6
CONTINUOUS
 10
33.9612005383
 20
91.4889803601
 11
33.9421552017
 21
91.6228049469
  0
LINE
  5
9AB
100
AcDbEntity
  8
0
100
AcDbLine
 62
7
  6
CONTINUOUS
 10
76.9171291983
 20
102.0700131862
 11
76.9386960503
 21
101.9141431961
  0
LINE
  5
9AC
100
AcDbEntity
  8
0
100
AcDbLine
 62
9
  6
CONTINUOUS
 10
72.5415020672
 20
98.7030183475
 11
72.5487067829
 21
98.6509124185
  0
LINE
  5
9AD
100
AcDbEntity
  8
0
100
AcDbLine
 62
7
  6
CONTINUOUS
 10
76.9065184504
 20
94.6804915834
 11
76.9115218132
 21
94.6437119257
  0
LINE
  5
9AE
100
AcDbEntity
  8
0
100
AcDbLine
 62
7
  6
CONTINUOUS
 10
24.4536627783
 20
90.134116827
 11
24.3919069756
 21
90.5939504043
  0
LINE
  5
9AF
100
AcDbEntity
  8
0
100
AcDbLine
 62
9
  6
CONTINUOUS
 10
31.94331265
 20
91.3574331944
 11
31.9238305309
 21
91.5025162204
  0
LINE
  5
9B0
100
AcDbEntity
  8
0
100
AcDbLine
 62
9
  6
CONTINUOUS
 10
33.9421552017
 20
91.6228049469
 11
33.9247452518
 21
91.7526912988
  0
LINE
  5
9B1
100
AcDbEntity
  8
0
100
AcDbLine
 62
9
  6
CONTINUOUS
 10
72.6487991865
 20
98.1795639233
 11
72.6540746292
 21
98.1398905781
  0
LINE
  5
9B2
100
AcDbEntity
  8
0
100
AcDbLine
 62
7
  6
CONTINUOUS
 10
76.9385347302
 20
101.9156029541
 11
76.9605359326
 21
101.7496244903
  0
LINE
  5
9B3
100
AcDbEntity
  8
0
100
AcDbLine
 62
7
  6
CONTINUOUS
 10
24.3886400931
 20
90.6184262052
 11
24.4360771579
 21
90.2585776588
  0
LINE
  5
9B4
100
AcDbEntity
  8
0
100
AcDbLine
 62
7
  6
CONTINUOUS
 10
76.791459487
 20
93.0354661154
 11
76.7958551985
 21
93.0019022724
  0
LINE
  5
9B5
100
AcDbEntity
  8
0
100
AcDbLine
 62
9
  6
CONTINUOUS
 10
74.5617592282
 20
100.1001394883
 11
74.5697889406
 21
100.0387843987
  0
LINE
  5
9B6
100
AcDbEntity
  8
0
100
AcDbLine
 62
7
  6
CONTINUOUS
 10
76.671982297
 20
93.0024576155
 11
76.6675895623
 21
93.0360559883
  0
LINE
  5
9B7
100
AcDbEntity
  8
0
100
AcDbLine
 62
7
  6
CONTINUOUS
 10
76.9558976629
 20
101.7852000657
 11
76.9828310652
 21
101.575706246
  0
LINE
  5
9B8
100
AcDbEntity
  8
0
100
AcDbLine
 62
9
  6
CONTINUOUS
 10
67.9420250928
 20
93.676369099
 11
67.9504416362
 21
93.6107561725
  0
LINE
  5
9B9
100
AcDbEntity
  8
0
100
AcDbLine
 62
9
  6
CONTINUOUS
 10
72.4156179166
 20
99.8824679775
 11
72.41974338
 21
99.8499903359
  0
LINE
  5
9BA
100
AcDbEntity
  8
0
100
AcDbLine
 62
9
  6
CONTINUOUS
 10
31.9238305309
 20
91.5025162204
 11
31.9060253814
 21
91.643508961
  0
LINE
  5
9BB
100
AcDbEntity
  8
0
100
AcDbLine
 62
7
  6
CONTINUOUS
 10
77.011901672
 20
101.3454343551
 11
76.973793367
 21
101.6469298274
  0
LINE
  5
9BC
100
AcDbEntity
  8
0
100
AcDbLine
 62
9
  6
CONTINUOUS
 10
33.9247452518
 20
91.7526912988
 11
33.9088397058
 21
91.8788944455
  0
LINE
  5
9BD
100
AcDbEntity
  8
0
100
AcDbLine
 62
7
  6
CONTINUOUS
 10
76.9115218132
 20
94.6437119257
 11
76.9163030127
 21
94.6056208948
  0
LINE
  5
9BE
100
AcDbEntity
  8
0
100
AcDbLine
 62
7
  6
CONTINUOUS
 10
77.0322527978
 20
101.1811498591
 11
77.0060955044
 21
101.3922187758
  0
LINE
  5
9BF
100
AcDbEntity
  8
0
100
AcDbLine
 62
9
  6
CONTINUOUS
 10
72.53467233
 20
98.7584453549
 11
72.5415020672
 21
98.7030183475
  0
LINE
  5
9C0
100
AcDbEntity
  8
0
100
AcDbLine
 62
7
  6
CONTINUOUS
 10
77.030142353
 20
101.1983052202
 11
77.0550055232
 21
100.9933058413
  0
LINE
  5
9C1
100
AcDbEntity
  8
0
100
AcDbLine
 62
7
  6
CONTINUOUS
 10
76.7872572529
 20
93.0704471474
 11
76.791459487
 21
93.0354661154
  0
LINE
  5
9C2
100
AcDbEntity
  8
0
100
AcDbLine
 62
7
  6
CONTINUOUS
 10
76.6675895623
 20
93.0360559883
 11
76.6633913434
 21
93.0710641651
  0
LINE
  5
9C3
100
AcDbEntity
  8
0
100
AcDbLine
 62
9
  6
CONTINUOUS
 10
31.9060253814
 20
91.643508961
 11
31.8897590727
 21
91.7807441183
  0
LINE
  5
9C4
100
AcDbEntity
  8
0
100
AcDbLine
 62
9
  6
CONTINUOUS
 10
33.9088397058
 20
91.8788944455
 11
33.8943130117
 21
92.0017210345
  0
LINE
  5
9C5
100
AcDbEntity
  8
0
100
AcDbLine
 62
7
  6
CONTINUOUS
 10
24.3461737243
 20
90.9788689084
 11
24.3886400931
 21
90.6184262052
  0
LINE
  5
9C6
100
AcDbEntity
  8
0
100
AcDbLine
 62
7
  6
CONTINUOUS
 10
77.0533667649
 20
101.0071088403
 11
77.0805366433
 21
100.7764595876
  0
LINE
  5
9C7
100
AcDbEntity
  8
0
100
AcDbLine
 62
7
  6
CONTINUOUS
 10
24.3919069756
 20
90.5939504043
 11
24.336966775
 21
91.0631864324
  0
LINE
  5
9C8
100
AcDbEntity
  8
0
100
AcDbLine
 62
9
  6
CONTINUOUS
 10
71.6080385661
 20
94.0484262706
 11
71.601484947
 21
94.1043870074
  0
LINE
  5
9C9
100
AcDbEntity
  8
0
100
AcDbLine
 62
9
  6
CONTINUOUS
 10
72.41974338
 20
99.8499903359
 11
72.4242323581
 21
99.811260721
  0
LINE
  5
9CA
100
AcDbEntity
  8
0
100
AcDbLine
 62
7
  6
CONTINUOUS
 10
76.9163030127
 20
94.6056208948
 11
76.9208559034
 21
94.5662429858
  0
LINE
  5
9CB
100
AcDbEntity
  8
0
100
AcDbLine
 62
7
  6
CONTINUOUS
 10
77.0751910737
 20
100.8225252703
 11
77.1066065456
 21
100.5470749491
  0
LINE
  5
9CC
100
AcDbEntity
  8
0
100
AcDbLine
 62
9
  6
CONTINUOUS
 10
74.5697889406
 20
100.0387843987
 11
74.5765202928
 21
99.9796040061
  0
LINE
  5
9CD
100
AcDbEntity
  8
0
100
AcDbLine
 62
7
  6
CONTINUOUS
 10
77.1207665714
 20
100.4188540208
 11
77.0976575307
 21
100.6267359813
  0
LINE
  5
9CE
100
AcDbEntity
  8
0
100
AcDbLine
 62
9
  6
CONTINUOUS
 10
31.8897590727
 20
91.7807441183
 11
31.8749172478
 21
91.9144510405
  0
LINE
  5
9CF
100
AcDbEntity
  8
0
100
AcDbLine
 62
9
  6
CONTINUOUS
 10
72.4242323581
 20
99.811260721
 11
72.4590195269
 21
99.4977352097
  0
LINE
  5
9D0
100
AcDbEntity
  8
0
100
AcDbLine
 62
9
  6
CONTINUOUS
 10
33.8943130117
 20
92.0017210345
 11
33.881061677
 21
92.12138234
  0
LINE
  5
9D1
100
AcDbEntity
  8
0
100
AcDbLine
 62
9
  6
CONTINUOUS
 10
72.4590195269
 20
99.4977352097
 11
72.4877464501
 21
99.2371488715
  0
LINE
  5
9D2
100
AcDbEntity
  8
0
100
AcDbLine
 62
7
  6
CONTINUOUS
 10
76.7832561036
 20
93.1067623907
 11
76.7872572529
 21
93.0704471474
  0
CIRCLE
  5
9D3
100
AcDbEntity
  8
0
100
AcDbCircle
 62
9
  6
CONTINUOUS
 10
69.7558681114
 20
93.8759742821
 40
1.2714466077
  0
ELLIPSE
  5
9D4
100
AcDbEntity
  8
0
100
AcDbEllipse
 62
7
  6
CONTINUOUS
 10
21.1323005504
 20
109.499541843
 30
0.0
 11
0.267186978
 21
-0.267186978
 31
0.0
 40
0.9924325091
 41
2.3599925885
 42
3.9231927187
  0
ELLIPSE
  5
9D5
100
AcDbEntity
  8
0
100
AcDbEllipse
 62
7
  6
CONTINUOUS
 10
80.3794356723
 20
109.499541843
 30
0.0
 11
-0.267186978
 21
-0.267186978
 31
0.0
 40
0.9924325091
 41
2.3599925885
 42
3.9231927187
  0
ELLIPSE
  5
9D6
100
AcDbEntity
  8
0
100
AcDbEllipse
 62
7
  6
CONTINUOUS
 10
21.1323005504
 20
78.2524067212
 30
0.0
 11
0.267186978
 21
0.267186978
 31
0.0
 40
0.9924325091
 41
-3.9231927187
 42
-2.3599925885
  0
ELLIPSE
  5
9D7
100
AcDbEntity
  8
0
100
AcDbEllipse
 62
7
  6
CONTINUOUS
 10
80.3794356723
 20
78.2524067212
 30
0.0
 11
0.267186978
 21
-0.267186978
 31
0.0
 40
0.9924325091
 41
-0.7816000651
 42
0.7816000651
  0
ENDSEC
  0
SECTION
  2
OBJECTS
  0
DICTIONARY
  5
C
100
AcDbDictionary
280
0
281
1
  3
ACAD_GROUP
350
D
  3
ACAD_MLINESTYLE
350
17
  3
ACAD_LAYOUT
350
1A
  3
ACAD_PLOTSETTINGS
350
19
  3
ACAD_PLOTSTYLENAME
350
E
  0
DICTIONARY
  5
D
102
{ACAD_REACTORS
330
C
102
}
100
AcDbDictionary
280
0
281
1
  0
ACDBDICTIONARYWDFLT
  5
E
102
{ACAD_REACTORS
330
C
102
}
100
AcDbDictionary
281
1
  3
Normal
350
F
100
AcDbDictionaryWithDefault
340
F
  0
DICTIONARY
  5
17
102
{ACAD_REACTORS
330
C
102
}
100
AcDbDictionary
280
0
281
1
  3
Standard
350
18
  0
DICTIONARY
  5
19
102
{ACAD_REACTORS
330
C
102
}
100
AcDbDictionary
281
1
  0
DICTIONARY
  5
1A
102
{ACAD_REACTORS
330
C
102
}
100
AcDbDictionary
281
1
  3
Model
350
9D8
  3
Layout1
350
9D9
  0
ACDBPLACEHOLDER
  5
F
102
{ACAD_REACTORS
330
E
102
}
  0
MLINESTYLE
  5
18
102
{ACAD_REACTORS
330
17
102
}
100
AcDbMlineStyle
  2
STANDARD
 70
0
  3

 62
256
 51
90.0
 52
90.0
 71
2
 49
0.5
 62
256
  6
BYLAYER
 49
-0.5
 62
256
  6
BYLAYER
  0
LAYOUT
  5
9D8
102
{ACAD_REACTORS
330
1A
102
}
100
AcDbPlotSettings
  1

  2
none_device
  4
ANSI_B_(17.00_x_11.00_Inches)
  6

 40
0.0
 41
0.0
 42
0.0
 43
0.0
 44
431.8
 45
279.4
 46
0.0
 47
0.0
 48
0.0
 49
0.0
140
0.0
141
0.0
142
1.0
143
1.0
 70
1024
 72
0
 73
0
 74
0
  7

 75
0
147
1.0
148
0.0
149
0.0
100
AcDbLayout
  1
Model
 70
0
 71
0
 10
0.0
 20
0.0
 11
17.0
 21
11.0
 12
0.0
 22
0.0
 32
0.0
 14
0.0
 24
0.0
 34
0.0
 15
0.0
 25
0.0
 35
0.0
146
0.0
 13
0.0
 23
0.0
 33
0.0
 16
1.0
 26
0.0
 36
0.0
 17
0.0
 27
1.0
 37
0.0
 76
0
330
218
345
0
346
0
  0
LAYOUT
  5
9D9
102
{ACAD_REACTORS
330
1A
102
}
100
AcDbPlotSettings
  1

  2
none_device
  4
ANSI_B_(17.00_x_11.00_Inches)
  6

 40
0.0
 41
0.0
 42
0.0
 43
0.0
 44
431.8
 45
279.4
 46
0.0
 47
0.0
 48
0.0
 49
0.0
140
0.0
141
0.0
142
1.0
143
1.0
 70
0
 72
0
 73
0
 74
0
  7

 75
0
147
1.0
148
0.0
149
0.0
100
AcDbLayout
  1
Layout1
 70
0
 71
1
 10
0.0
 20
0.0
 11
17.0
 21
11.0
 12
0.0
 22
0.0
 32
0.0
 14
0.0
 24
0.0
 34
0.0
 15
0.0
 25
0.0
 35
0.0
146
0.0
 13
0.0
 23
0.0
 33
0.0
 16
1.0
 26
0.0
 36
0.0
 17
0.0
 27
1.0
 37
0.0
 76
0
330
219
345
0
346
0
  0
ENDSEC
  0
EOF
