  0
SECTION
  2
HEADER
  9
$ACADVER
  1
AC1015
  9
$ACADMAINTVER
 70
           6
  9
$DWGCODEPAGE
  3
ANSI_1252
  9
$INSBASE
 10
0.0
 20
0.0
 30
0.0
  9
$EXTMIN
 10
23.9558681114
 20
21.3023020631
 30
0.0
  9
$EXTMAX
 10
83.9558681114
 20
42.0853781035
 30
0.0
  9
$LIMMIN
 10
0.0
 20
0.0
  9
$LIMMAX
 10
217.6
 20
140.8
  9
$ORTHOMODE
 70
           0
  9
$REGENMODE
 70
           1
  9
$FILLMODE
 70
           1
  9
$QTEXTMODE
 70
           0
  9
$MIRRTEXT
 70
           0
  9
$LTSCALE
 40
11.968
  9
$ATTMODE
 70
           1
  9
$TEXTSIZE
 40
0.2
  9
$TRACEWID
 40
0.05
  9
$TEXTSTYLE
  7
STANDARD
  9
$CLAYER
  8
0
  9
$CELTYPE
  6
ByLayer
  9
$CECOLOR
 62
         256
  9
$CELTSCALE
 40
1.0
  9
$DISPSILH
 70
           0
  9
$DIMSCALE
 40
1.0
  9
$DIMASZ
 40
2.4
  9
$DIMEXO
 40
1.36
  9
$DIMDLI
 40
8.2688
  9
$DIMRND
 40
0.0
  9
$DIMDLE
 40
0.0
  9
$DIMEXE
 40
3.9168
  9
$DIMTP
 40
0.0
  9
$DIMTM
 40
0.0
  9
$DIMTXT
 40
1.6
  9
$DIMCEN
 40
1.9584
  9
$DIMTSZ
 40
0.0
  9
$DIMTOL
 70
           0
  9
$DIMLIM
 70
           0
  9
$DIMTIH
 70
           1
  9
$DIMTOH
 70
           1
  9
$DIMSE1
 70
           0
  9
$DIMSE2
 70
           0
  9
$DIMTAD
 70
           0
  9
$DIMZIN
 70
           0
  9
$DIMBLK
  1
_FILLED
  9
$DIMASO
 70
           1
  9
$DIMSHO
 70
           1
  9
$DIMPOST
  1

  9
$DIMAPOST
  1

  9
$DIMALT
 70
           0
  9
$DIMALTD
 70
           2
  9
$DIMALTF
 40
25.4
  9
$DIMLFAC
 40
1.0
  9
$DIMTOFL
 70
           0
  9
$DIMTVP
 40
0.0
  9
$DIMTIX
 70
           0
  9
$DIMSOXD
 70
           0
  9
$DIMSAH
 70
           0
  9
$DIMBLK1
  1

  9
$DIMBLK2
  1

  9
$DIMSTYLE
  2
STANDARD
  9
$DIMCLRD
 70
           0
  9
$DIMCLRE
 70
           0
  9
$DIMCLRT
 70
           0
  9
$DIMTFAC
 40
1.0
  9
$DIMGAP
 40
0.09
  9
$DIMJUST
 70
           0
  9
$DIMSD1
 70
           0
  9
$DIMSD2
 70
           0
  9
$DIMTOLJ
 70
           1
  9
$DIMTZIN
 70
           0
  9
$DIMALTZ
 70
           0
  9
$DIMALTTZ
 70
           0
  9
$DIMUPT
 70
           0
  9
$DIMDEC
 70
           4
  9
$DIMTDEC
 70
           4
  9
$DIMALTU
 70
           2
  9
$DIMALTTD
 70
           2
  9
$DIMTXSTY
  7
STANDARD
  9
$DIMAUNIT
 70
           0
  9
$DIMADEC
 70
           0
  9
$DIMALTRND
 40
0.0
  9
$DIMAZIN
 70
           0
  9
$DIMDSEP
 70
           0
  9
$DIMATFIT
 70
           3
  9
$DIMFRAC
 70
           0
  9
$DIMLDRBLK
  1

  9
$DIMLUNIT
 70
           2
  9
$DIMLWD
 70
          -2
  9
$DIMLWE
 70
          -2
  9
$DIMTMOVE
 70
           0
  9
$LUNITS
 70
           2
  9
$LUPREC
 70
           4
  9
$SKETCHINC
 40
0.1
  9
$FILLETRAD
 40
0.0
  9
$AUNITS
 70
           0
  9
$AUPREC
 70
           0
  9
$MENU
  1
.
  9
$ELEVATION
 40
0.0
  9
$PELEVATION
 40
0.0
  9
$THICKNESS
 40
0.0
  9
$LIMCHECK
 70
           0
  9
$CHAMFERA
 40
0.0
  9
$CHAMFERB
 40
0.0
  9
$CHAMFERC
 40
0.0
  9
$CHAMFERD
 40
0.0
  9
$SKPOLY
 70
           0
  9
$TDCREATE
 40
2455183.577242419
  9
$TDUCREATE
 40
0.000000000
  9
$TDUPDATE
 40
2455183.370133611
  9
$TDUUPDATE
 40
0.000000000
  9
$TDINDWG
 40
0.0009953704
  9
$TDUSRTIMER
 40
0.0009953704
  9
$USRTIMER
 70
           1
  9
$ANGBASE
 50
0.0
  9
$ANGDIR
 70
           0
  9
$PDMODE
 70
           3
  9
$PDSIZE
 40
0.03125
  9
$PLINEWID
 40
0.0
  9
$SPLFRAME
 70
           0
  9
$SPLINETYPE
 70
           6
  9
$SPLINESEGS
 70
           8
  9
$HANDSEED
  5
18FA
  9
$SURFTAB1
 70
           6
  9
$SURFTAB2
 70
           6
  9
$SURFTYPE
 70
           6
  9
$SURFU
 70
           6
  9
$SURFV
 70
           6
  9
$UCSBASE
  2

  9
$UCSNAME
  2

  9
$UCSORG
 10
0.0
 20
0.0
 30
0.0
  9
$UCSXDIR
 10
1.0
 20
0.0
 30
0.0
  9
$UCSYDIR
 10
0.0
 20
1.0
 30
0.0
  9
$UCSORTHOREF
  2

  9
$UCSORTHOVIEW
 70
           0
  9
$UCSORGTOP
 10
0.0
 20
0.0
 30
0.0
  9
$UCSORGBOTTOM
 10
0.0
 20
0.0
 30
0.0
  9
$UCSORGLEFT
 10
0.0
 20
0.0
 30
0.0
  9
$UCSORGRIGHT
 10
0.0
 20
0.0
 30
0.0
  9
$UCSORGFRONT
 10
0.0
 20
0.0
 30
0.0
  9
$UCSORGBACK
 10
0.0
 20
0.0
 30
0.0
  9
$PUCSBASE
  2

  9
$PUCSNAME
  2

  9
$PUCSORG
 10
0.0
 20
0.0
 30
0.0
  9
$PUCSXDIR
 10
1.0
 20
0.0
 30
0.0
  9
$PUCSYDIR
 10
0.0
 20
1.0
 30
0.0
  9
$PUCSORTHOREF
  2

  9
$PUCSORTHOVIEW
 70
           0
  9
$PUCSORGTOP
 10
0.0
 20
0.0
 30
0.0
  9
$PUCSORGBOTTOM
 10
0.0
 20
0.0
 30
0.0
  9
$PUCSORGLEFT
 10
0.0
 20
0.0
 30
0.0
  9
$PUCSORGRIGHT
 10
0.0
 20
0.0
 30
0.0
  9
$PUCSORGFRONT
 10
0.0
 20
0.0
 30
0.0
  9
$PUCSORGBACK
 10
0.0
 20
0.0
 30
0.0
  9
$USERI1
 70
           0
  9
$USERI2
 70
           0
  9
$USERI3
 70
           0
  9
$USERI4
 70
           0
  9
$USERI5
 70
           0
  9
$USERR1
 40
0.0
  9
$USERR2
 40
0.0
  9
$USERR3
 40
0.0
  9
$USERR4
 40
0.0
  9
$USERR5
 40
0.0
  9
$WORLDVIEW
 70
           1
  9
$SHADEDGE
 70
           3
  9
$SHADEDIF
 70
          70
  9
$TILEMODE
 70
           1
  9
$MAXACTVP
 70
          16
  9
$PINSBASE
 10
0.0
 20
0.0
 30
0.0
  9
$PLIMCHECK
 70
           0
  9
$PEXTMIN
 10
1.000000000000E+20
 20
1.000000000000E+20
 30
1.000000000000E+20
  9
$PEXTMAX
 10
-1.000000000000E+20
 20
-1.000000000000E+20
 30
-1.000000000000E+20
  9
$PLIMMIN
 10
0.0
 20
0.0
  9
$PLIMMAX
 10
12.0
 20
9.0
  9
$UNITMODE
 70
           0
  9
$VISRETAIN
 70
           1
  9
$PLINEGEN
 70
           0
  9
$PSLTSCALE
 70
           1
  9
$TREEDEPTH
 70
        3020
  9
$CMLSTYLE
  2
Standard
  9
$CMLJUST
 70
           0
  9
$CMLSCALE
 40
1.0
  9
$PROXYGRAPHICS
 70
           1
  9
$MEASUREMENT
 70
           0
  9
$CELWEIGHT
370
          -1
  9
$ENDCAPS
280
           0
  9
$JOINSTYLE
280
           0
  9
$LWDISPLAY
290
           0
  9
$INSUNITS
 70
           1
  9
$HYPERLINKBASE
  1

  9
$XEDIT
290
           1
  9
$CEPSNTYPE
380
           0
  9
$PSTYLEMODE
290
           1
  9
$FINGERPRINTGUID
  2
{F33927E3-33E7-4C92-8E83-39E9A9F35415}
  9
$VERSIONGUID
  2
{92BFF4FB-7AA3-4F28-BC2F-469AA12B5C5D}
  9
$EXTNAMES
290
           1
  9
$PSVPSCALE
 40
0.0
  0
ENDSEC
  0
SECTION
  2
CLASSES
  0
CLASS
  1
ACDBDICTIONARYWDFLT
  2
AcDbDictionaryWithDefault
  3
ObjectDBX Classes
 90
        0
280
           0
281
           0
  0
CLASS
  1
ACDBPLACEHOLDER
  2
AcDbPlaceHolder
  3
ObjectDBX Classes
 90
        0
280
           0
281
           0
  0
CLASS
  1
LAYOUT
  2
AcDbLayout
  3
ObjectDBX Classes
 90
        0
280
           0
281
           0
  0
CLASS
  1
MATERIAL
  2
AcDbMaterial
  3
ObjectDBX Classes
 90
     1153
280
           0
281
           0
  0
CLASS
  1
VISUALSTYLE
  2
AcDbVisualStyle
  3
ObjectDBX Classes
 90
     4095
280
           0
281
           0
  0
CLASS
  1
TABLESTYLE
  2
AcDbTableStyle
  3
ObjectDBX Classes
 90
     4095
280
           0
281
           0
  0
CLASS
  1
SCALE
  2
AcDbScale
  3
ObjectDBX Classes
 90
     1153
280
           0
281
           0
  0
CLASS
  1
MLEADERSTYLE
  2
AcDbMLeaderStyle
  3
ACDB_MLEADERSTYLE_CLASS
 90
     4095
280
           0
281
           0
  0
CLASS
  1
CELLSTYLEMAP
  2
AcDbCellStyleMap
  3
ObjectDBX Classes
 90
     1152
280
           0
281
           0
  0
CLASS
  1
DICTIONARYVAR
  2
AcDbDictionaryVar
  3
ObjectDBX Classes
 90
        0
280
           0
281
           0
  0
CLASS
  1
LWPOLYLINE
  2
AcDbPolyline
  3
AutoCAD 2000
 90
        0
280
           0
281
           1
  0
CLASS
  1
IMAGE
  2
AcDbRasterImage
  3
ISM
 90
    32895
280
           0
281
           1
  0
CLASS
  1
OLE2FRAME
  2
AcDbOle2Frame
  3
AutoCAD 2000
 90
    32768
280
           0
281
           1
  0
CLASS
  1
HATCH
  2
AcDbHatch
  3
AutoCAD 2000
 90
    32768
280
           0
281
           1
  0
CLASS
  1
RASTERVARIABLES
  2
AcDbRasterVariables
  3
ISM
 90
    32768
280
           0
281
           0
  0
CLASS
  1
IMAGEDEF
  2
AcDbRasterImageDef
  3
ISM
 90
    32768
280
           0
281
           0
  0
CLASS
  1
IMAGEDEF_REACTOR
  2
AcDbRasterImageDefReactor
  3
ISM
 90
    32769
280
           0
281
           0
  0
CLASS
  1
IDBUFFER
  2
AcDbIdBuffer
  3
AutoCAD 2000
 90
    32768
280
           0
281
           0
  0
CLASS
  1
SPATIAL_FILTER
  2
AcDbSpatialFilter
  3
AutoCAD 2000
 90
    32768
280
           0
281
           0
  0
CLASS
  1
XRECORD
  2
AcDbXrecord
  3
AutoCAD 2000
 90
        0
280
           0
281
           0
  0
CLASS
  1
SORTENTSTABLE
  2
AcDbSortentsTable
  3
AutoCAD 2000
 90
    32768
280
           0
281
           0
  0
CLASS
  1
LAYER_INDEX
  2
AcDbLayerIndex
  3
AutoCAD 2000
 90
    32768
280
           0
281
           0
  0
CLASS
  1
SPATIAL_INDEX
  2
AcDbSpatialIndex
  3
AutoCAD 2000
 90
    32768
280
           0
281
           0
  0
CLASS
  1
OBJECT_PTR
  2
CAseDLPNTableRecord
  3
"ASE-LPNTableRecord"
 90
    32769
280
           0
281
           0
  0
CLASS
  1
PLOTSETTINGS
  2
AcDbPlotSettings
  3
AutoCAD 2000
 90
    32768
280
           0
281
           0
  0
CLASS
  1
VBA_PROJECT
  2
AcDbVbaProject
  3
acadvba
 90
    32768
280
           0
281
           0
  0
CLASS
  1
WIPEOUT
  2
AcDbWipeout
  3
WipeOut|AutoCAD Express Tool|expresstools@autodesk.com
 90
    32895
280
           0
281
           1
  0
CLASS
  1
WIPEOUTVARIABLES
  2
AcDbWipeoutVariables
  3
WipeOut|AutoCAD Express Tool|expresstools@autodesk.com
 90
        0
280
           0
281
           0
  0
CLASS
  1
RTEXT
  2
RText
  3
RText|AutoCAD Express Tool|expresstools@autodesk.com
 90
    32768
280
           0
281
           1
  0
CLASS
  1
ARCALIGNEDTEXT
  2
AcDbArcAlignedText
  3
ATEXT|AutoCAD Express Tool|expresstools@autodesk.com
 90
    32768
280
           0
281
           1
  0
ENDSEC
  0
SECTION
  2
TABLES
  0
TABLE
  2
VPORT
  5
8
100
AcDbSymbolTable
 70
           1
  0
VPORT
  5
1F4
100
AcDbSymbolTableRecord
100
AcDbViewportTableRecord
  2
*ACTIVE
 70
          64
 10
0.0
 20
0.0
 11
1.0
 21
1.0
 12
53.9558681114
 22
31.6938400833
 13
0.0
 23
0.0
 14
1.0
 24
1.0
 15
0.0
 25
0.0
 16
0.0
 26
0.0
 36
1.0
 17
0.0
 27
0.0
 37
0.0
 40
33.697634815516
 41
1.5454545455
 42
50.0
 43
0.0
 44
0.0
 50
0.0
 51
0.0
 71
           0
 72
         100
 73
           1
 74
           1
 75
           0
 76
           0
 77
           0
 78
           0
281
           0
 65
           0
110
0.0
120
0.0
130
0.0
111
1.0
121
0.0
131
0.0
112
0.0
122
1.0
132
0.0
345
0
346
0
 79
           0
146
0.0
  0
ENDTAB
  0
TABLE
  2
LTYPE
  5
5
100
AcDbSymbolTable
 70
           8
  0
LTYPE
  5
14
100
AcDbSymbolTableRecord
100
AcDbLinetypeTableRecord
  2
ByBlock
 70
          64
  3

 72
          65
 73
           0
 40
0.0
  0
LTYPE
  5
15
100
AcDbSymbolTableRecord
100
AcDbLinetypeTableRecord
  2
ByLayer
 70
          64
  3

 72
          65
 73
           0
 40
0.0
  0
LTYPE
  5
16
100
AcDbSymbolTableRecord
100
AcDbLinetypeTableRecord
  2
CONTINUOUS
 70
          64
  3
Solid line
 72
          65
 73
           0
 40
0.0
  0
LTYPE
  5
1F5
100
AcDbSymbolTableRecord
100
AcDbLinetypeTableRecord
  2
CENTER
 70
          64
  3
____ _ ____ _ ____ _ ____ _ ____ _ ____ _ ____
 72
          65
 73
           4
 40
0.6
 49
0.375
 74
           0
 49
-0.075
 74
           0
 49
0.075
 74
           0
 49
-0.075
 74
           0
  0
LTYPE
  5
1F6
100
AcDbSymbolTableRecord
100
AcDbLinetypeTableRecord
  2
HIDDEN
 70
          64
  3
- - - - - - - - - - - - - - - - - - - -
 72
          65
 73
           2
 40
0.2
 49
0.1
 74
           0
 49
-0.1
 74
           0
  0
LTYPE
  5
1F7
100
AcDbSymbolTableRecord
100
AcDbLinetypeTableRecord
  2
PHANTOM
 70
          64
  3
_____ _ _ _____ _ _ _____ _ _ _____
 72
          65
 73
           6
 40
0.8
 49
0.45
 74
           0
 49
-0.05
 74
           0
 49
0.1
 74
           0
 49
-0.05
 74
           0
 49
0.1
 74
           0
 49
-0.05
 74
           0
  0
LTYPE
  5
1F8
100
AcDbSymbolTableRecord
100
AcDbLinetypeTableRecord
  2
DOT
 70
          64
  3
. . . . . . . . . . . . . . . . . . . .
 72
          65
 73
           2
 40
0.2
 49
0.1
 74
           0
 49
-0.1
 74
           0
  0
LTYPE
  5
1F9
100
AcDbSymbolTableRecord
100
AcDbLinetypeTableRecord
  2
DASHED
 70
          64
  3
- - - - - - - - - - - - - - - - - - - -
 72
          65
 73
           2
 40
0.2
 49
0.1
 74
           0
 49
-0.1
 74
           0
  0
ENDTAB
  0
TABLE
  2
LAYER
  5
2
100
AcDbSymbolTable
 70
          27
  0
LAYER
  5
10
102
{ACAD_XDICTIONARY
360
18B3
102
}
100
AcDbSymbolTableRecord
100
AcDbLayerTableRecord
  2
0
 70
          64
 62
           7
  6
CONTINUOUS
290
           1
370
          -3
390
E
  0
LAYER
  5
1FA
102
{ACAD_XDICTIONARY
360
18B5
102
}
100
AcDbSymbolTableRecord
100
AcDbLayerTableRecord
  2
DEFAULT_1
 70
          64
 62
           7
  6
CENTER
290
           1
370
          -3
390
E
  0
LAYER
  5
1FB
102
{ACAD_XDICTIONARY
360
18B7
102
}
100
AcDbSymbolTableRecord
100
AcDbLayerTableRecord
  2
DEFAULT_2
 70
          64
 62
           8
  6
HIDDEN
290
           1
370
          -3
390
E
  0
LAYER
  5
1FC
102
{ACAD_XDICTIONARY
360
18B9
102
}
100
AcDbSymbolTableRecord
100
AcDbLayerTableRecord
  2
DEFAULT_3
 70
          64
 62
           7
  6
PHANTOM
290
           1
370
          -3
390
E
  0
LAYER
  5
1FD
102
{ACAD_XDICTIONARY
360
18BB
102
}
100
AcDbSymbolTableRecord
100
AcDbLayerTableRecord
  2
1_CURVES
 70
          64
 62
           7
  6
CONTINUOUS
290
           1
370
          -3
390
E
  0
LAYER
  5
1FE
102
{ACAD_XDICTIONARY
360
18BD
102
}
100
AcDbSymbolTableRecord
100
AcDbLayerTableRecord
  2
1_CURVES-DEGAGEMENT-COIL
 70
          64
 62
           7
  6
CONTINUOUS
290
           1
370
          -3
390
E
  0
LAYER
  5
1FF
102
{ACAD_XDICTIONARY
360
18BF
102
}
100
AcDbSymbolTableRecord
100
AcDbLayerTableRecord
  2
1_CURVES-JETS
 70
          64
 62
           7
  6
CONTINUOUS
290
           1
370
          -3
390
E
  0
LAYER
  5
200
102
{ACAD_XDICTIONARY
360
18C1
102
}
100
AcDbSymbolTableRecord
100
AcDbLayerTableRecord
  2
1_CURVES-TRAJECTOIRE-COIL
 70
          64
 62
           7
  6
CONTINUOUS
290
           1
370
          -3
390
E
  0
LAYER
  5
201
102
{ACAD_XDICTIONARY
360
18C3
102
}
100
AcDbSymbolTableRecord
100
AcDbLayerTableRecord
  2
1_CURVES_IMPORT
 70
          64
 62
           7
  6
CONTINUOUS
290
           1
370
          -3
390
E
  0
LAYER
  5
202
102
{ACAD_XDICTIONARY
360
18C5
102
}
100
AcDbSymbolTableRecord
100
AcDbLayerTableRecord
  2
1_CURVES_JETS
 70
          64
 62
           7
  6
CONTINUOUS
290
           1
370
          -3
390
E
  0
LAYER
  5
203
102
{ACAD_XDICTIONARY
360
18C7
102
}
100
AcDbSymbolTableRecord
100
AcDbLayerTableRecord
  2
2_PLANES
 70
          64
 62
           7
  6
CONTINUOUS
290
           1
370
          -3
390
E
  0
LAYER
  5
204
102
{ACAD_XDICTIONARY
360
18C9
102
}
100
AcDbSymbolTableRecord
100
AcDbLayerTableRecord
  2
2_PLANES-JETS
 70
          64
 62
           7
  6
CONTINUOUS
290
           1
370
          -3
390
E
  0
LAYER
  5
205
102
{ACAD_XDICTIONARY
360
18CB
102
}
100
AcDbSymbolTableRecord
100
AcDbLayerTableRecord
  2
3_POINTS
 70
          64
 62
           7
  6
CONTINUOUS
290
           1
370
          -3
390
E
  0
LAYER
  5
206
102
{ACAD_XDICTIONARY
360
18CD
102
}
100
AcDbSymbolTableRecord
100
AcDbLayerTableRecord
  2
3_POINTS-JETS
 70
          64
 62
           7
  6
CONTINUOUS
290
           1
370
          -3
390
E
  0
LAYER
  5
207
102
{ACAD_XDICTIONARY
360
18CF
102
}
100
AcDbSymbolTableRecord
100
AcDbLayerTableRecord
  2
4_CSYS
 70
          64
 62
           7
  6
CONTINUOUS
290
           1
370
          -3
390
E
  0
LAYER
  5
208
102
{ACAD_XDICTIONARY
360
18D1
102
}
100
AcDbSymbolTableRecord
100
AcDbLayerTableRecord
  2
5_AXIS
 70
          64
 62
           7
  6
CONTINUOUS
290
           1
370
          -3
390
E
  0
LAYER
  5
209
102
{ACAD_XDICTIONARY
360
18D3
102
}
100
AcDbSymbolTableRecord
100
AcDbLayerTableRecord
  2
6_SURFACES
 70
          64
 62
           7
  6
CONTINUOUS
290
           1
370
          -3
390
E
  0
LAYER
  5
20A
102
{ACAD_XDICTIONARY
360
18D5
102
}
100
AcDbSymbolTableRecord
100
AcDbLayerTableRecord
  2
6_SURFACES-OFFSET-FIBRE-ACRYLIQ
 70
          64
 62
           7
  6
CONTINUOUS
290
           1
370
          -3
390
E
  0
LAYER
  5
20B
102
{ACAD_XDICTIONARY
360
18D7
102
}
100
AcDbSymbolTableRecord
100
AcDbLayerTableRecord
  2
6_SURFACES-TOOLING
 70
          64
 62
           7
  6
CONTINUOUS
290
           1
370
          -3
390
E
  0
LAYER
  5
20C
102
{ACAD_XDICTIONARY
360
18D9
102
}
100
AcDbSymbolTableRecord
100
AcDbLayerTableRecord
  2
6_SURFACES_AIRE
 70
          64
 62
           7
  6
CONTINUOUS
290
           1
370
          -3
390
E
  0
LAYER
  5
20D
102
{ACAD_XDICTIONARY
360
18DB
102
}
100
AcDbSymbolTableRecord
100
AcDbLayerTableRecord
  2
6_SURFACES_OFFSET_CONDUIT
 70
          64
 62
           7
  6
CONTINUOUS
290
           1
370
          -3
390
E
  0
LAYER
  5
20E
102
{ACAD_XDICTIONARY
360
18DD
102
}
100
AcDbSymbolTableRecord
100
AcDbLayerTableRecord
  2
6_SURFACES_OFFSET_CONDUIT-PREPA
 70
          64
 62
           7
  6
CONTINUOUS
290
           1
370
          -3
390
E
  0
LAYER
  5
20F
102
{ACAD_XDICTIONARY
360
18DF
102
}
100
AcDbSymbolTableRecord
100
AcDbLayerTableRecord
  2
6_SURFACES_OFFSET_FIBRE
 70
          64
 62
           7
  6
CONTINUOUS
290
           1
370
          -3
390
E
  0
LAYER
  5
210
102
{ACAD_XDICTIONARY
360
18E1
102
}
100
AcDbSymbolTableRecord
100
AcDbLayerTableRecord
  2
6_SURFACES_TOOLING
 70
          64
 62
           7
  6
CONTINUOUS
290
           1
370
          -3
390
E
  0
LAYER
  5
211
102
{ACAD_XDICTIONARY
360
18E3
102
}
100
AcDbSymbolTableRecord
100
AcDbLayerTableRecord
  2
7_NOTES
 70
          64
 62
           7
  6
CONTINUOUS
290
           1
370
          -3
390
E
  0
LAYER
  5
212
102
{ACAD_XDICTIONARY
360
18E5
102
}
100
AcDbSymbolTableRecord
100
AcDbLayerTableRecord
  2
8_ZONE-ROBINETERIE
 70
          64
 62
           7
  6
CONTINUOUS
290
           1
370
          -3
390
E
  0
LAYER
  5
213
102
{ACAD_XDICTIONARY
360
18E7
102
}
100
AcDbSymbolTableRecord
100
AcDbLayerTableRecord
  2
XSEC_DATUMS
 70
          64
 62
           7
  6
CONTINUOUS
290
           1
370
          -3
390
E
  0
ENDTAB
  0
TABLE
  2
STYLE
  5
3
100
AcDbSymbolTable
 70
           8
  0
STYLE
  5
11
100
AcDbSymbolTableRecord
100
AcDbTextStyleTableRecord
  2
STANDARD
 70
          64
 40
0.0
 41
0.8
 50
0.0
 71
           0
 42
0.2
  3
txt
  4

  0
STYLE
  5
214
100
AcDbSymbolTableRecord
100
AcDbTextStyleTableRecord
  2
TEXTSTYLE_1
 70
          64
 40
0.0
 41
0.8
 50
0.0
 71
           0
 42
0.2
  3
gdt
  4

  0
STYLE
  5
215
100
AcDbSymbolTableRecord
100
AcDbTextStyleTableRecord
  2
TEXTSTYLE_2
 70
          64
 40
0.0
 41
1.0
 50
0.0
 71
           0
 42
0.2
  3
trium.ttf
  4

  0
STYLE
  5
216
100
AcDbSymbolTableRecord
100
AcDbTextStyleTableRecord
  2
TEXTSTYLE_3
 70
          64
 40
0.0
 41
1.0
 50
0.0
 71
           0
 42
0.2
  3
trium.ttf
  4

  0
STYLE
  5
217
100
AcDbSymbolTableRecord
100
AcDbTextStyleTableRecord
  2
TEXTSTYLE_4
 70
          64
 40
0.0
 41
1.0
 50
0.0
 71
           0
 42
0.2
  3
txt
  4

  0
STYLE
  5
218
100
AcDbSymbolTableRecord
100
AcDbTextStyleTableRecord
  2
TEXTSTYLE_5
 70
          64
 40
0.0
 41
1.0
 50
0.0
 71
           0
 42
0.2
  3
txt
  4

  0
STYLE
  5
219
100
AcDbSymbolTableRecord
100
AcDbTextStyleTableRecord
  2
TEXTSTYLE_6
 70
          64
 40
0.0
 41
1.0
 50
0.0
 71
           0
 42
0.2
  3
trium.ttf
  4

  0
STYLE
  5
21A
100
AcDbSymbolTableRecord
100
AcDbTextStyleTableRecord
  2
TEXTSTYLE_7
 70
          64
 40
0.0
 41
0.8
 50
0.0
 71
           0
 42
0.2
  3
txt
  4

  0
ENDTAB
  0
TABLE
  2
VIEW
  5
6
100
AcDbSymbolTable
 70
           0
  0
ENDTAB
  0
TABLE
  2
UCS
  5
7
100
AcDbSymbolTable
 70
           0
  0
ENDTAB
  0
TABLE
  2
APPID
  5
9
100
AcDbSymbolTable
 70
           2
  0
APPID
  5
21B
100
AcDbSymbolTableRecord
100
AcDbRegAppTableRecord
  2
ACAD
 70
          64
  0
APPID
  5
18AD
100
AcDbSymbolTableRecord
100
AcDbRegAppTableRecord
  2
ACAD_MLEADERVER
 70
          64
  0
ENDTAB
  0
TABLE
  2
DIMSTYLE
  5
A
100
AcDbSymbolTable
 70
           6
100
AcDbDimStyleTable
 71
           0
  0
DIMSTYLE
105
23C
100
AcDbSymbolTableRecord
100
AcDbDimStyleTableRecord
  2
STANDARD
 70
          64
  3

  4

 40
1.0
 41
0.1875
 42
0.0625
 43
0.38
 44
0.18
 45
0.0
 46
0.0
 47
0.00001
 48
0.00001
 71
           0
 72
           0
 73
           1
 74
           1
 75
           0
 76
           0
 77
           0
 78
           4
 79
           0
140
1.6
141
0.09
142
0.0
143
25.4
144
1.0
145
0.0
146
1.0
147
0.09
148
0.0
170
           0
171
           2
172
           0
173
           0
174
           0
175
           0
176
           0
177
           0
178
           0
179
           0
271
           5
272
           5
273
           2
274
           2
275
           0
276
           0
277
           2
278
          46
279
           0
280
           0
281
           0
282
           0
283
           1
284
           4
285
           0
286
           0
288
           0
340
11
341
21E
342
21E
343
21E
344
21E
371
          -2
372
          -2
  0
DIMSTYLE
105
23D
102
{ACAD_REACTORS
330
434
330
435
330
437
330
438
330
43B
330
442
330
443
330
446
102
}
100
AcDbSymbolTableRecord
100
AcDbDimStyleTableRecord
  2
DIMSTYLE_1
 70
          64
  3

  4

 40
1.0
 41
2.4
 42
0.0625
 43
0.38
 44
0.18
 45
0.0
 46
0.0
 47
0.0
 48
0.0
 71
           0
 72
           0
 73
           1
 74
           1
 75
           0
 76
           0
 77
           0
 78
           4
 79
           0
140
1.6
141
0.09
142
0.0
143
25.4
144
1.0
145
0.0
146
1.0
147
0.09
148
0.0
170
           0
171
           2
172
           0
173
           0
174
           0
175
           0
176
           0
177
           0
178
           0
179
           0
271
           6
272
           6
273
           2
274
           2
275
           0
276
           0
277
           2
278
          46
279
           0
280
           0
281
           0
282
           0
283
           1
284
           4
285
           0
286
           0
288
           0
340
11
341
21E
342
21E
343
21E
344
21E
371
          -2
372
          -2
  0
DIMSTYLE
105
23E
102
{ACAD_REACTORS
330
436
330
43A
330
43D
330
43E
330
440
330
441
330
444
330
445
102
}
100
AcDbSymbolTableRecord
100
AcDbDimStyleTableRecord
  2
DIMSTYLE_2
 70
          64
  3

  4

 40
1.0
 41
2.4
 42
0.0625
 43
0.38
 44
0.18
 45
0.0
 46
0.0
 47
0.0
 48
0.0
 71
           0
 72
           0
 73
           1
 74
           1
 75
           0
 76
           0
 77
           0
 78
           4
 79
           0
140
1.6
141
0.09
142
0.0
143
25.4
144
1.0
145
0.0
146
1.0
147
0.09
148
0.0
170
           0
171
           2
172
           0
173
           0
174
           0
175
           0
176
           0
177
           0
178
           0
179
           0
271
           3
272
           3
273
           2
274
           2
275
           0
276
           0
277
           2
278
          46
279
           0
280
           0
281
           0
282
           0
283
           1
284
           4
285
           0
286
           0
288
           0
340
11
341
21E
342
21E
343
21E
344
21E
371
          -2
372
          -2
  0
DIMSTYLE
105
23F
102
{ACAD_REACTORS
330
439
330
447
330
448
102
}
100
AcDbSymbolTableRecord
100
AcDbDimStyleTableRecord
  2
DIMSTYLE_3
 70
          64
  3

  4

 40
1.0
 41
2.4
 42
0.0625
 43
0.38
 44
0.18
 45
0.0
 46
0.0
 47
0.0
 48
0.0
 71
           0
 72
           0
 73
           1
 74
           1
 75
           0
 76
           0
 77
           0
 78
           4
 79
           0
140
1.6
141
0.09
142
0.0
143
25.4
144
1.0
145
0.0
146
1.0
147
0.09
148
0.0
170
           0
171
           2
172
           0
173
           0
174
           0
175
           0
176
           0
177
           0
178
           0
179
           0
271
           0
272
           0
273
           2
274
           2
275
           0
276
           0
277
           2
278
          46
279
           0
280
           0
281
           0
282
           0
283
           1
284
           4
285
           0
286
           0
288
           0
340
11
341
21E
342
21E
343
21E
344
21E
371
          -2
372
          -2
  0
DIMSTYLE
105
240
102
{ACAD_REACTORS
330
43C
102
}
100
AcDbSymbolTableRecord
100
AcDbDimStyleTableRecord
  2
DIMSTYLE_4
 70
          64
  3

  4

 40
1.0
 41
2.4
 42
0.0625
 43
0.38
 44
0.18
 45
0.0
 46
0.0
 47
0.0
 48
0.0
 71
           0
 72
           0
 73
           1
 74
           1
 75
           0
 76
           0
 77
           0
 78
           4
 79
           0
140
1.6
141
0.09
142
0.0
143
25.4
144
1.0
145
0.0
146
1.0
147
0.09
148
0.0
170
           0
171
           2
172
           0
173
           0
174
           0
175
           0
176
           0
177
           0
178
           0
179
           0
271
           4
272
           4
273
           2
274
           2
275
           0
276
           0
277
           2
278
          46
279
           0
280
           0
281
           0
282
           0
283
           1
284
           4
285
           0
286
           0
288
           0
340
11
341
21E
342
21E
343
21E
344
21E
371
          -2
372
          -2
  0
DIMSTYLE
105
241
102
{ACAD_REACTORS
330
43F
102
}
100
AcDbSymbolTableRecord
100
AcDbDimStyleTableRecord
  2
DIMSTYLE_5
 70
          64
  3

  4

 40
1.0
 41
2.4
 42
0.0625
 43
0.38
 44
0.18
 45
0.0
 46
0.0
 47
0.0
 48
0.0
 71
           0
 72
           0
 73
           1
 74
           1
 75
           0
 76
           0
 77
           0
 78
           4
 79
           0
140
1.6
141
0.09
142
0.0
143
25.4
144
1.0
145
0.0
146
1.0
147
0.09
148
0.0
170
           0
171
           2
172
           0
173
           0
174
           0
175
           0
176
           0
177
           0
178
           0
179
           0
271
           2
272
           2
273
           2
274
           2
275
           0
276
           0
277
           2
278
          46
279
           0
280
           0
281
           0
282
           0
283
           1
284
           4
285
           0
286
           0
288
           0
340
11
341
21E
342
21E
343
21E
344
21E
371
          -2
372
          -2
  0
ENDTAB
  0
TABLE
  2
BLOCK_RECORD
  5
1
100
AcDbSymbolTable
 70
           9
  0
BLOCK_RECORD
  5
21C
100
AcDbSymbolTableRecord
100
AcDbBlockTableRecord
  2
*MODEL_SPACE
340
1858
  0
BLOCK_RECORD
  5
21D
100
AcDbSymbolTableRecord
100
AcDbBlockTableRecord
  2
*PAPER_SPACE
340
1859
  0
BLOCK_RECORD
  5
21E
100
AcDbSymbolTableRecord
100
AcDbBlockTableRecord
  2
_FILLED
340
0
  0
BLOCK_RECORD
  5
234
100
AcDbSymbolTableRecord
100
AcDbBlockTableRecord
  2
L03-MOTEUR-CONTROLE-LED_BL7
340
0
  0
BLOCK_RECORD
  5
235
100
AcDbSymbolTableRecord
100
AcDbBlockTableRecord
  2
L03-MOTEUR-CONTROLE-LED_BL6
340
0
  0
BLOCK_RECORD
  5
236
100
AcDbSymbolTableRecord
100
AcDbBlockTableRecord
  2
L03-MOTEUR-CONTROLE-LED_BL5
340
0
  0
BLOCK_RECORD
  5
237
100
AcDbSymbolTableRecord
100
AcDbBlockTableRecord
  2
L03-MOTEUR-CONTROLE-LED_BL4
340
0
  0
BLOCK_RECORD
  5
238
100
AcDbSymbolTableRecord
100
AcDbBlockTableRecord
  2
L03-MOTEUR-CONTROLE-LED_BL3
340
0
  0
BLOCK_RECORD
  5
239
100
AcDbSymbolTableRecord
100
AcDbBlockTableRecord
  2
L03-TOLERANCES_GENERALES_BL2
340
0
  0
BLOCK_RECORD
  5
23A
100
AcDbSymbolTableRecord
100
AcDbBlockTableRecord
  2
L03-NOTE_SPECS_BAINS_BL1
340
0
  0
BLOCK_RECORD
  5
23B
100
AcDbSymbolTableRecord
100
AcDbBlockTableRecord
  2
L03-USAGE_INTERNE_SEULEM_BL0
340
0
  0
ENDTAB
  0
ENDSEC
  0
SECTION
  2
BLOCKS
  0
BLOCK
  5
20
100
AcDbEntity
  8
0
100
AcDbBlockBegin
  2
*MODEL_SPACE
 70
           0
 10
0.0
 20
0.0
 30
0.0
  3
*MODEL_SPACE
  1

  0
ENDBLK
  5
21
100
AcDbEntity
  8
0
100
AcDbBlockEnd
  0
BLOCK
  5
1C
100
AcDbEntity
 67
           1
  8
0
100
AcDbBlockBegin
  2
*PAPER_SPACE
 70
           0
 10
0.0
 20
0.0
 30
0.0
  3
*PAPER_SPACE
  1

  0
ENDBLK
  5
1D
100
AcDbEntity
 67
           1
  8
0
100
AcDbBlockEnd
  0
BLOCK
  5
32B
100
AcDbEntity
  8
0
100
AcDbBlockBegin
  2
_FILLED
 70
          64
 10
0.0
 20
0.0
 30
0.0
  3
_FILLED
  1

1001
ACAD
1000
RTMaterial
1005
185D
  0
SOLID
  5
32C
100
AcDbEntity
  8
0
  6
ByBlock
 62
           0
100
AcDbTrace
 10
0.0
 20
0.0
 30
0.0
 11
-1.0
 21
0.1666666667
 31
0.0
 12
-1.0
 22
-0.1666666667
 32
0.0
 13
-1.0
 23
-0.1666666667
 33
0.0
1001
ACAD
1000
RTMaterial
1005
185D
  0
ENDBLK
  5
32D
100
AcDbEntity
  8
0
  6
ByBlock
 62
           0
100
AcDbBlockEnd
1001
ACAD
1000
RTMaterial
1005
185D
  0
BLOCK
  5
242
100
AcDbEntity
  8
0
  6
CONTINUOUS
 62
           2
100
AcDbBlockBegin
  2
L03-MOTEUR-CONTROLE-LED_BL7
 70
          64
 10
40.8033495004
 20
117.4619512883
 30
0.0
  3
L03-MOTEUR-CONTROLE-LED_BL7
  1

1001
ACAD
1000
RTMaterial
1005
185D
  0
ELLIPSE
  5
243
100
AcDbEntity
  8
0
  6
CONTINUOUS
 62
           7
100
AcDbEllipse
 10
40.8033495004
 20
117.4619512883
 30
0.0
 11
-2.3314650814999998
 21
0.0
 31
0.0
210
0.0
220
0.0
230
1.0
 40
0.6606458385
 41
0.0
 42
6.2831853071795862
1001
ACAD
1000
RTMaterial
1005
185D
  0
MTEXT
  5
244
100
AcDbEntity
  8
0
  6
CONTINUOUS
 62
           2
100
AcDbMText
 10
40.1633492514
 20
118.2619515996
 30
0.0
 40
1.6000006225
 41
1.280000498
 71
           1
 72
           1
  1
C
  7
TEXTSTYLE_7
 73
           1
 44
1.0
1001
ACAD
1000
MTEXTBEGIN
1070
          73
1070
           1
1070
          44
1040
0.9
1070
          74
1070
           0
1000
MTEXTEND
  0
ENDBLK
  5
245
100
AcDbEntity
  8
0
  6
ByBlock
 62
           0
100
AcDbBlockEnd
1001
ACAD
1000
RTMaterial
1005
185D
  0
BLOCK
  5
246
100
AcDbEntity
  8
0
  6
CONTINUOUS
 62
           2
100
AcDbBlockBegin
  2
L03-MOTEUR-CONTROLE-LED_BL6
 70
          64
 10
67.3506596454
 20
110.4123573384
 30
0.0
  3
L03-MOTEUR-CONTROLE-LED_BL6
  1

1001
ACAD
1000
RTMaterial
1005
185D
  0
ELLIPSE
  5
247
100
AcDbEntity
  8
0
  6
CONTINUOUS
 62
           7
100
AcDbEllipse
 10
67.2986970491
 20
110.4049108415
 30
0.0
 11
-2.3314650814999998
 21
0.0
 31
0.0
210
0.0
220
0.0
230
1.0
 40
0.6606458385
 41
0.0
 42
6.2831853071795862
1001
ACAD
1000
RTMaterial
1005
185D
  0
MTEXT
  5
248
100
AcDbEntity
  8
0
  6
CONTINUOUS
 62
           2
100
AcDbMText
 10
66.7120301542
 20
111.2049111528
 30
0.0
 40
1.6000006225
 41
1.1733337898
 71
           1
 72
           1
  1
L
  7
TEXTSTYLE_7
 73
           1
 44
1.0
1001
ACAD
1000
MTEXTBEGIN
1070
          73
1070
           1
1070
          44
1040
0.9
1070
          74
1070
           0
1000
MTEXTEND
  0
MTEXT
  5
249
100
AcDbEntity
  8
0
  6
CONTINUOUS
 62
           2
100
AcDbMText
 10
62.003119101
 20
111.2198041464
 30
0.0
 40
1.6000006225
 41
1.7066673306
 71
           1
 72
           1
  1
13
  7
TEXTSTYLE_7
 73
           1
 44
1.0
1001
ACAD
1000
MTEXTBEGIN
1070
          73
1070
           1
1070
          44
1040
0.9
1070
          74
1070
           0
1000
MTEXTEND
  0
MTEXT
  5
24A
100
AcDbEntity
  8
0
  6
CONTINUOUS
 62
           2
100
AcDbMText
 10
70.884866151
 20
111.2198041464
 30
0.0
 40
1.6000006225
 41
1.8133340388
 71
           1
 72
           1
  1
14
  7
TEXTSTYLE_7
 73
           1
 44
1.0
1001
ACAD
1000
MTEXTBEGIN
1070
          73
1070
           1
1070
          44
1040
0.9
1070
          74
1070
           0
1000
MTEXTEND
  0
ENDBLK
  5
24B
100
AcDbEntity
  8
0
  6
ByBlock
 62
           0
100
AcDbBlockEnd
1001
ACAD
1000
RTMaterial
1005
185D
  0
BLOCK
  5
24C
100
AcDbEntity
  8
0
  6
CONTINUOUS
 62
           2
100
AcDbBlockBegin
  2
L03-MOTEUR-CONTROLE-LED_BL5
 70
          64
 10
48.668511569
 20
86.8829111107
 30
0.0
  3
L03-MOTEUR-CONTROLE-LED_BL5
  1

1001
ACAD
1000
RTMaterial
1005
185D
  0
ELLIPSE
  5
24D
100
AcDbEntity
  8
0
  6
CONTINUOUS
 62
           7
100
AcDbEllipse
 10
48.6165489726
 20
86.8754646139
 30
0.0
 11
-2.3314650814999998
 21
0.0
 31
0.0
210
0.0
220
0.0
230
1.0
 40
0.6606458385
 41
0.0
 42
6.2831853071795862
1001
ACAD
1000
RTMaterial
1005
185D
  0
MTEXT
  5
24E
100
AcDbEntity
  8
0
  6
CONTINUOUS
 62
           2
100
AcDbMText
 10
48.0298820777
 20
87.6754649251
 30
0.0
 40
1.6000006225
 41
1.1733337898
 71
           1
 72
           1
  1
L
  7
TEXTSTYLE_7
 73
           1
 44
1.0
1001
ACAD
1000
MTEXTBEGIN
1070
          73
1070
           1
1070
          44
1040
0.9
1070
          74
1070
           0
1000
MTEXTEND
  0
MTEXT
  5
24F
100
AcDbEntity
  8
0
  6
CONTINUOUS
 62
           2
100
AcDbMText
 10
43.0009709001
 20
87.6903579188
 30
0.0
 40
1.6000006225
 41
2.3466675796
 71
           1
 72
           1
  1
35
  7
TEXTSTYLE_7
 73
           1
 44
1.0
1001
ACAD
1000
MTEXTBEGIN
1070
          73
1070
           1
1070
          44
1040
0.9
1070
          74
1070
           0
1000
MTEXTEND
  0
MTEXT
  5
250
100
AcDbEntity
  8
0
  6
CONTINUOUS
 62
           2
100
AcDbMText
 10
51.8827179501
 20
87.6903579188
 30
0.0
 40
1.6000006225
 41
2.4533342878
 71
           1
 72
           1
  1
34
  7
TEXTSTYLE_7
 73
           1
 44
1.0
1001
ACAD
1000
MTEXTBEGIN
1070
          73
1070
           1
1070
          44
1040
0.9
1070
          74
1070
           0
1000
MTEXTEND
  0
ENDBLK
  5
251
100
AcDbEntity
  8
0
  6
ByBlock
 62
           0
100
AcDbBlockEnd
1001
ACAD
1000
RTMaterial
1005
185D
  0
BLOCK
  5
252
100
AcDbEntity
  8
0
  6
CONTINUOUS
 62
           2
100
AcDbBlockBegin
  2
L03-MOTEUR-CONTROLE-LED_BL4
 70
          64
 10
51.2266851445
 20
79.7753504513
 30
0.0
  3
L03-MOTEUR-CONTROLE-LED_BL4
  1

1001
ACAD
1000
RTMaterial
1005
185D
  0
ELLIPSE
  5
253
100
AcDbEntity
  8
0
  6
CONTINUOUS
 62
           7
100
AcDbEllipse
 10
51.2266851445
 20
79.7753504513
 30
0.0
 11
-2.3314650814999998
 21
0.0
 31
0.0
210
0.0
220
0.0
230
1.0
 40
0.6606458385
 41
0.0
 42
6.2831853071795862
1001
ACAD
1000
RTMaterial
1005
185D
  0
MTEXT
  5
254
100
AcDbEntity
  8
0
  6
CONTINUOUS
 62
           2
100
AcDbMText
 10
50.5866848956
 20
80.5753507625
 30
0.0
 40
1.6000006225
 41
1.280000498
 71
           1
 72
           1
  1
C
  7
TEXTSTYLE_7
 73
           1
 44
1.0
1001
ACAD
1000
MTEXTBEGIN
1070
          73
1070
           1
1070
          44
1040
0.9
1070
          74
1070
           0
1000
MTEXTEND
  0
ENDBLK
  5
255
100
AcDbEntity
  8
0
  6
ByBlock
 62
           0
100
AcDbBlockEnd
1001
ACAD
1000
RTMaterial
1005
185D
  0
BLOCK
  5
256
100
AcDbEntity
  8
0
  6
CONTINUOUS
 62
           2
100
AcDbBlockBegin
  2
L03-MOTEUR-CONTROLE-LED_BL3
 70
          64
 10
26.3789447453
 20
98.6098788784
 30
0.0
  3
L03-MOTEUR-CONTROLE-LED_BL3
  1

1001
ACAD
1000
RTMaterial
1005
185D
  0
ELLIPSE
  5
257
100
AcDbEntity
  8
0
  6
CONTINUOUS
 62
           7
100
AcDbEllipse
 10
26.3789447453
 20
98.6098788784
 30
0.0
 11
-2.3314650814999998
 21
0.0
 31
0.0
210
0.0
220
0.0
230
1.0
 40
0.6606458385
 41
0.0
 42
6.2831853071795862
1001
ACAD
1000
RTMaterial
1005
185D
  0
MTEXT
  5
258
100
AcDbEntity
  8
0
  6
CONTINUOUS
 62
           2
100
AcDbMText
 10
25.7656111733
 20
99.4098791897
 30
0.0
 40
1.6000006225
 41
1.2266671439
 71
           1
 72
           1
  1
T
  7
TEXTSTYLE_7
 73
           1
 44
1.0
1001
ACAD
1000
MTEXTBEGIN
1070
          73
1070
           1
1070
          44
1040
0.9
1070
          74
1070
           0
1000
MTEXTEND
  0
ENDBLK
  5
259
100
AcDbEntity
  8
0
  6
ByBlock
 62
           0
100
AcDbBlockEnd
1001
ACAD
1000
RTMaterial
1005
185D
  0
BLOCK
  5
25A
100
AcDbEntity
  8
0
  6
CONTINUOUS
 62
           2
100
AcDbBlockBegin
  2
L03-TOLERANCES_GENERALES_BL2
 70
          64
 10
202.0240792634
 20
27.9343543647
 30
0.0
  3
L03-TOLERANCES_GENERALES_BL2
  1

1001
ACAD
1000
RTMaterial
1005
185D
  0
MTEXT
  5
25B
100
AcDbEntity
  8
0
  6
CONTINUOUS
 62
           2
100
AcDbMText
 10
195.4665796012
 20
31.1343735647
 30
0.0
 40
0.9142912
 41
8.7738092563
 71
           1
 72
           1
  1
FRACTIONS \Fgdt;{\Fgdt;`}
  7
TEXTSTYLE_2
 73
           1
 44
1.0
1001
ACAD
1000
MTEXTBEGIN
1070
          73
1070
           1
1070
          44
1040
0.9
1070
          74
1070
           0
1000
MTEXTEND
  0
MTEXT
  5
25C
100
AcDbEntity
  8
0
  6
CONTINUOUS
 62
           2
100
AcDbMText
 10
195.4665796012
 20
29.7629367647
 30
0.0
 40
0.9142912
 41
13.1149993244
 71
           1
 72
           1
  1
DÉCIMALES X.X      \Fgdt;{\Fgdt;`}
  7
TEXTSTYLE_2
 73
           1
 44
1.0
1001
ACAD
1000
MTEXTBEGIN
1070
          73
1070
           1
1070
          44
1040
0.9
1070
          74
1070
           0
1000
MTEXTEND
  0
MTEXT
  5
25D
100
AcDbEntity
  8
0
  6
CONTINUOUS
 62
           2
100
AcDbMText
 10
195.4665796012
 20
28.3914999647
 30
0.0
 40
0.9142912
 41
12.9930938311
 71
           1
 72
           1
  1
                     X.XX   \Fgdt;{\Fgdt;`}
  7
TEXTSTYLE_2
 73
           1
 44
1.0
1001
ACAD
1000
MTEXTBEGIN
1070
          73
1070
           1
1070
          44
1040
0.9
1070
          74
1070
           0
1000
MTEXTEND
  0
MTEXT
  5
25E
100
AcDbEntity
  8
0
  6
CONTINUOUS
 62
           2
100
AcDbMText
 10
195.4665796012
 20
27.0200631647
 30
0.0
 40
0.9142912
 41
13.0845229511
 71
           1
 72
           1
  1
                     X.XXX \Fgdt;{\Fgdt;`}
  7
TEXTSTYLE_2
 73
           1
 44
1.0
1001
ACAD
1000
MTEXTBEGIN
1070
          73
1070
           1
1070
          44
1040
0.9
1070
          74
1070
           0
1000
MTEXTEND
  0
MTEXT
  5
25F
100
AcDbEntity
  8
0
  6
CONTINUOUS
 62
           2
100
AcDbMText
 10
195.4665796012
 20
25.6486263647
 30
0.0
 40
0.9142912
 41
5.7735796148
 71
           1
 72
           1
  1
ANGLE \Fgdt;{\Fgdt;`}
  7
TEXTSTYLE_2
 73
           1
 44
1.0
1001
ACAD
1000
MTEXTBEGIN
1070
          73
1070
           1
1070
          44
1040
0.9
1070
          74
1070
           0
1000
MTEXTEND
  0
MTEXT
  5
260
100
AcDbEntity
  8
0
  6
CONTINUOUS
 62
           2
100
AcDbMText
 10
204.5176296644
 20
31.1343708218
 30
0.0
 40
0.9142857143
 41
1.6457142857
 71
           1
 72
           1
  1
1/4
  7
TEXTSTYLE_7
 73
           1
 44
1.0
1001
ACAD
1000
MTEXTBEGIN
1070
          73
1070
           1
1070
          44
1040
0.9
1070
          74
1070
           0
1000
MTEXTEND
  0
MTEXT
  5
261
100
AcDbEntity
  8
0
  6
CONTINUOUS
 62
           2
100
AcDbMText
 10
201.2570557916
 20
25.6486565361
 30
0.0
 40
0.9142857143
 41
0.9142857143
 71
           1
 72
           1
  1
1\Fgdt;{\Fgdt;~}
  7
TEXTSTYLE_7
 73
           1
 44
1.0
1001
ACAD
1000
MTEXTBEGIN
1070
          73
1070
           1
1070
          44
1040
0.9
1070
          74
1070
           0
1000
MTEXTEND
  0
ENDBLK
  5
262
100
AcDbEntity
  8
0
  6
ByBlock
 62
           0
100
AcDbBlockEnd
1001
ACAD
1000
RTMaterial
1005
185D
  0
BLOCK
  5
263
100
AcDbEntity
  8
0
  6
CONTINUOUS
 62
           2
100
AcDbBlockBegin
  2
L03-NOTE_SPECS_BAINS_BL1
 70
          64
 10
192.8
 20
66.4
 30
0.0
  3
L03-NOTE_SPECS_BAINS_BL1
  1

1001
ACAD
1000
RTMaterial
1005
185D
  0
LINE
  5
264
100
AcDbEntity
  8
0
  6
CONTINUOUS
 62
           7
100
AcDbLine
 10
172.8
 20
76.8
 30
0.0
 11
172.8
 21
56.0
 31
0.0
1001
ACAD
1000
RTMaterial
1005
185D
  0
LINE
  5
265
100
AcDbEntity
  8
0
  6
CONTINUOUS
 62
           7
100
AcDbLine
 10
172.8
 20
76.8
 30
0.0
 11
212.8
 21
76.8
 31
0.0
1001
ACAD
1000
RTMaterial
1005
185D
  0
LINE
  5
266
100
AcDbEntity
  8
0
  6
CONTINUOUS
 62
           7
100
AcDbLine
 10
212.8
 20
76.8
 30
0.0
 11
212.8
 21
56.0
 31
0.0
1001
ACAD
1000
RTMaterial
1005
185D
  0
LINE
  5
267
100
AcDbEntity
  8
0
  6
CONTINUOUS
 62
           7
100
AcDbLine
 10
172.8
 20
56.0
 30
0.0
 11
212.8
 21
56.0
 31
0.0
1001
ACAD
1000
RTMaterial
1005
185D
  0
LINE
  5
268
100
AcDbEntity
  8
0
  6
CONTINUOUS
 62
           7
100
AcDbLine
 10
174.4
 20
64.8
 30
0.0
 11
211.2
 21
64.8
 31
0.0
1001
ACAD
1000
RTMaterial
1005
185D
  0
LINE
  5
269
100
AcDbEntity
  8
0
  6
CONTINUOUS
 62
           7
100
AcDbLine
 10
174.4
 20
73.2
 30
0.0
 11
211.2
 21
73.2
 31
0.0
1001
ACAD
1000
RTMaterial
1005
185D
  0
LINE
  5
26A
100
AcDbEntity
  8
0
  6
CONTINUOUS
 62
           7
100
AcDbLine
 10
173.7706878711
 20
62.8537974052
 30
0.0
 11
173.3278629803
 21
62.4109725144
 31
0.0
1001
ACAD
1000
RTMaterial
1005
185D
  0
LINE
  5
26B
100
AcDbEntity
  8
0
  6
CONTINUOUS
 62
           7
100
AcDbLine
 10
174.5706878711
 20
62.8537974052
 30
0.0
 11
173.6130689226
 21
61.8961784567
 31
0.0
1001
ACAD
1000
RTMaterial
1005
185D
  0
LINE
  5
26C
100
AcDbEntity
  8
0
  6
CONTINUOUS
 62
           7
100
AcDbLine
 10
175.3706878711
 20
62.8537974052
 30
0.0
 11
174.4130689226
 21
61.8961784567
 31
0.0
1001
ACAD
1000
RTMaterial
1005
185D
  0
LINE
  5
26D
100
AcDbEntity
  8
0
  6
CONTINUOUS
 62
           7
100
AcDbLine
 10
176.1706878711
 20
62.8537974052
 30
0.0
 11
175.2130689226
 21
61.8961784567
 31
0.0
1001
ACAD
1000
RTMaterial
1005
185D
  0
LINE
  5
26E
100
AcDbEntity
  8
0
  6
CONTINUOUS
 62
           7
100
AcDbLine
 10
176.9706878711
 20
62.8537974052
 30
0.0
 11
176.0130689226
 21
61.8961784567
 31
0.0
1001
ACAD
1000
RTMaterial
1005
185D
  0
LINE
  5
26F
100
AcDbEntity
  8
0
  6
CONTINUOUS
 62
           7
100
AcDbLine
 10
177.7706878711
 20
62.8537974052
 30
0.0
 11
176.8130689226
 21
61.8961784567
 31
0.0
1001
ACAD
1000
RTMaterial
1005
185D
  0
LINE
  5
270
100
AcDbEntity
  8
0
  6
CONTINUOUS
 62
           7
100
AcDbLine
 10
178.5706878711
 20
62.8537974052
 30
0.0
 11
177.6130689226
 21
61.8961784567
 31
0.0
1001
ACAD
1000
RTMaterial
1005
185D
  0
LINE
  5
271
100
AcDbEntity
  8
0
  6
CONTINUOUS
 62
           7
100
AcDbLine
 10
179.3706878711
 20
62.8537974052
 30
0.0
 11
178.4130689226
 21
61.8961784567
 31
0.0
1001
ACAD
1000
RTMaterial
1005
185D
  0
LINE
  5
272
100
AcDbEntity
  8
0
  6
CONTINUOUS
 62
           7
100
AcDbLine
 10
180.1706878711
 20
62.8537974052
 30
0.0
 11
179.2130689226
 21
61.8961784567
 31
0.0
1001
ACAD
1000
RTMaterial
1005
185D
  0
LINE
  5
273
100
AcDbEntity
  8
0
  6
CONTINUOUS
 62
           7
100
AcDbLine
 10
180.7028727921
 20
62.5859823262
 30
0.0
 11
180.0130689226
 21
61.8961784567
 31
0.0
1001
ACAD
1000
RTMaterial
1005
185D
  0
ELLIPSE
  5
274
100
AcDbEntity
  8
0
  6
CONTINUOUS
 62
           7
100
AcDbEllipse
 10
175.3744829786
 20
60.5171372483
 30
0.0
 11
1.2568247227
 21
0.0
 31
0.0
210
0.0
220
0.0
230
1.0
 40
0.4938647983
 41
0.0
 42
6.2831853071795862
1001
ACAD
1000
RTMaterial
1005
185D
  0
ELLIPSE
  5
275
100
AcDbEntity
  8
0
  6
CONTINUOUS
 62
           7
100
AcDbEllipse
 10
175.3744829786
 20
58.9171372483
 30
0.0
 11
1.2568247227
 21
0.0
 31
0.0
210
0.0
220
0.0
230
1.0
 40
0.4938647983
 41
0.0
 42
6.2831853071795862
1001
ACAD
1000
RTMaterial
1005
185D
  0
ELLIPSE
  5
276
100
AcDbEntity
  8
0
  6
CONTINUOUS
 62
           7
100
AcDbEllipse
 10
175.3744829786
 20
57.3171372483
 30
0.0
 11
1.2568247227
 21
0.0
 31
0.0
210
0.0
220
0.0
230
1.0
 40
0.4938647983
 41
0.0
 42
6.2831853071795862
1001
ACAD
1000
RTMaterial
1005
185D
  0
ELLIPSE
  5
277
100
AcDbEntity
  8
0
  6
CONTINUOUS
 62
           7
100
AcDbEllipse
 10
188.5968456759
 20
60.5405628768
 30
0.0
 11
1.2568247227
 21
0.0
 31
0.0
210
0.0
220
0.0
230
1.0
 40
0.4938647983
 41
0.0
 42
6.2831853071795862
1001
ACAD
1000
RTMaterial
1005
185D
  0
MTEXT
  5
278
100
AcDbEntity
  8
0
  6
CONTINUOUS
 62
           2
100
AcDbMText
 10
173.3026579086
 20
76.3281200693
 30
0.0
 40
0.6
 41
17.5111111111
 71
           1
 72
           1
  1
Infomations Techniques/Technical Infomations
  7
TEXTSTYLE_2
 73
           1
 44
1.0
1001
ACAD
1000
MTEXTBEGIN
1070
          73
1070
           1
1070
          44
1040
0.9
1070
          74
1070
           0
1000
MTEXTEND
  0
MTEXT
  5
279
100
AcDbEntity
  8
0
  6
CONTINUOUS
 62
           2
100
AcDbMText
 10
173.6
 20
74.8
 30
0.0
 40
0.8
 41
11.8133333333
 71
           1
 72
           1
  1
NOMBRE DE JETS:     
  7
TEXTSTYLE_2
 73
           1
 44
1.0
1001
ACAD
1000
MTEXTBEGIN
1070
          73
1070
           1
1070
          44
1040
0.9
1070
          74
1070
           0
1000
MTEXTEND
  0
MTEXT
  5
27A
100
AcDbEntity
  8
0
  6
CONTINUOUS
 62
           2
100
AcDbMText
 10
185.4133333333
 20
74.8
 30
0.0
 40
0.8
 41
1.2266666667
 71
           1
 72
           1
  1
41
  7
TEXTSTYLE_2
 73
           1
 44
1.0
1001
ACAD
1000
MTEXTBEGIN
1070
          73
1070
           1
1070
          44
1040
0.9
1070
          74
1070
           0
1000
MTEXTEND
  0
MTEXT
  5
27B
100
AcDbEntity
  8
0
  6
CONTINUOUS
 62
           2
100
AcDbMText
 10
173.6
 20
72.4
 30
0.0
 40
0.8
 41
36.6755555556
 71
           1
 72
           1
  1
NIVEAU D'EAU              GALLONS(US)        LITRES        GALLONS(UK)
  7
TEXTSTYLE_2
 73
           1
 44
1.0
1001
ACAD
1000
MTEXTBEGIN
1070
          73
1070
           1
1070
          44
1040
0.9
1070
          74
1070
           0
1000
MTEXTEND
  0
MTEXT
  5
27C
100
AcDbEntity
  8
0
  6
CONTINUOUS
 62
           2
100
AcDbMText
 10
173.6
 20
71.2
 30
0.0
 40
0.8
 41
3.2385185185
 71
           1
 72
           1
  1
PLEIN
  7
TEXTSTYLE_2
 73
           1
 44
1.0
1001
ACAD
1000
MTEXTBEGIN
1070
          73
1070
           1
1070
          44
1040
0.9
1070
          74
1070
           0
1000
MTEXTEND
  0
MTEXT
  5
27D
100
AcDbEntity
  8
0
  6
CONTINUOUS
 62
           2
100
AcDbMText
 10
173.6
 20
70.0
 30
0.0
 40
0.8
 41
7.6266666667
 71
           1
 72
           1
  1
HAUT T.PLEIN
  7
TEXTSTYLE_2
 73
           1
 44
1.0
1001
ACAD
1000
MTEXTBEGIN
1070
          73
1070
           1
1070
          44
1040
0.9
1070
          74
1070
           0
1000
MTEXTEND
  0
MTEXT
  5
27E
100
AcDbEntity
  8
0
  6
CONTINUOUS
 62
           2
100
AcDbMText
 10
173.6
 20
68.8
 30
0.0
 40
0.8
 41
8.322962963
 71
           1
 72
           1
  1
MILIEU T.PLEIN
  7
TEXTSTYLE_2
 73
           1
 44
1.0
1001
ACAD
1000
MTEXTBEGIN
1070
          73
1070
           1
1070
          44
1040
0.9
1070
          74
1070
           0
1000
MTEXTEND
  0
MTEXT
  5
27F
100
AcDbEntity
  8
0
  6
CONTINUOUS
 62
           2
100
AcDbMText
 10
173.6
 20
67.6
 30
0.0
 40
0.8
 41
6.8059259259
 71
           1
 72
           1
  1
BAS T.PLEIN
  7
TEXTSTYLE_2
 73
           1
 44
1.0
1001
ACAD
1000
MTEXTBEGIN
1070
          73
1070
           1
1070
          44
1040
0.9
1070
          74
1070
           0
1000
MTEXTEND
  0
MTEXT
  5
280
100
AcDbEntity
  8
0
  6
CONTINUOUS
 62
           2
100
AcDbMText
 10
173.6
 20
66.4
 30
0.0
 40
0.8
 41
10.1481481481
 71
           1
 72
           1
  1
3" EN BAS T.PLEIN
  7
TEXTSTYLE_2
 73
           1
 44
1.0
1001
ACAD
1000
MTEXTBEGIN
1070
          73
1070
           1
1070
          44
1040
0.9
1070
          74
1070
           0
1000
MTEXTEND
  0
MTEXT
  5
281
100
AcDbEntity
  8
0
  6
CONTINUOUS
 62
           2
100
AcDbMText
 10
173.3598061933
 20
64.3438556902
 30
0.0
 40
0.6
 41
6.3511111111
 71
           1
 72
           1
  1
Legende/Legend
  7
TEXTSTYLE_2
 73
           1
 44
1.0
1001
ACAD
1000
MTEXTBEGIN
1070
          73
1070
           1
1070
          44
1040
0.9
1070
          74
1070
           0
1000
MTEXTEND
  0
MTEXT
  5
282
100
AcDbEntity
  8
0
  6
CONTINUOUS
 62
           2
100
AcDbMText
 10
181.1944081262
 20
62.730337717
 30
0.0
 40
0.8
 41
13.5081481481
 71
           1
 72
           1
  1
ZONE DE ROBINETTERIE
  7
TEXTSTYLE_2
 73
           1
 44
1.0
1001
ACAD
1000
MTEXTBEGIN
1070
          73
1070
           1
1070
          44
1040
0.9
1070
          74
1070
           0
1000
MTEXTEND
  0
MTEXT
  5
283
100
AcDbEntity
  8
0
  6
CONTINUOUS
 62
           2
100
AcDbMText
 10
175.0987386458
 20
60.9360442997
 30
0.0
 40
0.8
 41
33.3244444444
 71
           1
 72
           1
  1
L   :  SYSTEME LED       DC   :  DOUBLE DOSSIER CHAUFFANT
  7
TEXTSTYLE_2
 73
           1
 44
1.0
1001
ACAD
1000
MTEXTBEGIN
1070
          73
1070
           1
1070
          44
1040
0.9
1070
          74
1070
           0
1000
MTEXTEND
  0
MTEXT
  5
284
100
AcDbEntity
  8
0
  6
CONTINUOUS
 62
           2
100
AcDbMText
 10
175.0987386458
 20
59.3360442997
 30
0.0
 40
0.8
 41
8.96
 71
           1
 72
           1
  1
C   :  CONTROLE
  7
TEXTSTYLE_2
 73
           1
 44
1.0
1001
ACAD
1000
MTEXTBEGIN
1070
          73
1070
           1
1070
          44
1040
0.9
1070
          74
1070
           0
1000
MTEXTEND
  0
MTEXT
  5
285
100
AcDbEntity
  8
0
  6
CONTINUOUS
 62
           2
100
AcDbMText
 10
175.0987386458
 20
57.7360442997
 30
0.0
 40
0.8
 41
7.4844444444
 71
           1
 72
           1
  1
T   :  MOTEUR
  7
TEXTSTYLE_2
 73
           1
 44
1.0
1001
ACAD
1000
MTEXTBEGIN
1070
          73
1070
           1
1070
          44
1040
0.9
1070
          74
1070
           0
1000
MTEXTEND
  0
MTEXT
  5
286
100
AcDbEntity
  8
0
  6
CONTINUOUS
 62
           2
100
AcDbMText
 10
188.6925693725
 20
71.2
 30
0.0
 40
0.8
 41
1.84
 71
           1
 72
           1
  1
106
  7
TEXTSTYLE_2
 73
           1
 44
1.0
1001
ACAD
1000
MTEXTBEGIN
1070
          73
1070
           1
1070
          44
1040
0.9
1070
          74
1070
           0
1000
MTEXTEND
  0
MTEXT
  5
287
100
AcDbEntity
  8
0
  6
CONTINUOUS
 62
           2
100
AcDbMText
 10
188.9992360392
 20
70.0
 30
0.0
 40
0.8
 41
1.2266666667
 71
           1
 72
           1
  1
90
  7
TEXTSTYLE_2
 73
           1
 44
1.0
1001
ACAD
1000
MTEXTBEGIN
1070
          73
1070
           1
1070
          44
1040
0.9
1070
          74
1070
           0
1000
MTEXTEND
  0
MTEXT
  5
288
100
AcDbEntity
  8
0
  6
CONTINUOUS
 62
           2
100
AcDbMText
 10
188.9992360392
 20
68.8
 30
0.0
 40
0.8
 41
1.2266666667
 71
           1
 72
           1
  1
82
  7
TEXTSTYLE_2
 73
           1
 44
1.0
1001
ACAD
1000
MTEXTBEGIN
1070
          73
1070
           1
1070
          44
1040
0.9
1070
          74
1070
           0
1000
MTEXTEND
  0
MTEXT
  5
289
100
AcDbEntity
  8
0
  6
CONTINUOUS
 62
           2
100
AcDbMText
 10
188.9992360392
 20
67.6
 30
0.0
 40
0.8
 41
1.2266666667
 71
           1
 72
           1
  1
74
  7
TEXTSTYLE_2
 73
           1
 44
1.0
1001
ACAD
1000
MTEXTBEGIN
1070
          73
1070
           1
1070
          44
1040
0.9
1070
          74
1070
           0
1000
MTEXTEND
  0
MTEXT
  5
28A
100
AcDbEntity
  8
0
  6
CONTINUOUS
 62
           2
100
AcDbMText
 10
188.9992360392
 20
66.4
 30
0.0
 40
0.8
 41
1.2266666667
 71
           1
 72
           1
  1
63
  7
TEXTSTYLE_2
 73
           1
 44
1.0
1001
ACAD
1000
MTEXTBEGIN
1070
          73
1070
           1
1070
          44
1040
0.9
1070
          74
1070
           0
1000
MTEXTEND
  0
MTEXT
  5
28B
100
AcDbEntity
  8
0
  6
CONTINUOUS
 62
           2
100
AcDbMText
 10
197.3034831716
 20
71.2204952825
 30
0.0
 40
0.8
 41
1.84
 71
           1
 72
           1
  1
402
  7
TEXTSTYLE_2
 73
           1
 44
1.0
1001
ACAD
1000
MTEXTBEGIN
1070
          73
1070
           1
1070
          44
1040
0.9
1070
          74
1070
           0
1000
MTEXTEND
  0
MTEXT
  5
28C
100
AcDbEntity
  8
0
  6
CONTINUOUS
 62
           2
100
AcDbMText
 10
197.3034831716
 20
70.0204952825
 30
0.0
 40
0.8
 41
1.84
 71
           1
 72
           1
  1
341
  7
TEXTSTYLE_2
 73
           1
 44
1.0
1001
ACAD
1000
MTEXTBEGIN
1070
          73
1070
           1
1070
          44
1040
0.9
1070
          74
1070
           0
1000
MTEXTEND
  0
MTEXT
  5
28D
100
AcDbEntity
  8
0
  6
CONTINUOUS
 62
           2
100
AcDbMText
 10
197.3034831716
 20
68.8204952825
 30
0.0
 40
0.8
 41
1.84
 71
           1
 72
           1
  1
311
  7
TEXTSTYLE_2
 73
           1
 44
1.0
1001
ACAD
1000
MTEXTBEGIN
1070
          73
1070
           1
1070
          44
1040
0.9
1070
          74
1070
           0
1000
MTEXTEND
  0
MTEXT
  5
28E
100
AcDbEntity
  8
0
  6
CONTINUOUS
 62
           2
100
AcDbMText
 10
197.3034831716
 20
67.6204952825
 30
0.0
 40
0.8
 41
1.84
 71
           1
 72
           1
  1
282
  7
TEXTSTYLE_2
 73
           1
 44
1.0
1001
ACAD
1000
MTEXTBEGIN
1070
          73
1070
           1
1070
          44
1040
0.9
1070
          74
1070
           0
1000
MTEXTEND
  0
MTEXT
  5
28F
100
AcDbEntity
  8
0
  6
CONTINUOUS
 62
           2
100
AcDbMText
 10
197.3034831716
 20
66.4204952825
 30
0.0
 40
0.8
 41
1.84
 71
           1
 72
           1
  1
239
  7
TEXTSTYLE_2
 73
           1
 44
1.0
1001
ACAD
1000
MTEXTBEGIN
1070
          73
1070
           1
1070
          44
1040
0.9
1070
          74
1070
           0
1000
MTEXTEND
  0
MTEXT
  5
290
100
AcDbEntity
  8
0
  6
CONTINUOUS
 62
           2
100
AcDbMText
 10
205.6370498966
 20
71.2
 30
0.0
 40
0.8
 41
1.2266666667
 71
           1
 72
           1
  1
88
  7
TEXTSTYLE_2
 73
           1
 44
1.0
1001
ACAD
1000
MTEXTBEGIN
1070
          73
1070
           1
1070
          44
1040
0.9
1070
          74
1070
           0
1000
MTEXTEND
  0
MTEXT
  5
291
100
AcDbEntity
  8
0
  6
CONTINUOUS
 62
           2
100
AcDbMText
 10
205.6370498966
 20
70.0
 30
0.0
 40
0.8
 41
1.2266666667
 71
           1
 72
           1
  1
75
  7
TEXTSTYLE_2
 73
           1
 44
1.0
1001
ACAD
1000
MTEXTBEGIN
1070
          73
1070
           1
1070
          44
1040
0.9
1070
          74
1070
           0
1000
MTEXTEND
  0
MTEXT
  5
292
100
AcDbEntity
  8
0
  6
CONTINUOUS
 62
           2
100
AcDbMText
 10
205.6370498966
 20
68.8
 30
0.0
 40
0.8
 41
1.2266666667
 71
           1
 72
           1
  1
68
  7
TEXTSTYLE_2
 73
           1
 44
1.0
1001
ACAD
1000
MTEXTBEGIN
1070
          73
1070
           1
1070
          44
1040
0.9
1070
          74
1070
           0
1000
MTEXTEND
  0
MTEXT
  5
293
100
AcDbEntity
  8
0
  6
CONTINUOUS
 62
           2
100
AcDbMText
 10
205.6370498966
 20
67.6
 30
0.0
 40
0.8
 41
1.2266666667
 71
           1
 72
           1
  1
62
  7
TEXTSTYLE_2
 73
           1
 44
1.0
1001
ACAD
1000
MTEXTBEGIN
1070
          73
1070
           1
1070
          44
1040
0.9
1070
          74
1070
           0
1000
MTEXTEND
  0
MTEXT
  5
294
100
AcDbEntity
  8
0
  6
CONTINUOUS
 62
           2
100
AcDbMText
 10
205.6370498966
 20
66.4
 30
0.0
 40
0.8
 41
1.2266666667
 71
           1
 72
           1
  1
53
  7
TEXTSTYLE_2
 73
           1
 44
1.0
1001
ACAD
1000
MTEXTBEGIN
1070
          73
1070
           1
1070
          44
1040
0.9
1070
          74
1070
           0
1000
MTEXTEND
  0
ENDBLK
  5
295
100
AcDbEntity
  8
0
  6
ByBlock
 62
           0
100
AcDbBlockEnd
1001
ACAD
1000
RTMaterial
1005
185D
  0
BLOCK
  5
296
100
AcDbEntity
  8
0
  6
CONTINUOUS
 62
           2
100
AcDbBlockBegin
  2
L03-USAGE_INTERNE_SEULEM_BL0
 70
          64
 10
59.6825708244
 20
47.9396909914
 30
0.0
  3
L03-USAGE_INTERNE_SEULEM_BL0
  1

1001
ACAD
1000
RTMaterial
1005
185D
  0
LINE
  5
297
100
AcDbEntity
  8
0
  6
CONTINUOUS
 62
           2
100
AcDbLine
 10
76.3104328924
 20
42.7274506498
 30
0.0
 11
76.3185436116
 21
42.735561369
 31
0.0
1001
ACAD
1000
RTMaterial
1005
185D
  0
LINE
  5
298
100
AcDbEntity
  8
0
  6
CONTINUOUS
 62
           2
100
AcDbLine
 10
75.4313494127
 20
42.5724445141
 30
0.0
 11
76.2100071468
 21
43.3511022482
 31
0.0
1001
ACAD
1000
RTMaterial
1005
185D
  0
LINE
  5
299
100
AcDbEntity
  8
0
  6
CONTINUOUS
 62
           2
100
AcDbLine
 10
74.552265933
 20
42.4174383783
 30
0.0
 11
76.1014706821
 21
43.9666431274
 31
0.0
1001
ACAD
1000
RTMaterial
1005
185D
  0
LINE
  5
29A
100
AcDbEntity
  8
0
  6
CONTINUOUS
 62
           2
100
AcDbLine
 10
73.6731824533
 20
42.2624322425
 30
0.0
 11
75.9929342174
 21
44.5821840066
 31
0.0
1001
ACAD
1000
RTMaterial
1005
185D
  0
LINE
  5
29B
100
AcDbEntity
  8
0
  6
CONTINUOUS
 62
           2
100
AcDbLine
 10
72.7940989736
 20
42.1074261068
 30
0.0
 11
75.8843977527
 21
45.1977248858
 31
0.0
1001
ACAD
1000
RTMaterial
1005
185D
  0
LINE
  5
29C
100
AcDbEntity
  8
0
  6
CONTINUOUS
 62
           2
100
AcDbLine
 10
71.9150154939
 20
41.952419971
 30
0.0
 11
73.7642200716
 21
43.8016245487
 31
0.0
1001
ACAD
1000
RTMaterial
1005
185D
  0
LINE
  5
29D
100
AcDbEntity
  8
0
  6
CONTINUOUS
 62
           2
100
AcDbLine
 10
74.4810343029
 20
44.51843878
 30
0.0
 11
75.7758612879
 21
45.813265765
 31
0.0
1001
ACAD
1000
RTMaterial
1005
185D
  0
LINE
  5
29E
100
AcDbEntity
  8
0
  6
CONTINUOUS
 62
           2
100
AcDbLine
 10
71.0359320142
 20
41.7974138352
 30
0.0
 11
72.8851365919
 21
43.646618413
 31
0.0
1001
ACAD
1000
RTMaterial
1005
185D
  0
LINE
  5
29F
100
AcDbEntity
  8
0
  6
CONTINUOUS
 62
           2
100
AcDbLine
 10
74.3724978382
 20
45.1339796592
 30
0.0
 11
75.6673248232
 21
46.4288066442
 31
0.0
1001
ACAD
1000
RTMaterial
1005
185D
  0
LINE
  5
2A0
100
AcDbEntity
  8
0
  6
CONTINUOUS
 62
           2
100
AcDbLine
 10
70.1568485345
 20
41.6424076995
 30
0.0
 11
72.0060531122
 21
43.4916122772
 31
0.0
1001
ACAD
1000
RTMaterial
1005
185D
  0
LINE
  5
2A1
100
AcDbEntity
  8
0
  6
CONTINUOUS
 62
           2
100
AcDbLine
 10
74.2639613734
 20
45.7495205384
 30
0.0
 11
75.5587883585
 21
47.0443475234
 31
0.0
1001
ACAD
1000
RTMaterial
1005
185D
  0
LINE
  5
2A2
100
AcDbEntity
  8
0
  6
CONTINUOUS
 62
           2
100
AcDbLine
 10
69.2777650548
 20
41.4874015637
 30
0.0
 11
71.1269696325
 21
43.3366061414
 31
0.0
1001
ACAD
1000
RTMaterial
1005
185D
  0
LINE
  5
2A3
100
AcDbEntity
  8
0
  6
CONTINUOUS
 62
           2
100
AcDbLine
 10
74.1554249087
 20
46.3650614176
 30
0.0
 11
75.4502518937
 21
47.6598884026
 31
0.0
1001
ACAD
1000
RTMaterial
1005
185D
  0
LINE
  5
2A4
100
AcDbEntity
  8
0
  6
CONTINUOUS
 62
           2
100
AcDbLine
 10
68.3986815751
 20
41.3323954279
 30
0.0
 11
70.2478861528
 21
43.1816000057
 31
0.0
1001
ACAD
1000
RTMaterial
1005
185D
  0
LINE
  5
2A5
100
AcDbEntity
  8
0
  6
CONTINUOUS
 62
           2
100
AcDbLine
 10
74.046888444
 20
46.9806022968
 30
0.0
 11
75.341715429
 21
48.2754292818
 31
0.0
1001
ACAD
1000
RTMaterial
1005
185D
  0
LINE
  5
2A6
100
AcDbEntity
  8
0
  6
CONTINUOUS
 62
           2
100
AcDbLine
 10
67.5195980954
 20
41.1773892922
 30
0.0
 11
69.3688026731
 21
43.0265938699
 31
0.0
1001
ACAD
1000
RTMaterial
1005
185D
  0
LINE
  5
2A7
100
AcDbEntity
  8
0
  6
CONTINUOUS
 62
           2
100
AcDbLine
 10
73.9383519792
 20
47.596143176
 30
0.0
 11
75.2331789643
 21
48.890970161
 31
0.0
1001
ACAD
1000
RTMaterial
1005
185D
  0
LINE
  5
2A8
100
AcDbEntity
  8
0
  6
CONTINUOUS
 62
           2
100
AcDbLine
 10
66.6405146157
 20
41.0223831564
 30
0.0
 11
68.4897191934
 21
42.8715877341
 31
0.0
1001
ACAD
1000
RTMaterial
1005
185D
  0
LINE
  5
2A9
100
AcDbEntity
  8
0
  6
CONTINUOUS
 62
           2
100
AcDbLine
 10
73.8298155145
 20
48.2116840552
 30
0.0
 11
75.1246424995
 21
49.5065110402
 31
0.0
1001
ACAD
1000
RTMaterial
1005
185D
  0
LINE
  5
2AA
100
AcDbEntity
  8
0
  6
CONTINUOUS
 62
           2
100
AcDbLine
 10
65.761431136
 20
40.8673770206
 30
0.0
 11
67.6106357137
 21
42.7165815984
 31
0.0
1001
ACAD
1000
RTMaterial
1005
185D
  0
LINE
  5
2AB
100
AcDbEntity
  8
0
  6
CONTINUOUS
 62
           2
100
AcDbLine
 10
73.7212790498
 20
48.8272249344
 30
0.0
 11
75.0161060348
 21
50.1220519195
 31
0.0
1001
ACAD
1000
RTMaterial
1005
185D
  0
LINE
  5
2AC
100
AcDbEntity
  8
0
  6
CONTINUOUS
 62
           2
100
AcDbLine
 10
64.8823476563
 20
40.7123708849
 30
0.0
 11
66.731552234
 21
42.5615754626
 31
0.0
1001
ACAD
1000
RTMaterial
1005
185D
  0
LINE
  5
2AD
100
AcDbEntity
  8
0
  6
CONTINUOUS
 62
           2
100
AcDbLine
 10
73.612742585
 20
49.4427658136
 30
0.0
 11
74.9075695701
 21
50.7375927987
 31
0.0
1001
ACAD
1000
RTMaterial
1005
185D
  0
LINE
  5
2AE
100
AcDbEntity
  8
0
  6
CONTINUOUS
 62
           2
100
AcDbLine
 10
64.0032641766
 20
40.5573647491
 30
0.0
 11
65.8524687543
 21
42.4065693268
 31
0.0
1001
ACAD
1000
RTMaterial
1005
185D
  0
LINE
  5
2AF
100
AcDbEntity
  8
0
  6
CONTINUOUS
 62
           2
100
AcDbLine
 10
73.2492870652
 20
49.8033876378
 30
0.0
 11
74.7990331053
 21
51.3531336779
 31
0.0
1001
ACAD
1000
RTMaterial
1005
185D
  0
LINE
  5
2B0
100
AcDbEntity
  8
0
  6
CONTINUOUS
 62
           2
100
AcDbLine
 10
63.1241806969
 20
40.4023586133
 30
0.0
 11
64.9733852746
 21
42.2515631911
 31
0.0
1001
ACAD
1000
RTMaterial
1005
185D
  0
LINE
  5
2B1
100
AcDbEntity
  8
0
  6
CONTINUOUS
 62
           2
100
AcDbLine
 10
72.3702035855
 20
49.648381502
 30
0.0
 11
74.6904966406
 21
51.9686745571
 31
0.0
1001
ACAD
1000
RTMaterial
1005
185D
  0
LINE
  5
2B2
100
AcDbEntity
  8
0
  6
CONTINUOUS
 62
           2
100
AcDbLine
 10
62.2450972172
 20
40.2473524776
 30
0.0
 11
64.0943017949
 21
42.0965570553
 31
0.0
1001
ACAD
1000
RTMaterial
1005
185D
  0
LINE
  5
2B3
100
AcDbEntity
  8
0
  6
CONTINUOUS
 62
           2
100
AcDbLine
 10
71.4911201058
 20
49.4933753662
 30
0.0
 11
72.7239308638
 21
50.7261861242
 31
0.0
1001
ACAD
1000
RTMaterial
1005
185D
  0
LINE
  5
2B4
100
AcDbEntity
  8
0
  6
CONTINUOUS
 62
           2
100
AcDbLine
 10
73.2871331908
 20
51.2893884512
 30
0.0
 11
74.5819601759
 21
52.5842154363
 31
0.0
1001
ACAD
1000
RTMaterial
1005
185D
  0
LINE
  5
2B5
100
AcDbEntity
  8
0
  6
CONTINUOUS
 62
           2
100
AcDbLine
 10
61.3660137375
 20
40.0923463418
 30
0.0
 11
63.2152183152
 21
41.9415509195
 31
0.0
1001
ACAD
1000
RTMaterial
1005
185D
  0
LINE
  5
2B6
100
AcDbEntity
  8
0
  6
CONTINUOUS
 62
           2
100
AcDbLine
 10
70.6120366261
 20
49.3383692305
 30
0.0
 11
71.8448471325
 21
50.5711797369
 31
0.0
1001
ACAD
1000
RTMaterial
1005
185D
  0
LINE
  5
2B7
100
AcDbEntity
  8
0
  6
CONTINUOUS
 62
           2
100
AcDbLine
 10
73.1785967261
 20
51.9049293304
 30
0.0
 11
74.4734237111
 21
53.1997563155
 31
0.0
1001
ACAD
1000
RTMaterial
1005
185D
  0
LINE
  5
2B8
100
AcDbEntity
  8
0
  6
CONTINUOUS
 62
           2
100
AcDbLine
 10
60.4869302578
 20
39.937340206
 30
0.0
 11
62.3361348355
 21
41.7865447838
 31
0.0
1001
ACAD
1000
RTMaterial
1005
185D
  0
LINE
  5
2B9
100
AcDbEntity
  8
0
  6
CONTINUOUS
 62
           2
100
AcDbLine
 10
69.7329531464
 20
49.1833630947
 30
0.0
 11
70.9657634013
 21
50.4161733496
 31
0.0
1001
ACAD
1000
RTMaterial
1005
185D
  0
LINE
  5
2BA
100
AcDbEntity
  8
0
  6
CONTINUOUS
 62
           2
100
AcDbLine
 10
73.0700602614
 20
52.5204702096
 30
0.0
 11
74.3648872464
 21
53.8152971947
 31
0.0
1001
ACAD
1000
RTMaterial
1005
185D
  0
LINE
  5
2BB
100
AcDbEntity
  8
0
  6
CONTINUOUS
 62
           2
100
AcDbLine
 10
59.6078467781
 20
39.7823340703
 30
0.0
 11
61.4570513558
 21
41.631538648
 31
0.0
1001
ACAD
1000
RTMaterial
1005
185D
  0
LINE
  5
2BC
100
AcDbEntity
  8
0
  6
CONTINUOUS
 62
           2
100
AcDbLine
 10
68.8538696667
 20
49.0283569589
 30
0.0
 11
70.0866796701
 21
50.2611669623
 31
0.0
1001
ACAD
1000
RTMaterial
1005
185D
  0
LINE
  5
2BD
100
AcDbEntity
  8
0
  6
CONTINUOUS
 62
           2
100
AcDbLine
 10
72.9615237966
 20
53.1360110889
 30
0.0
 11
74.2563507817
 21
54.4308380739
 31
0.0
1001
ACAD
1000
RTMaterial
1005
185D
  0
LINE
  5
2BE
100
AcDbEntity
  8
0
  6
CONTINUOUS
 62
           2
100
AcDbLine
 10
58.7287632984
 20
39.6273279345
 30
0.0
 11
60.5779678761
 21
41.4765325122
 31
0.0
1001
ACAD
1000
RTMaterial
1005
185D
  0
LINE
  5
2BF
100
AcDbEntity
  8
0
  6
CONTINUOUS
 62
           2
100
AcDbLine
 10
67.974786187
 20
48.8733508232
 30
0.0
 11
69.2075959388
 21
50.106160575
 31
0.0
1001
ACAD
1000
RTMaterial
1005
185D
  0
LINE
  5
2C0
100
AcDbEntity
  8
0
  6
CONTINUOUS
 62
           2
100
AcDbLine
 10
72.8529873319
 20
53.7515519681
 30
0.0
 11
74.1478143169
 21
55.0463789531
 31
0.0
1001
ACAD
1000
RTMaterial
1005
185D
  0
LINE
  5
2C1
100
AcDbEntity
  8
0
  6
CONTINUOUS
 62
           2
100
AcDbLine
 10
57.8496798187
 20
39.4723217987
 30
0.0
 11
59.6988843964
 21
41.3215263765
 31
0.0
1001
ACAD
1000
RTMaterial
1005
185D
  0
LINE
  5
2C2
100
AcDbEntity
  8
0
  6
CONTINUOUS
 62
           2
100
AcDbLine
 10
67.0957027073
 20
48.7183446874
 30
0.0
 11
68.3285122076
 21
49.9511541877
 31
0.0
1001
ACAD
1000
RTMaterial
1005
185D
  0
LINE
  5
2C3
100
AcDbEntity
  8
0
  6
CONTINUOUS
 62
           2
100
AcDbLine
 10
72.7444508672
 20
54.3670928473
 30
0.0
 11
74.0392778522
 21
55.6619198323
 31
0.0
1001
ACAD
1000
RTMaterial
1005
185D
  0
LINE
  5
2C4
100
AcDbEntity
  8
0
  6
CONTINUOUS
 62
           2
100
AcDbLine
 10
56.970596339
 20
39.317315663
 30
0.0
 11
58.8198009167
 21
41.1665202407
 31
0.0
1001
ACAD
1000
RTMaterial
1005
185D
  0
LINE
  5
2C5
100
AcDbEntity
  8
0
  6
CONTINUOUS
 62
           2
100
AcDbLine
 10
66.2166192276
 20
48.5633385516
 30
0.0
 11
67.4494284764
 21
49.7961478004
 31
0.0
1001
ACAD
1000
RTMaterial
1005
185D
  0
LINE
  5
2C6
100
AcDbEntity
  8
0
  6
CONTINUOUS
 62
           2
100
AcDbLine
 10
72.6359144024
 20
54.9826337265
 30
0.0
 11
73.9307413875
 21
56.2774607115
 31
0.0
1001
ACAD
1000
RTMaterial
1005
185D
  0
LINE
  5
2C7
100
AcDbEntity
  8
0
  6
CONTINUOUS
 62
           2
100
AcDbLine
 10
56.0915128593
 20
39.1623095272
 30
0.0
 11
57.940717437
 21
41.0115141049
 31
0.0
1001
ACAD
1000
RTMaterial
1005
185D
  0
LINE
  5
2C8
100
AcDbEntity
  8
0
  6
CONTINUOUS
 62
           2
100
AcDbLine
 10
65.3375357479
 20
48.4083324159
 30
0.0
 11
66.5703447451
 21
49.6411414131
 31
0.0
1001
ACAD
1000
RTMaterial
1005
185D
  0
LINE
  5
2C9
100
AcDbEntity
  8
0
  6
CONTINUOUS
 62
           2
100
AcDbLine
 10
72.5273779377
 20
55.5981746057
 30
0.0
 11
73.8222049227
 21
56.8930015907
 31
0.0
1001
ACAD
1000
RTMaterial
1005
185D
  0
LINE
  5
2CA
100
AcDbEntity
  8
0
  6
CONTINUOUS
 62
           2
100
AcDbLine
 10
55.2124293796
 20
39.0073033914
 30
0.0
 11
57.0616339573
 21
40.8565079692
 31
0.0
1001
ACAD
1000
RTMaterial
1005
185D
  0
LINE
  5
2CB
100
AcDbEntity
  8
0
  6
CONTINUOUS
 62
           2
100
AcDbLine
 10
64.4584522682
 20
48.2533262801
 30
0.0
 11
65.6912610139
 21
49.4861350258
 31
0.0
1001
ACAD
1000
RTMaterial
1005
185D
  0
LINE
  5
2CC
100
AcDbEntity
  8
0
  6
CONTINUOUS
 62
           2
100
AcDbLine
 10
72.418841473
 20
56.2137154849
 30
0.0
 11
73.713668458
 21
57.5085424699
 31
0.0
1001
ACAD
1000
RTMaterial
1005
185D
  0
LINE
  5
2CD
100
AcDbEntity
  8
0
  6
CONTINUOUS
 62
           2
100
AcDbLine
 10
54.3333458999
 20
38.8522972557
 30
0.0
 11
56.1825504776
 21
40.7015018334
 31
0.0
1001
ACAD
1000
RTMaterial
1005
185D
  0
LINE
  5
2CE
100
AcDbEntity
  8
0
  6
CONTINUOUS
 62
           2
100
AcDbLine
 10
63.5793687885
 20
48.0983201443
 30
0.0
 11
64.8121772826
 21
49.3311286385
 31
0.0
1001
ACAD
1000
RTMaterial
1005
185D
  0
LINE
  5
2CF
100
AcDbEntity
  8
0
  6
CONTINUOUS
 62
           2
100
AcDbLine
 10
72.2089901513
 20
56.7279415071
 30
0.0
 11
73.6051319933
 21
58.1240833491
 31
0.0
1001
ACAD
1000
RTMaterial
1005
185D
  0
LINE
  5
2D0
100
AcDbEntity
  8
0
  6
CONTINUOUS
 62
           2
100
AcDbLine
 10
53.4542624202
 20
38.6972911199
 30
0.0
 11
55.3034669979
 21
40.5464956976
 31
0.0
1001
ACAD
1000
RTMaterial
1005
185D
  0
LINE
  5
2D1
100
AcDbEntity
  8
0
  6
CONTINUOUS
 62
           2
100
AcDbLine
 10
62.7002853088
 20
47.9433140086
 30
0.0
 11
63.9330935514
 21
49.1761222512
 31
0.0
1001
ACAD
1000
RTMaterial
1005
185D
  0
LINE
  5
2D2
100
AcDbEntity
  8
0
  6
CONTINUOUS
 62
           2
100
AcDbLine
 10
71.3299066716
 20
56.5729353713
 30
0.0
 11
73.1791112493
 21
58.4221399491
 31
0.0
1001
ACAD
1000
RTMaterial
1005
185D
  0
LINE
  5
2D3
100
AcDbEntity
  8
0
  6
CONTINUOUS
 62
           2
100
AcDbLine
 10
52.5751789405
 20
38.5422849842
 30
0.0
 11
54.4243835182
 21
40.3914895619
 31
0.0
1001
ACAD
1000
RTMaterial
1005
185D
  0
LINE
  5
2D4
100
AcDbEntity
  8
0
  6
CONTINUOUS
 62
           2
100
AcDbLine
 10
61.8212018291
 20
47.7883078728
 30
0.0
 11
63.0540098202
 21
49.0211158639
 31
0.0
1001
ACAD
1000
RTMaterial
1005
185D
  0
LINE
  5
2D5
100
AcDbEntity
  8
0
  6
CONTINUOUS
 62
           2
100
AcDbLine
 10
70.4508231919
 20
56.4179292356
 30
0.0
 11
72.3000277696
 21
58.2671338133
 31
0.0
1001
ACAD
1000
RTMaterial
1005
185D
  0
LINE
  5
2D6
100
AcDbEntity
  8
0
  6
CONTINUOUS
 62
           2
100
AcDbLine
 10
51.6960954608
 20
38.3872788484
 30
0.0
 11
53.5453000385
 21
40.2364834261
 31
0.0
1001
ACAD
1000
RTMaterial
1005
185D
  0
LINE
  5
2D7
100
AcDbEntity
  8
0
  6
CONTINUOUS
 62
           2
100
AcDbLine
 10
60.9421183494
 20
47.633301737
 30
0.0
 11
62.1749260889
 21
48.8661094766
 31
0.0
1001
ACAD
1000
RTMaterial
1005
185D
  0
LINE
  5
2D8
100
AcDbEntity
  8
0
  6
CONTINUOUS
 62
           2
100
AcDbLine
 10
69.5717397122
 20
56.2629230998
 30
0.0
 11
71.4209442899
 21
58.1121276775
 31
0.0
1001
ACAD
1000
RTMaterial
1005
185D
  0
LINE
  5
2D9
100
AcDbEntity
  8
0
  6
CONTINUOUS
 62
           2
100
AcDbLine
 10
50.8170119811
 20
38.2322727126
 30
0.0
 11
52.6662165588
 21
40.0814772904
 31
0.0
1001
ACAD
1000
RTMaterial
1005
185D
  0
LINE
  5
2DA
100
AcDbEntity
  8
0
  6
CONTINUOUS
 62
           2
100
AcDbLine
 10
60.0630348697
 20
47.4782956013
 30
0.0
 11
61.2958423577
 21
48.7111030893
 31
0.0
1001
ACAD
1000
RTMaterial
1005
185D
  0
LINE
  5
2DB
100
AcDbEntity
  8
0
  6
CONTINUOUS
 62
           2
100
AcDbLine
 10
68.6926562325
 20
56.107916964
 30
0.0
 11
70.5418608102
 21
57.9571215418
 31
0.0
1001
ACAD
1000
RTMaterial
1005
185D
  0
LINE
  5
2DC
100
AcDbEntity
  8
0
  6
CONTINUOUS
 62
           2
100
AcDbLine
 10
49.9379285014
 20
38.0772665769
 30
0.0
 11
51.7871330791
 21
39.9264711546
 31
0.0
1001
ACAD
1000
RTMaterial
1005
185D
  0
LINE
  5
2DD
100
AcDbEntity
  8
0
  6
CONTINUOUS
 62
           2
100
AcDbLine
 10
59.18395139
 20
47.3232894655
 30
0.0
 11
60.4167586265
 21
48.556096702
 31
0.0
1001
ACAD
1000
RTMaterial
1005
185D
  0
LINE
  5
2DE
100
AcDbEntity
  8
0
  6
CONTINUOUS
 62
           2
100
AcDbLine
 10
67.8135727528
 20
55.9529108283
 30
0.0
 11
69.6627773305
 21
57.802115406
 31
0.0
1001
ACAD
1000
RTMaterial
1005
185D
  0
LINE
  5
2DF
100
AcDbEntity
  8
0
  6
CONTINUOUS
 62
           2
100
AcDbLine
 10
49.0588450217
 20
37.9222604411
 30
0.0
 11
50.9080495994
 21
39.7714650188
 31
0.0
1001
ACAD
1000
RTMaterial
1005
185D
  0
LINE
  5
2E0
100
AcDbEntity
  8
0
  6
CONTINUOUS
 62
           2
100
AcDbLine
 10
58.3048679103
 20
47.1682833297
 30
0.0
 11
59.5376748952
 21
48.4010903147
 31
0.0
1001
ACAD
1000
RTMaterial
1005
185D
  0
LINE
  5
2E1
100
AcDbEntity
  8
0
  6
CONTINUOUS
 62
           2
100
AcDbLine
 10
66.9344892731
 20
55.7979046925
 30
0.0
 11
68.7836938508
 21
57.6471092702
 31
0.0
1001
ACAD
1000
RTMaterial
1005
185D
  0
LINE
  5
2E2
100
AcDbEntity
  8
0
  6
CONTINUOUS
 62
           2
100
AcDbLine
 10
48.179761542
 20
37.7672543053
 30
0.0
 11
50.0289661197
 21
39.6164588831
 31
0.0
1001
ACAD
1000
RTMaterial
1005
185D
  0
LINE
  5
2E3
100
AcDbEntity
  8
0
  6
CONTINUOUS
 62
           2
100
AcDbLine
 10
57.4257844306
 20
47.013277194
 30
0.0
 11
58.658591164
 21
48.2460839274
 31
0.0
1001
ACAD
1000
RTMaterial
1005
185D
  0
LINE
  5
2E4
100
AcDbEntity
  8
0
  6
CONTINUOUS
 62
           2
100
AcDbLine
 10
66.0554057934
 20
55.6428985567
 30
0.0
 11
67.9046103711
 21
57.4921031345
 31
0.0
1001
ACAD
1000
RTMaterial
1005
185D
  0
LINE
  5
2E5
100
AcDbEntity
  8
0
  6
CONTINUOUS
 62
           2
100
AcDbLine
 10
47.3006780623
 20
37.6122481696
 30
0.0
 11
49.14988264
 21
39.4614527473
 31
0.0
1001
ACAD
1000
RTMaterial
1005
185D
  0
LINE
  5
2E6
100
AcDbEntity
  8
0
  6
CONTINUOUS
 62
           2
100
AcDbLine
 10
56.5467009509
 20
46.8582710582
 30
0.0
 11
57.7795074328
 21
48.0910775401
 31
0.0
1001
ACAD
1000
RTMaterial
1005
185D
  0
LINE
  5
2E7
100
AcDbEntity
  8
0
  6
CONTINUOUS
 62
           2
100
AcDbLine
 10
65.1763223137
 20
55.487892421
 30
0.0
 11
67.0255268914
 21
57.3370969987
 31
0.0
1001
ACAD
1000
RTMaterial
1005
185D
  0
LINE
  5
2E8
100
AcDbEntity
  8
0
  6
CONTINUOUS
 62
           2
100
AcDbLine
 10
46.4215945826
 20
37.4572420338
 30
0.0
 11
48.2707991603
 21
39.3064466115
 31
0.0
1001
ACAD
1000
RTMaterial
1005
185D
  0
LINE
  5
2E9
100
AcDbEntity
  8
0
  6
CONTINUOUS
 62
           2
100
AcDbLine
 10
55.6676174712
 20
46.7032649224
 30
0.0
 11
56.9004237015
 21
47.9360711528
 31
0.0
1001
ACAD
1000
RTMaterial
1005
185D
  0
LINE
  5
2EA
100
AcDbEntity
  8
0
  6
CONTINUOUS
 62
           2
100
AcDbLine
 10
64.297238834
 20
55.3328862852
 30
0.0
 11
66.1464434117
 21
57.1820908629
 31
0.0
1001
ACAD
1000
RTMaterial
1005
185D
  0
LINE
  5
2EB
100
AcDbEntity
  8
0
  6
CONTINUOUS
 62
           2
100
AcDbLine
 10
45.7600096555
 20
37.5197344507
 30
0.0
 11
47.3917156806
 21
39.1514404758
 31
0.0
1001
ACAD
1000
RTMaterial
1005
185D
  0
LINE
  5
2EC
100
AcDbEntity
  8
0
  6
CONTINUOUS
 62
           2
100
AcDbLine
 10
54.7885339915
 20
46.5482587867
 30
0.0
 11
56.0213399703
 21
47.7810647655
 31
0.0
1001
ACAD
1000
RTMaterial
1005
185D
  0
LINE
  5
2ED
100
AcDbEntity
  8
0
  6
CONTINUOUS
 62
           2
100
AcDbLine
 10
63.4181553543
 20
55.1778801494
 30
0.0
 11
65.267359932
 21
57.0270847272
 31
0.0
1001
ACAD
1000
RTMaterial
1005
185D
  0
LINE
  5
2EE
100
AcDbEntity
  8
0
  6
CONTINUOUS
 62
           2
100
AcDbLine
 10
45.6514731908
 20
38.1352753299
 30
0.0
 11
46.9463001758
 21
39.4301023149
 31
0.0
1001
ACAD
1000
RTMaterial
1005
185D
  0
LINE
  5
2EF
100
AcDbEntity
  8
0
  6
CONTINUOUS
 62
           2
100
AcDbLine
 10
53.9094505118
 20
46.3932526509
 30
0.0
 11
55.1422562391
 21
47.6260583782
 31
0.0
1001
ACAD
1000
RTMaterial
1005
185D
  0
LINE
  5
2F0
100
AcDbEntity
  8
0
  6
CONTINUOUS
 62
           2
100
AcDbLine
 10
62.5390718746
 20
55.0228740137
 30
0.0
 11
64.3882764523
 21
56.8720785914
 31
0.0
1001
ACAD
1000
RTMaterial
1005
185D
  0
LINE
  5
2F1
100
AcDbEntity
  8
0
  6
CONTINUOUS
 62
           2
100
AcDbLine
 10
45.5429367261
 20
38.7508162091
 30
0.0
 11
46.8377637111
 21
40.0456431941
 31
0.0
1001
ACAD
1000
RTMaterial
1005
185D
  0
LINE
  5
2F2
100
AcDbEntity
  8
0
  6
CONTINUOUS
 62
           2
100
AcDbLine
 10
53.0303670321
 20
46.2382465151
 30
0.0
 11
54.2631725078
 21
47.4710519909
 31
0.0
1001
ACAD
1000
RTMaterial
1005
185D
  0
LINE
  5
2F3
100
AcDbEntity
  8
0
  6
CONTINUOUS
 62
           2
100
AcDbLine
 10
61.6599883949
 20
54.8678678779
 30
0.0
 11
63.5091929726
 21
56.7170724556
 31
0.0
1001
ACAD
1000
RTMaterial
1005
185D
  0
LINE
  5
2F4
100
AcDbEntity
  8
0
  6
CONTINUOUS
 62
           2
100
AcDbLine
 10
45.4344002613
 20
39.3663570883
 30
0.0
 11
46.7292272464
 21
40.6611840733
 31
0.0
1001
ACAD
1000
RTMaterial
1005
185D
  0
LINE
  5
2F5
100
AcDbEntity
  8
0
  6
CONTINUOUS
 62
           2
100
AcDbLine
 10
52.1512835524
 20
46.0832403794
 30
0.0
 11
53.3840887766
 21
47.3160456036
 31
0.0
1001
ACAD
1000
RTMaterial
1005
185D
  0
LINE
  5
2F6
100
AcDbEntity
  8
0
  6
CONTINUOUS
 62
           2
100
AcDbLine
 10
60.7809049152
 20
54.7128617421
 30
0.0
 11
62.6301094929
 21
56.5620663199
 31
0.0
1001
ACAD
1000
RTMaterial
1005
185D
  0
LINE
  5
2F7
100
AcDbEntity
  8
0
  6
CONTINUOUS
 62
           2
100
AcDbLine
 10
45.3258637966
 20
39.9818979675
 30
0.0
 11
46.6206907816
 21
41.2767249525
 31
0.0
1001
ACAD
1000
RTMaterial
1005
185D
  0
LINE
  5
2F8
100
AcDbEntity
  8
0
  6
CONTINUOUS
 62
           2
100
AcDbLine
 10
51.2722000727
 20
45.9282342436
 30
0.0
 11
52.5050050454
 21
47.1610392163
 31
0.0
1001
ACAD
1000
RTMaterial
1005
185D
  0
LINE
  5
2F9
100
AcDbEntity
  8
0
  6
CONTINUOUS
 62
           2
100
AcDbLine
 10
59.9018214355
 20
54.5578556064
 30
0.0
 11
61.7510260132
 21
56.4070601841
 31
0.0
1001
ACAD
1000
RTMaterial
1005
185D
  0
LINE
  5
2FA
100
AcDbEntity
  8
0
  6
CONTINUOUS
 62
           2
100
AcDbLine
 10
45.2173273319
 20
40.5974388467
 30
0.0
 11
46.5121543169
 21
41.8922658317
 31
0.0
1001
ACAD
1000
RTMaterial
1005
185D
  0
LINE
  5
2FB
100
AcDbEntity
  8
0
  6
CONTINUOUS
 62
           2
100
AcDbLine
 10
50.393116593
 20
45.7732281078
 30
0.0
 11
51.6259213141
 21
47.006032829
 31
0.0
1001
ACAD
1000
RTMaterial
1005
185D
  0
LINE
  5
2FC
100
AcDbEntity
  8
0
  6
CONTINUOUS
 62
           2
100
AcDbLine
 10
59.0227379558
 20
54.4028494706
 30
0.0
 11
60.8719425335
 21
56.2520540483
 31
0.0
1001
ACAD
1000
RTMaterial
1005
185D
  0
LINE
  5
2FD
100
AcDbEntity
  8
0
  6
CONTINUOUS
 62
           2
100
AcDbLine
 10
45.1087908671
 20
41.2129797259
 30
0.0
 11
46.4036178522
 21
42.5078067109
 31
0.0
1001
ACAD
1000
RTMaterial
1005
185D
  0
LINE
  5
2FE
100
AcDbEntity
  8
0
  6
CONTINUOUS
 62
           2
100
AcDbLine
 10
49.5140331133
 20
45.6182219721
 30
0.0
 11
50.7468375829
 21
46.8510264417
 31
0.0
1001
ACAD
1000
RTMaterial
1005
185D
  0
LINE
  5
2FF
100
AcDbEntity
  8
0
  6
CONTINUOUS
 62
           2
100
AcDbLine
 10
58.1436544761
 20
54.2478433348
 30
0.0
 11
59.9928590538
 21
56.0970479126
 31
0.0
1001
ACAD
1000
RTMaterial
1005
185D
  0
LINE
  5
300
100
AcDbEntity
  8
0
  6
CONTINUOUS
 62
           2
100
AcDbLine
 10
45.0002544024
 20
41.8285206051
 30
0.0
 11
46.2950813874
 21
43.1233475901
 31
0.0
1001
ACAD
1000
RTMaterial
1005
185D
  0
LINE
  5
301
100
AcDbEntity
  8
0
  6
CONTINUOUS
 62
           2
100
AcDbLine
 10
48.6349496336
 20
45.4632158363
 30
0.0
 11
49.8677538517
 21
46.6960200544
 31
0.0
1001
ACAD
1000
RTMaterial
1005
185D
  0
LINE
  5
302
100
AcDbEntity
  8
0
  6
CONTINUOUS
 62
           2
100
AcDbLine
 10
57.2645709964
 20
54.0928371991
 30
0.0
 11
59.1137755741
 21
55.9420417768
 31
0.0
1001
ACAD
1000
RTMaterial
1005
185D
  0
LINE
  5
303
100
AcDbEntity
  8
0
  6
CONTINUOUS
 62
           2
100
AcDbLine
 10
44.8917179377
 20
42.4440614843
 30
0.0
 11
46.1865449227
 21
43.7388884693
 31
0.0
1001
ACAD
1000
RTMaterial
1005
185D
  0
LINE
  5
304
100
AcDbEntity
  8
0
  6
CONTINUOUS
 62
           2
100
AcDbLine
 10
47.7558661539
 20
45.3082097005
 30
0.0
 11
48.9886701204
 21
46.5410136671
 31
0.0
1001
ACAD
1000
RTMaterial
1005
185D
  0
LINE
  5
305
100
AcDbEntity
  8
0
  6
CONTINUOUS
 62
           2
100
AcDbLine
 10
56.3854875167
 20
53.9378310633
 30
0.0
 11
58.2346920944
 21
55.787035641
 31
0.0
1001
ACAD
1000
RTMaterial
1005
185D
  0
LINE
  5
306
100
AcDbEntity
  8
0
  6
CONTINUOUS
 62
           2
100
AcDbLine
 10
44.7831814729
 20
43.0596023635
 30
0.0
 11
46.078008458
 21
44.3544293485
 31
0.0
1001
ACAD
1000
RTMaterial
1005
185D
  0
LINE
  5
307
100
AcDbEntity
  8
0
  6
CONTINUOUS
 62
           2
100
AcDbLine
 10
46.8767826742
 20
45.1532035648
 30
0.0
 11
48.1095863892
 21
46.3860072798
 31
0.0
1001
ACAD
1000
RTMaterial
1005
185D
  0
LINE
  5
308
100
AcDbEntity
  8
0
  6
CONTINUOUS
 62
           2
100
AcDbLine
 10
55.506404037
 20
53.7828249275
 30
0.0
 11
57.3556086147
 21
55.6320295053
 31
0.0
1001
ACAD
1000
RTMaterial
1005
185D
  0
LINE
  5
309
100
AcDbEntity
  8
0
  6
CONTINUOUS
 62
           2
100
AcDbLine
 10
44.6746450082
 20
43.6751432427
 30
0.0
 11
45.9694719932
 21
44.9699702277
 31
0.0
1001
ACAD
1000
RTMaterial
1005
185D
  0
LINE
  5
30A
100
AcDbEntity
  8
0
  6
CONTINUOUS
 62
           2
100
AcDbLine
 10
45.9976991945
 20
44.998197429
 30
0.0
 11
47.230502658
 21
46.2310008925
 31
0.0
1001
ACAD
1000
RTMaterial
1005
185D
  0
LINE
  5
30B
100
AcDbEntity
  8
0
  6
CONTINUOUS
 62
           2
100
AcDbLine
 10
54.6273205573
 20
53.6278187918
 30
0.0
 11
56.476525135
 21
55.4770233695
 31
0.0
1001
ACAD
1000
RTMaterial
1005
185D
  0
LINE
  5
30C
100
AcDbEntity
  8
0
  6
CONTINUOUS
 62
           2
100
AcDbLine
 10
44.5661085435
 20
44.2906841219
 30
0.0
 11
46.3514189267
 21
46.0759945052
 31
0.0
1001
ACAD
1000
RTMaterial
1005
185D
  0
LINE
  5
30D
100
AcDbEntity
  8
0
  6
CONTINUOUS
 62
           2
100
AcDbLine
 10
53.7482370776
 20
53.472812656
 30
0.0
 11
55.5974416553
 21
55.3220172337
 31
0.0
1001
ACAD
1000
RTMaterial
1005
185D
  0
LINE
  5
30E
100
AcDbEntity
  8
0
  6
CONTINUOUS
 62
           2
100
AcDbLine
 10
44.4575720787
 20
44.9062250011
 30
0.0
 11
45.7523990638
 21
46.2010519861
 31
0.0
1001
ACAD
1000
RTMaterial
1005
185D
  0
LINE
  5
30F
100
AcDbEntity
  8
0
  6
CONTINUOUS
 62
           2
100
AcDbLine
 10
52.8691535978
 20
53.3178065202
 30
0.0
 11
54.7183581756
 21
55.167011098
 31
0.0
1001
ACAD
1000
RTMaterial
1005
185D
  0
LINE
  5
310
100
AcDbEntity
  8
0
  6
CONTINUOUS
 62
           2
100
AcDbLine
 10
44.349035614
 20
45.5217658803
 30
0.0
 11
45.643862599
 21
46.8165928653
 31
0.0
1001
ACAD
1000
RTMaterial
1005
185D
  0
LINE
  5
311
100
AcDbEntity
  8
0
  6
CONTINUOUS
 62
           2
100
AcDbLine
 10
51.9900701181
 20
53.1628003845
 30
0.0
 11
53.8392746959
 21
55.0120049622
 31
0.0
1001
ACAD
1000
RTMaterial
1005
185D
  0
LINE
  5
312
100
AcDbEntity
  8
0
  6
CONTINUOUS
 62
           2
100
AcDbLine
 10
44.2404991493
 20
46.1373067595
 30
0.0
 11
45.5353261343
 21
47.4321337446
 31
0.0
1001
ACAD
1000
RTMaterial
1005
185D
  0
LINE
  5
313
100
AcDbEntity
  8
0
  6
CONTINUOUS
 62
           2
100
AcDbLine
 10
51.1109866384
 20
53.0077942487
 30
0.0
 11
52.9601912162
 21
54.8569988264
 31
0.0
1001
ACAD
1000
RTMaterial
1005
185D
  0
LINE
  5
314
100
AcDbEntity
  8
0
  6
CONTINUOUS
 62
           2
100
AcDbLine
 10
44.1319626845
 20
46.7528476387
 30
0.0
 11
45.4267896696
 21
48.0476746238
 31
0.0
1001
ACAD
1000
RTMaterial
1005
185D
  0
LINE
  5
315
100
AcDbEntity
  8
0
  6
CONTINUOUS
 62
           2
100
AcDbLine
 10
50.2319031587
 20
52.8527881129
 30
0.0
 11
52.0811077365
 21
54.7019926907
 31
0.0
1001
ACAD
1000
RTMaterial
1005
185D
  0
LINE
  5
316
100
AcDbEntity
  8
0
  6
CONTINUOUS
 62
           2
100
AcDbLine
 10
44.0234262198
 20
47.3683885179
 30
0.0
 11
45.3182532048
 21
48.663215503
 31
0.0
1001
ACAD
1000
RTMaterial
1005
185D
  0
LINE
  5
317
100
AcDbEntity
  8
0
  6
CONTINUOUS
 62
           2
100
AcDbLine
 10
49.352819679
 20
52.6977819772
 30
0.0
 11
51.2020242568
 21
54.5469865549
 31
0.0
1001
ACAD
1000
RTMaterial
1005
185D
  0
LINE
  5
318
100
AcDbEntity
  8
0
  6
CONTINUOUS
 62
           2
100
AcDbLine
 10
43.9148897551
 20
47.9839293971
 30
0.0
 11
45.2097167401
 21
49.2787563822
 31
0.0
1001
ACAD
1000
RTMaterial
1005
185D
  0
LINE
  5
319
100
AcDbEntity
  8
0
  6
CONTINUOUS
 62
           2
100
AcDbLine
 10
48.4737361993
 20
52.5427758414
 30
0.0
 11
50.3229407771
 21
54.3919804191
 31
0.0
1001
ACAD
1000
RTMaterial
1005
185D
  0
LINE
  5
31A
100
AcDbEntity
  8
0
  6
CONTINUOUS
 62
           2
100
AcDbLine
 10
43.8063532903
 20
48.5994702763
 30
0.0
 11
45.1011802754
 21
49.8942972614
 31
0.0
1001
ACAD
1000
RTMaterial
1005
185D
  0
LINE
  5
31B
100
AcDbEntity
  8
0
  6
CONTINUOUS
 62
           2
100
AcDbLine
 10
47.5946527196
 20
52.3877697056
 30
0.0
 11
49.4438572974
 21
54.2369742834
 31
0.0
1001
ACAD
1000
RTMaterial
1005
185D
  0
LINE
  5
31C
100
AcDbEntity
  8
0
  6
CONTINUOUS
 62
           2
100
AcDbLine
 10
43.6978168256
 20
49.2150111555
 30
0.0
 11
44.9926438106
 21
50.5098381406
 31
0.0
1001
ACAD
1000
RTMaterial
1005
185D
  0
LINE
  5
31D
100
AcDbEntity
  8
0
  6
CONTINUOUS
 62
           2
100
AcDbLine
 10
46.7155692399
 20
52.2327635699
 30
0.0
 11
48.5647738177
 21
54.0819681476
 31
0.0
1001
ACAD
1000
RTMaterial
1005
185D
  0
LINE
  5
31E
100
AcDbEntity
  8
0
  6
CONTINUOUS
 62
           2
100
AcDbLine
 10
43.5892803609
 20
49.8305520347
 30
0.0
 11
44.8841073459
 21
51.1253790198
 31
0.0
1001
ACAD
1000
RTMaterial
1005
185D
  0
LINE
  5
31F
100
AcDbEntity
  8
0
  6
CONTINUOUS
 62
           2
100
AcDbLine
 10
45.8364857602
 20
52.0777574341
 30
0.0
 11
47.685690338
 21
53.9269620118
 31
0.0
1001
ACAD
1000
RTMaterial
1005
185D
  0
LINE
  5
320
100
AcDbEntity
  8
0
  6
CONTINUOUS
 62
           2
100
AcDbLine
 10
43.4807438961
 20
50.4460929139
 30
0.0
 11
44.7755708812
 21
51.740919899
 31
0.0
1001
ACAD
1000
RTMaterial
1005
185D
  0
LINE
  5
321
100
AcDbEntity
  8
0
  6
CONTINUOUS
 62
           2
100
AcDbLine
 10
44.9574022805
 20
51.9227512983
 30
0.0
 11
46.8066068583
 21
53.7719558761
 31
0.0
1001
ACAD
1000
RTMaterial
1005
185D
  0
LINE
  5
322
100
AcDbEntity
  8
0
  6
CONTINUOUS
 62
           2
100
AcDbLine
 10
43.3722074314
 20
51.0616337932
 30
0.0
 11
45.9275233786
 21
53.6169497403
 31
0.0
1001
ACAD
1000
RTMaterial
1005
185D
  0
LINE
  5
323
100
AcDbEntity
  8
0
  6
CONTINUOUS
 62
           2
100
AcDbLine
 10
43.2636709667
 20
51.6771746724
 30
0.0
 11
45.0484398989
 21
53.4619436045
 31
0.0
1001
ACAD
1000
RTMaterial
1005
185D
  0
LINE
  5
324
100
AcDbEntity
  8
0
  6
CONTINUOUS
 62
           2
100
AcDbLine
 10
43.155134502
 20
52.2927155516
 30
0.0
 11
44.1693564192
 21
53.3069374688
 31
0.0
1001
ACAD
1000
RTMaterial
1005
185D
  0
LINE
  5
325
100
AcDbEntity
  8
0
  6
CONTINUOUS
 62
           2
100
AcDbLine
 10
43.0465980372
 20
52.9082564308
 30
0.0
 11
43.2902729395
 21
53.151931333
 31
0.0
1001
ACAD
1000
RTMaterial
1005
185D
  0
MTEXT
  5
326
100
AcDbEntity
  8
0
  6
CONTINUOUS
 62
           2
100
AcDbMText
 10
51.3068710699
 20
51.7653074162
 30
0.0
 40
1.3952
 41
16.5098666667
 71
           1
 72
           1
  1
INTERNAL USE 
  7
TEXTSTYLE_4
 11
0.984807753006
 21
0.173648177701
 31
0.0
 73
           1
 44
1.0
1001
ACAD
1000
MTEXTBEGIN
1070
          73
1070
           1
1070
          44
1040
0.9
1070
          74
1070
           0
1000
MTEXTEND
  0
MTEXT
  5
327
100
AcDbEntity
  8
0
  6
CONTINUOUS
 62
           2
100
AcDbMText
 10
50.6198691814
 20
49.5439956875
 30
0.0
 40
1.3952
 41
17.9050666667
 71
           1
 72
           1
  1
DOCUMENT ONLY
  7
TEXTSTYLE_4
 11
0.984807753006
 21
0.173648177701
 31
0.0
 73
           1
 44
1.0
1001
ACAD
1000
MTEXTBEGIN
1070
          73
1070
           1
1070
          44
1040
0.9
1070
          74
1070
           0
1000
MTEXTEND
  0
MTEXT
  5
328
100
AcDbEntity
  8
0
  6
CONTINUOUS
 62
           2
100
AcDbMText
 10
47.2854755171
 20
44.2082440346
 30
0.0
 40
1.3952
 41
25.8112
 71
           1
 72
           1
  1
DOCUMENT POUR USAGE
  7
TEXTSTYLE_4
 11
0.984807753006
 21
0.173648177701
 31
0.0
 73
           1
 44
1.0
1001
ACAD
1000
MTEXTBEGIN
1070
          73
1070
           1
1070
          44
1040
0.9
1070
          74
1070
           0
1000
MTEXTEND
  0
MTEXT
  5
329
100
AcDbEntity
  8
0
  6
CONTINUOUS
 62
           2
100
AcDbMText
 10
47.3196980185
 20
42.0891935716
 30
0.0
 40
1.3952
 41
26.4797333333
 71
           1
 72
           1
  1
A L'INTERNE SEULEMENT
  7
TEXTSTYLE_4
 11
0.984807753006
 21
0.173648177701
 31
0.0
 73
           1
 44
1.0
1001
ACAD
1000
MTEXTBEGIN
1070
          73
1070
           1
1070
          44
1040
0.9
1070
          74
1070
           0
1000
MTEXTEND
  0
ENDBLK
  5
32A
100
AcDbEntity
  8
0
  6
ByBlock
 62
           0
100
AcDbBlockEnd
1001
ACAD
1000
RTMaterial
1005
185D
  0
ENDSEC
  0
SECTION
  2
ENTITIES
  0
LINE
  5
14E2
100
AcDbEntity
  8
0
  6
CONTINUOUS
 62
           7
100
AcDbLine
 10
24.0574248388
 20
41.7431007693
 30
0.0
 11
23.9558681114
 21
40.5823020631
 31
0.0
1001
ACAD
1000
RTMaterial
1005
185D
  0
LINE
  5
14E3
100
AcDbEntity
  8
0
  6
CONTINUOUS
 62
           7
100
AcDbLine
 10
27.903401226
 20
40.5823020631
 30
0.0
 11
34.3245252372
 21
26.1605792766
 31
0.0
1001
ACAD
1000
RTMaterial
1005
185D
  0
LINE
  5
14E4
100
AcDbEntity
  8
0
  6
CONTINUOUS
 62
           7
100
AcDbLine
 10
34.3245252372
 20
26.1605792766
 30
0.0
 11
34.8558301985
 21
24.9668909229
 31
0.0
1001
ACAD
1000
RTMaterial
1005
185D
  0
LINE
  5
14E5
100
AcDbEntity
  8
0
  6
CONTINUOUS
 62
           7
100
AcDbLine
 10
38.9225682346
 20
23.0964412219
 30
0.0
 11
38.7915311975
 21
23.2794176233
 31
0.0
1001
ACAD
1000
RTMaterial
1005
185D
  0
LINE
  5
14E6
100
AcDbEntity
  8
0
  6
CONTINUOUS
 62
           7
100
AcDbLine
 10
38.3880106808
 20
23.4294331468
 30
0.0
 11
38.3874788443
 21
23.3981876728
 31
0.0
1001
ACAD
1000
RTMaterial
1005
185D
  0
LINE
  5
14E7
100
AcDbEntity
  8
0
  6
CONTINUOUS
 62
           7
100
AcDbLine
 10
76.514222516
 20
23.1683747855
 30
0.0
 11
76.522522789
 21
23.1707190878
 31
0.0
1001
ACAD
1000
RTMaterial
1005
185D
  0
LINE
  5
14E8
100
AcDbEntity
  8
0
  6
CONTINUOUS
 62
           7
100
AcDbLine
 10
41.4118781507
 20
21.8025730742
 30
0.0
 11
41.4556719075
 21
21.779866686
 31
0.0
1001
ACAD
1000
RTMaterial
1005
185D
  0
LINE
  5
14E9
100
AcDbEntity
  8
0
  6
CONTINUOUS
 62
           7
100
AcDbLine
 10
39.2879056833
 20
22.8677689441
 30
0.0
 11
39.3035881645
 21
22.8586547303
 31
0.0
1001
ACAD
1000
RTMaterial
1005
185D
  0
LINE
  5
14EA
100
AcDbEntity
  8
0
  6
CONTINUOUS
 62
           7
100
AcDbLine
 10
39.2498775503
 20
22.8902695246
 30
0.0
 11
39.2879056833
 21
22.8677689441
 31
0.0
1001
ACAD
1000
RTMaterial
1005
185D
  0
LINE
  5
14EB
100
AcDbEntity
  8
0
  6
CONTINUOUS
 62
           7
100
AcDbLine
 10
39.1908348643
 20
22.9259625264
 30
0.0
 11
39.2499351203
 21
22.8902348274
 31
0.0
1001
ACAD
1000
RTMaterial
1005
185D
  0
LWPOLYLINE
  5
14EC
100
AcDbEntity
  8
0
  6
CONTINUOUS
 62
           7
100
AcDbPolyline
 90
        3
 70
           0
 10
41.3070829914
 20
21.8643407491
 10
41.3607779505
 20
21.8315737306
 10
41.4118781507
 20
21.8025730742
1001
ACAD
1000
RTMaterial
1005
185D
  0
LINE
  5
14ED
100
AcDbEntity
  8
0
  6
CONTINUOUS
 62
           7
100
AcDbLine
 10
39.1195662431
 20
22.9697289762
 30
0.0
 11
39.1908630177
 21
22.9259437046
 31
0.0
1001
ACAD
1000
RTMaterial
1005
185D
  0
LINE
  5
14EE
100
AcDbEntity
  8
0
  6
CONTINUOUS
 62
           7
100
AcDbLine
 10
38.9940008309
 20
23.0478718036
 30
0.0
 11
39.119564612
 21
22.9697290036
 31
0.0
1001
ACAD
1000
RTMaterial
1005
185D
  0
LINE
  5
14EF
100
AcDbEntity
  8
0
  6
CONTINUOUS
 62
           7
100
AcDbLine
 10
38.9412825604
 20
23.0809530322
 30
0.0
 11
38.9940008309
 21
23.0478718036
 31
0.0
1001
ACAD
1000
RTMaterial
1005
185D
  0
LINE
  5
14F0
100
AcDbEntity
  8
0
  6
CONTINUOUS
 62
           7
100
AcDbLine
 10
41.2566464853
 20
21.8972540399
 30
0.0
 11
41.3070829914
 21
21.8643407491
 31
0.0
1001
ACAD
1000
RTMaterial
1005
185D
  0
LINE
  5
14F1
100
AcDbEntity
  8
0
  6
CONTINUOUS
 62
           7
100
AcDbLine
 10
41.2141085892
 20
21.9271598905
 30
0.0
 11
41.2566464853
 21
21.8972540399
 31
0.0
1001
ACAD
1000
RTMaterial
1005
185D
  0
LINE
  5
14F2
100
AcDbEntity
  8
0
  6
CONTINUOUS
 62
           7
100
AcDbLine
 10
38.9225682372
 20
23.0964413929
 30
0.0
 11
38.9412780329
 21
23.0809559133
 31
0.0
1001
ACAD
1000
RTMaterial
1005
185D
  0
LWPOLYLINE
  5
14F3
100
AcDbEntity
  8
0
  6
CONTINUOUS
 62
           7
100
AcDbPolyline
 90
        3
 70
           0
 10
41.1631502327
 20
21.9686787299
 10
41.1811119931
 20
21.9527843624
 10
41.2141085892
 20
21.9271598905
1001
ACAD
1000
RTMaterial
1005
185D
  0
LINE
  5
14F4
100
AcDbEntity
  8
0
  6
CONTINUOUS
 62
           7
100
AcDbLine
 10
41.1634972298
 20
21.9683540565
 30
0.0
 11
41.1631268599
 21
21.9687070484
 31
0.0
1001
ACAD
1000
RTMaterial
1005
185D
  0
LINE
  5
14F5
100
AcDbEntity
  8
0
  6
CONTINUOUS
 62
           7
100
AcDbLine
 10
41.131842445
 20
21.9998465534
 30
0.0
 11
41.1635158792
 21
21.9683363322
 31
0.0
1001
ACAD
1000
RTMaterial
1005
185D
  0
LINE
  5
14F6
100
AcDbEntity
  8
0
  6
CONTINUOUS
 62
           7
100
AcDbLine
 10
41.0680531638
 20
22.0732633997
 30
0.0
 11
41.131842445
 21
21.9998465534
 31
0.0
1001
ACAD
1000
RTMaterial
1005
185D
  0
LINE
  5
14F7
100
AcDbEntity
  8
0
  6
CONTINUOUS
 62
           7
100
AcDbLine
 10
41.0108104953
 20
22.1544010293
 30
0.0
 11
41.0680531638
 21
22.0732633997
 31
0.0
1001
ACAD
1000
RTMaterial
1005
185D
  0
LINE
  5
14F8
100
AcDbEntity
  8
0
  6
CONTINUOUS
 62
           7
100
AcDbLine
 10
40.4397339476
 20
23.2067980369
 30
0.0
 11
40.4788000272
 21
23.1460619955
 31
0.0
1001
ACAD
1000
RTMaterial
1005
185D
  0
LINE
  5
14F9
100
AcDbEntity
  8
0
  6
CONTINUOUS
 62
           7
100
AcDbLine
 10
40.9734981703
 20
22.2189737241
 30
0.0
 11
41.0108104953
 21
22.1544010293
 31
0.0
1001
ACAD
1000
RTMaterial
1005
185D
  0
LWPOLYLINE
  5
14FA
100
AcDbEntity
  8
0
  6
CONTINUOUS
 62
           7
100
AcDbPolyline
 90
        3
 70
           0
 10
40.4790410682
 20
23.1458780126
 10
40.6177797994
 20
22.8878274485
 10
40.833214372
 20
22.4842466479
1001
ACAD
1000
RTMaterial
1005
185D
  0
LINE
  5
14FB
100
AcDbEntity
  8
0
  6
CONTINUOUS
 62
           7
100
AcDbLine
 10
40.833214372
 20
22.4842466479
 30
0.0
 11
40.9735062634
 21
22.2189496265
 31
0.0
1001
ACAD
1000
RTMaterial
1005
185D
  0
LINE
  5
14FC
100
AcDbEntity
  8
0
  6
CONTINUOUS
 62
           7
100
AcDbLine
 10
40.4788256215
 20
23.1462888046
 30
0.0
 11
40.4788888996
 21
23.1461604554
 31
0.0
1001
ACAD
1000
RTMaterial
1005
185D
  0
LINE
  5
14FD
100
AcDbEntity
  8
0
  6
CONTINUOUS
 62
           7
100
AcDbLine
 10
40.9715763667
 20
22.2263099698
 30
0.0
 11
40.9734981703
 21
22.2189737241
 31
0.0
1001
ACAD
1000
RTMaterial
1005
185D
  0
LINE
  5
14FE
100
AcDbEntity
  8
0
  6
CONTINUOUS
 62
           7
100
AcDbLine
 10
39.992627071
 20
23.4247881475
 30
0.0
 11
39.9920575168
 21
23.3935441701
 31
0.0
1001
ACAD
1000
RTMaterial
1005
185D
  0
LINE
  5
14FF
100
AcDbEntity
  8
0
  6
CONTINUOUS
 62
           7
100
AcDbLine
 10
76.5023818899
 20
23.1650845378
 30
0.0
 11
76.514222516
 21
23.1683747855
 31
0.0
1001
ACAD
1000
RTMaterial
1005
185D
  0
LINE
  5
1500
100
AcDbEntity
  8
0
  6
CONTINUOUS
 62
           7
100
AcDbLine
 10
76.4902380038
 20
23.161773048
 30
0.0
 11
76.5023818899
 21
23.1650845378
 31
0.0
1001
ACAD
1000
RTMaterial
1005
185D
  0
LINE
  5
1501
100
AcDbEntity
  8
0
  6
CONTINUOUS
 62
           7
100
AcDbLine
 10
76.4786348768
 20
23.1586663361
 30
0.0
 11
76.49047623
 21
23.1618374153
 31
0.0
1001
ACAD
1000
RTMaterial
1005
185D
  0
LINE
  5
1502
100
AcDbEntity
  8
0
  6
CONTINUOUS
 62
           7
100
AcDbLine
 10
76.464976887
 20
23.1550800597
 30
0.0
 11
76.4790821322
 21
23.1587850611
 31
0.0
1001
ACAD
1000
RTMaterial
1005
185D
  0
LWPOLYLINE
  5
1503
100
AcDbEntity
  8
0
  6
CONTINUOUS
 62
           7
100
AcDbPolyline
 90
       18
 70
           0
 10
76.5464378704
 20
23.1776579187
 10
76.5464694059
 20
23.1776660256
 10
76.7074328186
 20
23.2315635897
 10
76.8641353672
 20
23.2968206116
 10
77.0157765635
 20
23.373103737
 10
77.1615817745
 20
23.4600232866
 10
77.3008061792
 20
23.5571352467
 10
77.4327385735
 20
23.6639435375
 10
77.5567050033
 20
23.7799025471
 10
77.6720722075
 20
23.9044199188
 10
77.7782508523
 20
24.0368595769
 10
77.8746985423
 20
24.1765449761
 10
77.960922591
 20
24.3227625573
 10
78.0364825376
 20
24.4747653932
 10
78.1009923971
 20
24.6317770032
 10
78.1541226318
 20
24.7929953204
 10
78.1956018351
 20
24.9575967886
 10
78.2248511299
 20
25.1221397523
1001
ACAD
1000
RTMaterial
1005
185D
  0
LINE
  5
1504
100
AcDbEntity
  8
0
  6
CONTINUOUS
 62
           7
100
AcDbLine
 10
76.4530838159
 20
23.1520187741
 30
0.0
 11
76.4657038048
 21
23.1552690216
 31
0.0
1001
ACAD
1000
RTMaterial
1005
185D
  0
LINE
  5
1505
100
AcDbEntity
  8
0
  6
CONTINUOUS
 62
           7
100
AcDbLine
 10
76.4399651431
 20
23.1487078487
 30
0.0
 11
76.454057522
 21
23.152267266
 31
0.0
1001
ACAD
1000
RTMaterial
1005
185D
  0
LINE
  5
1506
100
AcDbEntity
  8
0
  6
CONTINUOUS
 62
           7
100
AcDbLine
 10
76.4258161604
 20
23.1452133868
 30
0.0
 11
76.441206023
 21
23.1490180906
 31
0.0
1001
ACAD
1000
RTMaterial
1005
185D
  0
LINE
  5
1507
100
AcDbEntity
  8
0
  6
CONTINUOUS
 62
           7
100
AcDbLine
 10
76.4107082284
 20
23.1415685359
 30
0.0
 11
76.4273404015
 21
23.1455860548
 31
0.0
1001
ACAD
1000
RTMaterial
1005
185D
  0
LINE
  5
1508
100
AcDbEntity
  8
0
  6
CONTINUOUS
 62
           7
100
AcDbLine
 10
76.3964159361
 20
23.1382016398
 30
0.0
 11
76.412538644
 21
23.1420054136
 31
0.0
1001
ACAD
1000
RTMaterial
1005
185D
  0
LINE
  5
1509
100
AcDbEntity
  8
0
  6
CONTINUOUS
 62
           7
100
AcDbLine
 10
76.3820329177
 20
23.1348926627
 30
0.0
 11
76.3998923629
 21
23.1390133622
 31
0.0
1001
ACAD
1000
RTMaterial
1005
185D
  0
LINE
  5
150A
100
AcDbEntity
  8
0
  6
CONTINUOUS
 62
           7
100
AcDbLine
 10
76.3690785734
 20
23.1319801529
 30
0.0
 11
76.3846240049
 21
23.1354829169
 31
0.0
1001
ACAD
1000
RTMaterial
1005
185D
  0
LINE
  5
150B
100
AcDbEntity
  8
0
  6
CONTINUOUS
 62
           7
100
AcDbLine
 10
76.3551854407
 20
23.12892765
 30
0.0
 11
76.3720256197
 21
23.1326371122
 31
0.0
1001
ACAD
1000
RTMaterial
1005
185D
  0
LINE
  5
150C
100
AcDbEntity
  8
0
  6
CONTINUOUS
 62
           7
100
AcDbLine
 10
76.3402126234
 20
23.1257200633
 30
0.0
 11
76.3585543219
 21
23.1296610941
 31
0.0
1001
ACAD
1000
RTMaterial
1005
185D
  0
LINE
  5
150D
100
AcDbEntity
  8
0
  6
CONTINUOUS
 62
           7
100
AcDbLine
 10
76.3241894192
 20
23.1223815422
 30
0.0
 11
76.3440300271
 21
23.126529772
 31
0.0
1001
ACAD
1000
RTMaterial
1005
185D
  0
LINE
  5
150E
100
AcDbEntity
  8
0
  6
CONTINUOUS
 62
           7
100
AcDbLine
 10
76.3119061808
 20
23.1198878783
 30
0.0
 11
76.3284752656
 21
23.1232650073
 31
0.0
1001
ACAD
1000
RTMaterial
1005
185D
  0
LINE
  5
150F
100
AcDbEntity
  8
0
  6
CONTINUOUS
 62
           7
100
AcDbLine
 10
76.298182883
 20
23.1171689621
 30
0.0
 11
76.3157893158
 21
23.1206700679
 31
0.0
1001
ACAD
1000
RTMaterial
1005
185D
  0
LINE
  5
1510
100
AcDbEntity
  8
0
  6
CONTINUOUS
 62
           7
100
AcDbLine
 10
76.2850841621
 20
23.114639611
 30
0.0
 11
76.3032303453
 21
23.1181607716
 31
0.0
1001
ACAD
1000
RTMaterial
1005
185D
  0
LINE
  5
1511
100
AcDbEntity
  8
0
  6
CONTINUOUS
 62
           7
100
AcDbLine
 10
76.2697199406
 20
23.1117543533
 30
0.0
 11
76.2889690355
 21
23.1153830771
 31
0.0
1001
ACAD
1000
RTMaterial
1005
185D
  0
LINE
  5
1512
100
AcDbEntity
  8
0
  6
CONTINUOUS
 62
           7
100
AcDbLine
 10
76.2558755798
 20
23.1092296676
 30
0.0
 11
76.2756137113
 21
23.1128507709
 31
0.0
1001
ACAD
1000
RTMaterial
1005
185D
  0
LINE
  5
1513
100
AcDbEntity
  8
0
  6
CONTINUOUS
 62
           7
100
AcDbLine
 10
76.2388861744
 20
23.1062282304
 30
0.0
 11
76.2596836665
 21
23.109917022
 31
0.0
1001
ACAD
1000
RTMaterial
1005
185D
  0
LINE
  5
1514
100
AcDbEntity
  8
0
  6
CONTINUOUS
 62
           7
100
AcDbLine
 10
76.2246386208
 20
23.1037928636
 30
0.0
 11
76.2456462229
 21
23.1074097594
 31
0.0
1001
ACAD
1000
RTMaterial
1005
185D
  0
LWPOLYLINE
  5
1515
100
AcDbEntity
  8
0
  6
CONTINUOUS
 62
           7
100
AcDbPolyline
 90
        4
 70
           0
 10
41.5808611275
 20
21.7345440621
 10
41.6564376479
 20
21.7174317005
 10
41.7285917931
 20
21.7068131346
 10
41.7964601414
 20
21.7018765381
1001
ACAD
1000
RTMaterial
1005
185D
  0
LINE
  5
1516
100
AcDbEntity
  8
0
  6
CONTINUOUS
 62
           7
100
AcDbLine
 10
41.5093623946
 20
21.7566286162
 30
0.0
 11
41.5808611275
 21
21.7345440621
 31
0.0
1001
ACAD
1000
RTMaterial
1005
185D
  0
LWPOLYLINE
  5
1517
100
AcDbEntity
  8
0
  6
CONTINUOUS
 62
           7
100
AcDbPolyline
 90
        6
 70
           0
 10
40.1958778903
 20
23.373962168
 10
40.2443699956
 20
23.3571203074
 10
40.2962752079
 20
23.331978381
 10
40.3480144963
 20
23.2981673806
 10
40.3964321757
 20
23.2562757535
 10
40.4397339476
 20
23.2067980369
1001
ACAD
1000
RTMaterial
1005
185D
  0
LINE
  5
1518
100
AcDbEntity
  8
0
  6
CONTINUOUS
 62
           7
100
AcDbLine
 10
41.5098366467
 20
21.7564628261
 30
0.0
 11
41.5093414193
 21
21.7566359816
 31
0.0
1001
ACAD
1000
RTMaterial
1005
185D
  0
LINE
  5
1519
100
AcDbEntity
  8
0
  6
CONTINUOUS
 62
           7
100
AcDbLine
 10
41.4910129828
 20
21.7637424436
 30
0.0
 11
41.5098798763
 21
21.7564826481
 31
0.0
1001
ACAD
1000
RTMaterial
1005
185D
  0
LINE
  5
151A
100
AcDbEntity
  8
0
  6
CONTINUOUS
 62
           7
100
AcDbLine
 10
39.3245138854
 20
22.8497815254
 30
0.0
 11
39.3035895261
 21
22.8586539461
 31
0.0
1001
ACAD
1000
RTMaterial
1005
185D
  0
LINE
  5
151B
100
AcDbEntity
  8
0
  6
CONTINUOUS
 62
           7
100
AcDbLine
 10
41.4556719075
 20
21.779866686
 30
0.0
 11
41.4910129828
 21
21.7637424436
 31
0.0
1001
ACAD
1000
RTMaterial
1005
185D
  0
LINE
  5
151C
100
AcDbEntity
  8
0
  6
CONTINUOUS
 62
           7
100
AcDbLine
 10
76.2062994426
 20
23.1007670256
 30
0.0
 11
76.2282113433
 21
23.1043966145
 31
0.0
1001
ACAD
1000
RTMaterial
1005
185D
  0
LINE
  5
151D
100
AcDbEntity
  8
0
  6
CONTINUOUS
 62
           7
100
AcDbLine
 10
76.1916782628
 20
23.0984416684
 30
0.0
 11
76.2138507047
 21
23.1019981112
 31
0.0
1001
ACAD
1000
RTMaterial
1005
185D
  0
LINE
  5
151E
100
AcDbEntity
  8
0
  6
CONTINUOUS
 62
           7
100
AcDbLine
 10
76.1720895908
 20
23.0954465749
 30
0.0
 11
76.1950501896
 21
23.09897116
 31
0.0
1001
ACAD
1000
RTMaterial
1005
185D
  0
LINE
  5
151F
100
AcDbEntity
  8
0
  6
CONTINUOUS
 62
           7
100
AcDbLine
 10
76.157736287
 20
23.0933382598
 30
0.0
 11
76.1803170026
 21
23.0966878625
 31
0.0
1001
ACAD
1000
RTMaterial
1005
185D
  0
LINE
  5
1520
100
AcDbEntity
  8
0
  6
CONTINUOUS
 62
           7
100
AcDbLine
 10
76.1379764455
 20
23.0905531204
 30
0.0
 11
76.1606548095
 21
23.0937610801
 31
0.0
1001
ACAD
1000
RTMaterial
1005
185D
  0
LINE
  5
1521
100
AcDbEntity
  8
0
  6
CONTINUOUS
 62
           7
100
AcDbLine
 10
76.1243047882
 20
23.0887044749
 30
0.0
 11
76.1465413537
 21
23.0917438063
 31
0.0
1001
ACAD
1000
RTMaterial
1005
185D
  0
LINE
  5
1522
100
AcDbEntity
  8
0
  6
CONTINUOUS
 62
           7
100
AcDbLine
 10
76.1043144051
 20
23.0861145716
 30
0.0
 11
76.126717321
 21
23.0890260648
 31
0.0
1001
ACAD
1000
RTMaterial
1005
185D
  0
LINE
  5
1523
100
AcDbEntity
  8
0
  6
CONTINUOUS
 62
           7
100
AcDbLine
 10
76.0911662335
 20
23.0844832431
 30
0.0
 11
76.1132479725
 21
23.087255509
 31
0.0
1001
ACAD
1000
RTMaterial
1005
185D
  0
LINE
  5
1524
100
AcDbEntity
  8
0
  6
CONTINUOUS
 62
           7
100
AcDbLine
 10
76.0690126049
 20
23.0818616138
 30
0.0
 11
76.0931305233
 21
23.084723375
 31
0.0
1001
ACAD
1000
RTMaterial
1005
185D
  0
LINE
  5
1525
100
AcDbEntity
  8
0
  6
CONTINUOUS
 62
           7
100
AcDbLine
 10
76.0480934753
 20
23.079529606
 30
0.0
 11
76.0707065447
 21
23.0820565329
 31
0.0
1001
ACAD
1000
RTMaterial
1005
185D
  0
LINE
  5
1526
100
AcDbEntity
  8
0
  6
CONTINUOUS
 62
           7
100
AcDbLine
 10
76.0354178335
 20
23.0781830684
 30
0.0
 11
76.057868167
 21
23.0806021135
 31
0.0
1001
ACAD
1000
RTMaterial
1005
185D
  0
LINE
  5
1527
100
AcDbEntity
  8
0
  6
CONTINUOUS
 62
           7
100
AcDbLine
 10
76.0128039499
 20
23.0759025599
 30
0.0
 11
76.0367027
 21
23.0783172669
 31
0.0
1001
ACAD
1000
RTMaterial
1005
185D
  0
LINE
  5
1528
100
AcDbEntity
  8
0
  6
CONTINUOUS
 62
           7
100
AcDbLine
 10
75.9896463732
 20
23.0737250403
 30
0.0
 11
76.0137671062
 21
23.0759964999
 31
0.0
1001
ACAD
1000
RTMaterial
1005
185D
  0
LINE
  5
1529
100
AcDbEntity
  8
0
  6
CONTINUOUS
 62
           7
100
AcDbLine
 10
75.9629061807
 20
23.071409643
 30
0.0
 11
75.9903537271
 21
23.0737892729
 31
0.0
1001
ACAD
1000
RTMaterial
1005
185D
  0
LINE
  5
152A
100
AcDbEntity
  8
0
  6
CONTINUOUS
 62
           7
100
AcDbLine
 10
75.9479019225
 20
23.0702064334
 30
0.0
 11
75.9634030808
 21
23.0714507137
 31
0.0
1001
ACAD
1000
RTMaterial
1005
185D
  0
LINE
  5
152B
100
AcDbEntity
  8
0
  6
CONTINUOUS
 62
           7
100
AcDbLine
 10
73.9956724788
 20
22.9070805257
 30
0.0
 11
73.9260244307
 21
22.9016313944
 31
0.0
1001
ACAD
1000
RTMaterial
1005
185D
  0
LWPOLYLINE
  5
152C
100
AcDbEntity
  8
0
  6
CONTINUOUS
 62
           7
100
AcDbPolyline
 90
        4
 70
           0
 10
72.4902760549
 20
21.7018765371
 10
72.558144404
 20
21.7068131318
 10
72.6302985508
 20
21.717431696
 10
72.7058750738
 20
21.7345440564
1001
ACAD
1000
RTMaterial
1005
185D
  0
LINE
  5
152D
100
AcDbEntity
  8
0
  6
CONTINUOUS
 62
           7
100
AcDbLine
 10
75.8851141509
 20
23.0656506135
 30
0.0
 11
75.9482135876
 21
23.0702307215
 31
0.0
1001
ACAD
1000
RTMaterial
1005
185D
  0
LINE
  5
152E
100
AcDbEntity
  8
0
  6
CONTINUOUS
 62
           7
100
AcDbLine
 10
75.5710109263
 20
23.0454493334
 30
0.0
 11
75.6435511123
 21
23.0504563872
 31
0.0
1001
ACAD
1000
RTMaterial
1005
185D
  0
LWPOLYLINE
  5
152F
100
AcDbEntity
  8
0
  6
CONTINUOUS
 62
           7
100
AcDbPolyline
 90
        3
 70
           0
 10
75.5629293608
 20
23.0448990205
 10
75.565630146
 20
23.0450827554
 10
75.5710109263
 20
23.0454493334
1001
ACAD
1000
RTMaterial
1005
185D
  0
LINE
  5
1530
100
AcDbEntity
  8
0
  6
CONTINUOUS
 62
           7
100
AcDbLine
 10
75.5575086172
 20
23.0445307773
 30
0.0
 11
75.5629293608
 21
23.0448990205
 31
0.0
1001
ACAD
1000
RTMaterial
1005
185D
  0
LWPOLYLINE
  5
1531
100
AcDbEntity
  8
0
  6
CONTINUOUS
 62
           7
100
AcDbPolyline
 90
        3
 70
           0
 10
75.5493285512
 20
23.0439764345
 10
75.5520618353
 20
23.0441614816
 10
75.5575086172
 20
23.0445307773
1001
ACAD
1000
RTMaterial
1005
185D
  0
LINE
  5
1532
100
AcDbEntity
  8
0
  6
CONTINUOUS
 62
           7
100
AcDbLine
 10
75.6943818687
 20
23.0524750709
 30
0.0
 11
75.9056076818
 21
23.0671048936
 31
0.0
1001
ACAD
1000
RTMaterial
1005
185D
  0
LWPOLYLINE
  5
1533
100
AcDbEntity
  8
0
  6
CONTINUOUS
 62
           7
100
AcDbPolyline
 90
        3
 70
           0
 10
75.5410887557
 20
23.0434196902
 10
75.5438420316
 20
23.0436055385
 10
75.5493285512
 20
23.0439764345
1001
ACAD
1000
RTMaterial
1005
185D
  0
LINE
  5
1534
100
AcDbEntity
  8
0
  6
CONTINUOUS
 62
           7
100
AcDbLine
 10
75.5355621233
 20
23.0430471981
 30
0.0
 11
75.5410887557
 21
23.0434196902
 31
0.0
1001
ACAD
1000
RTMaterial
1005
185D
  0
LWPOLYLINE
  5
1535
100
AcDbEntity
  8
0
  6
CONTINUOUS
 62
           7
100
AcDbPolyline
 90
        3
 70
           0
 10
75.5272219961
 20
23.042486497
 10
75.5300087193
 20
23.0426736562
 10
75.5355621233
 20
23.0430471981
1001
ACAD
1000
RTMaterial
1005
185D
  0
LINE
  5
1536
100
AcDbEntity
  8
0
  6
CONTINUOUS
 62
           7
100
AcDbLine
 10
72.455855868
 20
21.7011681176
 30
0.0
 11
72.4902760549
 21
21.7018765371
 31
0.0
1001
ACAD
1000
RTMaterial
1005
185D
  0
LINE
  5
1537
100
AcDbEntity
  8
0
  6
CONTINUOUS
 62
           7
100
AcDbLine
 10
41.7964601414
 20
21.7018765381
 30
0.0
 11
41.8308806686
 21
21.7011681164
 31
0.0
1001
ACAD
1000
RTMaterial
1005
185D
  0
LINE
  5
1538
100
AcDbEntity
  8
0
  6
CONTINUOUS
 62
           7
100
AcDbLine
 10
39.5526677906
 20
22.815702924
 30
0.0
 11
39.3245135472
 21
22.8497820388
 31
0.0
1001
ACAD
1000
RTMaterial
1005
185D
  0
LINE
  5
1539
100
AcDbEntity
  8
0
  6
CONTINUOUS
 62
           7
100
AcDbLine
 10
40.1549546141
 20
23.3836946425
 30
0.0
 11
40.1958778903
 21
23.373962168
 31
0.0
1001
ACAD
1000
RTMaterial
1005
185D
  0
LWPOLYLINE
  5
153A
100
AcDbEntity
  8
0
  6
CONTINUOUS
 62
           7
100
AcDbPolyline
 90
        5
 70
           0
 10
75.5131887994
 20
23.041546925
 10
75.5160086487
 20
23.041735333
 10
75.5188219154
 20
23.0419234972
 10
75.5216285761
 20
23.0421114147
 10
75.5272219961
 20
23.042486497
1001
ACAD
1000
RTMaterial
1005
185D
  0
LINE
  5
153B
100
AcDbEntity
  8
0
  6
CONTINUOUS
 62
           7
100
AcDbLine
 10
75.5075294531
 20
23.0411693913
 30
0.0
 11
75.5131887994
 21
23.041546925
 31
0.0
1001
ACAD
1000
RTMaterial
1005
185D
  0
LWPOLYLINE
  5
153C
100
AcDbEntity
  8
0
  6
CONTINUOUS
 62
           7
100
AcDbPolyline
 90
        3
 70
           0
 10
75.4989917164
 20
23.0406013469
 10
75.5018440873
 20
23.040790923
 10
75.5075294531
 20
23.0411693913
1001
ACAD
1000
RTMaterial
1005
185D
  0
LINE
  5
153D
100
AcDbEntity
  8
0
  6
CONTINUOUS
 62
           7
100
AcDbLine
 10
75.4932677405
 20
23.0402215282
 30
0.0
 11
75.4989917164
 21
23.0406013469
 31
0.0
1001
ACAD
1000
RTMaterial
1005
185D
  0
LWPOLYLINE
  5
153E
100
AcDbEntity
  8
0
  6
CONTINUOUS
 62
           7
100
AcDbPolyline
 90
        3
 70
           0
 10
75.484634129
 20
23.0396501865
 10
75.4875183102
 20
23.039840844
 10
75.4932677405
 20
23.0402215282
1001
ACAD
1000
RTMaterial
1005
185D
  0
LINE
  5
153F
100
AcDbEntity
  8
0
  6
CONTINUOUS
 62
           7
100
AcDbLine
 10
75.4788461668
 20
23.0392682044
 30
0.0
 11
75.484634129
 21
23.0396501865
 31
0.0
1001
ACAD
1000
RTMaterial
1005
185D
  0
LINE
  5
1540
100
AcDbEntity
  8
0
  6
CONTINUOUS
 62
           7
100
AcDbLine
 10
75.473026787
 20
23.0388849959
 30
0.0
 11
75.4788461668
 21
23.0392682044
 31
0.0
1001
ACAD
1000
RTMaterial
1005
185D
  0
LWPOLYLINE
  5
1541
100
AcDbEntity
  8
0
  6
CONTINUOUS
 62
           7
100
AcDbPolyline
 90
        3
 70
           0
 10
75.4642239631
 20
23.0383069439
 10
75.4671691905
 20
23.0385001301
 10
75.473026787
 20
23.0388849959
1001
ACAD
1000
RTMaterial
1005
185D
  0
LINE
  5
1542
100
AcDbEntity
  8
0
  6
CONTINUOUS
 62
           7
100
AcDbLine
 10
75.4582965023
 20
23.0379188066
 30
0.0
 11
75.4642239631
 21
23.0383069439
 31
0.0
1001
ACAD
1000
RTMaterial
1005
185D
  0
LINE
  5
1543
100
AcDbEntity
  8
0
  6
CONTINUOUS
 62
           7
100
AcDbLine
 10
75.4523142272
 20
23.0375279785
 30
0.0
 11
75.4582965023
 21
23.0379188066
 31
0.0
1001
ACAD
1000
RTMaterial
1005
185D
  0
LWPOLYLINE
  5
1544
100
AcDbEntity
  8
0
  6
CONTINUOUS
 62
           7
100
AcDbPolyline
 90
        3
 70
           0
 10
75.4432238243
 20
23.0369358244
 10
75.4462706323
 20
23.0371340624
 10
75.4523142272
 20
23.0375279785
1001
ACAD
1000
RTMaterial
1005
185D
  0
LINE
  5
1545
100
AcDbEntity
  8
0
  6
CONTINUOUS
 62
           7
100
AcDbLine
 10
75.4370761873
 20
23.0365365492
 30
0.0
 11
75.4432238243
 21
23.0369358244
 31
0.0
1001
ACAD
1000
RTMaterial
1005
185D
  0
LINE
  5
1546
100
AcDbEntity
  8
0
  6
CONTINUOUS
 62
           7
100
AcDbLine
 10
75.4308512247
 20
23.0361332281
 30
0.0
 11
75.4370761873
 21
23.0365365492
 31
0.0
1001
ACAD
1000
RTMaterial
1005
185D
  0
LINE
  5
1547
100
AcDbEntity
  8
0
  6
CONTINUOUS
 62
           7
100
AcDbLine
 10
75.4245426173
 20
23.0357254911
 30
0.0
 11
75.4308512247
 21
23.0361332281
 31
0.0
1001
ACAD
1000
RTMaterial
1005
185D
  0
LINE
  5
1548
100
AcDbEntity
  8
0
  6
CONTINUOUS
 62
           7
100
AcDbLine
 10
75.4181440826
 20
23.0353129753
 30
0.0
 11
75.4245426173
 21
23.0357254911
 31
0.0
1001
ACAD
1000
RTMaterial
1005
185D
  0
LWPOLYLINE
  5
1549
100
AcDbEntity
  8
0
  6
CONTINUOUS
 62
           7
100
AcDbPolyline
 90
        3
 70
           0
 10
75.4083639455
 20
23.0346844603
 10
75.411649368
 20
23.0348953243
 10
75.4181440826
 20
23.0353129753
1001
ACAD
1000
RTMaterial
1005
185D
  0
LINE
  5
154A
100
AcDbEntity
  8
0
  6
CONTINUOUS
 62
           7
100
AcDbLine
 10
75.4017032902
 20
23.0342578127
 30
0.0
 11
75.4083639455
 21
23.0346844603
 31
0.0
1001
ACAD
1000
RTMaterial
1005
185D
  0
LINE
  5
154B
100
AcDbEntity
  8
0
  6
CONTINUOUS
 62
           7
100
AcDbLine
 10
75.3948896574
 20
23.0338225381
 30
0.0
 11
75.4017032902
 21
23.0342578127
 31
0.0
1001
ACAD
1000
RTMaterial
1005
185D
  0
LINE
  5
154C
100
AcDbEntity
  8
0
  6
CONTINUOUS
 62
           7
100
AcDbLine
 10
75.3878829982
 20
23.0333761698
 30
0.0
 11
75.3948896574
 21
23.0338225381
 31
0.0
1001
ACAD
1000
RTMaterial
1005
185D
  0
LINE
  5
154D
100
AcDbEntity
  8
0
  6
CONTINUOUS
 62
           7
100
AcDbLine
 10
75.3769362475
 20
23.0326813078
 30
0.0
 11
75.3878829982
 21
23.0333761698
 31
0.0
1001
ACAD
1000
RTMaterial
1005
185D
  0
LINE
  5
154E
100
AcDbEntity
  8
0
  6
CONTINUOUS
 62
           7
100
AcDbLine
 10
75.3693612926
 20
23.0322022737
 30
0.0
 11
75.3769362475
 21
23.0326813078
 31
0.0
1001
ACAD
1000
RTMaterial
1005
185D
  0
LINE
  5
154F
100
AcDbEntity
  8
0
  6
CONTINUOUS
 62
           7
100
AcDbLine
 10
75.3616078482
 20
23.031713477
 30
0.0
 11
75.3693612926
 21
23.0322022737
 31
0.0
1001
ACAD
1000
RTMaterial
1005
185D
  0
LINE
  5
1550
100
AcDbEntity
  8
0
  6
CONTINUOUS
 62
           7
100
AcDbLine
 10
75.3497251683
 20
23.0309673608
 30
0.0
 11
75.3616078482
 21
23.031713477
 31
0.0
1001
ACAD
1000
RTMaterial
1005
185D
  0
LINE
  5
1551
100
AcDbEntity
  8
0
  6
CONTINUOUS
 62
           7
100
AcDbLine
 10
75.45653764
 20
23.0371241189
 30
0.0
 11
75.6943818687
 21
23.0524750709
 31
0.0
1001
ACAD
1000
RTMaterial
1005
185D
  0
LINE
  5
1552
100
AcDbEntity
  8
0
  6
CONTINUOUS
 62
           7
100
AcDbLine
 10
75.3416889406
 20
23.0304648236
 30
0.0
 11
75.3497251683
 21
23.0309673608
 31
0.0
1001
ACAD
1000
RTMaterial
1005
185D
  0
LINE
  5
1553
100
AcDbEntity
  8
0
  6
CONTINUOUS
 62
           7
100
AcDbLine
 10
75.3336038446
 20
23.0299609095
 30
0.0
 11
75.3416889406
 21
23.0304648236
 31
0.0
1001
ACAD
1000
RTMaterial
1005
185D
  0
LINE
  5
1554
100
AcDbEntity
  8
0
  6
CONTINUOUS
 62
           7
100
AcDbLine
 10
75.3214437146
 20
23.0292061889
 30
0.0
 11
75.3336038446
 21
23.0299609095
 31
0.0
1001
ACAD
1000
RTMaterial
1005
185D
  0
LINE
  5
1555
100
AcDbEntity
  8
0
  6
CONTINUOUS
 62
           7
100
AcDbLine
 10
75.3133206864
 20
23.0287041593
 30
0.0
 11
75.3214437146
 21
23.0292061889
 31
0.0
1001
ACAD
1000
RTMaterial
1005
185D
  0
LINE
  5
1556
100
AcDbEntity
  8
0
  6
CONTINUOUS
 62
           7
100
AcDbLine
 10
75.3011100994
 20
23.0279527153
 30
0.0
 11
75.3133206864
 21
23.0287041593
 31
0.0
1001
ACAD
1000
RTMaterial
1005
185D
  0
LINE
  5
1557
100
AcDbEntity
  8
0
  6
CONTINUOUS
 62
           7
100
AcDbLine
 10
75.1936871934
 20
23.0215087674
 30
0.0
 11
75.45653764
 21
23.0371241189
 31
0.0
1001
ACAD
1000
RTMaterial
1005
185D
  0
LINE
  5
1558
100
AcDbEntity
  8
0
  6
CONTINUOUS
 62
           7
100
AcDbLine
 10
75.1810760462
 20
23.0207720034
 30
0.0
 11
75.1936871934
 21
23.0215087674
 31
0.0
1001
ACAD
1000
RTMaterial
1005
185D
  0
LINE
  5
1559
100
AcDbEntity
  8
0
  6
CONTINUOUS
 62
           7
100
AcDbLine
 10
75.1726404283
 20
23.0202815036
 30
0.0
 11
75.1810760462
 21
23.0207720034
 31
0.0
1001
ACAD
1000
RTMaterial
1005
185D
  0
LINE
  5
155A
100
AcDbEntity
  8
0
  6
CONTINUOUS
 62
           7
100
AcDbLine
 10
75.1599434885
 20
23.0195467369
 30
0.0
 11
75.1726404283
 21
23.0202815036
 31
0.0
1001
ACAD
1000
RTMaterial
1005
185D
  0
LINE
  5
155B
100
AcDbEntity
  8
0
  6
CONTINUOUS
 62
           7
100
AcDbLine
 10
75.1471928686
 20
23.0188131156
 30
0.0
 11
75.1599434885
 21
23.0195467369
 31
0.0
1001
ACAD
1000
RTMaterial
1005
185D
  0
LINE
  5
155C
100
AcDbEntity
  8
0
  6
CONTINUOUS
 62
           7
100
AcDbLine
 10
75.1386618265
 20
23.0183246532
 30
0.0
 11
75.1471928686
 21
23.0188131156
 31
0.0
1001
ACAD
1000
RTMaterial
1005
185D
  0
LINE
  5
155D
100
AcDbEntity
  8
0
  6
CONTINUOUS
 62
           7
100
AcDbLine
 10
75.1258181203
 20
23.0175928629
 30
0.0
 11
75.1386618265
 21
23.0183246532
 31
0.0
1001
ACAD
1000
RTMaterial
1005
185D
  0
LINE
  5
155E
100
AcDbEntity
  8
0
  6
CONTINUOUS
 62
           7
100
AcDbLine
 10
75.1129164128
 20
23.0168621299
 30
0.0
 11
75.1258181203
 21
23.0175928629
 31
0.0
1001
ACAD
1000
RTMaterial
1005
185D
  0
LINE
  5
155F
100
AcDbEntity
  8
0
  6
CONTINUOUS
 62
           7
100
AcDbLine
 10
75.0999551059
 20
23.0161324266
 30
0.0
 11
75.1129164128
 21
23.0168621299
 31
0.0
1001
ACAD
1000
RTMaterial
1005
185D
  0
LINE
  5
1560
100
AcDbEntity
  8
0
  6
CONTINUOUS
 62
           7
100
AcDbLine
 10
75.0869326101
 20
23.0154037288
 30
0.0
 11
75.0999551059
 21
23.0161324266
 31
0.0
1001
ACAD
1000
RTMaterial
1005
185D
  0
LINE
  5
1561
100
AcDbEntity
  8
0
  6
CONTINUOUS
 62
           7
100
AcDbLine
 10
75.0738473431
 20
23.0146760146
 30
0.0
 11
75.0869326101
 21
23.0154037288
 31
0.0
1001
ACAD
1000
RTMaterial
1005
185D
  0
LINE
  5
1562
100
AcDbEntity
  8
0
  6
CONTINUOUS
 62
           7
100
AcDbLine
 10
75.0606977279
 20
23.0139492652
 30
0.0
 11
75.0738473431
 21
23.0146760146
 31
0.0
1001
ACAD
1000
RTMaterial
1005
185D
  0
LINE
  5
1563
100
AcDbEntity
  8
0
  6
CONTINUOUS
 62
           7
100
AcDbLine
 10
75.0474821913
 20
23.0132234644
 30
0.0
 11
75.0606977279
 21
23.0139492652
 31
0.0
1001
ACAD
1000
RTMaterial
1005
185D
  0
LINE
  5
1564
100
AcDbEntity
  8
0
  6
CONTINUOUS
 62
           7
100
AcDbLine
 10
75.0341991622
 20
23.0124985987
 30
0.0
 11
75.0474821913
 21
23.0132234644
 31
0.0
1001
ACAD
1000
RTMaterial
1005
185D
  0
LINE
  5
1565
100
AcDbEntity
  8
0
  6
CONTINUOUS
 62
           7
100
AcDbLine
 10
75.0208470704
 20
23.0117746571
 30
0.0
 11
75.0341991622
 21
23.0124985987
 31
0.0
1001
ACAD
1000
RTMaterial
1005
185D
  0
LINE
  5
1566
100
AcDbEntity
  8
0
  6
CONTINUOUS
 62
           7
100
AcDbLine
 10
75.0074243451
 20
23.0110516312
 30
0.0
 11
75.0208470704
 21
23.0117746571
 31
0.0
1001
ACAD
1000
RTMaterial
1005
185D
  0
LINE
  5
1567
100
AcDbEntity
  8
0
  6
CONTINUOUS
 62
           7
100
AcDbLine
 10
74.9939294135
 20
23.0103295151
 30
0.0
 11
75.0074243451
 21
23.0110516312
 31
0.0
1001
ACAD
1000
RTMaterial
1005
185D
  0
LINE
  5
1568
100
AcDbEntity
  8
0
  6
CONTINUOUS
 62
           7
100
AcDbLine
 10
74.9803606999
 20
23.0096083053
 30
0.0
 11
74.9939294135
 21
23.0103295151
 31
0.0
1001
ACAD
1000
RTMaterial
1005
185D
  0
LINE
  5
1569
100
AcDbEntity
  8
0
  6
CONTINUOUS
 62
           7
100
AcDbLine
 10
74.9667166241
 20
23.0088880008
 30
0.0
 11
74.9803606999
 21
23.0096083053
 31
0.0
1001
ACAD
1000
RTMaterial
1005
185D
  0
LINE
  5
156A
100
AcDbEntity
  8
0
  6
CONTINUOUS
 62
           7
100
AcDbLine
 10
74.9529956004
 20
23.0081686032
 30
0.0
 11
74.9667166241
 21
23.0088880008
 31
0.0
1001
ACAD
1000
RTMaterial
1005
185D
  0
LINE
  5
156B
100
AcDbEntity
  8
0
  6
CONTINUOUS
 62
           7
100
AcDbLine
 10
73.9260244307
 20
22.9016313944
 30
0.0
 11
73.8384057902
 21
22.8971031521
 31
0.0
1001
ACAD
1000
RTMaterial
1005
185D
  0
LINE
  5
156C
100
AcDbEntity
  8
0
  6
CONTINUOUS
 62
           7
100
AcDbLine
 10
74.9345784521
 20
23.0072108241
 30
0.0
 11
74.9529956004
 21
23.0081686032
 31
0.0
1001
ACAD
1000
RTMaterial
1005
185D
  0
LINE
  5
156D
100
AcDbEntity
  8
0
  6
CONTINUOUS
 62
           7
100
AcDbLine
 10
74.9206716774
 20
23.0064935617
 30
0.0
 11
74.9345784521
 21
23.0072108241
 31
0.0
1001
ACAD
1000
RTMaterial
1005
185D
  0
LINE
  5
156E
100
AcDbEntity
  8
0
  6
CONTINUOUS
 62
           7
100
AcDbLine
 10
74.9020010278
 20
23.0055386592
 30
0.0
 11
74.9206716774
 21
23.0064935617
 31
0.0
1001
ACAD
1000
RTMaterial
1005
185D
  0
LINE
  5
156F
100
AcDbEntity
  8
0
  6
CONTINUOUS
 62
           7
100
AcDbLine
 10
74.8878650003
 20
23.0048218296
 30
0.0
 11
74.9020010278
 21
23.0055386592
 31
0.0
1001
ACAD
1000
RTMaterial
1005
185D
  0
LINE
  5
1570
100
AcDbEntity
  8
0
  6
CONTINUOUS
 62
           7
100
AcDbLine
 10
74.8685235541
 20
23.0038496302
 30
0.0
 11
74.8878650003
 21
23.0048218296
 31
0.0
1001
ACAD
1000
RTMaterial
1005
185D
  0
LINE
  5
1571
100
AcDbEntity
  8
0
  6
CONTINUOUS
 62
           7
100
AcDbLine
 10
74.8481667112
 20
23.0028371237
 30
0.0
 11
74.8685235541
 21
23.0038496302
 31
0.0
1001
ACAD
1000
RTMaterial
1005
185D
  0
LINE
  5
1572
100
AcDbEntity
  8
0
  6
CONTINUOUS
 62
           7
100
AcDbLine
 10
74.80917711
 20
23.0009286158
 30
0.0
 11
74.8481667112
 21
23.0028371237
 31
0.0
1001
ACAD
1000
RTMaterial
1005
185D
  0
LINE
  5
1573
100
AcDbEntity
  8
0
  6
CONTINUOUS
 62
           7
100
AcDbLine
 10
74.6421424095
 20
22.9932107026
 30
0.0
 11
74.80917711
 21
23.0009286158
 31
0.0
1001
ACAD
1000
RTMaterial
1005
185D
  0
LINE
  5
1574
100
AcDbEntity
  8
0
  6
CONTINUOUS
 62
           7
100
AcDbLine
 10
74.4748922618
 20
22.9862294535
 30
0.0
 11
74.654122351
 21
22.9937394651
 31
0.0
1001
ACAD
1000
RTMaterial
1005
185D
  0
LINE
  5
1575
100
AcDbEntity
  8
0
  6
CONTINUOUS
 62
           7
100
AcDbLine
 10
74.3091327381
 20
22.9800497079
 30
0.0
 11
74.480143546
 21
22.9864372656
 31
0.0
1001
ACAD
1000
RTMaterial
1005
185D
  0
LINE
  5
1576
100
AcDbEntity
  8
0
  6
CONTINUOUS
 62
           7
100
AcDbLine
 10
74.1445932189
 20
22.9746449077
 30
0.0
 11
74.3101927189
 21
22.9800868838
 31
0.0
1001
ACAD
1000
RTMaterial
1005
185D
  0
LINE
  5
1577
100
AcDbEntity
  8
0
  6
CONTINUOUS
 62
           7
100
AcDbLine
 10
73.9745048583
 20
22.969823091
 30
0.0
 11
74.1459803269
 21
22.9746874303
 31
0.0
1001
ACAD
1000
RTMaterial
1005
185D
  0
LINE
  5
1578
100
AcDbEntity
  8
0
  6
CONTINUOUS
 62
           7
100
AcDbLine
 10
73.912870052
 20
22.9682681488
 30
0.0
 11
73.9792719288
 21
22.969947626
 31
0.0
1001
ACAD
1000
RTMaterial
1005
185D
  0
LINE
  5
1579
100
AcDbEntity
  8
0
  6
CONTINUOUS
 62
           7
100
AcDbLine
 10
73.9117742639
 20
22.9682413326
 30
0.0
 11
73.9142330376
 21
22.968301335
 31
0.0
1001
ACAD
1000
RTMaterial
1005
185D
  0
LINE
  5
157A
100
AcDbEntity
  8
0
  6
CONTINUOUS
 62
           7
100
AcDbLine
 10
40.0399694733
 20
23.3955543574
 30
0.0
 11
40.1364370379
 21
23.3959148691
 31
0.0
1001
ACAD
1000
RTMaterial
1005
185D
  0
LINE
  5
157B
100
AcDbEntity
  8
0
  6
CONTINUOUS
 62
           7
100
AcDbLine
 10
40.0483711015
 20
23.4268833888
 30
0.0
 11
40.1534269353
 21
23.4271322593
 31
0.0
1001
ACAD
1000
RTMaterial
1005
185D
  0
LINE
  5
157C
100
AcDbEntity
  8
0
  6
CONTINUOUS
 62
           7
100
AcDbLine
 10
72.4558691634
 20
21.7010520631
 30
0.0
 11
41.8308671248
 21
21.7010520631
 31
0.0
1001
ACAD
1000
RTMaterial
1005
185D
  0
LINE
  5
157D
100
AcDbEntity
  8
0
  6
CONTINUOUS
 62
           7
100
AcDbLine
 10
73.439343148
 20
22.4573020631
 30
0.0
 11
74.2273147208
 21
22.4573020631
 31
0.0
1001
ACAD
1000
RTMaterial
1005
185D
  0
LINE
  5
157E
100
AcDbEntity
  8
0
  6
CONTINUOUS
 62
           7
100
AcDbLine
 10
40.1364370379
 20
23.3959148691
 30
0.0
 11
40.2868749712
 21
23.3952381259
 31
0.0
1001
ACAD
1000
RTMaterial
1005
185D
  0
LINE
  5
157F
100
AcDbEntity
  8
0
  6
CONTINUOUS
 62
           7
100
AcDbLine
 10
40.1534269353
 20
23.4271322593
 30
0.0
 11
40.3020053344
 21
23.4263778756
 31
0.0
1001
ACAD
1000
RTMaterial
1005
185D
  0
LWPOLYLINE
  5
1580
100
AcDbEntity
  8
0
  6
CONTINUOUS
 62
           7
100
AcDbPolyline
 90
        6
 70
           0
 10
72.0247789617
 20
22.9891138218
 10
72.7549545649
 20
22.9847681316
 10
73.0429922076
 20
22.9819094718
 10
73.3095634807
 20
22.9781883358
 10
73.5457412074
 20
22.9736845527
 10
73.7421810433
 20
22.9684604761
1001
ACAD
1000
RTMaterial
1005
185D
  0
LWPOLYLINE
  5
1581
100
AcDbEntity
  8
0
  6
CONTINUOUS
 62
           7
100
AcDbPolyline
 90
        6
 70
           0
 10
72.4564896232
 20
22.9553970543
 10
72.7962407524
 20
22.95318545
 10
73.1247520404
 20
22.9496533369
 10
73.419705794
 20
22.9450266631
 10
73.6701700754
 20
22.9393582665
 10
73.8596308677
 20
22.9328954115
1001
ACAD
1000
RTMaterial
1005
185D
  0
LINE
  5
1582
100
AcDbEntity
  8
0
  6
CONTINUOUS
 62
           7
100
AcDbLine
 10
40.3020053344
 20
23.4263778756
 30
0.0
 11
40.5288924281
 21
23.4242154409
 31
0.0
1001
ACAD
1000
RTMaterial
1005
185D
  0
LWPOLYLINE
  5
1583
100
AcDbEntity
  8
0
  6
CONTINUOUS
 62
           7
100
AcDbPolyline
 90
        5
 70
           0
 10
40.5288924281
 20
23.4242154409
 10
40.7118295101
 20
23.4220645305
 10
40.9656364951
 20
23.4186076574
 10
41.2448949323
 20
23.4145199181
 10
41.5400879058
 20
23.409921214
1001
ACAD
1000
RTMaterial
1005
185D
  0
LINE
  5
1584
100
AcDbEntity
  8
0
  6
CONTINUOUS
 62
           7
100
AcDbLine
 10
40.2868749712
 20
23.3952381259
 30
0.0
 11
40.528530333
 21
23.3929687447
 31
0.0
1001
ACAD
1000
RTMaterial
1005
185D
  0
LWPOLYLINE
  5
1585
100
AcDbEntity
  8
0
  6
CONTINUOUS
 62
           7
100
AcDbPolyline
 90
        4
 70
           0
 10
40.528530333
 20
23.3929687447
 10
40.7702580383
 20
23.3900472986
 10
41.0986382955
 20
23.3854421234
 10
41.4621175082
 20
23.3799097121
1001
ACAD
1000
RTMaterial
1005
185D
  0
LWPOLYLINE
  5
1586
100
AcDbEntity
  8
0
  6
CONTINUOUS
 62
           7
100
AcDbPolyline
 90
        6
 70
           0
 10
70.6817901434
 20
22.9720927442
 10
71.0335370336
 20
22.9676902791
 10
71.3878245331
 20
22.9635289591
 10
71.7443785484
 20
22.9600736104
 10
72.1012871633
 20
22.9573561414
 10
72.4564896232
 20
22.9553970543
1001
ACAD
1000
RTMaterial
1005
185D
  0
LWPOLYLINE
  5
1587
100
AcDbEntity
  8
0
  6
CONTINUOUS
 62
           7
100
AcDbPolyline
 90
        4
 70
           0
 10
70.6961482318
 20
23.0031509037
 10
71.1388298748
 20
22.9976250885
 10
71.5835220824
 20
22.9927783891
 10
72.0247789617
 20
22.9891138218
1001
ACAD
1000
RTMaterial
1005
185D
  0
LINE
  5
1588
100
AcDbEntity
  8
0
  6
CONTINUOUS
 62
           7
100
AcDbLine
 10
69.979649015
 20
22.9809721546
 30
0.0
 11
70.6817901434
 21
22.9720927442
 31
0.0
1001
ACAD
1000
RTMaterial
1005
185D
  0
LINE
  5
1589
100
AcDbEntity
  8
0
  6
CONTINUOUS
 62
           7
100
AcDbLine
 10
69.2549289127
 20
22.990253477
 30
0.0
 11
69.979649015
 21
22.9809721546
 31
0.0
1001
ACAD
1000
RTMaterial
1005
185D
  0
LINE
  5
158A
100
AcDbEntity
  8
0
  6
CONTINUOUS
 62
           7
100
AcDbLine
 10
69.3464705077
 20
23.0203145237
 30
0.0
 11
70.6961482318
 21
23.0031509037
 31
0.0
1001
ACAD
1000
RTMaterial
1005
185D
  0
LWPOLYLINE
  5
158B
100
AcDbEntity
  8
0
  6
CONTINUOUS
 62
           7
100
AcDbPolyline
 90
        3
 70
           0
 10
68.0327174958
 20
23.0061348001
 10
68.4569660369
 20
23.0005926516
 10
69.2549289127
 20
22.990253477
1001
ACAD
1000
RTMaterial
1005
185D
  0
LINE
  5
158C
100
AcDbEntity
  8
0
  6
CONTINUOUS
 62
           7
100
AcDbLine
 10
68.215576266
 20
23.0349826858
 30
0.0
 11
69.3464705077
 21
23.0203145237
 31
0.0
1001
ACAD
1000
RTMaterial
1005
185D
  0
LINE
  5
158D
100
AcDbEntity
  8
0
  6
CONTINUOUS
 62
           7
100
AcDbLine
 10
67.1189008179
 20
23.0181667702
 30
0.0
 11
68.0327174958
 21
23.0061348001
 31
0.0
1001
ACAD
1000
RTMaterial
1005
185D
  0
LWPOLYLINE
  5
158E
100
AcDbEntity
  8
0
  6
CONTINUOUS
 62
           7
100
AcDbPolyline
 90
        3
 70
           0
 10
65.4623088252
 20
23.0402603534
 10
66.048194199
 20
23.0324093907
 10
67.1189008179
 20
23.0181667702
1001
ACAD
1000
RTMaterial
1005
185D
  0
LINE
  5
158F
100
AcDbEntity
  8
0
  6
CONTINUOUS
 62
           7
100
AcDbLine
 10
66.0007524748
 20
23.0642854647
 30
0.0
 11
68.215576266
 21
23.0349826858
 31
0.0
1001
ACAD
1000
RTMaterial
1005
185D
  0
LINE
  5
1590
100
AcDbEntity
  8
0
  6
CONTINUOUS
 62
           7
100
AcDbLine
 10
64.1618159009
 20
23.0578112303
 30
0.0
 11
65.4623088252
 21
23.0402603534
 31
0.0
1001
ACAD
1000
RTMaterial
1005
185D
  0
LWPOLYLINE
  5
1591
100
AcDbEntity
  8
0
  6
CONTINUOUS
 62
           7
100
AcDbPolyline
 90
        3
 70
           0
 10
63.3901388899
 20
23.0995401839
 10
64.31905223
 20
23.0869237036
 10
66.0007524748
 20
23.0642854647
1001
ACAD
1000
RTMaterial
1005
185D
  0
LINE
  5
1592
100
AcDbEntity
  8
0
  6
CONTINUOUS
 62
           7
100
AcDbLine
 10
60.760559611
 20
23.1043562228
 30
0.0
 11
64.1618159009
 21
23.0578112303
 31
0.0
1001
ACAD
1000
RTMaterial
1005
185D
  0
LINE
  5
1593
100
AcDbEntity
  8
0
  6
CONTINUOUS
 62
           7
100
AcDbLine
 10
59.8559059116
 20
23.1481050788
 30
0.0
 11
63.3901388899
 21
23.0995401839
 31
0.0
1001
ACAD
1000
RTMaterial
1005
185D
  0
LWPOLYLINE
  5
1594
100
AcDbEntity
  8
0
  6
CONTINUOUS
 62
           7
100
AcDbPolyline
 90
        3
 70
           0
 10
52.1788115917
 20
23.2242755624
 10
54.0182827324
 20
23.1983759599
 10
60.760559611
 20
23.1043562228
1001
ACAD
1000
RTMaterial
1005
185D
  0
LWPOLYLINE
  5
1595
100
AcDbEntity
  8
0
  6
CONTINUOUS
 62
           7
100
AcDbPolyline
 90
        3
 70
           0
 10
52.3526398825
 20
23.2530739037
 10
53.3907561055
 20
23.2384514703
 10
59.8559059116
 20
23.1481050788
1001
ACAD
1000
RTMaterial
1005
185D
  0
LINE
  5
1596
100
AcDbEntity
  8
0
  6
CONTINUOUS
 62
           7
100
AcDbLine
 10
43.7078746751
 20
23.3441578945
 30
0.0
 11
52.1788115917
 21
23.2242755624
 31
0.0
1001
ACAD
1000
RTMaterial
1005
185D
  0
LINE
  5
1597
100
AcDbEntity
  8
0
  6
CONTINUOUS
 62
           7
100
AcDbLine
 10
42.989467261
 20
23.3549845513
 30
0.0
 11
43.7078746751
 21
23.3441578945
 31
0.0
1001
ACAD
1000
RTMaterial
1005
185D
  0
LINE
  5
1598
100
AcDbEntity
  8
0
  6
CONTINUOUS
 62
           7
100
AcDbLine
 10
38.3874788443
 20
23.3981876728
 30
0.0
 11
38.9140550748
 21
23.3898932843
 31
0.0
1001
ACAD
1000
RTMaterial
1005
185D
  0
LINE
  5
1599
100
AcDbEntity
  8
0
  6
CONTINUOUS
 62
           7
100
AcDbLine
 10
38.3880106808
 20
23.4294331468
 30
0.0
 11
38.9861403595
 21
23.4199766834
 31
0.0
1001
ACAD
1000
RTMaterial
1005
185D
  0
LWPOLYLINE
  5
159A
100
AcDbEntity
  8
0
  6
CONTINUOUS
 62
           7
100
AcDbPolyline
 90
        3
 70
           0
 10
41.4621175082
 20
23.3799097121
 10
42.2309611894
 20
23.3671513302
 10
42.989467261
 20
23.3549845513
1001
ACAD
1000
RTMaterial
1005
185D
  0
LWPOLYLINE
  5
159B
100
AcDbEntity
  8
0
  6
CONTINUOUS
 62
           7
100
AcDbPolyline
 90
        6
 70
           0
 10
41.5400879058
 20
23.409921214
 10
42.3827626165
 20
23.395911548
 10
42.8651718297
 20
23.3881810243
 10
43.3125521916
 20
23.3812785564
 10
43.7519805395
 20
23.3747692234
 10
52.3526398825
 20
23.2530739037
1001
ACAD
1000
RTMaterial
1005
185D
  0
LINE
  5
159D
100
AcDbEntity
  8
0
  6
CONTINUOUS
 62
           7
100
AcDbLine
 10
38.9140550748
 20
23.3898932843
 30
0.0
 11
39.5935128132
 21
23.3785573759
 31
0.0
1001
ACAD
1000
RTMaterial
1005
185D
  0
LINE
  5
159E
100
AcDbEntity
  8
0
  6
CONTINUOUS
 62
           7
100
AcDbLine
 10
38.9861403595
 20
23.4199766834
 30
0.0
 11
39.5940491101
 21
23.4098027358
 31
0.0
1001
ACAD
1000
RTMaterial
1005
185D
  0
LINE
  5
159F
100
AcDbEntity
  8
0
  6
CONTINUOUS
 62
           7
100
AcDbLine
 10
39.5526677906
 20
22.815702924
 30
0.0
 11
40.6663944824
 21
22.7967559345
 31
0.0
1001
ACAD
1000
RTMaterial
1005
185D
  0
LWPOLYLINE
  5
15A0
100
AcDbEntity
  8
0
  6
CONTINUOUS
 62
           7
100
AcDbPolyline
 90
        3
 70
           0
 10
36.985409302
 20
23.5582288569
 10
42.7299703638
 20
23.4599197894
 10
47.8222353477
 20
23.3715950156
1001
ACAD
1000
RTMaterial
1005
185D
  0
LINE
  5
15A1
100
AcDbEntity
  8
0
  6
CONTINUOUS
 62
           7
100
AcDbLine
 10
39.5935128132
 20
23.3785573759
 30
0.0
 11
40.213317199
 21
23.3679052974
 31
0.0
1001
ACAD
1000
RTMaterial
1005
185D
  0
LINE
  5
15A2
100
AcDbEntity
  8
0
  6
CONTINUOUS
 62
           7
100
AcDbLine
 10
39.5940491101
 20
23.4098027358
 30
0.0
 11
39.9933535283
 21
23.4029418273
 31
0.0
1001
ACAD
1000
RTMaterial
1005
185D
  0
LWPOLYLINE
  5
15A3
100
AcDbEntity
  8
0
  6
CONTINUOUS
 62
           7
100
AcDbPolyline
 90
        5
 70
           0
 10
47.8222353477
 20
23.3715950156
 10
56.383095592
 20
23.2227364585
 10
59.982876929
 20
23.1606062046
 10
63.2017481784
 20
23.1056603628
 10
64.3194332984
 20
23.0869185581
1001
ACAD
1000
RTMaterial
1005
185D
  0
LINE
  5
15A4
100
AcDbEntity
  8
0
  6
CONTINUOUS
 62
           7
100
AcDbLine
 10
40.1371780987
 20
23.3864918667
 30
0.0
 11
40.0878897032
 21
23.3880287059
 31
0.0
1001
ACAD
1000
RTMaterial
1005
185D
  0
LWPOLYLINE
  5
15A5
100
AcDbEntity
  8
0
  6
CONTINUOUS
 62
           7
100
AcDbPolyline
 90
        4
 70
           0
 10
40.113626606
 20
23.389452876
 10
40.1152530246
 20
23.3893176945
 10
40.1276038845
 20
23.3879984176
 10
40.1549546141
 20
23.3836946425
1001
ACAD
1000
RTMaterial
1005
185D
  0
LINE
  5
15A6
100
AcDbEntity
  8
0
  6
CONTINUOUS
 62
           7
100
AcDbLine
 10
39.9956566884
 20
23.3930340275
 30
0.0
 11
39.9912441439
 21
23.3935590079
 31
0.0
1001
ACAD
1000
RTMaterial
1005
185D
  0
LINE
  5
15A7
100
AcDbEntity
  8
0
  6
CONTINUOUS
 62
           7
100
AcDbLine
 10
39.9912441439
 20
23.3935590079
 30
0.0
 11
39.9958038613
 21
23.3942710398
 31
0.0
1001
ACAD
1000
RTMaterial
1005
185D
  0
LINE
  5
15A8
100
AcDbEntity
  8
0
  6
CONTINUOUS
 62
           7
100
AcDbLine
 10
39.9958038613
 20
23.3942710398
 30
0.0
 11
40.0399694733
 21
23.3955543574
 31
0.0
1001
ACAD
1000
RTMaterial
1005
185D
  0
LINE
  5
15A9
100
AcDbEntity
  8
0
  6
CONTINUOUS
 62
           7
100
AcDbLine
 10
39.9963745684
 20
23.4255150942
 30
0.0
 11
40.0483711015
 21
23.4268833888
 31
0.0
1001
ACAD
1000
RTMaterial
1005
185D
  0
LINE
  5
15AA
100
AcDbEntity
  8
0
  6
CONTINUOUS
 62
           7
100
AcDbLine
 10
73.7421810433
 20
22.9684604761
 30
0.0
 11
73.8926284818
 21
22.9626088676
 31
0.0
1001
ACAD
1000
RTMaterial
1005
185D
  0
LINE
  5
15AB
100
AcDbEntity
  8
0
  6
CONTINUOUS
 62
           7
100
AcDbLine
 10
73.8596308677
 20
22.9328954115
 30
0.0
 11
73.983891338
 21
22.925703737
 31
0.0
1001
ACAD
1000
RTMaterial
1005
185D
  0
LINE
  5
15AC
100
AcDbEntity
  8
0
  6
CONTINUOUS
 62
           7
100
AcDbLine
 10
73.8926284818
 20
22.9626088676
 30
0.0
 11
73.9921840499
 21
22.9561977125
 31
0.0
1001
ACAD
1000
RTMaterial
1005
185D
  0
LINE
  5
15AD
100
AcDbEntity
  8
0
  6
CONTINUOUS
 62
           7
100
AcDbLine
 10
39.9937285503
 20
23.4247680859
 30
0.0
 11
39.9963745684
 21
23.4255150942
 31
0.0
1001
ACAD
1000
RTMaterial
1005
185D
  0
LINE
  5
15AE
100
AcDbEntity
  8
0
  6
CONTINUOUS
 62
           7
100
AcDbLine
 10
73.983891338
 20
22.925703737
 30
0.0
 11
74.0370773481
 21
22.9181055169
 31
0.0
1001
ACAD
1000
RTMaterial
1005
185D
  0
LINE
  5
15AF
100
AcDbEntity
  8
0
  6
CONTINUOUS
 62
           7
100
AcDbLine
 10
73.9921840499
 20
22.9561977125
 30
0.0
 11
74.0368309505
 21
22.949345506
 31
0.0
1001
ACAD
1000
RTMaterial
1005
185D
  0
LINE
  5
15B0
100
AcDbEntity
  8
0
  6
CONTINUOUS
 62
           7
100
AcDbLine
 10
74.0368309505
 20
22.949345506
 30
0.0
 11
74.0397220919
 21
22.9472366325
 31
0.0
1001
ACAD
1000
RTMaterial
1005
185D
  0
LINE
  5
15B1
100
AcDbEntity
  8
0
  6
CONTINUOUS
 62
           7
100
AcDbLine
 10
74.0370773481
 20
22.9181055169
 30
0.0
 11
74.0396884171
 21
22.9159939047
 31
0.0
1001
ACAD
1000
RTMaterial
1005
185D
  0
LINE
  5
15B2
100
AcDbEntity
  8
0
  6
CONTINUOUS
 62
           7
100
AcDbLine
 10
23.9558681114
 20
40.5823020631
 30
0.0
 11
83.9558681114
 21
40.5823020631
 31
0.0
1001
ACAD
1000
RTMaterial
1005
185D
  0
LWPOLYLINE
  5
15B3
100
AcDbEntity
  8
0
  6
CONTINUOUS
 62
           7
100
AcDbPolyline
 90
        3
 70
           0
 10
83.4742708455
 20
42.0839767418
 10
81.7486354788
 20
42.0770277049
 10
79.8376988506
 20
42.0759219869
1001
ACAD
1000
RTMaterial
1005
185D
  0
LINE
  5
15B4
100
AcDbEntity
  8
0
  6
CONTINUOUS
 62
           7
100
AcDbLine
 10
79.8376988506
 20
42.0759219869
 30
0.0
 11
30.6831105631
 21
42.075648701
 31
0.0
1001
ACAD
1000
RTMaterial
1005
185D
  0
LWPOLYLINE
  5
15B5
100
AcDbEntity
  8
0
  6
CONTINUOUS
 62
           7
100
AcDbPolyline
 90
        3
 70
           0
 10
30.6831105631
 20
42.075648701
 10
28.4288074218
 20
42.076672955
 10
26.3298415303
 20
42.0791794877
1001
ACAD
1000
RTMaterial
1005
185D
  0
LINE
  5
15B6
100
AcDbEntity
  8
0
  6
CONTINUOUS
 62
           7
100
AcDbLine
 10
26.3298415303
 20
42.0791794877
 30
0.0
 11
24.4363929108
 21
42.0853780367
 31
0.0
1001
ACAD
1000
RTMaterial
1005
185D
  0
LINE
  5
15B7
100
AcDbEntity
  8
DEFAULT_1
  6
CENTER
 62
           7
100
AcDbLine
 10
82.8676371235
 20
38.1779224399
 30
0.0
 11
77.2379631527
 21
38.9691215189
 31
0.0
1001
ACAD
1000
RTMaterial
1005
185D
  0
LWPOLYLINE
  5
15B8
100
AcDbEntity
  8
0
  6
CONTINUOUS
 62
           7
100
AcDbPolyline
 90
       14
 70
           0
 10
24.436388685
 20
42.0853781035
 10
24.3939698908
 20
42.0835842879
 10
24.3520613984
 20
42.0770147861
 10
24.3110278364
 20
42.0657085745
 10
24.2714742637
 20
42.0497945783
 10
24.2338254529
 20
42.0293965766
 10
24.1986139074
 20
42.0047342404
 10
24.1663276005
 20
41.9760758132
 10
24.1374355405
 20
41.9437539417
 10
24.1123712624
 20
41.908159429
 10
24.0915202311
 20
41.8697277964
 10
24.0752482774
 20
41.8290223896
 10
24.0638194515
 20
41.7866077732
 10
24.057424794
 20
41.7431002579
1001
ACAD
1000
RTMaterial
1005
185D
  0
LINE
  5
15B9
100
AcDbEntity
  8
0
  6
CONTINUOUS
 62
           7
100
AcDbLine
 10
83.4742708753
 20
42.0839768182
 30
0.0
 11
83.5167708937
 21
42.0823112197
 31
0.0
1001
ACAD
1000
RTMaterial
1005
185D
  0
LWPOLYLINE
  5
15BA
100
AcDbEntity
  8
0
  6
CONTINUOUS
 62
           7
100
AcDbPolyline
 90
        4
 70
           0
 10
73.793657022
 20
22.8828705339
 10
73.8436522281
 20
22.8987718137
 10
73.8694126001
 20
22.9042987019
 10
73.8769427216
 20
22.9054898529
1001
ACAD
1000
RTMaterial
1005
185D
  0
LINE
  5
15BB
100
AcDbEntity
  8
0
  6
CONTINUOUS
 62
           7
100
AcDbLine
 10
76.5736716022
 20
23.1858805666
 30
0.0
 11
76.5894605588
 21
23.1908137452
 31
0.0
1001
ACAD
1000
RTMaterial
1005
185D
  0
LINE
  5
15BC
100
AcDbEntity
  8
0
  6
CONTINUOUS
 62
           7
100
AcDbLine
 10
76.5609342969
 20
23.1819884446
 30
0.0
 11
76.5752012686
 21
23.1863532336
 31
0.0
1001
ACAD
1000
RTMaterial
1005
185D
  0
LINE
  5
15BD
100
AcDbEntity
  8
0
  6
CONTINUOUS
 62
           7
100
AcDbLine
 10
76.549894539
 20
23.1786779126
 30
0.0
 11
76.5622822917
 21
23.1823966645
 31
0.0
1001
ACAD
1000
RTMaterial
1005
185D
  0
LINE
  5
15BE
100
AcDbEntity
  8
0
  6
CONTINUOUS
 62
           7
100
AcDbLine
 10
76.5334394162
 20
23.1738510071
 30
0.0
 11
76.5509236161
 21
23.1789840479
 31
0.0
1001
ACAD
1000
RTMaterial
1005
185D
  0
LINE
  5
15BF
100
AcDbEntity
  8
0
  6
CONTINUOUS
 62
           7
100
AcDbLine
 10
76.5222850564
 20
23.1706515013
 30
0.0
 11
76.5339341637
 21
23.1739942699
 31
0.0
1001
ACAD
1000
RTMaterial
1005
185D
  0
LINE
  5
15C0
100
AcDbEntity
  8
0
  6
CONTINUOUS
 62
           7
100
AcDbLine
 10
76.522522789
 20
23.1707190878
 30
0.0
 11
76.5277233641
 21
23.1722041592
 31
0.0
1001
ACAD
1000
RTMaterial
1005
185D
  0
LINE
  5
15C1
100
AcDbEntity
  8
0
  6
CONTINUOUS
 62
           7
100
AcDbLine
 10
83.5164408303
 20
42.0823428266
 30
0.0
 11
83.5587855444
 21
42.0758486944
 31
0.0
1001
ACAD
1000
RTMaterial
1005
185D
  0
LINE
  5
15C2
100
AcDbEntity
  8
0
  6
CONTINUOUS
 62
           7
100
AcDbLine
 10
76.810478691
 20
23.2729883871
 30
0.0
 11
76.8399818932
 21
23.2858956984
 31
0.0
1001
ACAD
1000
RTMaterial
1005
185D
  0
LINE
  5
15C3
100
AcDbEntity
  8
0
  6
CONTINUOUS
 62
           7
100
AcDbLine
 10
76.7844589422
 20
23.2619973838
 30
0.0
 11
76.8134633169
 21
23.274272509
 31
0.0
1001
ACAD
1000
RTMaterial
1005
185D
  0
LINE
  5
15C4
100
AcDbEntity
  8
0
  6
CONTINUOUS
 62
           7
100
AcDbLine
 10
76.7589366056
 20
23.2515681782
 30
0.0
 11
76.7874198177
 21
23.2632297356
 31
0.0
1001
ACAD
1000
RTMaterial
1005
185D
  0
LINE
  5
15C5
100
AcDbEntity
  8
0
  6
CONTINUOUS
 62
           7
100
AcDbLine
 10
76.7339321323
 20
23.2416835729
 30
0.0
 11
76.7618688088
 21
23.2527488184
 31
0.0
1001
ACAD
1000
RTMaterial
1005
185D
  0
LINE
  5
15C6
100
AcDbEntity
  8
0
  6
CONTINUOUS
 62
           7
100
AcDbLine
 10
76.7095162553
 20
23.2323454302
 30
0.0
 11
76.7368302664
 21
23.2428125036
 31
0.0
1001
ACAD
1000
RTMaterial
1005
185D
  0
LWPOLYLINE
  5
15C7
100
AcDbEntity
  8
0
  6
CONTINUOUS
 62
           7
100
AcDbPolyline
 90
        3
 70
           0
 10
72.7771050841
 20
21.7565694785
 10
72.7900956431
 20
21.7614497941
 10
72.8225649927
 20
21.7757666194
1001
ACAD
1000
RTMaterial
1005
185D
  0
LINE
  5
15C8
100
AcDbEntity
  8
0
  6
CONTINUOUS
 62
           7
100
AcDbLine
 10
76.6858650901
 20
23.2235916823
 30
0.0
 11
76.7123561723
 21
23.2334157852
 31
0.0
1001
ACAD
1000
RTMaterial
1005
185D
  0
LINE
  5
15C9
100
AcDbEntity
  8
0
  6
CONTINUOUS
 62
           7
100
AcDbLine
 10
76.6631651792
 20
23.21545702
 30
0.0
 11
76.68860649
 21
23.2245917192
 31
0.0
1001
ACAD
1000
RTMaterial
1005
185D
  0
LINE
  5
15CA
100
AcDbEntity
  8
0
  6
CONTINUOUS
 62
           7
100
AcDbLine
 10
72.7773850277
 20
21.7566325488
 30
0.0
 11
72.7771306533
 21
21.7565433979
 31
0.0
1001
ACAD
1000
RTMaterial
1005
185D
  0
LINE
  5
15CB
100
AcDbEntity
  8
0
  6
CONTINUOUS
 62
           7
100
AcDbLine
 10
76.6416395966
 20
23.2079821414
 30
0.0
 11
76.6657651707
 21
23.2163755759
 31
0.0
1001
ACAD
1000
RTMaterial
1005
185D
  0
LINE
  5
15CC
100
AcDbEntity
  8
0
  6
CONTINUOUS
 62
           7
100
AcDbLine
 10
76.6216915333
 20
23.2012606578
 30
0.0
 11
76.6440322221
 21
23.2088015785
 31
0.0
1001
ACAD
1000
RTMaterial
1005
185D
  0
LINE
  5
15CD
100
AcDbEntity
  8
0
  6
CONTINUOUS
 62
           7
100
AcDbLine
 10
76.6036857344
 20
23.1953619142
 30
0.0
 11
76.623821897
 21
23.2019691058
 31
0.0
1001
ACAD
1000
RTMaterial
1005
185D
  0
LINE
  5
15CE
100
AcDbEntity
  8
0
  6
CONTINUOUS
 62
           7
100
AcDbLine
 10
76.5878104128
 20
23.1902925187
 30
0.0
 11
76.6055415372
 21
23.1959625384
 31
0.0
1001
ACAD
1000
RTMaterial
1005
185D
  0
LINE
  5
15CF
100
AcDbEntity
  8
0
  6
CONTINUOUS
 62
           7
100
AcDbLine
 10
72.7058750738
 20
21.7345440564
 30
0.0
 11
72.7773732557
 21
21.7566284152
 31
0.0
1001
ACAD
1000
RTMaterial
1005
185D
  0
LINE
  5
15D0
100
AcDbEntity
  8
DEFAULT_1
  6
CENTER
 62
           7
100
AcDbLine
 10
72.9558681114
 20
24.3623020631
 30
0.0
 11
72.9558681114
 21
21.3023020631
 31
0.0
1001
ACAD
1000
RTMaterial
1005
185D
  0
LINE
  5
15D1
100
AcDbEntity
  8
0
  6
CONTINUOUS
 62
           7
100
AcDbLine
 10
73.0050446163
 20
21.8806276895
 30
0.0
 11
73.0483295227
 21
21.9097774758
 31
0.0
1001
ACAD
1000
RTMaterial
1005
185D
  0
LWPOLYLINE
  5
15D2
100
AcDbEntity
  8
0
  6
CONTINUOUS
 62
           7
100
AcDbPolyline
 90
        3
 70
           0
 10
77.0949119086
 20
23.4185226226
 10
77.1258868255
 20
23.4374236451
 10
77.1602269421
 20
23.4591489878
1001
ACAD
1000
RTMaterial
1005
185D
  0
LWPOLYLINE
  5
15D3
100
AcDbEntity
  8
0
  6
CONTINUOUS
 62
           7
100
AcDbPolyline
 90
        3
 70
           0
 10
72.9076972685
 20
21.820946719
 10
72.9567792896
 20
21.8501102867
 10
73.0050446163
 20
21.8806276895
1001
ACAD
1000
RTMaterial
1005
185D
  0
LINE
  5
15D4
100
AcDbEntity
  8
0
  6
CONTINUOUS
 62
           7
100
AcDbLine
 10
77.0644666755
 20
23.4005691933
 30
0.0
 11
77.0978605251
 21
23.4202940155
 31
0.0
1001
ACAD
1000
RTMaterial
1005
185D
  0
LINE
  5
15D5
100
AcDbEntity
  8
0
  6
CONTINUOUS
 62
           7
100
AcDbLine
 10
77.0345318672
 20
23.3835045754
 30
0.0
 11
77.0674310655
 21
23.4022905421
 31
0.0
1001
ACAD
1000
RTMaterial
1005
185D
  0
LINE
  5
15D6
100
AcDbEntity
  8
0
  6
CONTINUOUS
 62
           7
100
AcDbLine
 10
72.8620883037
 20
21.7957152665
 30
0.0
 11
72.9076972685
 21
21.820946719
 31
0.0
1001
ACAD
1000
RTMaterial
1005
185D
  0
LINE
  5
15D7
100
AcDbEntity
  8
0
  6
CONTINUOUS
 62
           7
100
AcDbLine
 10
77.0050724932
 20
23.367266057
 30
0.0
 11
77.0375104563
 21
23.3851768526
 31
0.0
1001
ACAD
1000
RTMaterial
1005
185D
  0
LINE
  5
15D8
100
AcDbEntity
  8
0
  6
CONTINUOUS
 62
           7
100
AcDbLine
 10
76.9760503884
 20
23.3517945215
 30
0.0
 11
77.0080643443
 21
23.3688904741
 31
0.0
1001
ACAD
1000
RTMaterial
1005
185D
  0
LINE
  5
15D9
100
AcDbEntity
  8
0
  6
CONTINUOUS
 62
           7
100
AcDbLine
 10
76.9474253295
 20
23.3370347923
 30
0.0
 11
76.9790552073
 21
23.3533724932
 31
0.0
1001
ACAD
1000
RTMaterial
1005
185D
  0
LINE
  5
15DA
100
AcDbEntity
  8
0
  6
CONTINUOUS
 62
           7
100
AcDbLine
 10
72.8225649927
 20
21.7757666194
 30
0.0
 11
72.8620883037
 21
21.7957152665
 31
0.0
1001
ACAD
1000
RTMaterial
1005
185D
  0
LINE
  5
15DB
100
AcDbEntity
  8
0
  6
CONTINUOUS
 62
           7
100
AcDbLine
 10
76.9191850876
 20
23.3229500994
 30
0.0
 11
76.950442862
 21
23.3385675949
 31
0.0
1001
ACAD
1000
RTMaterial
1005
185D
  0
LINE
  5
15DC
100
AcDbEntity
  8
0
  6
CONTINUOUS
 62
           7
100
AcDbLine
 10
76.891350317
 20
23.3095217545
 30
0.0
 11
76.9222092106
 21
23.3244360225
 31
0.0
1001
ACAD
1000
RTMaterial
1005
185D
  0
LINE
  5
15DD
100
AcDbEntity
  8
0
  6
CONTINUOUS
 62
           7
100
AcDbLine
 10
76.8639417569
 20
23.2967313393
 30
0.0
 11
76.8943738901
 21
23.3109588551
 31
0.0
1001
ACAD
1000
RTMaterial
1005
185D
  0
LINE
  5
15DE
100
AcDbEntity
  8
0
  6
CONTINUOUS
 62
           7
100
AcDbLine
 10
76.8369786063
 20
23.2845599548
 30
0.0
 11
76.8669581995
 21
23.2981182174
 31
0.0
1001
ACAD
1000
RTMaterial
1005
185D
  0
LINE
  5
15DF
100
AcDbEntity
  8
0
  6
CONTINUOUS
 62
           7
100
AcDbLine
 10
74.0396008244
 20
22.915993209
 30
0.0
 11
74.0393527807
 21
22.9472336841
 31
0.0
1001
ACAD
1000
RTMaterial
1005
185D
  0
LINE
  5
15E0
100
AcDbEntity
  8
0
  6
CONTINUOUS
 62
           7
100
AcDbLine
 10
73.315159856
 20
22.2263099698
 30
0.0
 11
73.3132380549
 21
22.2189737289
 31
0.0
1001
ACAD
1000
RTMaterial
1005
185D
  0
LINE
  5
15E1
100
AcDbEntity
  8
0
  6
CONTINUOUS
 62
           7
100
AcDbLine
 10
73.2186830513
 20
22.07326339
 30
0.0
 11
73.2759257215
 21
22.1544010198
 31
0.0
1001
ACAD
1000
RTMaterial
1005
185D
  0
LINE
  5
15E2
100
AcDbEntity
  8
0
  6
CONTINUOUS
 62
           7
100
AcDbLine
 10
73.1548937683
 20
21.9998465436
 30
0.0
 11
73.2186830513
 21
22.07326339
 31
0.0
1001
ACAD
1000
RTMaterial
1005
185D
  0
LWPOLYLINE
  5
15E3
100
AcDbEntity
  8
0
  6
CONTINUOUS
 62
           7
100
AcDbPolyline
 90
        4
 70
           0
 10
73.5879314687
 20
22.7257466508
 10
73.6523608652
 20
22.7964096398
 10
73.7245080784
 20
22.8492868641
 10
73.793657022
 20
22.8828705339
1001
ACAD
1000
RTMaterial
1005
185D
  0
LINE
  5
15E4
100
AcDbEntity
  8
0
  6
CONTINUOUS
 62
           7
100
AcDbLine
 10
74.4924797637
 20
22.5671370202
 30
0.0
 11
74.9050815265
 21
22.9797387829
 31
0.0
1001
ACAD
1000
RTMaterial
1005
185D
  0
LINE
  5
15E5
100
AcDbEntity
  8
0
  6
CONTINUOUS
 62
           7
100
AcDbLine
 10
73.123220193
 20
21.9683361892
 30
0.0
 11
73.1548937683
 21
21.9998465436
 31
0.0
1001
ACAD
1000
RTMaterial
1005
185D
  0
LINE
  5
15E6
100
AcDbEntity
  8
0
  6
CONTINUOUS
 62
           7
100
AcDbLine
 10
73.1234089502
 20
21.9685159325
 30
0.0
 11
73.1231928404
 21
21.9683101956
 31
0.0
1001
ACAD
1000
RTMaterial
1005
185D
  0
LINE
  5
15E7
100
AcDbEntity
  8
0
  6
CONTINUOUS
 62
           7
100
AcDbLine
 10
73.1115239335
 20
21.9577771782
 30
0.0
 11
73.1234302968
 21
21.9685300962
 31
0.0
1001
ACAD
1000
RTMaterial
1005
185D
  0
LWPOLYLINE
  5
15E8
100
AcDbEntity
  8
0
  6
CONTINUOUS
 62
           7
100
AcDbPolyline
 90
        3
 70
           0
 10
77.3838755125
 20
23.6225513631
 10
77.4162919529
 20
23.6497578336
 10
77.4508716247
 20
23.6798915437
1001
ACAD
1000
RTMaterial
1005
185D
  0
LINE
  5
15E9
100
AcDbEntity
  8
0
  6
CONTINUOUS
 62
           7
100
AcDbLine
 10
77.351373319
 20
23.5962399075
 30
0.0
 11
77.3862918957
 21
23.6245456405
 31
0.0
1001
ACAD
1000
RTMaterial
1005
185D
  0
LINE
  5
15EA
100
AcDbEntity
  8
0
  6
CONTINUOUS
 62
           7
100
AcDbLine
 10
77.3187982425
 20
23.5708002861
 30
0.0
 11
77.3538725038
 21
23.5982296495
 31
0.0
1001
ACAD
1000
RTMaterial
1005
185D
  0
LINE
  5
15EB
100
AcDbEntity
  8
0
  6
CONTINUOUS
 62
           7
100
AcDbLine
 10
77.286212493
 20
23.5462474167
 30
0.0
 11
77.321378855
 21
23.5727825267
 31
0.0
1001
ACAD
1000
RTMaterial
1005
185D
  0
LINE
  5
15EC
100
AcDbEntity
  8
0
  6
CONTINUOUS
 62
           7
100
AcDbLine
 10
77.2536935791
 20
23.5226033998
 30
0.0
 11
77.2888697303
 21
23.5482169161
 31
0.0
1001
ACAD
1000
RTMaterial
1005
185D
  0
LWPOLYLINE
  5
15ED
100
AcDbEntity
  8
0
  6
CONTINUOUS
 62
           7
100
AcDbPolyline
 90
        3
 70
           0
 10
73.0483295227
 20
21.9097774758
 10
73.0839394759
 20
21.9356117502
 10
73.1115239335
 20
21.9577771782
1001
ACAD
1000
RTMaterial
1005
185D
  0
LINE
  5
15EE
100
AcDbEntity
  8
0
  6
CONTINUOUS
 62
           7
100
AcDbLine
 10
77.2213205855
 20
23.499886449
 30
0.0
 11
77.2564214518
 21
23.5245546238
 31
0.0
1001
ACAD
1000
RTMaterial
1005
185D
  0
LINE
  5
15EF
100
AcDbEntity
  8
0
  6
CONTINUOUS
 62
           7
100
AcDbLine
 10
77.1891739434
 20
23.4781109685
 30
0.0
 11
77.2241119031
 21
23.5018136453
 31
0.0
1001
ACAD
1000
RTMaterial
1005
185D
  0
LINE
  5
15F0
100
AcDbEntity
  8
0
  6
CONTINUOUS
 62
           7
100
AcDbLine
 10
77.1573352053
 20
23.4572876578
 30
0.0
 11
77.1920202944
 21
23.4800082311
 31
0.0
1001
ACAD
1000
RTMaterial
1005
185D
  0
LINE
  5
15F1
100
AcDbEntity
  8
0
  6
CONTINUOUS
 62
           7
100
AcDbLine
 10
77.0978605251
 20
23.4202940155
 30
0.0
 11
77.1288130543
 21
23.439243006
 31
0.0
1001
ACAD
1000
RTMaterial
1005
185D
  0
LWPOLYLINE
  5
15F2
100
AcDbEntity
  8
0
  6
CONTINUOUS
 62
           7
100
AcDbPolyline
 90
        4
 70
           0
 10
78.2039481234
 20
25.1151620911
 10
78.2037862378
 20
25.1157171468
 10
78.2037737049
 20
25.1173306721
 10
78.2039110852
 20
25.1199808734
1001
ACAD
1000
RTMaterial
1005
185D
  0
LINE
  5
15F3
100
AcDbEntity
  8
0
  6
CONTINUOUS
 62
           7
100
AcDbLine
 10
73.5514157445
 20
22.6681468449
 30
0.0
 11
73.5514436437
 21
22.6682076709
 31
0.0
1001
ACAD
1000
RTMaterial
1005
185D
  0
LINE
  5
15F4
100
AcDbEntity
  8
0
  6
CONTINUOUS
 62
           7
100
AcDbLine
 10
73.3132275635
 20
22.2189450595
 30
0.0
 11
73.3841640271
 21
22.3533619792
 31
0.0
1001
ACAD
1000
RTMaterial
1005
185D
  0
LINE
  5
15F5
100
AcDbEntity
  8
0
  6
CONTINUOUS
 62
           7
100
AcDbLine
 10
73.3841640271
 20
22.3533619792
 30
0.0
 11
73.5512890061
 21
22.6679093442
 31
0.0
1001
ACAD
1000
RTMaterial
1005
185D
  0
LINE
  5
15F6
100
AcDbEntity
  8
0
  6
CONTINUOUS
 62
           7
100
AcDbLine
 10
73.2759257215
 20
22.1544010198
 30
0.0
 11
73.3132380549
 21
22.2189737289
 31
0.0
1001
ACAD
1000
RTMaterial
1005
185D
  0
LINE
  5
15F7
100
AcDbEntity
  8
0
  6
CONTINUOUS
 62
           7
100
AcDbLine
 10
73.5514289187
 20
22.6679734493
 30
0.0
 11
73.5879314687
 21
22.7257466508
 31
0.0
1001
ACAD
1000
RTMaterial
1005
185D
  0
LINE
  5
15F8
100
AcDbEntity
  8
0
  6
CONTINUOUS
 62
           7
100
AcDbLine
 10
77.702729358
 20
23.9407046308
 30
0.0
 11
77.7351852283
 21
23.9807850089
 31
0.0
1001
ACAD
1000
RTMaterial
1005
185D
  0
LINE
  5
15F9
100
AcDbEntity
  8
0
  6
CONTINUOUS
 62
           7
100
AcDbLine
 10
77.671562347
 20
23.9038286924
 30
0.0
 11
77.7043422633
 21
23.9426549166
 31
0.0
1001
ACAD
1000
RTMaterial
1005
185D
  0
LINE
  5
15FA
100
AcDbEntity
  8
0
  6
CONTINUOUS
 62
           7
100
AcDbLine
 10
77.6401801529
 20
23.8681815669
 30
0.0
 11
77.6732544828
 21
23.9057921554
 31
0.0
1001
ACAD
1000
RTMaterial
1005
185D
  0
LINE
  5
15FB
100
AcDbEntity
  8
0
  6
CONTINUOUS
 62
           7
100
AcDbLine
 10
77.6086091378
 20
23.8337229176
 30
0.0
 11
77.6419516698
 21
23.870155942
 31
0.0
1001
ACAD
1000
RTMaterial
1005
185D
  0
LINE
  5
15FC
100
AcDbEntity
  8
0
  6
CONTINUOUS
 62
           7
100
AcDbLine
 10
77.5768723185
 20
23.8004130029
 30
0.0
 11
77.6104602029
 21
23.8357060726
 31
0.0
1001
ACAD
1000
RTMaterial
1005
185D
  0
LINE
  5
15FD
100
AcDbEntity
  8
0
  6
CONTINUOUS
 62
           7
100
AcDbLine
 10
77.5449895233
 20
23.7682127836
 30
0.0
 11
77.5788031283
 21
23.8024029299
 31
0.0
1001
ACAD
1000
RTMaterial
1005
185D
  0
LINE
  5
15FE
100
AcDbEntity
  8
0
  6
CONTINUOUS
 62
           7
100
AcDbLine
 10
77.5129775441
 20
23.7370840202
 30
0.0
 11
77.5470003147
 21
23.7702075911
 31
0.0
1001
ACAD
1000
RTMaterial
1005
185D
  0
LINE
  5
15FF
100
AcDbEntity
  8
0
  6
CONTINUOUS
 62
           7
100
AcDbLine
 10
77.4808502847
 20
23.7069893599
 30
0.0
 11
77.5150686056
 21
23.739081924
 31
0.0
1001
ACAD
1000
RTMaterial
1005
185D
  0
LINE
  5
1600
100
AcDbEntity
  8
0
  6
CONTINUOUS
 62
           7
100
AcDbLine
 10
77.4486189036
 20
23.677892415
 30
0.0
 11
77.4830219659
 21
23.7089886743
 31
0.0
1001
ACAD
1000
RTMaterial
1005
185D
  0
LINE
  5
1601
100
AcDbEntity
  8
0
  6
CONTINUOUS
 62
           7
100
AcDbLine
 10
77.3862918957
 20
23.6245456405
 30
0.0
 11
77.4186262126
 21
23.6517552599
 31
0.0
1001
ACAD
1000
RTMaterial
1005
185D
  0
LWPOLYLINE
  5
1602
100
AcDbEntity
  8
0
  6
CONTINUOUS
 62
           7
100
AcDbPolyline
 90
       10
 70
           0
 10
83.6396089962
 20
42.0487751104
 10
83.6773812582
 20
42.0284155626
 10
83.7127148377
 20
42.0037685256
 10
83.7451184205
 20
41.9751026202
 10
83.774119354
 20
41.9427515456
 10
83.799279507
 20
41.9071094258
 10
83.8202123185
 20
41.8686108755
 10
83.8365467932
 20
41.8278262629
 10
83.8480179479
 20
41.7853207175
 10
83.8481684705
 20
41.784297523
1001
ACAD
1000
RTMaterial
1005
185D
  0
LINE
  5
1603
100
AcDbEntity
  8
0
  6
CONTINUOUS
 62
           7
100
AcDbLine
 10
79.9488420476
 20
37.3889620939
 30
0.0
 11
79.9663082117
 21
37.5329266756
 31
0.0
1001
ACAD
1000
RTMaterial
1005
185D
  0
LINE
  5
1604
100
AcDbEntity
  8
0
  6
CONTINUOUS
 62
           7
100
AcDbLine
 10
79.9663082117
 20
37.5329266756
 30
0.0
 11
79.9872251577
 21
37.701521881
 31
0.0
1001
ACAD
1000
RTMaterial
1005
185D
  0
LINE
  5
1605
100
AcDbEntity
  8
0
  6
CONTINUOUS
 62
           7
100
AcDbLine
 10
79.9872251577
 20
37.701521881
 30
0.0
 11
80.0051568774
 21
37.8429627768
 31
0.0
1001
ACAD
1000
RTMaterial
1005
185D
  0
LINE
  5
1606
100
AcDbEntity
  8
0
  6
CONTINUOUS
 62
           7
100
AcDbLine
 10
80.0051568774
 20
37.8429627768
 30
0.0
 11
80.0259912782
 21
38.0039445816
 31
0.0
1001
ACAD
1000
RTMaterial
1005
185D
  0
LINE
  5
1607
100
AcDbEntity
  8
0
  6
CONTINUOUS
 62
           7
100
AcDbLine
 10
80.0259912782
 20
38.0039445816
 30
0.0
 11
80.0494612088
 21
38.1812476054
 31
0.0
1001
ACAD
1000
RTMaterial
1005
185D
  0
LINE
  5
1608
100
AcDbEntity
  8
0
  6
CONTINUOUS
 62
           7
100
AcDbLine
 10
80.0494612088
 20
38.1812476054
 30
0.0
 11
80.0751497187
 21
38.3707379839
 31
0.0
1001
ACAD
1000
RTMaterial
1005
185D
  0
LINE
  5
1609
100
AcDbEntity
  8
0
  6
CONTINUOUS
 62
           7
100
AcDbLine
 10
80.0751497187
 20
38.3707379839
 30
0.0
 11
80.1023521416
 21
38.5665578995
 31
0.0
1001
ACAD
1000
RTMaterial
1005
185D
  0
LINE
  5
160A
100
AcDbEntity
  8
0
  6
CONTINUOUS
 62
           7
100
AcDbLine
 10
80.2793781624
 20
39.7408487571
 30
0.0
 11
80.3976367124
 21
40.5823020631
 31
0.0
1001
ACAD
1000
RTMaterial
1005
185D
  0
LINE
  5
160B
100
AcDbEntity
  8
0
  6
CONTINUOUS
 62
           7
100
AcDbLine
 10
78.2248511299
 20
25.1221397523
 30
0.0
 11
79.9488420476
 21
37.3889620939
 31
0.0
1001
ACAD
1000
RTMaterial
1005
185D
  0
LINE
  5
160C
100
AcDbEntity
  8
0
  6
CONTINUOUS
 62
           7
100
AcDbLine
 10
80.1023521416
 20
38.5665578995
 30
0.0
 11
80.1297755297
 21
38.7592929451
 31
0.0
1001
ACAD
1000
RTMaterial
1005
185D
  0
LINE
  5
160D
100
AcDbEntity
  8
0
  6
CONTINUOUS
 62
           7
100
AcDbLine
 10
80.1297755297
 20
38.7592929451
 30
0.0
 11
80.1571723433
 21
38.9474822054
 31
0.0
1001
ACAD
1000
RTMaterial
1005
185D
  0
LINE
  5
160E
100
AcDbEntity
  8
0
  6
CONTINUOUS
 62
           7
100
AcDbLine
 10
80.1571723433
 20
38.9474822054
 30
0.0
 11
80.1836204661
 21
39.125296641
 31
0.0
1001
ACAD
1000
RTMaterial
1005
185D
  0
LINE
  5
160F
100
AcDbEntity
  8
0
  6
CONTINUOUS
 62
           7
100
AcDbLine
 10
80.1836204661
 20
39.125296641
 30
0.0
 11
80.2082599264
 21
39.2877510684
 31
0.0
1001
ACAD
1000
RTMaterial
1005
185D
  0
LINE
  5
1610
100
AcDbEntity
  8
0
  6
CONTINUOUS
 62
           7
100
AcDbLine
 10
80.2082599264
 20
39.2877510684
 30
0.0
 11
80.2302861704
 21
39.4305068308
 31
0.0
1001
ACAD
1000
RTMaterial
1005
185D
  0
LINE
  5
1611
100
AcDbEntity
  8
0
  6
CONTINUOUS
 62
           7
100
AcDbLine
 10
78.2138085426
 20
25.0518017787
 30
0.0
 11
78.224883817
 21
25.1223705631
 31
0.0
1001
ACAD
1000
RTMaterial
1005
185D
  0
LINE
  5
1612
100
AcDbEntity
  8
0
  6
CONTINUOUS
 62
           7
100
AcDbLine
 10
80.2302861704
 20
39.4305068308
 30
0.0
 11
80.2567905559
 21
39.5993581227
 31
0.0
1001
ACAD
1000
RTMaterial
1005
185D
  0
LINE
  5
1613
100
AcDbEntity
  8
0
  6
CONTINUOUS
 62
           7
100
AcDbLine
 10
80.2567905559
 20
39.5993581227
 30
0.0
 11
80.2793781624
 21
39.7408487571
 31
0.0
1001
ACAD
1000
RTMaterial
1005
185D
  0
LINE
  5
1614
100
AcDbEntity
  8
0
  6
CONTINUOUS
 62
           7
100
AcDbLine
 10
78.2011081033
 20
24.9840221098
 30
0.0
 11
78.2138085426
 21
25.0518017787
 31
0.0
1001
ACAD
1000
RTMaterial
1005
185D
  0
LINE
  5
1615
100
AcDbEntity
  8
0
  6
CONTINUOUS
 62
           7
100
AcDbLine
 10
78.1866695719
 20
24.9176041469
 30
0.0
 11
78.2012099978
 21
24.984525701
 31
0.0
1001
ACAD
1000
RTMaterial
1005
185D
  0
LWPOLYLINE
  5
1616
100
AcDbEntity
  8
0
  6
CONTINUOUS
 62
           7
100
AcDbPolyline
 90
        3
 70
           0
 10
78.2054126803
 20
25.1202751037
 10
78.2047661628
 20
25.1174037648
 10
78.2042789399
 20
25.1157092702
1001
ACAD
1000
RTMaterial
1005
185D
  0
LINE
  5
1617
100
AcDbEntity
  8
0
  6
CONTINUOUS
 62
           7
100
AcDbLine
 10
78.1705887684
 20
24.852587843
 30
0.0
 11
78.1868188996
 21
24.9182470351
 31
0.0
1001
ACAD
1000
RTMaterial
1005
185D
  0
LINE
  5
1618
100
AcDbEntity
  8
0
  6
CONTINUOUS
 62
           7
100
AcDbLine
 10
78.1529611283
 20
24.7890083003
 30
0.0
 11
78.1707922223
 21
24.8533638783
 31
0.0
1001
ACAD
1000
RTMaterial
1005
185D
  0
LINE
  5
1619
100
AcDbEntity
  8
0
  6
CONTINUOUS
 62
           7
100
AcDbLine
 10
78.1338814958
 20
24.7268959292
 30
0.0
 11
78.1532247567
 21
24.7899109656
 31
0.0
1001
ACAD
1000
RTMaterial
1005
185D
  0
LINE
  5
161A
100
AcDbEntity
  8
0
  6
CONTINUOUS
 62
           7
100
AcDbLine
 10
78.1134439307
 20
24.666276613
 30
0.0
 11
78.1342106898
 21
24.7279183842
 31
0.0
1001
ACAD
1000
RTMaterial
1005
185D
  0
LINE
  5
161B
100
AcDbEntity
  8
0
  6
CONTINUOUS
 62
           7
100
AcDbLine
 10
78.0917415296
 20
24.6071718774
 30
0.0
 11
78.1138434147
 21
24.6674117374
 31
0.0
1001
ACAD
1000
RTMaterial
1005
185D
  0
LINE
  5
161C
100
AcDbEntity
  8
0
  6
CONTINUOUS
 62
           7
100
AcDbLine
 10
78.06886626
 20
24.5495990655
 30
0.0
 11
78.0922153545
 21
24.6084123134
 31
0.0
1001
ACAD
1000
RTMaterial
1005
185D
  0
LINE
  5
161D
100
AcDbEntity
  8
0
  6
CONTINUOUS
 62
           7
100
AcDbLine
 10
78.044908808
 20
24.493571513
 30
0.0
 11
78.0694177994
 21
24.5509372586
 31
0.0
1001
ACAD
1000
RTMaterial
1005
185D
  0
LINE
  5
161E
100
AcDbEntity
  8
0
  6
CONTINUOUS
 62
           7
100
AcDbLine
 10
78.0199584388
 20
24.4390987288
 30
0.0
 11
78.0455407568
 21
24.4949997526
 31
0.0
1001
ACAD
1000
RTMaterial
1005
185D
  0
LINE
  5
161F
100
AcDbEntity
  8
0
  6
CONTINUOUS
 62
           7
100
AcDbLine
 10
77.9941028698
 20
24.3861865758
 30
0.0
 11
78.0206728143
 21
24.4406091864
 31
0.0
1001
ACAD
1000
RTMaterial
1005
185D
  0
LINE
  5
1620
100
AcDbEntity
  8
0
  6
CONTINUOUS
 62
           7
100
AcDbLine
 10
77.9674281561
 20
24.3348374533
 30
0.0
 11
77.9949010151
 21
24.3877713422
 31
0.0
1001
ACAD
1000
RTMaterial
1005
185D
  0
LINE
  5
1621
100
AcDbEntity
  8
0
  6
CONTINUOUS
 62
           7
100
AcDbLine
 10
77.9400185883
 20
24.2850504806
 30
0.0
 11
77.9683107458
 21
24.3364885744
 31
0.0
1001
ACAD
1000
RTMaterial
1005
185D
  0
LINE
  5
1622
100
AcDbEntity
  8
0
  6
CONTINUOUS
 62
           7
100
AcDbLine
 10
77.9119566015
 20
24.2368216796
 30
0.0
 11
77.9409856357
 21
24.2867599906
 31
0.0
1001
ACAD
1000
RTMaterial
1005
185D
  0
LINE
  5
1623
100
AcDbEntity
  8
0
  6
CONTINUOUS
 62
           7
100
AcDbLine
 10
77.8833226005
 20
24.190144006
 30
0.0
 11
77.913007468
 21
24.238581633
 31
0.0
1001
ACAD
1000
RTMaterial
1005
185D
  0
LINE
  5
1624
100
AcDbEntity
  8
0
  6
CONTINUOUS
 62
           7
100
AcDbLine
 10
77.8541875091
 20
24.144996407
 30
0.0
 11
77.8844560414
 21
24.1919465627
 31
0.0
1001
ACAD
1000
RTMaterial
1005
185D
  0
LINE
  5
1625
100
AcDbEntity
  8
0
  6
CONTINUOUS
 62
           7
100
AcDbLine
 10
77.8246061977
 20
24.1013372452
 30
0.0
 11
77.8554024392
 21
24.1468349679
 31
0.0
1001
ACAD
1000
RTMaterial
1005
185D
  0
LINE
  5
1626
100
AcDbEntity
  8
0
  6
CONTINUOUS
 62
           7
100
AcDbLine
 10
77.7946276016
 20
24.0591225888
 30
0.0
 11
77.825901753
 21
24.1032062877
 31
0.0
1001
ACAD
1000
RTMaterial
1005
185D
  0
LINE
  5
1627
100
AcDbEntity
  8
0
  6
CONTINUOUS
 62
           7
100
AcDbLine
 10
77.7642960376
 20
24.0183083114
 30
0.0
 11
77.7960030417
 21
24.061017343
 31
0.0
1001
ACAD
1000
RTMaterial
1005
185D
  0
LINE
  5
1628
100
AcDbEntity
  8
0
  6
CONTINUOUS
 62
           7
100
AcDbLine
 10
77.7336513979
 20
23.9788502944
 30
0.0
 11
77.7657508163
 21
24.0202247278
 31
0.0
1001
ACAD
1000
RTMaterial
1005
185D
  0
LINE
  5
1629
100
AcDbEntity
  8
0
  6
CONTINUOUS
 62
           7
100
AcDbLine
 10
83.8544323487
 20
41.7417181356
 30
0.0
 11
83.9558681114
 21
40.5823020631
 31
0.0
1001
ACAD
1000
RTMaterial
1005
185D
  0
LWPOLYLINE
  5
162A
100
AcDbEntity
  8
0
  6
CONTINUOUS
 62
           7
100
AcDbPolyline
 90
       12
 70
           0
 10
83.8544323515
 20
41.7417181033
 10
83.8484430359
 20
41.7832453888
 10
83.8378325811
 20
41.8239046478
 10
83.8220852276
 20
41.8645657047
 10
83.80201689
 20
41.9026395239
 10
83.7768683883
 20
41.9392599008
 10
83.7484218425
 20
41.9717804079
 10
83.7150211393
 20
42.0019395506
 10
83.6792962393
 20
42.0272292894
 10
83.6409159143
 20
42.0481613619
 10
83.6001336283
 20
42.0645605696
 10
83.5585261459
 20
42.0759037053
1001
ACAD
1000
RTMaterial
1005
185D
  0
ARC
  5
1849
100
AcDbEntity
  8
0
  6
CONTINUOUS
 62
           7
100
AcDbCircle
 10
37.0255006604
 20
25.9328904502
 30
0.0
 40
2.375
100
AcDbArc
 50
203.9999999999
 51
269.0327685226
1001
ACAD
1000
RTMaterial
1005
185D
  0
ARC
  5
184A
100
AcDbEntity
  8
0
  6
CONTINUOUS
 62
           7
100
AcDbCircle
 10
74.2273147208
 20
22.8323020631
 30
0.0
 40
0.375
100
AcDbArc
 50
270.0
 51
315.0
1001
ACAD
1000
RTMaterial
1005
185D
  0
ARC
  5
184B
100
AcDbEntity
  8
0
  6
CONTINUOUS
 62
           7
100
AcDbCircle
 10
38.5988796195
 20
23.1758057001
 30
0.0
 40
0.2187492892
100
AcDbArc
 50
28.2722020028
 51
68.7738664207
1001
ACAD
1000
RTMaterial
1005
185D
  0
ARC
  5
184C
100
AcDbEntity
  8
0
  6
CONTINUOUS
 62
           7
100
AcDbCircle
 10
74.993469868
 20
22.8913504346
 30
0.0
 40
0.1249999997
100
AcDbArc
 50
110.9586630786
 51
134.9999989062
1001
ACAD
1000
RTMaterial
1005
185D
  0
ARC
  5
184D
100
AcDbEntity
  8
0
  6
CONTINUOUS
 62
           7
100
AcDbCircle
 10
38.9911948902
 20
23.1603118137
 30
0.0
 40
0.0937499696
100
AcDbArc
 50
237.8323543079
 51
258.7935197392
1001
ACAD
1000
RTMaterial
1005
185D
  0
ARC
  5
184E
100
AcDbEntity
  8
0
  6
CONTINUOUS
 62
           7
100
AcDbCircle
 10
39.3503794708
 20
22.9398929102
 30
0.0
 40
0.0937498303
100
AcDbArc
 50
218.1348921548
 51
240.0590558964
1001
ACAD
1000
RTMaterial
1005
185D
  0
ENDSEC
  0
SECTION
  2
OBJECTS
  0
DICTIONARY
  5
C
100
AcDbDictionary
280
           0
281
           1
  3
ACAD_COLOR
350
1886
  3
ACAD_GROUP
350
D
  3
ACAD_LAYOUT
350
1A
  3
ACAD_MATERIAL
350
185C
  3
ACAD_MLEADERSTYLE
350
18AB
  3
ACAD_MLINESTYLE
350
17
  3
ACAD_PLOTSETTINGS
350
19
  3
ACAD_SCALELIST
350
1889
  3
ACAD_TABLESTYLE
350
1887
  3
ACAD_VISUALSTYLE
350
1875
  3
ACDB_RECOMPOSE_DATA
350
18B0
  3
ACDBVARIABLEDICTIONARY
350
18F1
  0
DICTIONARY
  5
D
102
{ACAD_REACTORS
330
C
102
}
100
AcDbDictionary
280
           0
281
           1
  0
DICTIONARY
  5
17
102
{ACAD_REACTORS
330
C
102
}
100
AcDbDictionary
280
           0
281
           1
  3
STANDARD
350
18
  0
MLINESTYLE
  5
18
102
{ACAD_REACTORS
330
17
102
}
100
AcDbMlineStyle
  2
Standard
 70
           0
  3

 62
         256
 51
90.0
 52
90.0
 71
           2
 49
0.5
 62
         256
  6
BYLAYER
 49
-0.5
 62
         256
  6
BYLAYER
  0
ACDBDICTIONARYWDFLT
  5
E
102
{ACAD_REACTORS
330
C
102
}
100
AcDbDictionary
281
           1
  3
NORMAL
350
F
100
AcDbDictionaryWithDefault
340
F
  0
ACDBPLACEHOLDER
  5
F
102
{ACAD_REACTORS
330
E
102
}
  0
LAYOUT
  5
1858
102
{ACAD_REACTORS
330
1A
102
}
100
AcDbPlotSettings
  1

  2
none_device
  4

  6

 40
0.0
 41
0.0
 42
0.0
 43
0.0
 44
431.8
 45
279.4
 46
0.0
 47
0.0
 48
0.0
 49
0.0
140
0.0
141
0.0
142
1.0
143
1.0
 70
        1024
 72
           0
 73
           0
 74
           0
  7

 75
           0
147
1.0
148
0.0
149
0.0
100
AcDbLayout
  1
Model
 70
           0
 71
           0
 10
0.0
 20
0.0
 11
17.0
 21
11.0
 12
0.0
 22
0.0
 32
0.0
 14
0.0
 24
0.0
 34
0.0
 15
0.0
 25
0.0
 35
0.0
146
0.0
 13
0.0
 23
0.0
 33
0.0
 16
1.0
 26
0.0
 36
0.0
 17
0.0
 27
1.0
 37
0.0
 76
           0
330
21C
331
0
345
0
346
0
  0
LAYOUT
  5
1859
102
{ACAD_REACTORS
330
1A
102
}
100
AcDbPlotSettings
  1

  2
none_device
  4

  6

 40
0.0
 41
0.0
 42
0.0
 43
0.0
 44
431.8
 45
279.4
 46
0.0
 47
0.0
 48
0.0
 49
0.0
140
0.0
141
0.0
142
1.0
143
1.0
 70
           0
 72
           0
 73
           0
 74
           0
  7

 75
           0
147
1.0
148
0.0
149
0.0
100
AcDbLayout
  1
Layout1
 70
           0
 71
           1
 10
0.0
 20
0.0
 11
17.0
 21
11.0
 12
0.0
 22
0.0
 32
0.0
 14
0.0
 24
0.0
 34
0.0
 15
0.0
 25
0.0
 35
0.0
146
0.0
 13
0.0
 23
0.0
 33
0.0
 16
1.0
 26
0.0
 36
0.0
 17
0.0
 27
1.0
 37
0.0
 76
           0
330
21D
331
0
345
0
346
0
  0
DICTIONARY
  5
1A
102
{ACAD_REACTORS
330
C
102
}
100
AcDbDictionary
280
           0
281
           1
  3
LAYOUT1
350
1859
  3
MODEL
350
1858
  0
DICTIONARY
  5
19
102
{ACAD_REACTORS
330
C
102
}
100
AcDbDictionary
280
           0
281
           1
  0
WIPEOUTVARIABLES
  5
18F9
100
AcDbWipeoutVariables
 70
           1
  0
DICTIONARY
  5
185C
102
{ACAD_REACTORS
330
C
102
}
100
AcDbDictionary
280
           0
281
           1
  3
BYBLOCK
350
1865
  3
BYLAYER
350
185D
  3
GLOBAL
350
186D
  0
ACAD_PROXY_OBJECT
  5
185D
102
{ACAD_REACTORS
330
185C
102
}
330
185C
100
AcDbProxyObject
 90
      499
 91
      503
 95
        0
 70
           0
 93
     1340
310
42109E53185E595C802004014080404555555555555953FAA155555555555654FEA9AA400014080404555555555555953FAA155555555555654FEA9AA400000000000000E03F4080404555555555555953FAA155555555555654FEA9AA4014080404555555555555953FAA155555555555654FEA9AA4010201011555555555
310
55654FEA8555555555555953FAA6A9005020101155555555555654FEA8555555555555953FAA6A9000
 94
        0
  0
DICTIONARY
  5
185E
100
AcDbDictionary
280
           0
281
           1
  3
ACAD_XREC_ROUNDTRIP
350
18ED
  3
BUMPTILE
350
1860
  3
DIFFUSETILE
350
185F
  3
OPACITYTILE
350
1863
  3
REFLECTIONTILE
350
1862
  3
REFRACTIONTILE
350
1864
  3
SPECULARTILE
350
1861
  0
XRECORD
  5
185F
102
{ACAD_REACTORS
330
185E
102
}
100
AcDbXrecord
280
           0
  0
XRECORD
  5
1860
102
{ACAD_REACTORS
330
185E
102
}
100
AcDbXrecord
280
           0
  0
XRECORD
  5
1861
102
{ACAD_REACTORS
330
185E
102
}
100
AcDbXrecord
280
           0
  0
XRECORD
  5
1862
102
{ACAD_REACTORS
330
185E
102
}
100
AcDbXrecord
280
           0
  0
XRECORD
  5
1863
102
{ACAD_REACTORS
330
185E
102
}
100
AcDbXrecord
280
           0
  0
XRECORD
  5
1864
102
{ACAD_REACTORS
330
185E
102
}
100
AcDbXrecord
280
           0
  0
ACAD_PROXY_OBJECT
  5
1865
102
{ACAD_REACTORS
330
185C
102
}
330
185C
100
AcDbProxyObject
 90
      499
 91
      503
 95
        0
 70
           0
 93
     1340
310
42109E509B1BD8DAC02004014080404555555555555953FAA155555555555654FEA9AA400014080404555555555555953FAA155555555555654FEA9AA400000000000000E03F4080404555555555555953FAA155555555555654FEA9AA4014080404555555555555953FAA155555555555654FEA9AA4010201011555555555
310
55654FEA8555555555555953FAA6A9005020101155555555555654FEA8555555555555953FAA6A9000
 94
        0
  0
DICTIONARY
  5
1866
100
AcDbDictionary
280
           0
281
           1
  3
ACAD_XREC_ROUNDTRIP
350
18EE
  3
BUMPTILE
350
1868
  3
DIFFUSETILE
350
1867
  3
OPACITYTILE
350
186B
  3
REFLECTIONTILE
350
186A
  3
REFRACTIONTILE
350
186C
  3
SPECULARTILE
350
1869
  0
XRECORD
  5
1867
102
{ACAD_REACTORS
330
1866
102
}
100
AcDbXrecord
280
           0
  0
XRECORD
  5
1868
102
{ACAD_REACTORS
330
1866
102
}
100
AcDbXrecord
280
           0
  0
XRECORD
  5
1869
102
{ACAD_REACTORS
330
1866
102
}
100
AcDbXrecord
280
           0
  0
XRECORD
  5
186A
102
{ACAD_REACTORS
330
1866
102
}
100
AcDbXrecord
280
           0
  0
XRECORD
  5
186B
102
{ACAD_REACTORS
330
1866
102
}
100
AcDbXrecord
280
           0
  0
XRECORD
  5
186C
102
{ACAD_REACTORS
330
1866
102
}
100
AcDbXrecord
280
           0
  0
ACAD_PROXY_OBJECT
  5
186D
102
{ACAD_REACTORS
330
185C
102
}
330
185C
100
AcDbProxyObject
 90
      499
 91
      503
 95
        0
 70
           0
 93
     1332
310
41D1DB1BD8985B002004014080404555555555555953FAA155555555555654FEA9AA400014080404555555555555953FAA155555555555654FEA9AA400000000000000E03F4080404555555555555953FAA155555555555654FEA9AA4014080404555555555555953FAA155555555555654FEA9AA401020101155555555555
310
654FEA8555555555555953FAA6A9005020101155555555555654FEA8555555555555953FAA6A9000
 94
        0
  0
DICTIONARY
  5
186E
100
AcDbDictionary
280
           0
281
           1
  3
ACAD_XREC_ROUNDTRIP
350
18EF
  3
BUMPTILE
350
1870
  3
DIFFUSETILE
350
186F
  3
OPACITYTILE
350
1873
  3
REFLECTIONTILE
350
1872
  3
REFRACTIONTILE
350
1874
  3
SPECULARTILE
350
1871
  0
XRECORD
  5
186F
102
{ACAD_REACTORS
330
186E
102
}
100
AcDbXrecord
280
           0
  0
XRECORD
  5
1870
102
{ACAD_REACTORS
330
186E
102
}
100
AcDbXrecord
280
           0
  0
XRECORD
  5
1871
102
{ACAD_REACTORS
330
186E
102
}
100
AcDbXrecord
280
           0
  0
XRECORD
  5
1872
102
{ACAD_REACTORS
330
186E
102
}
100
AcDbXrecord
280
           0
  0
XRECORD
  5
1873
102
{ACAD_REACTORS
330
186E
102
}
100
AcDbXrecord
280
           0
  0
XRECORD
  5
1874
102
{ACAD_REACTORS
330
186E
102
}
100
AcDbXrecord
280
           0
  0
DICTIONARY
  5
1875
102
{ACAD_REACTORS
330
C
102
}
100
AcDbDictionary
280
           0
281
           1
  3
2DWIREFRAME
350
187B
  3
3D HIDDEN
350
187D
  3
3DWIREFRAME
350
187C
  3
BASIC
350
187A
  3
BRIGHTEN
350
1881
  3
COLORCHANGE
350
1885
  3
CONCEPTUAL
350
187E
  3
DIM
350
1880
  3
FACEPATTERN
350
1884
  3
FLAT
350
1876
  3
FLATWITHEDGES
350
1877
  3
GOURAUD
350
1878
  3
GOURAUDWITHEDGES
350
1879
  3
LINEPATTERN
350
1883
  3
REALISTIC
350
187F
  3
THICKEN
350
1882
  0
ACAD_PROXY_OBJECT
  5
1876
102
{ACAD_REACTORS
330
1875
102
}
330
1875
100
AcDbProxyObject
 90
      499
 91
      504
 95
        0
 70
           0
 93
      396
310
41519B185D00240901404333333333333E3BF0000000000000F9010740A41107004050150841D405064090741402480A1B50
 94
        0
1001
ACAD
1000
AcDbSavedByObjectVersion
1070
           0
  0
ACAD_PROXY_OBJECT
  5
1877
102
{ACAD_REACTORS
330
1875
102
}
330
1875
100
AcDbProxyObject
 90
      499
 91
      504
 95
        0
 70
           0
 93
      484
310
43919B185D15DA5D1A115919D95CC010140901404333333333333E3BF0000000000000F9010740901411070040501600405405064090741402480A1B50
 94
        0
1001
ACAD
1000
AcDbSavedByObjectVersion
1070
           0
  0
ACAD_PROXY_OBJECT
  5
1878
102
{ACAD_REACTORS
330
1875
102
}
330
1875
100
AcDbProxyObject
 90
      499
 91
      504
 95
        0
 70
           0
 93
      420
310
4211DBDD5C985D590010240902404333333333333E3BF0000000000000F9010740A411070040501641D405064090741402480A1B50
 94
        0
1001
ACAD
1000
AcDbSavedByObjectVersion
1070
           0
  0
ACAD_PROXY_OBJECT
  5
1879
102
{ACAD_REACTORS
330
1875
102
}
330
1875
100
AcDbProxyObject
 90
      499
 91
      504
 95
        0
 70
           0
 93
      508
310
4451DBDD5C985D5915DA5D1A115919D95CC010340902404333333333333E3BF0000000000000F9010740901411070040501600405405064090741402480A1B50
 94
        0
1001
ACAD
1000
AcDbSavedByObjectVersion
1070
           0
  0
ACAD_PROXY_OBJECT
  5
187A
102
{ACAD_REACTORS
330
1875
102
}
330
1875
100
AcDbProxyObject
 90
      499
 91
      504
 95
        0
 70
           0
 93
      396
310
4190985CDA58C0107406404333333333333E3BF0000000000000FB0107A41107004050150841D405064090741402480A0350
 94
        0
1001
ACAD
1000
AcDbSavedByObjectVersion
1070
           0
  0
ACAD_PROXY_OBJECT
  5
187B
102
{ACAD_REACTORS
330
1875
102
}
330
1875
100
AcDbProxyObject
 90
      499
 91
      504
 95
        0
 70
           0
 93
      444
310
430C9915DA5C99599C985B59401049028333333333333E3BF0000000000000FB0107901411070040501600405405064090741402480A0340
 94
        0
1001
ACAD
1000
AcDbSavedByObjectVersion
1070
           0
  0
ACAD_PROXY_OBJECT
  5
187C
102
{ACAD_REACTORS
330
1875
102
}
330
1875
100
AcDbProxyObject
 90
      499
 91
      504
 95
        0
 70
           0
 93
      444
310
430CD915DA5C99599C985B59401059028333333333333E3BF0000000000000FB0107901411070040501600405405064090741402480A0340
 94
        0
1001
ACAD
1000
AcDbSavedByObjectVersion
1070
           0
  0
ACAD_PROXY_OBJECT
  5
187D
102
{ACAD_REACTORS
330
1875
102
}
330
1875
100
AcDbProxyObject
 90
      499
 91
      504
 95
        0
 70
           0
 93
      508
310
428CD108121A5919195B8010640502408333333333333E3BF0000000000000FB01079024090700405020000000000001110200405405064090740C02480A0340
 94
        0
1001
ACAD
1000
AcDbSavedByObjectVersion
1070
           0
  0
ACAD_PROXY_OBJECT
  5
187E
102
{ACAD_REACTORS
330
1875
102
}
330
1875
100
AcDbProxyObject
 90
      499
 91
      504
 95
        0
 70
           0
 93
      508
310
42D0DBDB98D95C1D1D585B0010940D028333333333333E3BF0000000000000FB0107902409070040501000000000000111010841D405064090740C02480A0340
 94
        0
1001
ACAD
1000
AcDbSavedByObjectVersion
1070
           0
  0
ACAD_PROXY_OBJECT
  5
187F
102
{ACAD_REACTORS
330
1875
102
}
330
1875
100
AcDbProxyObject
 90
      499
 91
      504
 95
        0
 70
           0
 93
      428
310
429499585B1A5CDD1A58C0108409028333333333333E3BF0000000000000FB01079019070040501508421405064090741402480A1B40
 94
        0
1001
ACAD
1000
AcDbSavedByObjectVersion
1070
           0
  0
ACAD_PROXY_OBJECT
  5
1880
102
{ACAD_REACTORS
330
1875
102
}
330
1875
100
AcDbProxyObject
 90
      499
 91
      504
 95
        0
 70
           0
 93
      420
310
41111A5B4010B409028333333333333E3BF0000000000000FB010790141107004050150841D405064090741402480A02677FFFFFD0
 94
        0
1001
ACAD
1000
AcDbSavedByObjectVersion
1070
           0
  0
ACAD_PROXY_OBJECT
  5
1881
102
{ACAD_REACTORS
330
1875
102
}
330
1875
100
AcDbProxyObject
 90
      499
 91
      504
 95
        0
 70
           0
 93
      436
310
42509C9A59DA1D195B8010C409028333333333333E3BF0000000000000FB010790141107004050150841D405064090741402480A029950
 94
        0
1001
ACAD
1000
AcDbSavedByObjectVersion
1070
           0
  0
ACAD_PROXY_OBJECT
  5
1882
102
{ACAD_REACTORS
330
1875
102
}
330
1875
100
AcDbProxyObject
 90
      499
 91
      504
 95
        0
 70
           0
 93
      420
310
42151A1A58DAD95B8010D409028333333333333E3BF0000000000000FB010790141107004050150C41D405064090741402480A0350
 94
        0
1001
ACAD
1000
AcDbSavedByObjectVersion
1070
           0
  0
ACAD_PROXY_OBJECT
  5
1883
102
{ACAD_REACTORS
330
1875
102
}
330
1875
100
AcDbProxyObject
 90
      499
 91
      504
 95
        0
 70
           0
 93
      452
310
43131A5B995C185D1D195C9B8010E409028333333333333E3BF0000000000000FB010790141107004050750841D405064090741402483A0350
 94
        0
1001
ACAD
1000
AcDbSavedByObjectVersion
1070
           0
  0
ACAD_PROXY_OBJECT
  5
1884
102
{ACAD_REACTORS
330
1875
102
}
330
1875
100
AcDbProxyObject
 90
      499
 91
      504
 95
        0
 70
           0
 93
      452
310
43119858D95C185D1D195C9B8010F409028333333333333E3BF0000000000000FB010790141107004050150841D405064090741402480A0350
 94
        0
1001
ACAD
1000
AcDbSavedByObjectVersion
1070
           0
  0
ACAD_PROXY_OBJECT
  5
1885
102
{ACAD_REACTORS
330
1875
102
}
330
1875
100
AcDbProxyObject
 90
      499
 91
      504
 95
        0
 70
           0
 93
      460
310
4310DBDB1BDC90DA185B99D9401104090240C333333333333E3BF0000000000000FB0108901411070040501508421405064090741402480A0350
 94
        0
1001
ACAD
1000
AcDbSavedByObjectVersion
1070
           0
  0
DICTIONARY
  5
1886
102
{ACAD_REACTORS
330
C
102
}
100
AcDbDictionary
280
           0
281
           1
  0
DICTIONARY
  5
1887
102
{ACAD_REACTORS
330
C
102
}
100
AcDbDictionary
280
           0
281
           1
  3
STANDARD
350
1888
  0
ACAD_PROXY_OBJECT
  5
1888
102
{ACAD_REACTORS
330
1887
102
}
330
1887
100
AcDbProxyObject
 90
      499
 91
      505
 95
        0
 70
           0
 93
     1849
310
4254DD185B99185C990028B81E85EB51B8AE3F2E07A17AD46E2B8FC02B5E8DC0F42B1CFD028000000C1008070000C3001FDFF8000000C1003FBFF000000182007F7FE00000030400FEFFC00000060801FDFF8000000C1003FBFF00000018200000000000000681FA0B0000001820100E000186003FBFF000000182007F7FE0
310
0000030400FEFFC00000060801FDFF8000000C1003FBFF000000182007F7FE000000304000AD7A3703D0AC73F4160000003040201C00030C007F7FE00000030400FEFFC00000060801FDFF8000000C1003FBFF000000182007F7FE00000030400FEFFC000000608000
340
11
340
11
340
11
 94
        0
  0
DICTIONARY
  5
1889
102
{ACAD_REACTORS
330
C
102
}
100
AcDbDictionary
280
           0
281
           1
  3
A0
350
188A
  3
A1
350
188B
  3
A2
350
188C
  3
A3
350
188D
  3
A4
350
188E
  3
A5
350
188F
  3
A6
350
1890
  3
A7
350
1891
  3
A8
350
1892
  3
A9
350
1893
  3
B0
350
1894
  3
B1
350
1895
  3
B2
350
1896
  3
B3
350
1897
  3
B4
350
1898
  3
B5
350
1899
  3
B6
350
189A
  3
B7
350
189B
  3
B8
350
189C
  3
B9
350
189D
  3
C0
350
189E
  3
C1
350
189F
  3
C2
350
18A0
  3
C3
350
18A1
  3
C4
350
18A2
  3
C5
350
18A3
  3
C6
350
18A4
  3
C7
350
18A5
  3
C8
350
18A6
  3
C9
350
18A7
  3
D0
350
18A8
  3
D1
350
18A9
  3
D2
350
18AA
  0
ACAD_PROXY_OBJECT
  5
188A
102
{ACAD_REACTORS
330
1889
102
}
330
1889
100
AcDbProxyObject
 90
      499
 91
      506
 95
        0
 70
           0
 93
       49
310
904313A3100580
 94
        0
  0
ACAD_PROXY_OBJECT
  5
188B
102
{ACAD_REACTORS
330
1889
102
}
330
1889
100
AcDbProxyObject
 90
      499
 91
      506
 95
        0
 70
           0
 93
      113
310
904313A32004000000000000004000
 94
        0
  0
ACAD_PROXY_OBJECT
  5
188C
102
{ACAD_REACTORS
330
1889
102
}
330
1889
100
AcDbProxyObject
 90
      499
 91
      506
 95
        0
 70
           0
 93
      113
310
904313A34004000000000000104000
 94
        0
  0
ACAD_PROXY_OBJECT
  5
188D
102
{ACAD_REACTORS
330
1889
102
}
330
1889
100
AcDbProxyObject
 90
      499
 91
      506
 95
        0
 70
           0
 93
      113
310
904313A35004000000000000144000
 94
        0
  0
ACAD_PROXY_OBJECT
  5
188E
102
{ACAD_REACTORS
330
1889
102
}
330
1889
100
AcDbProxyObject
 90
      499
 91
      506
 95
        0
 70
           0
 93
      113
310
904313A38004000000000000204000
 94
        0
  0
ACAD_PROXY_OBJECT
  5
188F
102
{ACAD_REACTORS
330
1889
102
}
330
1889
100
AcDbProxyObject
 90
      499
 91
      506
 95
        0
 70
           0
 93
      121
310
905313A3130004000000000000244000
 94
        0
  0
ACAD_PROXY_OBJECT
  5
1890
102
{ACAD_REACTORS
330
1889
102
}
330
1889
100
AcDbProxyObject
 90
      499
 91
      506
 95
        0
 70
           0
 93
      121
310
905313A3136004000000000000304000
 94
        0
  0
ACAD_PROXY_OBJECT
  5
1891
102
{ACAD_REACTORS
330
1889
102
}
330
1889
100
AcDbProxyObject
 90
      499
 91
      506
 95
        0
 70
           0
 93
      121
310
905313A3230004000000000000344000
 94
        0
  0
ACAD_PROXY_OBJECT
  5
1892
102
{ACAD_REACTORS
330
1889
102
}
330
1889
100
AcDbProxyObject
 90
      499
 91
      506
 95
        0
 70
           0
 93
      121
310
905313A33300040000000000003E4000
 94
        0
  0
ACAD_PROXY_OBJECT
  5
1893
102
{ACAD_REACTORS
330
1889
102
}
330
1889
100
AcDbProxyObject
 90
      499
 91
      506
 95
        0
 70
           0
 93
      121
310
905313A3430004000000000000444000
 94
        0
  0
ACAD_PROXY_OBJECT
  5
1894
102
{ACAD_REACTORS
330
1889
102
}
330
1889
100
AcDbProxyObject
 90
      499
 91
      506
 95
        0
 70
           0
 93
      121
310
905313A3530004000000000000494000
 94
        0
  0
ACAD_PROXY_OBJECT
  5
1895
102
{ACAD_REACTORS
330
1889
102
}
330
1889
100
AcDbProxyObject
 90
      499
 91
      506
 95
        0
 70
           0
 93
      129
310
906313A313030004000000000000594000
 94
        0
  0
ACAD_PROXY_OBJECT
  5
1896
102
{ACAD_REACTORS
330
1889
102
}
330
1889
100
AcDbProxyObject
 90
      499
 91
      506
 95
        0
 70
           0
 93
      113
310
904323A31000000000000000010100
 94
        0
  0
ACAD_PROXY_OBJECT
  5
1897
102
{ACAD_REACTORS
330
1889
102
}
330
1889
100
AcDbProxyObject
 90
      499
 91
      506
 95
        0
 70
           0
 93
      113
310
904343A31000000000000000410100
 94
        0
  0
ACAD_PROXY_OBJECT
  5
1898
102
{ACAD_REACTORS
330
1889
102
}
330
1889
100
AcDbProxyObject
 90
      499
 91
      506
 95
        0
 70
           0
 93
      113
310
904383A31000000000000000810100
 94
        0
  0
ACAD_PROXY_OBJECT
  5
1899
102
{ACAD_REACTORS
330
1889
102
}
330
1889
100
AcDbProxyObject
 90
      499
 91
      506
 95
        0
 70
           0
 93
      121
310
90531303A31000000000000000910100
 94
        0
  0
ACAD_PROXY_OBJECT
  5
189A
102
{ACAD_REACTORS
330
1889
102
}
330
1889
100
AcDbProxyObject
 90
      499
 91
      506
 95
        0
 70
           0
 93
      129
310
9063130303A31000000000000001650100
 94
        0
  0
ACAD_PROXY_OBJECT
  5
189B
102
{ACAD_REACTORS
330
1889
102
}
330
1889
100
AcDbProxyObject
 90
      499
 91
      506
 95
        0
 70
           0
 93
      265
310
90F312F31323822203D2031272D302200000000000000200FC000000000000284000
 94
        0
  0
ACAD_PROXY_OBJECT
  5
189C
102
{ACAD_REACTORS
330
1889
102
}
330
1889
100
AcDbProxyObject
 90
      499
 91
      506
 95
        0
 70
           0
 93
      257
310
90E312F363422203D2031272D302200000000000000240FC000000000000284000
 94
        0
  0
ACAD_PROXY_OBJECT
  5
189D
102
{ACAD_REACTORS
330
1889
102
}
330
1889
100
AcDbProxyObject
 90
      499
 91
      506
 95
        0
 70
           0
 93
      257
310
90E312F333222203D2031272D302200000000000000280FC000000000000284000
 94
        0
  0
ACAD_PROXY_OBJECT
  5
189E
102
{ACAD_REACTORS
330
1889
102
}
330
1889
100
AcDbProxyObject
 90
      499
 91
      506
 95
        0
 70
           0
 93
      257
310
90E312F313622203D2031272D3022000000000000002C0FC000000000000284000
 94
        0
  0
ACAD_PROXY_OBJECT
  5
189F
102
{ACAD_REACTORS
330
1889
102
}
330
1889
100
AcDbProxyObject
 90
      499
 91
      506
 95
        0
 70
           0
 93
      257
310
90E332F333222203D2031272D3022000000000000002E0FC000000000000284000
 94
        0
  0
ACAD_PROXY_OBJECT
  5
18A0
102
{ACAD_REACTORS
330
1889
102
}
330
1889
100
AcDbProxyObject
 90
      499
 91
      506
 95
        0
 70
           0
 93
      249
310
90D312F3822203D2031272D302200000000000000300FC000000000000284000
 94
        0
  0
ACAD_PROXY_OBJECT
  5
18A1
102
{ACAD_REACTORS
330
1889
102
}
330
1889
100
AcDbProxyObject
 90
      499
 91
      506
 95
        0
 70
           0
 93
      257
310
90E332F313622203D2031272D302200000000000000320FC000000000000284000
 94
        0
  0
ACAD_PROXY_OBJECT
  5
18A2
102
{ACAD_REACTORS
330
1889
102
}
330
1889
100
AcDbProxyObject
 90
      499
 91
      506
 95
        0
 70
           0
 93
      249
310
90D312F3422203D2031272D302200000000000000340FC000000000000284000
 94
        0
  0
ACAD_PROXY_OBJECT
  5
18A3
102
{ACAD_REACTORS
330
1889
102
}
330
1889
100
AcDbProxyObject
 90
      499
 91
      506
 95
        0
 70
           0
 93
      249
310
90D332F3822203D2031272D302200000000000000360FC000000000000284000
 94
        0
  0
ACAD_PROXY_OBJECT
  5
18A4
102
{ACAD_REACTORS
330
1889
102
}
330
1889
100
AcDbProxyObject
 90
      499
 91
      506
 95
        0
 70
           0
 93
      249
310
90D312F3222203D2031272D302200000000000000380FC000000000000284000
 94
        0
  0
ACAD_PROXY_OBJECT
  5
18A5
102
{ACAD_REACTORS
330
1889
102
}
330
1889
100
AcDbProxyObject
 90
      499
 91
      506
 95
        0
 70
           0
 93
      249
310
90D332F3422203D2031272D3022000000000000003A0FC000000000000284000
 94
        0
  0
ACAD_PROXY_OBJECT
  5
18A6
102
{ACAD_REACTORS
330
1889
102
}
330
1889
100
AcDbProxyObject
 90
      499
 91
      506
 95
        0
 70
           0
 93
      169
310
90B3122203D2031272D3022004000000000000284000
 94
        0
  0
ACAD_PROXY_OBJECT
  5
18A7
102
{ACAD_REACTORS
330
1889
102
}
330
1889
100
AcDbProxyObject
 90
      499
 91
      506
 95
        0
 70
           0
 93
      265
310
90F312D312F3222203D2031272D3022000000000000003E0FC000000000000284000
 94
        0
  0
ACAD_PROXY_OBJECT
  5
18A8
102
{ACAD_REACTORS
330
1889
102
}
330
1889
100
AcDbProxyObject
 90
      499
 91
      506
 95
        0
 70
           0
 93
      233
310
90B3322203D2031272D30220000000000000002100000000000000284000
 94
        0
  0
ACAD_PROXY_OBJECT
  5
18A9
102
{ACAD_REACTORS
330
1889
102
}
330
1889
100
AcDbProxyObject
 90
      499
 91
      506
 95
        0
 70
           0
 93
      233
310
90B3622203D2031272D30220000000000000006100000000000000284000
 94
        0
  0
ACAD_PROXY_OBJECT
  5
18AA
102
{ACAD_REACTORS
330
1889
102
}
330
1889
100
AcDbProxyObject
 90
      499
 91
      506
 95
        0
 70
           0
 93
      257
310
90E31272D3022203D2031272D3022000000000000000A100000000000000284000
 94
        0
  0
DICTIONARY
  5
18AB
102
{ACAD_REACTORS
330
C
102
}
100
AcDbDictionary
280
           0
281
           1
  3
STANDARD
350
18AC
  0
ACAD_PROXY_OBJECT
  5
18AC
102
{ACAD_REACTORS
330
18AB
102
}
330
18AB
100
AcDbProxyObject
 90
      499
 91
      507
 95
        0
 70
           0
 93
      618
310
40901902A4063FBFFFFFE056BD1B81E855B9FC0AD7A3703D0AD73F4254DD185B99185C990000AD7A3703D0AC73F90141901A02B5E8DC0F42B1CFC02B5E8DC0F42B1CFE5764000000000000300FC0
340
14
340
18FA
340
11
340
18FB
 94
        0
1001
ACAD_MLEADERVER
1070
           2
  0
DICTIONARY
  5
18AE
100
AcDbDictionary
280
           0
281
           1
  3
ACAD_ROUNDTRIP_2008_TABLESTYLE_CELLSTYLEMAP
350
18AF
  3
ACAD_XREC_ROUNDTRIP
350
18F0
  0
ACAD_PROXY_OBJECT
  5
18AF
102
{ACAD_REACTORS
330
18AE
102
}
330
18AE
100
AcDbProxyObject
 90
      499
 91
      508
 95
        0
 70
           0
 93
     1044
310
40D054060020000020000003200101A000080002A5058000000C100000000000000340FE901405075F5449544C450041501A8000000C800406800020000A9416000000304000AD7A3703D0AC73FA409014217D2115051115480105406A0000003200101A000080002A5028000000C10002B5E8DC0F42B1CFE903409065F444
310
15441000
340
11
340
11
340
11
 94
        0
  0
XRECORD
  5
18B0
102
{ACAD_REACTORS
330
C
102
}
100
AcDbXrecord
280
           0
 90
        1
330
1888
  0
DICTIONARY
  5
18B1
100
AcDbDictionary
280
           0
281
           1
  3
ACAD_XREC_ROUNDTRIP
350
18B2
  0
XRECORD
  5
18B2
102
{ACAD_REACTORS
330
18B1
102
}
100
AcDbXrecord
280
           0
102
VTR_0.000_0.000_1.000_1.000_VISUALSTYLE
340
7B18000000000000
102
VTR_0.000_0.000_1.000_1.000_GRIDDISPLAY
 70
           3
102
VTR_0.000_0.000_1.000_1.000_GRIDMAJOR
 70
           5
102
VTR_0.000_0.000_1.000_1.000_DEFAULTLIGHTING
  0
DICTIONARY
  5
18B3
100
AcDbDictionary
280
           0
281
           1
  3
ACAD_XREC_ROUNDTRIP
350
18B4
  0
XRECORD
  5
18B4
102
{ACAD_REACTORS
330
18B3
102
}
100
AcDbXrecord
280
           0
102
MATERIAL
340
6D18000000000000
  0
DICTIONARY
  5
18B5
100
AcDbDictionary
280
           0
281
           1
  3
ACAD_XREC_ROUNDTRIP
350
18B6
  0
XRECORD
  5
18B6
102
{ACAD_REACTORS
330
18B5
102
}
100
AcDbXrecord
280
           0
102
MATERIAL
340
6D18000000000000
  0
DICTIONARY
  5
18B7
100
AcDbDictionary
280
           0
281
           1
  3
ACAD_XREC_ROUNDTRIP
350
18B8
  0
XRECORD
  5
18B8
102
{ACAD_REACTORS
330
18B7
102
}
100
AcDbXrecord
280
           0
102
MATERIAL
340
6D18000000000000
  0
DICTIONARY
  5
18B9
100
AcDbDictionary
280
           0
281
           1
  3
ACAD_XREC_ROUNDTRIP
350
18BA
  0
XRECORD
  5
18BA
102
{ACAD_REACTORS
330
18B9
102
}
100
AcDbXrecord
280
           0
102
MATERIAL
340
6D18000000000000
  0
DICTIONARY
  5
18BB
100
AcDbDictionary
280
           0
281
           1
  3
ACAD_XREC_ROUNDTRIP
350
18BC
  0
XRECORD
  5
18BC
102
{ACAD_REACTORS
330
18BB
102
}
100
AcDbXrecord
280
           0
102
MATERIAL
340
6D18000000000000
  0
DICTIONARY
  5
18BD
100
AcDbDictionary
280
           0
281
           1
  3
ACAD_XREC_ROUNDTRIP
350
18BE
  0
XRECORD
  5
18BE
102
{ACAD_REACTORS
330
18BD
102
}
100
AcDbXrecord
280
           0
102
MATERIAL
340
6D18000000000000
  0
DICTIONARY
  5
18BF
100
AcDbDictionary
280
           0
281
           1
  3
ACAD_XREC_ROUNDTRIP
350
18C0
  0
XRECORD
  5
18C0
102
{ACAD_REACTORS
330
18BF
102
}
100
AcDbXrecord
280
           0
102
MATERIAL
340
6D18000000000000
  0
DICTIONARY
  5
18C1
100
AcDbDictionary
280
           0
281
           1
  3
ACAD_XREC_ROUNDTRIP
350
18C2
  0
XRECORD
  5
18C2
102
{ACAD_REACTORS
330
18C1
102
}
100
AcDbXrecord
280
           0
102
MATERIAL
340
6D18000000000000
  0
DICTIONARY
  5
18C3
100
AcDbDictionary
280
           0
281
           1
  3
ACAD_XREC_ROUNDTRIP
350
18C4
  0
XRECORD
  5
18C4
102
{ACAD_REACTORS
330
18C3
102
}
100
AcDbXrecord
280
           0
102
MATERIAL
340
6D18000000000000
  0
DICTIONARY
  5
18C5
100
AcDbDictionary
280
           0
281
           1
  3
ACAD_XREC_ROUNDTRIP
350
18C6
  0
XRECORD
  5
18C6
102
{ACAD_REACTORS
330
18C5
102
}
100
AcDbXrecord
280
           0
102
MATERIAL
340
6D18000000000000
  0
DICTIONARY
  5
18C7
100
AcDbDictionary
280
           0
281
           1
  3
ACAD_XREC_ROUNDTRIP
350
18C8
  0
XRECORD
  5
18C8
102
{ACAD_REACTORS
330
18C7
102
}
100
AcDbXrecord
280
           0
102
MATERIAL
340
6D18000000000000
  0
DICTIONARY
  5
18C9
100
AcDbDictionary
280
           0
281
           1
  3
ACAD_XREC_ROUNDTRIP
350
18CA
  0
XRECORD
  5
18CA
102
{ACAD_REACTORS
330
18C9
102
}
100
AcDbXrecord
280
           0
102
MATERIAL
340
6D18000000000000
  0
DICTIONARY
  5
18CB
100
AcDbDictionary
280
           0
281
           1
  3
ACAD_XREC_ROUNDTRIP
350
18CC
  0
XRECORD
  5
18CC
102
{ACAD_REACTORS
330
18CB
102
}
100
AcDbXrecord
280
           0
102
MATERIAL
340
6D18000000000000
  0
DICTIONARY
  5
18CD
100
AcDbDictionary
280
           0
281
           1
  3
ACAD_XREC_ROUNDTRIP
350
18CE
  0
XRECORD
  5
18CE
102
{ACAD_REACTORS
330
18CD
102
}
100
AcDbXrecord
280
           0
102
MATERIAL
340
6D18000000000000
  0
DICTIONARY
  5
18CF
100
AcDbDictionary
280
           0
281
           1
  3
ACAD_XREC_ROUNDTRIP
350
18D0
  0
XRECORD
  5
18D0
102
{ACAD_REACTORS
330
18CF
102
}
100
AcDbXrecord
280
           0
102
MATERIAL
340
6D18000000000000
  0
DICTIONARY
  5
18D1
100
AcDbDictionary
280
           0
281
           1
  3
ACAD_XREC_ROUNDTRIP
350
18D2
  0
XRECORD
  5
18D2
102
{ACAD_REACTORS
330
18D1
102
}
100
AcDbXrecord
280
           0
102
MATERIAL
340
6D18000000000000
  0
DICTIONARY
  5
18D3
100
AcDbDictionary
280
           0
281
           1
  3
ACAD_XREC_ROUNDTRIP
350
18D4
  0
XRECORD
  5
18D4
102
{ACAD_REACTORS
330
18D3
102
}
100
AcDbXrecord
280
           0
102
MATERIAL
340
6D18000000000000
  0
DICTIONARY
  5
18D5
100
AcDbDictionary
280
           0
281
           1
  3
ACAD_XREC_ROUNDTRIP
350
18D6
  0
XRECORD
  5
18D6
102
{ACAD_REACTORS
330
18D5
102
}
100
AcDbXrecord
280
           0
102
MATERIAL
340
6D18000000000000
  0
DICTIONARY
  5
18D7
100
AcDbDictionary
280
           0
281
           1
  3
ACAD_XREC_ROUNDTRIP
350
18D8
  0
XRECORD
  5
18D8
102
{ACAD_REACTORS
330
18D7
102
}
100
AcDbXrecord
280
           0
102
MATERIAL
340
6D18000000000000
  0
DICTIONARY
  5
18D9
100
AcDbDictionary
280
           0
281
           1
  3
ACAD_XREC_ROUNDTRIP
350
18DA
  0
XRECORD
  5
18DA
102
{ACAD_REACTORS
330
18D9
102
}
100
AcDbXrecord
280
           0
102
MATERIAL
340
6D18000000000000
  0
DICTIONARY
  5
18DB
100
AcDbDictionary
280
           0
281
           1
  3
ACAD_XREC_ROUNDTRIP
350
18DC
  0
XRECORD
  5
18DC
102
{ACAD_REACTORS
330
18DB
102
}
100
AcDbXrecord
280
           0
102
MATERIAL
340
6D18000000000000
  0
DICTIONARY
  5
18DD
100
AcDbDictionary
280
           0
281
           1
  3
ACAD_XREC_ROUNDTRIP
350
18DE
  0
XRECORD
  5
18DE
102
{ACAD_REACTORS
330
18DD
102
}
100
AcDbXrecord
280
           0
102
MATERIAL
340
6D18000000000000
  0
DICTIONARY
  5
18DF
100
AcDbDictionary
280
           0
281
           1
  3
ACAD_XREC_ROUNDTRIP
350
18E0
  0
XRECORD
  5
18E0
102
{ACAD_REACTORS
330
18DF
102
}
100
AcDbXrecord
280
           0
102
MATERIAL
340
6D18000000000000
  0
DICTIONARY
  5
18E1
100
AcDbDictionary
280
           0
281
           1
  3
ACAD_XREC_ROUNDTRIP
350
18E2
  0
XRECORD
  5
18E2
102
{ACAD_REACTORS
330
18E1
102
}
100
AcDbXrecord
280
           0
102
MATERIAL
340
6D18000000000000
  0
DICTIONARY
  5
18E3
100
AcDbDictionary
280
           0
281
           1
  3
ACAD_XREC_ROUNDTRIP
350
18E4
  0
XRECORD
  5
18E4
102
{ACAD_REACTORS
330
18E3
102
}
100
AcDbXrecord
280
           0
102
MATERIAL
340
6D18000000000000
  0
DICTIONARY
  5
18E5
100
AcDbDictionary
280
           0
281
           1
  3
ACAD_XREC_ROUNDTRIP
350
18E6
  0
XRECORD
  5
18E6
102
{ACAD_REACTORS
330
18E5
102
}
100
AcDbXrecord
280
           0
102
MATERIAL
340
6D18000000000000
  0
DICTIONARY
  5
18E7
100
AcDbDictionary
280
           0
281
           1
  3
ACAD_XREC_ROUNDTRIP
350
18E8
  0
XRECORD
  5
18E8
102
{ACAD_REACTORS
330
18E7
102
}
100
AcDbXrecord
280
           0
102
MATERIAL
340
6D18000000000000
  0
DICTIONARY
  5
18E9
100
AcDbDictionary
280
           0
281
           1
  3
ACAD_XREC_ROUNDTRIP
350
18EA
  0
XRECORD
  5
18EA
102
{ACAD_REACTORS
330
18E9
102
}
100
AcDbXrecord
280
           0
102
SHADEPLOT
 70
           0
102
SHADEPLOTRESLEVEL
 70
           2
102
SHADEPLOTCUSTOMDPI
 70
         300
  0
DICTIONARY
  5
18EB
100
AcDbDictionary
280
           0
281
           1
  3
ACAD_XREC_ROUNDTRIP
350
18EC
  0
XRECORD
  5
18EC
102
{ACAD_REACTORS
330
18EB
102
}
100
AcDbXrecord
280
           0
102
SHADEPLOT
 70
           0
102
SHADEPLOTRESLEVEL
 70
           2
102
SHADEPLOTCUSTOMDPI
 70
         300
  0
XRECORD
  5
18ED
102
{ACAD_REACTORS
330
185E
102
}
100
AcDbXrecord
280
           0
102
MATERIAL
  0
XRECORD
  5
18EE
102
{ACAD_REACTORS
330
1866
102
}
100
AcDbXrecord
280
           0
102
MATERIAL
  0
XRECORD
  5
18EF
102
{ACAD_REACTORS
330
186E
102
}
100
AcDbXrecord
280
           0
102
MATERIAL
  0
XRECORD
  5
18F0
102
{ACAD_REACTORS
330
18AE
102
}
100
AcDbXrecord
280
           0
102
ACAD_ROUNDTRIP_PRE2007_TABLESTYLE
 90
      512
 91
        0
  1

 92
      512
 93
        0
  2

 94
      512
 95
        0
  3

  0
DICTIONARY
  5
18F1
102
{ACAD_REACTORS
330
C
102
}
100
AcDbDictionary
280
           0
281
           1
  3
CANNOSCALE
350
18F4
  3
CMLEADERSTYLE
350
18F3
  3
CTABLESTYLE
350
18F2
  3
DIMASSOC
350
18F7
  3
INDEXCTL
350
18F6
  3
SORTENTS
350
18F5
  3
DIMADEC
350
18F8
  0
DICTIONARYVAR
  5
18F2
102
{ACAD_REACTORS
330
18F1
102
}
100
DictionaryVariables
280
           0
  1
STANDARD
  0
DICTIONARYVAR
  5
18F3
102
{ACAD_REACTORS
330
18F1
102
}
100
DictionaryVariables
280
           0
  1
STANDARD
  0
DICTIONARYVAR
  5
18F4
102
{ACAD_REACTORS
330
18F1
102
}
100
DictionaryVariables
280
           0
  1
1:1
  0
DICTIONARYVAR
  5
18F5
102
{ACAD_REACTORS
330
18F1
102
}
100
DictionaryVariables
280
           0
  1
127
  0
DICTIONARYVAR
  5
18F6
102
{ACAD_REACTORS
330
18F1
102
}
100
DictionaryVariables
280
           0
  1
0
  0
DICTIONARYVAR
  5
18F7
102
{ACAD_REACTORS
330
18F1
102
}
100
DictionaryVariables
280
           0
  1
1
  0
DICTIONARYVAR
  5
18F8
102
{ACAD_REACTORS
330
18F1
102
}
100
DictionaryVariables
280
           0
  1
0
  0
ENDSEC
  0
EOF
