  0
SECTION
  2
HEADER
  9
$ACADVER
  1
AC1015
  9
$ACADMAINTVER
 70
           6
  9
$DWGCODEPAGE
  3
ANSI_1252
  9
$INSBASE
 10
0.0
 20
0.0
 30
0.0
  9
$EXTMIN
 10
120.6648750443
 20
21.0723020631
 30
0.0
  9
$EXTMAX
 10
162.6648750443
 20
43.3763891526
 30
0.0
  9
$LIMMIN
 10
0.0
 20
0.0
  9
$LIMMAX
 10
217.6
 20
140.8
  9
$ORTHOMODE
 70
           0
  9
$REGENMODE
 70
           1
  9
$FILLMODE
 70
           1
  9
$QTEXTMODE
 70
           0
  9
$MIRRTEXT
 70
           0
  9
$LTSCALE
 40
11.968
  9
$ATTMODE
 70
           1
  9
$TEXTSIZE
 40
0.2
  9
$TRACEWID
 40
0.05
  9
$TEXTSTYLE
  7
STANDARD
  9
$CLAYER
  8
0
  9
$CELTYPE
  6
ByLayer
  9
$CECOLOR
 62
         256
  9
$CELTSCALE
 40
1.0
  9
$DISPSILH
 70
           0
  9
$DIMSCALE
 40
1.0
  9
$DIMASZ
 40
2.4
  9
$DIMEXO
 40
1.36
  9
$DIMDLI
 40
8.2688
  9
$DIMRND
 40
0.0
  9
$DIMDLE
 40
0.0
  9
$DIMEXE
 40
3.9168
  9
$DIMTP
 40
0.0
  9
$DIMTM
 40
0.0
  9
$DIMTXT
 40
1.6
  9
$DIMCEN
 40
1.9584
  9
$DIMTSZ
 40
0.0
  9
$DIMTOL
 70
           0
  9
$DIMLIM
 70
           0
  9
$DIMTIH
 70
           1
  9
$DIMTOH
 70
           1
  9
$DIMSE1
 70
           0
  9
$DIMSE2
 70
           0
  9
$DIMTAD
 70
           0
  9
$DIMZIN
 70
           0
  9
$DIMBLK
  1
_FILLED
  9
$DIMASO
 70
           1
  9
$DIMSHO
 70
           1
  9
$DIMPOST
  1

  9
$DIMAPOST
  1

  9
$DIMALT
 70
           0
  9
$DIMALTD
 70
           2
  9
$DIMALTF
 40
25.4
  9
$DIMLFAC
 40
1.0
  9
$DIMTOFL
 70
           0
  9
$DIMTVP
 40
0.0
  9
$DIMTIX
 70
           0
  9
$DIMSOXD
 70
           0
  9
$DIMSAH
 70
           0
  9
$DIMBLK1
  1

  9
$DIMBLK2
  1

  9
$DIMSTYLE
  2
STANDARD
  9
$DIMCLRD
 70
           0
  9
$DIMCLRE
 70
           0
  9
$DIMCLRT
 70
           0
  9
$DIMTFAC
 40
1.0
  9
$DIMGAP
 40
0.09
  9
$DIMJUST
 70
           0
  9
$DIMSD1
 70
           0
  9
$DIMSD2
 70
           0
  9
$DIMTOLJ
 70
           1
  9
$DIMTZIN
 70
           0
  9
$DIMALTZ
 70
           0
  9
$DIMALTTZ
 70
           0
  9
$DIMUPT
 70
           0
  9
$DIMDEC
 70
           4
  9
$DIMTDEC
 70
           4
  9
$DIMALTU
 70
           2
  9
$DIMALTTD
 70
           2
  9
$DIMTXSTY
  7
STANDARD
  9
$DIMAUNIT
 70
           0
  9
$DIMADEC
 70
           0
  9
$DIMALTRND
 40
0.0
  9
$DIMAZIN
 70
           0
  9
$DIMDSEP
 70
           0
  9
$DIMATFIT
 70
           3
  9
$DIMFRAC
 70
           0
  9
$DIMLDRBLK
  1

  9
$DIMLUNIT
 70
           2
  9
$DIMLWD
 70
          -2
  9
$DIMLWE
 70
          -2
  9
$DIMTMOVE
 70
           0
  9
$LUNITS
 70
           2
  9
$LUPREC
 70
           4
  9
$SKETCHINC
 40
0.1
  9
$FILLETRAD
 40
0.0
  9
$AUNITS
 70
           0
  9
$AUPREC
 70
           0
  9
$MENU
  1
.
  9
$ELEVATION
 40
0.0
  9
$PELEVATION
 40
0.0
  9
$THICKNESS
 40
0.0
  9
$LIMCHECK
 70
           0
  9
$CHAMFERA
 40
0.0
  9
$CHAMFERB
 40
0.0
  9
$CHAMFERC
 40
0.0
  9
$CHAMFERD
 40
0.0
  9
$SKPOLY
 70
           0
  9
$TDCREATE
 40
2455183.577242419
  9
$TDUCREATE
 40
0.000000000
  9
$TDUPDATE
 40
2455183.370910000
  9
$TDUUPDATE
 40
0.000000000
  9
$TDINDWG
 40
0.0007754514
  9
$TDUSRTIMER
 40
0.0007754514
  9
$USRTIMER
 70
           1
  9
$ANGBASE
 50
0.0
  9
$ANGDIR
 70
           0
  9
$PDMODE
 70
           3
  9
$PDSIZE
 40
0.03125
  9
$PLINEWID
 40
0.0
  9
$SPLFRAME
 70
           0
  9
$SPLINETYPE
 70
           6
  9
$SPLINESEGS
 70
           8
  9
$HANDSEED
  5
18FD
  9
$SURFTAB1
 70
           6
  9
$SURFTAB2
 70
           6
  9
$SURFTYPE
 70
           6
  9
$SURFU
 70
           6
  9
$SURFV
 70
           6
  9
$UCSBASE
  2

  9
$UCSNAME
  2

  9
$UCSORG
 10
0.0
 20
0.0
 30
0.0
  9
$UCSXDIR
 10
1.0
 20
0.0
 30
0.0
  9
$UCSYDIR
 10
0.0
 20
1.0
 30
0.0
  9
$UCSORTHOREF
  2

  9
$UCSORTHOVIEW
 70
           0
  9
$UCSORGTOP
 10
0.0
 20
0.0
 30
0.0
  9
$UCSORGBOTTOM
 10
0.0
 20
0.0
 30
0.0
  9
$UCSORGLEFT
 10
0.0
 20
0.0
 30
0.0
  9
$UCSORGRIGHT
 10
0.0
 20
0.0
 30
0.0
  9
$UCSORGFRONT
 10
0.0
 20
0.0
 30
0.0
  9
$UCSORGBACK
 10
0.0
 20
0.0
 30
0.0
  9
$PUCSBASE
  2

  9
$PUCSNAME
  2

  9
$PUCSORG
 10
0.0
 20
0.0
 30
0.0
  9
$PUCSXDIR
 10
1.0
 20
0.0
 30
0.0
  9
$PUCSYDIR
 10
0.0
 20
1.0
 30
0.0
  9
$PUCSORTHOREF
  2

  9
$PUCSORTHOVIEW
 70
           0
  9
$PUCSORGTOP
 10
0.0
 20
0.0
 30
0.0
  9
$PUCSORGBOTTOM
 10
0.0
 20
0.0
 30
0.0
  9
$PUCSORGLEFT
 10
0.0
 20
0.0
 30
0.0
  9
$PUCSORGRIGHT
 10
0.0
 20
0.0
 30
0.0
  9
$PUCSORGFRONT
 10
0.0
 20
0.0
 30
0.0
  9
$PUCSORGBACK
 10
0.0
 20
0.0
 30
0.0
  9
$USERI1
 70
           0
  9
$USERI2
 70
           0
  9
$USERI3
 70
           0
  9
$USERI4
 70
           0
  9
$USERI5
 70
           0
  9
$USERR1
 40
0.0
  9
$USERR2
 40
0.0
  9
$USERR3
 40
0.0
  9
$USERR4
 40
0.0
  9
$USERR5
 40
0.0
  9
$WORLDVIEW
 70
           1
  9
$SHADEDGE
 70
           3
  9
$SHADEDIF
 70
          70
  9
$TILEMODE
 70
           1
  9
$MAXACTVP
 70
          16
  9
$PINSBASE
 10
0.0
 20
0.0
 30
0.0
  9
$PLIMCHECK
 70
           0
  9
$PEXTMIN
 10
1.000000000000E+20
 20
1.000000000000E+20
 30
1.000000000000E+20
  9
$PEXTMAX
 10
-1.000000000000E+20
 20
-1.000000000000E+20
 30
-1.000000000000E+20
  9
$PLIMMIN
 10
0.0
 20
0.0
  9
$PLIMMAX
 10
12.0
 20
9.0
  9
$UNITMODE
 70
           0
  9
$VISRETAIN
 70
           1
  9
$PLINEGEN
 70
           0
  9
$PSLTSCALE
 70
           1
  9
$TREEDEPTH
 70
        3020
  9
$CMLSTYLE
  2
Standard
  9
$CMLJUST
 70
           0
  9
$CMLSCALE
 40
1.0
  9
$PROXYGRAPHICS
 70
           1
  9
$MEASUREMENT
 70
           0
  9
$CELWEIGHT
370
          -1
  9
$ENDCAPS
280
           0
  9
$JOINSTYLE
280
           0
  9
$LWDISPLAY
290
           0
  9
$INSUNITS
 70
           1
  9
$HYPERLINKBASE
  1

  9
$XEDIT
290
           1
  9
$CEPSNTYPE
380
           0
  9
$PSTYLEMODE
290
           1
  9
$FINGERPRINTGUID
  2
{F33927E3-33E7-4C92-8E83-39E9A9F35415}
  9
$VERSIONGUID
  2
{92BFF4FB-7AA3-4F28-BC2F-469AA12B5C5D}
  9
$EXTNAMES
290
           1
  9
$PSVPSCALE
 40
0.0
  0
ENDSEC
  0
SECTION
  2
CLASSES
  0
CLASS
  1
ACDBDICTIONARYWDFLT
  2
AcDbDictionaryWithDefault
  3
ObjectDBX Classes
 90
        0
280
           0
281
           0
  0
CLASS
  1
ACDBPLACEHOLDER
  2
AcDbPlaceHolder
  3
ObjectDBX Classes
 90
        0
280
           0
281
           0
  0
CLASS
  1
LAYOUT
  2
AcDbLayout
  3
ObjectDBX Classes
 90
        0
280
           0
281
           0
  0
CLASS
  1
MATERIAL
  2
AcDbMaterial
  3
ObjectDBX Classes
 90
     1153
280
           0
281
           0
  0
CLASS
  1
VISUALSTYLE
  2
AcDbVisualStyle
  3
ObjectDBX Classes
 90
     4095
280
           0
281
           0
  0
CLASS
  1
TABLESTYLE
  2
AcDbTableStyle
  3
ObjectDBX Classes
 90
     4095
280
           0
281
           0
  0
CLASS
  1
SCALE
  2
AcDbScale
  3
ObjectDBX Classes
 90
     1153
280
           0
281
           0
  0
CLASS
  1
MLEADERSTYLE
  2
AcDbMLeaderStyle
  3
ACDB_MLEADERSTYLE_CLASS
 90
     4095
280
           0
281
           0
  0
CLASS
  1
CELLSTYLEMAP
  2
AcDbCellStyleMap
  3
ObjectDBX Classes
 90
     1152
280
           0
281
           0
  0
CLASS
  1
DICTIONARYVAR
  2
AcDbDictionaryVar
  3
ObjectDBX Classes
 90
        0
280
           0
281
           0
  0
CLASS
  1
LWPOLYLINE
  2
AcDbPolyline
  3
AutoCAD 2000
 90
        0
280
           0
281
           1
  0
CLASS
  1
IMAGE
  2
AcDbRasterImage
  3
ISM
 90
    32895
280
           0
281
           1
  0
CLASS
  1
OLE2FRAME
  2
AcDbOle2Frame
  3
AutoCAD 2000
 90
    32768
280
           0
281
           1
  0
CLASS
  1
HATCH
  2
AcDbHatch
  3
AutoCAD 2000
 90
    32768
280
           0
281
           1
  0
CLASS
  1
RASTERVARIABLES
  2
AcDbRasterVariables
  3
ISM
 90
    32768
280
           0
281
           0
  0
CLASS
  1
IMAGEDEF
  2
AcDbRasterImageDef
  3
ISM
 90
    32768
280
           0
281
           0
  0
CLASS
  1
IMAGEDEF_REACTOR
  2
AcDbRasterImageDefReactor
  3
ISM
 90
    32769
280
           0
281
           0
  0
CLASS
  1
IDBUFFER
  2
AcDbIdBuffer
  3
AutoCAD 2000
 90
    32768
280
           0
281
           0
  0
CLASS
  1
SPATIAL_FILTER
  2
AcDbSpatialFilter
  3
AutoCAD 2000
 90
    32768
280
           0
281
           0
  0
CLASS
  1
XRECORD
  2
AcDbXrecord
  3
AutoCAD 2000
 90
        0
280
           0
281
           0
  0
CLASS
  1
SORTENTSTABLE
  2
AcDbSortentsTable
  3
AutoCAD 2000
 90
    32768
280
           0
281
           0
  0
CLASS
  1
LAYER_INDEX
  2
AcDbLayerIndex
  3
AutoCAD 2000
 90
    32768
280
           0
281
           0
  0
CLASS
  1
SPATIAL_INDEX
  2
AcDbSpatialIndex
  3
AutoCAD 2000
 90
    32768
280
           0
281
           0
  0
CLASS
  1
OBJECT_PTR
  2
CAseDLPNTableRecord
  3
"ASE-LPNTableRecord"
 90
    32769
280
           0
281
           0
  0
CLASS
  1
PLOTSETTINGS
  2
AcDbPlotSettings
  3
AutoCAD 2000
 90
    32768
280
           0
281
           0
  0
CLASS
  1
VBA_PROJECT
  2
AcDbVbaProject
  3
acadvba
 90
    32768
280
           0
281
           0
  0
CLASS
  1
WIPEOUT
  2
AcDbWipeout
  3
WipeOut|AutoCAD Express Tool|expresstools@autodesk.com
 90
    32895
280
           0
281
           1
  0
CLASS
  1
WIPEOUTVARIABLES
  2
AcDbWipeoutVariables
  3
WipeOut|AutoCAD Express Tool|expresstools@autodesk.com
 90
        0
280
           0
281
           0
  0
CLASS
  1
RTEXT
  2
RText
  3
RText|AutoCAD Express Tool|expresstools@autodesk.com
 90
    32768
280
           0
281
           1
  0
CLASS
  1
ARCALIGNEDTEXT
  2
AcDbArcAlignedText
  3
ATEXT|AutoCAD Express Tool|expresstools@autodesk.com
 90
    32768
280
           0
281
           1
  0
ENDSEC
  0
SECTION
  2
TABLES
  0
TABLE
  2
VPORT
  5
8
100
AcDbSymbolTable
 70
           1
  0
VPORT
  5
1F4
100
AcDbSymbolTableRecord
100
AcDbViewportTableRecord
  2
*ACTIVE
 70
          64
 10
0.0
 20
0.0
 11
1.0
 21
1.0
 12
141.6648750443
 22
32.22434560785
 13
0.0
 23
0.0
 14
1.0
 24
1.0
 15
0.0
 25
0.0
 16
0.0
 26
0.0
 36
1.0
 17
0.0
 27
0.0
 37
0.0
 40
23.588344370861
 41
1.5454545455
 42
50.0
 43
0.0
 44
0.0
 50
0.0
 51
0.0
 71
           0
 72
         100
 73
           1
 74
           1
 75
           0
 76
           0
 77
           0
 78
           0
281
           0
 65
           0
110
0.0
120
0.0
130
0.0
111
1.0
121
0.0
131
0.0
112
0.0
122
1.0
132
0.0
345
0
346
0
 79
           0
146
0.0
  0
ENDTAB
  0
TABLE
  2
LTYPE
  5
5
100
AcDbSymbolTable
 70
           8
  0
LTYPE
  5
14
100
AcDbSymbolTableRecord
100
AcDbLinetypeTableRecord
  2
ByBlock
 70
          64
  3

 72
          65
 73
           0
 40
0.0
  0
LTYPE
  5
15
100
AcDbSymbolTableRecord
100
AcDbLinetypeTableRecord
  2
ByLayer
 70
          64
  3

 72
          65
 73
           0
 40
0.0
  0
LTYPE
  5
16
100
AcDbSymbolTableRecord
100
AcDbLinetypeTableRecord
  2
CONTINUOUS
 70
          64
  3
Solid line
 72
          65
 73
           0
 40
0.0
  0
LTYPE
  5
1F5
100
AcDbSymbolTableRecord
100
AcDbLinetypeTableRecord
  2
CENTER
 70
          64
  3
____ _ ____ _ ____ _ ____ _ ____ _ ____ _ ____
 72
          65
 73
           4
 40
0.6
 49
0.375
 74
           0
 49
-0.075
 74
           0
 49
0.075
 74
           0
 49
-0.075
 74
           0
  0
LTYPE
  5
1F6
100
AcDbSymbolTableRecord
100
AcDbLinetypeTableRecord
  2
HIDDEN
 70
          64
  3
- - - - - - - - - - - - - - - - - - - -
 72
          65
 73
           2
 40
0.2
 49
0.1
 74
           0
 49
-0.1
 74
           0
  0
LTYPE
  5
1F7
100
AcDbSymbolTableRecord
100
AcDbLinetypeTableRecord
  2
PHANTOM
 70
          64
  3
_____ _ _ _____ _ _ _____ _ _ _____
 72
          65
 73
           6
 40
0.8
 49
0.45
 74
           0
 49
-0.05
 74
           0
 49
0.1
 74
           0
 49
-0.05
 74
           0
 49
0.1
 74
           0
 49
-0.05
 74
           0
  0
LTYPE
  5
1F8
100
AcDbSymbolTableRecord
100
AcDbLinetypeTableRecord
  2
DOT
 70
          64
  3
. . . . . . . . . . . . . . . . . . . .
 72
          65
 73
           2
 40
0.2
 49
0.1
 74
           0
 49
-0.1
 74
           0
  0
LTYPE
  5
1F9
100
AcDbSymbolTableRecord
100
AcDbLinetypeTableRecord
  2
DASHED
 70
          64
  3
- - - - - - - - - - - - - - - - - - - -
 72
          65
 73
           2
 40
0.2
 49
0.1
 74
           0
 49
-0.1
 74
           0
  0
ENDTAB
  0
TABLE
  2
LAYER
  5
2
100
AcDbSymbolTable
 70
          27
  0
LAYER
  5
10
102
{ACAD_XDICTIONARY
360
18B3
102
}
100
AcDbSymbolTableRecord
100
AcDbLayerTableRecord
  2
0
 70
          64
 62
           7
  6
CONTINUOUS
290
           1
370
          -3
390
18FB
  0
LAYER
  5
1FA
102
{ACAD_XDICTIONARY
360
18B5
102
}
100
AcDbSymbolTableRecord
100
AcDbLayerTableRecord
  2
DEFAULT_1
 70
          64
 62
           7
  6
CENTER
290
           1
370
          -3
390
18FB
  0
LAYER
  5
1FB
102
{ACAD_XDICTIONARY
360
18B7
102
}
100
AcDbSymbolTableRecord
100
AcDbLayerTableRecord
  2
DEFAULT_2
 70
          64
 62
           8
  6
HIDDEN
290
           1
370
          -3
390
18FB
  0
LAYER
  5
1FC
102
{ACAD_XDICTIONARY
360
18B9
102
}
100
AcDbSymbolTableRecord
100
AcDbLayerTableRecord
  2
DEFAULT_3
 70
          64
 62
           7
  6
PHANTOM
290
           1
370
          -3
390
18FB
  0
LAYER
  5
1FD
102
{ACAD_XDICTIONARY
360
18BB
102
}
100
AcDbSymbolTableRecord
100
AcDbLayerTableRecord
  2
1_CURVES
 70
          64
 62
           7
  6
CONTINUOUS
290
           1
370
          -3
390
18FB
  0
LAYER
  5
1FE
102
{ACAD_XDICTIONARY
360
18BD
102
}
100
AcDbSymbolTableRecord
100
AcDbLayerTableRecord
  2
1_CURVES-DEGAGEMENT-COIL
 70
          64
 62
           7
  6
CONTINUOUS
290
           1
370
          -3
390
18FB
  0
LAYER
  5
1FF
102
{ACAD_XDICTIONARY
360
18BF
102
}
100
AcDbSymbolTableRecord
100
AcDbLayerTableRecord
  2
1_CURVES-JETS
 70
          64
 62
           7
  6
CONTINUOUS
290
           1
370
          -3
390
18FB
  0
LAYER
  5
200
102
{ACAD_XDICTIONARY
360
18C1
102
}
100
AcDbSymbolTableRecord
100
AcDbLayerTableRecord
  2
1_CURVES-TRAJECTOIRE-COIL
 70
          64
 62
           7
  6
CONTINUOUS
290
           1
370
          -3
390
18FB
  0
LAYER
  5
201
102
{ACAD_XDICTIONARY
360
18C3
102
}
100
AcDbSymbolTableRecord
100
AcDbLayerTableRecord
  2
1_CURVES_IMPORT
 70
          64
 62
           7
  6
CONTINUOUS
290
           1
370
          -3
390
18FB
  0
LAYER
  5
202
102
{ACAD_XDICTIONARY
360
18C5
102
}
100
AcDbSymbolTableRecord
100
AcDbLayerTableRecord
  2
1_CURVES_JETS
 70
          64
 62
           7
  6
CONTINUOUS
290
           1
370
          -3
390
18FB
  0
LAYER
  5
203
102
{ACAD_XDICTIONARY
360
18C7
102
}
100
AcDbSymbolTableRecord
100
AcDbLayerTableRecord
  2
2_PLANES
 70
          64
 62
           7
  6
CONTINUOUS
290
           1
370
          -3
390
18FB
  0
LAYER
  5
204
102
{ACAD_XDICTIONARY
360
18C9
102
}
100
AcDbSymbolTableRecord
100
AcDbLayerTableRecord
  2
2_PLANES-JETS
 70
          64
 62
           7
  6
CONTINUOUS
290
           1
370
          -3
390
18FB
  0
LAYER
  5
205
102
{ACAD_XDICTIONARY
360
18CB
102
}
100
AcDbSymbolTableRecord
100
AcDbLayerTableRecord
  2
3_POINTS
 70
          64
 62
           7
  6
CONTINUOUS
290
           1
370
          -3
390
18FB
  0
LAYER
  5
206
102
{ACAD_XDICTIONARY
360
18CD
102
}
100
AcDbSymbolTableRecord
100
AcDbLayerTableRecord
  2
3_POINTS-JETS
 70
          64
 62
           7
  6
CONTINUOUS
290
           1
370
          -3
390
18FB
  0
LAYER
  5
207
102
{ACAD_XDICTIONARY
360
18CF
102
}
100
AcDbSymbolTableRecord
100
AcDbLayerTableRecord
  2
4_CSYS
 70
          64
 62
           7
  6
CONTINUOUS
290
           1
370
          -3
390
18FB
  0
LAYER
  5
208
102
{ACAD_XDICTIONARY
360
18D1
102
}
100
AcDbSymbolTableRecord
100
AcDbLayerTableRecord
  2
5_AXIS
 70
          64
 62
           7
  6
CONTINUOUS
290
           1
370
          -3
390
18FB
  0
LAYER
  5
209
102
{ACAD_XDICTIONARY
360
18D3
102
}
100
AcDbSymbolTableRecord
100
AcDbLayerTableRecord
  2
6_SURFACES
 70
          64
 62
           7
  6
CONTINUOUS
290
           1
370
          -3
390
18FB
  0
LAYER
  5
20A
102
{ACAD_XDICTIONARY
360
18D5
102
}
100
AcDbSymbolTableRecord
100
AcDbLayerTableRecord
  2
6_SURFACES-OFFSET-FIBRE-ACRYLIQ
 70
          64
 62
           7
  6
CONTINUOUS
290
           1
370
          -3
390
18FB
  0
LAYER
  5
20B
102
{ACAD_XDICTIONARY
360
18D7
102
}
100
AcDbSymbolTableRecord
100
AcDbLayerTableRecord
  2
6_SURFACES-TOOLING
 70
          64
 62
           7
  6
CONTINUOUS
290
           1
370
          -3
390
18FB
  0
LAYER
  5
20C
102
{ACAD_XDICTIONARY
360
18D9
102
}
100
AcDbSymbolTableRecord
100
AcDbLayerTableRecord
  2
6_SURFACES_AIRE
 70
          64
 62
           7
  6
CONTINUOUS
290
           1
370
          -3
390
18FB
  0
LAYER
  5
20D
102
{ACAD_XDICTIONARY
360
18DB
102
}
100
AcDbSymbolTableRecord
100
AcDbLayerTableRecord
  2
6_SURFACES_OFFSET_CONDUIT
 70
          64
 62
           7
  6
CONTINUOUS
290
           1
370
          -3
390
18FB
  0
LAYER
  5
20E
102
{ACAD_XDICTIONARY
360
18DD
102
}
100
AcDbSymbolTableRecord
100
AcDbLayerTableRecord
  2
6_SURFACES_OFFSET_CONDUIT-PREPA
 70
          64
 62
           7
  6
CONTINUOUS
290
           1
370
          -3
390
18FB
  0
LAYER
  5
20F
102
{ACAD_XDICTIONARY
360
18DF
102
}
100
AcDbSymbolTableRecord
100
AcDbLayerTableRecord
  2
6_SURFACES_OFFSET_FIBRE
 70
          64
 62
           7
  6
CONTINUOUS
290
           1
370
          -3
390
18FB
  0
LAYER
  5
210
102
{ACAD_XDICTIONARY
360
18E1
102
}
100
AcDbSymbolTableRecord
100
AcDbLayerTableRecord
  2
6_SURFACES_TOOLING
 70
          64
 62
           7
  6
CONTINUOUS
290
           1
370
          -3
390
18FB
  0
LAYER
  5
211
102
{ACAD_XDICTIONARY
360
18E3
102
}
100
AcDbSymbolTableRecord
100
AcDbLayerTableRecord
  2
7_NOTES
 70
          64
 62
           7
  6
CONTINUOUS
290
           1
370
          -3
390
18FB
  0
LAYER
  5
212
102
{ACAD_XDICTIONARY
360
18E5
102
}
100
AcDbSymbolTableRecord
100
AcDbLayerTableRecord
  2
8_ZONE-ROBINETERIE
 70
          64
 62
           7
  6
CONTINUOUS
290
           1
370
          -3
390
18FB
  0
LAYER
  5
213
102
{ACAD_XDICTIONARY
360
18E7
102
}
100
AcDbSymbolTableRecord
100
AcDbLayerTableRecord
  2
XSEC_DATUMS
 70
          64
 62
           7
  6
CONTINUOUS
290
           1
370
          -3
390
18FB
  0
ENDTAB
  0
TABLE
  2
STYLE
  5
3
100
AcDbSymbolTable
 70
           8
  0
STYLE
  5
11
100
AcDbSymbolTableRecord
100
AcDbTextStyleTableRecord
  2
STANDARD
 70
          64
 40
0.0
 41
0.8
 50
0.0
 71
           0
 42
0.2
  3
txt
  4

  0
STYLE
  5
214
100
AcDbSymbolTableRecord
100
AcDbTextStyleTableRecord
  2
TEXTSTYLE_1
 70
          64
 40
0.0
 41
0.8
 50
0.0
 71
           0
 42
0.2
  3
gdt
  4

  0
STYLE
  5
215
100
AcDbSymbolTableRecord
100
AcDbTextStyleTableRecord
  2
TEXTSTYLE_2
 70
          64
 40
0.0
 41
1.0
 50
0.0
 71
           0
 42
0.2
  3
trium.ttf
  4

  0
STYLE
  5
216
100
AcDbSymbolTableRecord
100
AcDbTextStyleTableRecord
  2
TEXTSTYLE_3
 70
          64
 40
0.0
 41
1.0
 50
0.0
 71
           0
 42
0.2
  3
trium.ttf
  4

  0
STYLE
  5
217
100
AcDbSymbolTableRecord
100
AcDbTextStyleTableRecord
  2
TEXTSTYLE_4
 70
          64
 40
0.0
 41
1.0
 50
0.0
 71
           0
 42
0.2
  3
txt
  4

  0
STYLE
  5
218
100
AcDbSymbolTableRecord
100
AcDbTextStyleTableRecord
  2
TEXTSTYLE_5
 70
          64
 40
0.0
 41
1.0
 50
0.0
 71
           0
 42
0.2
  3
txt
  4

  0
STYLE
  5
219
100
AcDbSymbolTableRecord
100
AcDbTextStyleTableRecord
  2
TEXTSTYLE_6
 70
          64
 40
0.0
 41
1.0
 50
0.0
 71
           0
 42
0.2
  3
trium.ttf
  4

  0
STYLE
  5
21A
100
AcDbSymbolTableRecord
100
AcDbTextStyleTableRecord
  2
TEXTSTYLE_7
 70
          64
 40
0.0
 41
0.8
 50
0.0
 71
           0
 42
0.2
  3
txt
  4

  0
ENDTAB
  0
TABLE
  2
VIEW
  5
6
100
AcDbSymbolTable
 70
           0
  0
ENDTAB
  0
TABLE
  2
UCS
  5
7
100
AcDbSymbolTable
 70
           0
  0
ENDTAB
  0
TABLE
  2
APPID
  5
9
100
AcDbSymbolTable
 70
           2
  0
APPID
  5
21B
100
AcDbSymbolTableRecord
100
AcDbRegAppTableRecord
  2
ACAD
 70
          64
  0
APPID
  5
18AD
100
AcDbSymbolTableRecord
100
AcDbRegAppTableRecord
  2
ACAD_MLEADERVER
 70
          64
  0
ENDTAB
  0
TABLE
  2
DIMSTYLE
  5
A
100
AcDbSymbolTable
 70
           6
100
AcDbDimStyleTable
 71
           0
  0
DIMSTYLE
105
23C
100
AcDbSymbolTableRecord
100
AcDbDimStyleTableRecord
  2
STANDARD
 70
          64
  3

  4

 40
1.0
 41
0.1875
 42
0.0625
 43
0.38
 44
0.18
 45
0.0
 46
0.0
 47
0.00001
 48
0.00001
 71
           0
 72
           0
 73
           1
 74
           1
 75
           0
 76
           0
 77
           0
 78
           4
 79
           0
140
1.6
141
0.09
142
0.0
143
25.4
144
1.0
145
0.0
146
1.0
147
0.09
148
0.0
170
           0
171
           2
172
           0
173
           0
174
           0
175
           0
176
           0
177
           0
178
           0
179
           0
271
           5
272
           5
273
           2
274
           2
275
           0
276
           0
277
           2
278
          46
279
           0
280
           0
281
           0
282
           0
283
           1
284
           4
285
           0
286
           0
288
           0
340
11
341
21E
342
21E
343
21E
344
21E
371
          -2
372
          -2
  0
DIMSTYLE
105
23D
102
{ACAD_REACTORS
330
434
330
435
330
437
330
438
330
43B
330
442
330
443
330
446
102
}
100
AcDbSymbolTableRecord
100
AcDbDimStyleTableRecord
  2
DIMSTYLE_1
 70
          64
  3

  4

 40
1.0
 41
2.4
 42
0.0625
 43
0.38
 44
0.18
 45
0.0
 46
0.0
 47
0.0
 48
0.0
 71
           0
 72
           0
 73
           1
 74
           1
 75
           0
 76
           0
 77
           0
 78
           4
 79
           0
140
1.6
141
0.09
142
0.0
143
25.4
144
1.0
145
0.0
146
1.0
147
0.09
148
0.0
170
           0
171
           2
172
           0
173
           0
174
           0
175
           0
176
           0
177
           0
178
           0
179
           0
271
           6
272
           6
273
           2
274
           2
275
           0
276
           0
277
           2
278
          46
279
           0
280
           0
281
           0
282
           0
283
           1
284
           4
285
           0
286
           0
288
           0
340
11
341
21E
342
21E
343
21E
344
21E
371
          -2
372
          -2
  0
DIMSTYLE
105
23E
102
{ACAD_REACTORS
330
436
330
43A
330
43D
330
43E
330
440
330
441
330
444
330
445
102
}
100
AcDbSymbolTableRecord
100
AcDbDimStyleTableRecord
  2
DIMSTYLE_2
 70
          64
  3

  4

 40
1.0
 41
2.4
 42
0.0625
 43
0.38
 44
0.18
 45
0.0
 46
0.0
 47
0.0
 48
0.0
 71
           0
 72
           0
 73
           1
 74
           1
 75
           0
 76
           0
 77
           0
 78
           4
 79
           0
140
1.6
141
0.09
142
0.0
143
25.4
144
1.0
145
0.0
146
1.0
147
0.09
148
0.0
170
           0
171
           2
172
           0
173
           0
174
           0
175
           0
176
           0
177
           0
178
           0
179
           0
271
           3
272
           3
273
           2
274
           2
275
           0
276
           0
277
           2
278
          46
279
           0
280
           0
281
           0
282
           0
283
           1
284
           4
285
           0
286
           0
288
           0
340
11
341
21E
342
21E
343
21E
344
21E
371
          -2
372
          -2
  0
DIMSTYLE
105
23F
102
{ACAD_REACTORS
330
439
330
447
330
448
102
}
100
AcDbSymbolTableRecord
100
AcDbDimStyleTableRecord
  2
DIMSTYLE_3
 70
          64
  3

  4

 40
1.0
 41
2.4
 42
0.0625
 43
0.38
 44
0.18
 45
0.0
 46
0.0
 47
0.0
 48
0.0
 71
           0
 72
           0
 73
           1
 74
           1
 75
           0
 76
           0
 77
           0
 78
           4
 79
           0
140
1.6
141
0.09
142
0.0
143
25.4
144
1.0
145
0.0
146
1.0
147
0.09
148
0.0
170
           0
171
           2
172
           0
173
           0
174
           0
175
           0
176
           0
177
           0
178
           0
179
           0
271
           0
272
           0
273
           2
274
           2
275
           0
276
           0
277
           2
278
          46
279
           0
280
           0
281
           0
282
           0
283
           1
284
           4
285
           0
286
           0
288
           0
340
11
341
21E
342
21E
343
21E
344
21E
371
          -2
372
          -2
  0
DIMSTYLE
105
240
102
{ACAD_REACTORS
330
43C
102
}
100
AcDbSymbolTableRecord
100
AcDbDimStyleTableRecord
  2
DIMSTYLE_4
 70
          64
  3

  4

 40
1.0
 41
2.4
 42
0.0625
 43
0.38
 44
0.18
 45
0.0
 46
0.0
 47
0.0
 48
0.0
 71
           0
 72
           0
 73
           1
 74
           1
 75
           0
 76
           0
 77
           0
 78
           4
 79
           0
140
1.6
141
0.09
142
0.0
143
25.4
144
1.0
145
0.0
146
1.0
147
0.09
148
0.0
170
           0
171
           2
172
           0
173
           0
174
           0
175
           0
176
           0
177
           0
178
           0
179
           0
271
           4
272
           4
273
           2
274
           2
275
           0
276
           0
277
           2
278
          46
279
           0
280
           0
281
           0
282
           0
283
           1
284
           4
285
           0
286
           0
288
           0
340
11
341
21E
342
21E
343
21E
344
21E
371
          -2
372
          -2
  0
DIMSTYLE
105
241
102
{ACAD_REACTORS
330
43F
102
}
100
AcDbSymbolTableRecord
100
AcDbDimStyleTableRecord
  2
DIMSTYLE_5
 70
          64
  3

  4

 40
1.0
 41
2.4
 42
0.0625
 43
0.38
 44
0.18
 45
0.0
 46
0.0
 47
0.0
 48
0.0
 71
           0
 72
           0
 73
           1
 74
           1
 75
           0
 76
           0
 77
           0
 78
           4
 79
           0
140
1.6
141
0.09
142
0.0
143
25.4
144
1.0
145
0.0
146
1.0
147
0.09
148
0.0
170
           0
171
           2
172
           0
173
           0
174
           0
175
           0
176
           0
177
           0
178
           0
179
           0
271
           2
272
           2
273
           2
274
           2
275
           0
276
           0
277
           2
278
          46
279
           0
280
           0
281
           0
282
           0
283
           1
284
           4
285
           0
286
           0
288
           0
340
11
341
21E
342
21E
343
21E
344
21E
371
          -2
372
          -2
  0
ENDTAB
  0
TABLE
  2
BLOCK_RECORD
  5
1
100
AcDbSymbolTable
 70
           9
  0
BLOCK_RECORD
  5
21C
100
AcDbSymbolTableRecord
100
AcDbBlockTableRecord
  2
*MODEL_SPACE
340
1858
  0
BLOCK_RECORD
  5
21D
100
AcDbSymbolTableRecord
100
AcDbBlockTableRecord
  2
*PAPER_SPACE
340
1859
  0
BLOCK_RECORD
  5
21E
100
AcDbSymbolTableRecord
100
AcDbBlockTableRecord
  2
_FILLED
340
0
  0
BLOCK_RECORD
  5
234
100
AcDbSymbolTableRecord
100
AcDbBlockTableRecord
  2
L03-MOTEUR-CONTROLE-LED_BL7
340
0
  0
BLOCK_RECORD
  5
235
100
AcDbSymbolTableRecord
100
AcDbBlockTableRecord
  2
L03-MOTEUR-CONTROLE-LED_BL6
340
0
  0
BLOCK_RECORD
  5
236
100
AcDbSymbolTableRecord
100
AcDbBlockTableRecord
  2
L03-MOTEUR-CONTROLE-LED_BL5
340
0
  0
BLOCK_RECORD
  5
237
100
AcDbSymbolTableRecord
100
AcDbBlockTableRecord
  2
L03-MOTEUR-CONTROLE-LED_BL4
340
0
  0
BLOCK_RECORD
  5
238
100
AcDbSymbolTableRecord
100
AcDbBlockTableRecord
  2
L03-MOTEUR-CONTROLE-LED_BL3
340
0
  0
BLOCK_RECORD
  5
239
100
AcDbSymbolTableRecord
100
AcDbBlockTableRecord
  2
L03-TOLERANCES_GENERALES_BL2
340
0
  0
BLOCK_RECORD
  5
23A
100
AcDbSymbolTableRecord
100
AcDbBlockTableRecord
  2
L03-NOTE_SPECS_BAINS_BL1
340
0
  0
BLOCK_RECORD
  5
23B
100
AcDbSymbolTableRecord
100
AcDbBlockTableRecord
  2
L03-USAGE_INTERNE_SEULEM_BL0
340
0
  0
ENDTAB
  0
ENDSEC
  0
SECTION
  2
BLOCKS
  0
BLOCK
  5
20
100
AcDbEntity
  8
0
100
AcDbBlockBegin
  2
*MODEL_SPACE
 70
           0
 10
0.0
 20
0.0
 30
0.0
  3
*MODEL_SPACE
  1

  0
ENDBLK
  5
21
100
AcDbEntity
  8
0
100
AcDbBlockEnd
  0
BLOCK
  5
1C
100
AcDbEntity
 67
           1
  8
0
100
AcDbBlockBegin
  2
*PAPER_SPACE
 70
           0
 10
0.0
 20
0.0
 30
0.0
  3
*PAPER_SPACE
  1

  0
ENDBLK
  5
1D
100
AcDbEntity
 67
           1
  8
0
100
AcDbBlockEnd
  0
BLOCK
  5
32B
100
AcDbEntity
  8
0
100
AcDbBlockBegin
  2
_FILLED
 70
          64
 10
0.0
 20
0.0
 30
0.0
  3
_FILLED
  1

1001
ACAD
1000
RTMaterial
1005
185D
  0
SOLID
  5
32C
100
AcDbEntity
  8
0
  6
ByBlock
 62
           0
100
AcDbTrace
 10
0.0
 20
0.0
 30
0.0
 11
-1.0
 21
0.1666666667
 31
0.0
 12
-1.0
 22
-0.1666666667
 32
0.0
 13
-1.0
 23
-0.1666666667
 33
0.0
1001
ACAD
1000
RTMaterial
1005
185D
  0
ENDBLK
  5
32D
100
AcDbEntity
  8
0
  6
ByBlock
 62
           0
100
AcDbBlockEnd
1001
ACAD
1000
RTMaterial
1005
185D
  0
BLOCK
  5
242
100
AcDbEntity
  8
0
  6
CONTINUOUS
 62
           2
100
AcDbBlockBegin
  2
L03-MOTEUR-CONTROLE-LED_BL7
 70
          64
 10
40.8033495004
 20
117.4619512883
 30
0.0
  3
L03-MOTEUR-CONTROLE-LED_BL7
  1

1001
ACAD
1000
RTMaterial
1005
185D
  0
ELLIPSE
  5
243
100
AcDbEntity
  8
0
  6
CONTINUOUS
 62
           7
100
AcDbEllipse
 10
40.8033495004
 20
117.4619512883
 30
0.0
 11
-2.3314650814999998
 21
0.0
 31
0.0
210
0.0
220
0.0
230
1.0
 40
0.6606458385
 41
0.0
 42
6.2831853071795862
1001
ACAD
1000
RTMaterial
1005
185D
  0
MTEXT
  5
244
100
AcDbEntity
  8
0
  6
CONTINUOUS
 62
           2
100
AcDbMText
 10
40.1633492514
 20
118.2619515996
 30
0.0
 40
1.6000006225
 41
1.280000498
 71
           1
 72
           1
  1
C
  7
TEXTSTYLE_7
 73
           1
 44
1.0
1001
ACAD
1000
MTEXTBEGIN
1070
          73
1070
           1
1070
          44
1040
0.9
1070
          74
1070
           0
1000
MTEXTEND
  0
ENDBLK
  5
245
100
AcDbEntity
  8
0
  6
ByBlock
 62
           0
100
AcDbBlockEnd
1001
ACAD
1000
RTMaterial
1005
185D
  0
BLOCK
  5
246
100
AcDbEntity
  8
0
  6
CONTINUOUS
 62
           2
100
AcDbBlockBegin
  2
L03-MOTEUR-CONTROLE-LED_BL6
 70
          64
 10
67.3506596454
 20
110.4123573384
 30
0.0
  3
L03-MOTEUR-CONTROLE-LED_BL6
  1

1001
ACAD
1000
RTMaterial
1005
185D
  0
ELLIPSE
  5
247
100
AcDbEntity
  8
0
  6
CONTINUOUS
 62
           7
100
AcDbEllipse
 10
67.2986970491
 20
110.4049108415
 30
0.0
 11
-2.3314650814999998
 21
0.0
 31
0.0
210
0.0
220
0.0
230
1.0
 40
0.6606458385
 41
0.0
 42
6.2831853071795862
1001
ACAD
1000
RTMaterial
1005
185D
  0
MTEXT
  5
248
100
AcDbEntity
  8
0
  6
CONTINUOUS
 62
           2
100
AcDbMText
 10
66.7120301542
 20
111.2049111528
 30
0.0
 40
1.6000006225
 41
1.1733337898
 71
           1
 72
           1
  1
L
  7
TEXTSTYLE_7
 73
           1
 44
1.0
1001
ACAD
1000
MTEXTBEGIN
1070
          73
1070
           1
1070
          44
1040
0.9
1070
          74
1070
           0
1000
MTEXTEND
  0
MTEXT
  5
249
100
AcDbEntity
  8
0
  6
CONTINUOUS
 62
           2
100
AcDbMText
 10
62.003119101
 20
111.2198041464
 30
0.0
 40
1.6000006225
 41
1.7066673306
 71
           1
 72
           1
  1
13
  7
TEXTSTYLE_7
 73
           1
 44
1.0
1001
ACAD
1000
MTEXTBEGIN
1070
          73
1070
           1
1070
          44
1040
0.9
1070
          74
1070
           0
1000
MTEXTEND
  0
MTEXT
  5
24A
100
AcDbEntity
  8
0
  6
CONTINUOUS
 62
           2
100
AcDbMText
 10
70.884866151
 20
111.2198041464
 30
0.0
 40
1.6000006225
 41
1.8133340388
 71
           1
 72
           1
  1
14
  7
TEXTSTYLE_7
 73
           1
 44
1.0
1001
ACAD
1000
MTEXTBEGIN
1070
          73
1070
           1
1070
          44
1040
0.9
1070
          74
1070
           0
1000
MTEXTEND
  0
ENDBLK
  5
24B
100
AcDbEntity
  8
0
  6
ByBlock
 62
           0
100
AcDbBlockEnd
1001
ACAD
1000
RTMaterial
1005
185D
  0
BLOCK
  5
24C
100
AcDbEntity
  8
0
  6
CONTINUOUS
 62
           2
100
AcDbBlockBegin
  2
L03-MOTEUR-CONTROLE-LED_BL5
 70
          64
 10
48.668511569
 20
86.8829111107
 30
0.0
  3
L03-MOTEUR-CONTROLE-LED_BL5
  1

1001
ACAD
1000
RTMaterial
1005
185D
  0
ELLIPSE
  5
24D
100
AcDbEntity
  8
0
  6
CONTINUOUS
 62
           7
100
AcDbEllipse
 10
48.6165489726
 20
86.8754646139
 30
0.0
 11
-2.3314650814999998
 21
0.0
 31
0.0
210
0.0
220
0.0
230
1.0
 40
0.6606458385
 41
0.0
 42
6.2831853071795862
1001
ACAD
1000
RTMaterial
1005
185D
  0
MTEXT
  5
24E
100
AcDbEntity
  8
0
  6
CONTINUOUS
 62
           2
100
AcDbMText
 10
48.0298820777
 20
87.6754649251
 30
0.0
 40
1.6000006225
 41
1.1733337898
 71
           1
 72
           1
  1
L
  7
TEXTSTYLE_7
 73
           1
 44
1.0
1001
ACAD
1000
MTEXTBEGIN
1070
          73
1070
           1
1070
          44
1040
0.9
1070
          74
1070
           0
1000
MTEXTEND
  0
MTEXT
  5
24F
100
AcDbEntity
  8
0
  6
CONTINUOUS
 62
           2
100
AcDbMText
 10
43.0009709001
 20
87.6903579188
 30
0.0
 40
1.6000006225
 41
2.3466675796
 71
           1
 72
           1
  1
35
  7
TEXTSTYLE_7
 73
           1
 44
1.0
1001
ACAD
1000
MTEXTBEGIN
1070
          73
1070
           1
1070
          44
1040
0.9
1070
          74
1070
           0
1000
MTEXTEND
  0
MTEXT
  5
250
100
AcDbEntity
  8
0
  6
CONTINUOUS
 62
           2
100
AcDbMText
 10
51.8827179501
 20
87.6903579188
 30
0.0
 40
1.6000006225
 41
2.4533342878
 71
           1
 72
           1
  1
34
  7
TEXTSTYLE_7
 73
           1
 44
1.0
1001
ACAD
1000
MTEXTBEGIN
1070
          73
1070
           1
1070
          44
1040
0.9
1070
          74
1070
           0
1000
MTEXTEND
  0
ENDBLK
  5
251
100
AcDbEntity
  8
0
  6
ByBlock
 62
           0
100
AcDbBlockEnd
1001
ACAD
1000
RTMaterial
1005
185D
  0
BLOCK
  5
252
100
AcDbEntity
  8
0
  6
CONTINUOUS
 62
           2
100
AcDbBlockBegin
  2
L03-MOTEUR-CONTROLE-LED_BL4
 70
          64
 10
51.2266851445
 20
79.7753504513
 30
0.0
  3
L03-MOTEUR-CONTROLE-LED_BL4
  1

1001
ACAD
1000
RTMaterial
1005
185D
  0
ELLIPSE
  5
253
100
AcDbEntity
  8
0
  6
CONTINUOUS
 62
           7
100
AcDbEllipse
 10
51.2266851445
 20
79.7753504513
 30
0.0
 11
-2.3314650814999998
 21
0.0
 31
0.0
210
0.0
220
0.0
230
1.0
 40
0.6606458385
 41
0.0
 42
6.2831853071795862
1001
ACAD
1000
RTMaterial
1005
185D
  0
MTEXT
  5
254
100
AcDbEntity
  8
0
  6
CONTINUOUS
 62
           2
100
AcDbMText
 10
50.5866848956
 20
80.5753507625
 30
0.0
 40
1.6000006225
 41
1.280000498
 71
           1
 72
           1
  1
C
  7
TEXTSTYLE_7
 73
           1
 44
1.0
1001
ACAD
1000
MTEXTBEGIN
1070
          73
1070
           1
1070
          44
1040
0.9
1070
          74
1070
           0
1000
MTEXTEND
  0
ENDBLK
  5
255
100
AcDbEntity
  8
0
  6
ByBlock
 62
           0
100
AcDbBlockEnd
1001
ACAD
1000
RTMaterial
1005
185D
  0
BLOCK
  5
256
100
AcDbEntity
  8
0
  6
CONTINUOUS
 62
           2
100
AcDbBlockBegin
  2
L03-MOTEUR-CONTROLE-LED_BL3
 70
          64
 10
26.3789447453
 20
98.6098788784
 30
0.0
  3
L03-MOTEUR-CONTROLE-LED_BL3
  1

1001
ACAD
1000
RTMaterial
1005
185D
  0
ELLIPSE
  5
257
100
AcDbEntity
  8
0
  6
CONTINUOUS
 62
           7
100
AcDbEllipse
 10
26.3789447453
 20
98.6098788784
 30
0.0
 11
-2.3314650814999998
 21
0.0
 31
0.0
210
0.0
220
0.0
230
1.0
 40
0.6606458385
 41
0.0
 42
6.2831853071795862
1001
ACAD
1000
RTMaterial
1005
185D
  0
MTEXT
  5
258
100
AcDbEntity
  8
0
  6
CONTINUOUS
 62
           2
100
AcDbMText
 10
25.7656111733
 20
99.4098791897
 30
0.0
 40
1.6000006225
 41
1.2266671439
 71
           1
 72
           1
  1
T
  7
TEXTSTYLE_7
 73
           1
 44
1.0
1001
ACAD
1000
MTEXTBEGIN
1070
          73
1070
           1
1070
          44
1040
0.9
1070
          74
1070
           0
1000
MTEXTEND
  0
ENDBLK
  5
259
100
AcDbEntity
  8
0
  6
ByBlock
 62
           0
100
AcDbBlockEnd
1001
ACAD
1000
RTMaterial
1005
185D
  0
BLOCK
  5
25A
100
AcDbEntity
  8
0
  6
CONTINUOUS
 62
           2
100
AcDbBlockBegin
  2
L03-TOLERANCES_GENERALES_BL2
 70
          64
 10
202.0240792634
 20
27.9343543647
 30
0.0
  3
L03-TOLERANCES_GENERALES_BL2
  1

1001
ACAD
1000
RTMaterial
1005
185D
  0
MTEXT
  5
25B
100
AcDbEntity
  8
0
  6
CONTINUOUS
 62
           2
100
AcDbMText
 10
195.4665796012
 20
31.1343735647
 30
0.0
 40
0.9142912
 41
8.7738092563
 71
           1
 72
           1
  1
FRACTIONS \Fgdt;{\Fgdt;`}
  7
TEXTSTYLE_2
 73
           1
 44
1.0
1001
ACAD
1000
MTEXTBEGIN
1070
          73
1070
           1
1070
          44
1040
0.9
1070
          74
1070
           0
1000
MTEXTEND
  0
MTEXT
  5
25C
100
AcDbEntity
  8
0
  6
CONTINUOUS
 62
           2
100
AcDbMText
 10
195.4665796012
 20
29.7629367647
 30
0.0
 40
0.9142912
 41
13.1149993244
 71
           1
 72
           1
  1
DÉCIMALES X.X      \Fgdt;{\Fgdt;`}
  7
TEXTSTYLE_2
 73
           1
 44
1.0
1001
ACAD
1000
MTEXTBEGIN
1070
          73
1070
           1
1070
          44
1040
0.9
1070
          74
1070
           0
1000
MTEXTEND
  0
MTEXT
  5
25D
100
AcDbEntity
  8
0
  6
CONTINUOUS
 62
           2
100
AcDbMText
 10
195.4665796012
 20
28.3914999647
 30
0.0
 40
0.9142912
 41
12.9930938311
 71
           1
 72
           1
  1
                     X.XX   \Fgdt;{\Fgdt;`}
  7
TEXTSTYLE_2
 73
           1
 44
1.0
1001
ACAD
1000
MTEXTBEGIN
1070
          73
1070
           1
1070
          44
1040
0.9
1070
          74
1070
           0
1000
MTEXTEND
  0
MTEXT
  5
25E
100
AcDbEntity
  8
0
  6
CONTINUOUS
 62
           2
100
AcDbMText
 10
195.4665796012
 20
27.0200631647
 30
0.0
 40
0.9142912
 41
13.0845229511
 71
           1
 72
           1
  1
                     X.XXX \Fgdt;{\Fgdt;`}
  7
TEXTSTYLE_2
 73
           1
 44
1.0
1001
ACAD
1000
MTEXTBEGIN
1070
          73
1070
           1
1070
          44
1040
0.9
1070
          74
1070
           0
1000
MTEXTEND
  0
MTEXT
  5
25F
100
AcDbEntity
  8
0
  6
CONTINUOUS
 62
           2
100
AcDbMText
 10
195.4665796012
 20
25.6486263647
 30
0.0
 40
0.9142912
 41
5.7735796148
 71
           1
 72
           1
  1
ANGLE \Fgdt;{\Fgdt;`}
  7
TEXTSTYLE_2
 73
           1
 44
1.0
1001
ACAD
1000
MTEXTBEGIN
1070
          73
1070
           1
1070
          44
1040
0.9
1070
          74
1070
           0
1000
MTEXTEND
  0
MTEXT
  5
260
100
AcDbEntity
  8
0
  6
CONTINUOUS
 62
           2
100
AcDbMText
 10
204.5176296644
 20
31.1343708218
 30
0.0
 40
0.9142857143
 41
1.6457142857
 71
           1
 72
           1
  1
1/4
  7
TEXTSTYLE_7
 73
           1
 44
1.0
1001
ACAD
1000
MTEXTBEGIN
1070
          73
1070
           1
1070
          44
1040
0.9
1070
          74
1070
           0
1000
MTEXTEND
  0
MTEXT
  5
261
100
AcDbEntity
  8
0
  6
CONTINUOUS
 62
           2
100
AcDbMText
 10
201.2570557916
 20
25.6486565361
 30
0.0
 40
0.9142857143
 41
0.9142857143
 71
           1
 72
           1
  1
1\Fgdt;{\Fgdt;~}
  7
TEXTSTYLE_7
 73
           1
 44
1.0
1001
ACAD
1000
MTEXTBEGIN
1070
          73
1070
           1
1070
          44
1040
0.9
1070
          74
1070
           0
1000
MTEXTEND
  0
ENDBLK
  5
262
100
AcDbEntity
  8
0
  6
ByBlock
 62
           0
100
AcDbBlockEnd
1001
ACAD
1000
RTMaterial
1005
185D
  0
BLOCK
  5
263
100
AcDbEntity
  8
0
  6
CONTINUOUS
 62
           2
100
AcDbBlockBegin
  2
L03-NOTE_SPECS_BAINS_BL1
 70
          64
 10
192.8
 20
66.4
 30
0.0
  3
L03-NOTE_SPECS_BAINS_BL1
  1

1001
ACAD
1000
RTMaterial
1005
185D
  0
LINE
  5
264
100
AcDbEntity
  8
0
  6
CONTINUOUS
 62
           7
100
AcDbLine
 10
172.8
 20
76.8
 30
0.0
 11
172.8
 21
56.0
 31
0.0
1001
ACAD
1000
RTMaterial
1005
185D
  0
LINE
  5
265
100
AcDbEntity
  8
0
  6
CONTINUOUS
 62
           7
100
AcDbLine
 10
172.8
 20
76.8
 30
0.0
 11
212.8
 21
76.8
 31
0.0
1001
ACAD
1000
RTMaterial
1005
185D
  0
LINE
  5
266
100
AcDbEntity
  8
0
  6
CONTINUOUS
 62
           7
100
AcDbLine
 10
212.8
 20
76.8
 30
0.0
 11
212.8
 21
56.0
 31
0.0
1001
ACAD
1000
RTMaterial
1005
185D
  0
LINE
  5
267
100
AcDbEntity
  8
0
  6
CONTINUOUS
 62
           7
100
AcDbLine
 10
172.8
 20
56.0
 30
0.0
 11
212.8
 21
56.0
 31
0.0
1001
ACAD
1000
RTMaterial
1005
185D
  0
LINE
  5
268
100
AcDbEntity
  8
0
  6
CONTINUOUS
 62
           7
100
AcDbLine
 10
174.4
 20
64.8
 30
0.0
 11
211.2
 21
64.8
 31
0.0
1001
ACAD
1000
RTMaterial
1005
185D
  0
LINE
  5
269
100
AcDbEntity
  8
0
  6
CONTINUOUS
 62
           7
100
AcDbLine
 10
174.4
 20
73.2
 30
0.0
 11
211.2
 21
73.2
 31
0.0
1001
ACAD
1000
RTMaterial
1005
185D
  0
LINE
  5
26A
100
AcDbEntity
  8
0
  6
CONTINUOUS
 62
           7
100
AcDbLine
 10
173.7706878711
 20
62.8537974052
 30
0.0
 11
173.3278629803
 21
62.4109725144
 31
0.0
1001
ACAD
1000
RTMaterial
1005
185D
  0
LINE
  5
26B
100
AcDbEntity
  8
0
  6
CONTINUOUS
 62
           7
100
AcDbLine
 10
174.5706878711
 20
62.8537974052
 30
0.0
 11
173.6130689226
 21
61.8961784567
 31
0.0
1001
ACAD
1000
RTMaterial
1005
185D
  0
LINE
  5
26C
100
AcDbEntity
  8
0
  6
CONTINUOUS
 62
           7
100
AcDbLine
 10
175.3706878711
 20
62.8537974052
 30
0.0
 11
174.4130689226
 21
61.8961784567
 31
0.0
1001
ACAD
1000
RTMaterial
1005
185D
  0
LINE
  5
26D
100
AcDbEntity
  8
0
  6
CONTINUOUS
 62
           7
100
AcDbLine
 10
176.1706878711
 20
62.8537974052
 30
0.0
 11
175.2130689226
 21
61.8961784567
 31
0.0
1001
ACAD
1000
RTMaterial
1005
185D
  0
LINE
  5
26E
100
AcDbEntity
  8
0
  6
CONTINUOUS
 62
           7
100
AcDbLine
 10
176.9706878711
 20
62.8537974052
 30
0.0
 11
176.0130689226
 21
61.8961784567
 31
0.0
1001
ACAD
1000
RTMaterial
1005
185D
  0
LINE
  5
26F
100
AcDbEntity
  8
0
  6
CONTINUOUS
 62
           7
100
AcDbLine
 10
177.7706878711
 20
62.8537974052
 30
0.0
 11
176.8130689226
 21
61.8961784567
 31
0.0
1001
ACAD
1000
RTMaterial
1005
185D
  0
LINE
  5
270
100
AcDbEntity
  8
0
  6
CONTINUOUS
 62
           7
100
AcDbLine
 10
178.5706878711
 20
62.8537974052
 30
0.0
 11
177.6130689226
 21
61.8961784567
 31
0.0
1001
ACAD
1000
RTMaterial
1005
185D
  0
LINE
  5
271
100
AcDbEntity
  8
0
  6
CONTINUOUS
 62
           7
100
AcDbLine
 10
179.3706878711
 20
62.8537974052
 30
0.0
 11
178.4130689226
 21
61.8961784567
 31
0.0
1001
ACAD
1000
RTMaterial
1005
185D
  0
LINE
  5
272
100
AcDbEntity
  8
0
  6
CONTINUOUS
 62
           7
100
AcDbLine
 10
180.1706878711
 20
62.8537974052
 30
0.0
 11
179.2130689226
 21
61.8961784567
 31
0.0
1001
ACAD
1000
RTMaterial
1005
185D
  0
LINE
  5
273
100
AcDbEntity
  8
0
  6
CONTINUOUS
 62
           7
100
AcDbLine
 10
180.7028727921
 20
62.5859823262
 30
0.0
 11
180.0130689226
 21
61.8961784567
 31
0.0
1001
ACAD
1000
RTMaterial
1005
185D
  0
ELLIPSE
  5
274
100
AcDbEntity
  8
0
  6
CONTINUOUS
 62
           7
100
AcDbEllipse
 10
175.3744829786
 20
60.5171372483
 30
0.0
 11
1.2568247227
 21
0.0
 31
0.0
210
0.0
220
0.0
230
1.0
 40
0.4938647983
 41
0.0
 42
6.2831853071795862
1001
ACAD
1000
RTMaterial
1005
185D
  0
ELLIPSE
  5
275
100
AcDbEntity
  8
0
  6
CONTINUOUS
 62
           7
100
AcDbEllipse
 10
175.3744829786
 20
58.9171372483
 30
0.0
 11
1.2568247227
 21
0.0
 31
0.0
210
0.0
220
0.0
230
1.0
 40
0.4938647983
 41
0.0
 42
6.2831853071795862
1001
ACAD
1000
RTMaterial
1005
185D
  0
ELLIPSE
  5
276
100
AcDbEntity
  8
0
  6
CONTINUOUS
 62
           7
100
AcDbEllipse
 10
175.3744829786
 20
57.3171372483
 30
0.0
 11
1.2568247227
 21
0.0
 31
0.0
210
0.0
220
0.0
230
1.0
 40
0.4938647983
 41
0.0
 42
6.2831853071795862
1001
ACAD
1000
RTMaterial
1005
185D
  0
ELLIPSE
  5
277
100
AcDbEntity
  8
0
  6
CONTINUOUS
 62
           7
100
AcDbEllipse
 10
188.5968456759
 20
60.5405628768
 30
0.0
 11
1.2568247227
 21
0.0
 31
0.0
210
0.0
220
0.0
230
1.0
 40
0.4938647983
 41
0.0
 42
6.2831853071795862
1001
ACAD
1000
RTMaterial
1005
185D
  0
MTEXT
  5
278
100
AcDbEntity
  8
0
  6
CONTINUOUS
 62
           2
100
AcDbMText
 10
173.3026579086
 20
76.3281200693
 30
0.0
 40
0.6
 41
17.5111111111
 71
           1
 72
           1
  1
Infomations Techniques/Technical Infomations
  7
TEXTSTYLE_2
 73
           1
 44
1.0
1001
ACAD
1000
MTEXTBEGIN
1070
          73
1070
           1
1070
          44
1040
0.9
1070
          74
1070
           0
1000
MTEXTEND
  0
MTEXT
  5
279
100
AcDbEntity
  8
0
  6
CONTINUOUS
 62
           2
100
AcDbMText
 10
173.6
 20
74.8
 30
0.0
 40
0.8
 41
11.8133333333
 71
           1
 72
           1
  1
NOMBRE DE JETS:     
  7
TEXTSTYLE_2
 73
           1
 44
1.0
1001
ACAD
1000
MTEXTBEGIN
1070
          73
1070
           1
1070
          44
1040
0.9
1070
          74
1070
           0
1000
MTEXTEND
  0
MTEXT
  5
27A
100
AcDbEntity
  8
0
  6
CONTINUOUS
 62
           2
100
AcDbMText
 10
185.4133333333
 20
74.8
 30
0.0
 40
0.8
 41
1.2266666667
 71
           1
 72
           1
  1
41
  7
TEXTSTYLE_2
 73
           1
 44
1.0
1001
ACAD
1000
MTEXTBEGIN
1070
          73
1070
           1
1070
          44
1040
0.9
1070
          74
1070
           0
1000
MTEXTEND
  0
MTEXT
  5
27B
100
AcDbEntity
  8
0
  6
CONTINUOUS
 62
           2
100
AcDbMText
 10
173.6
 20
72.4
 30
0.0
 40
0.8
 41
36.6755555556
 71
           1
 72
           1
  1
NIVEAU D'EAU              GALLONS(US)        LITRES        GALLONS(UK)
  7
TEXTSTYLE_2
 73
           1
 44
1.0
1001
ACAD
1000
MTEXTBEGIN
1070
          73
1070
           1
1070
          44
1040
0.9
1070
          74
1070
           0
1000
MTEXTEND
  0
MTEXT
  5
27C
100
AcDbEntity
  8
0
  6
CONTINUOUS
 62
           2
100
AcDbMText
 10
173.6
 20
71.2
 30
0.0
 40
0.8
 41
3.2385185185
 71
           1
 72
           1
  1
PLEIN
  7
TEXTSTYLE_2
 73
           1
 44
1.0
1001
ACAD
1000
MTEXTBEGIN
1070
          73
1070
           1
1070
          44
1040
0.9
1070
          74
1070
           0
1000
MTEXTEND
  0
MTEXT
  5
27D
100
AcDbEntity
  8
0
  6
CONTINUOUS
 62
           2
100
AcDbMText
 10
173.6
 20
70.0
 30
0.0
 40
0.8
 41
7.6266666667
 71
           1
 72
           1
  1
HAUT T.PLEIN
  7
TEXTSTYLE_2
 73
           1
 44
1.0
1001
ACAD
1000
MTEXTBEGIN
1070
          73
1070
           1
1070
          44
1040
0.9
1070
          74
1070
           0
1000
MTEXTEND
  0
MTEXT
  5
27E
100
AcDbEntity
  8
0
  6
CONTINUOUS
 62
           2
100
AcDbMText
 10
173.6
 20
68.8
 30
0.0
 40
0.8
 41
8.322962963
 71
           1
 72
           1
  1
MILIEU T.PLEIN
  7
TEXTSTYLE_2
 73
           1
 44
1.0
1001
ACAD
1000
MTEXTBEGIN
1070
          73
1070
           1
1070
          44
1040
0.9
1070
          74
1070
           0
1000
MTEXTEND
  0
MTEXT
  5
27F
100
AcDbEntity
  8
0
  6
CONTINUOUS
 62
           2
100
AcDbMText
 10
173.6
 20
67.6
 30
0.0
 40
0.8
 41
6.8059259259
 71
           1
 72
           1
  1
BAS T.PLEIN
  7
TEXTSTYLE_2
 73
           1
 44
1.0
1001
ACAD
1000
MTEXTBEGIN
1070
          73
1070
           1
1070
          44
1040
0.9
1070
          74
1070
           0
1000
MTEXTEND
  0
MTEXT
  5
280
100
AcDbEntity
  8
0
  6
CONTINUOUS
 62
           2
100
AcDbMText
 10
173.6
 20
66.4
 30
0.0
 40
0.8
 41
10.1481481481
 71
           1
 72
           1
  1
3" EN BAS T.PLEIN
  7
TEXTSTYLE_2
 73
           1
 44
1.0
1001
ACAD
1000
MTEXTBEGIN
1070
          73
1070
           1
1070
          44
1040
0.9
1070
          74
1070
           0
1000
MTEXTEND
  0
MTEXT
  5
281
100
AcDbEntity
  8
0
  6
CONTINUOUS
 62
           2
100
AcDbMText
 10
173.3598061933
 20
64.3438556902
 30
0.0
 40
0.6
 41
6.3511111111
 71
           1
 72
           1
  1
Legende/Legend
  7
TEXTSTYLE_2
 73
           1
 44
1.0
1001
ACAD
1000
MTEXTBEGIN
1070
          73
1070
           1
1070
          44
1040
0.9
1070
          74
1070
           0
1000
MTEXTEND
  0
MTEXT
  5
282
100
AcDbEntity
  8
0
  6
CONTINUOUS
 62
           2
100
AcDbMText
 10
181.1944081262
 20
62.730337717
 30
0.0
 40
0.8
 41
13.5081481481
 71
           1
 72
           1
  1
ZONE DE ROBINETTERIE
  7
TEXTSTYLE_2
 73
           1
 44
1.0
1001
ACAD
1000
MTEXTBEGIN
1070
          73
1070
           1
1070
          44
1040
0.9
1070
          74
1070
           0
1000
MTEXTEND
  0
MTEXT
  5
283
100
AcDbEntity
  8
0
  6
CONTINUOUS
 62
           2
100
AcDbMText
 10
175.0987386458
 20
60.9360442997
 30
0.0
 40
0.8
 41
33.3244444444
 71
           1
 72
           1
  1
L   :  SYSTEME LED       DC   :  DOUBLE DOSSIER CHAUFFANT
  7
TEXTSTYLE_2
 73
           1
 44
1.0
1001
ACAD
1000
MTEXTBEGIN
1070
          73
1070
           1
1070
          44
1040
0.9
1070
          74
1070
           0
1000
MTEXTEND
  0
MTEXT
  5
284
100
AcDbEntity
  8
0
  6
CONTINUOUS
 62
           2
100
AcDbMText
 10
175.0987386458
 20
59.3360442997
 30
0.0
 40
0.8
 41
8.96
 71
           1
 72
           1
  1
C   :  CONTROLE
  7
TEXTSTYLE_2
 73
           1
 44
1.0
1001
ACAD
1000
MTEXTBEGIN
1070
          73
1070
           1
1070
          44
1040
0.9
1070
          74
1070
           0
1000
MTEXTEND
  0
MTEXT
  5
285
100
AcDbEntity
  8
0
  6
CONTINUOUS
 62
           2
100
AcDbMText
 10
175.0987386458
 20
57.7360442997
 30
0.0
 40
0.8
 41
7.4844444444
 71
           1
 72
           1
  1
T   :  MOTEUR
  7
TEXTSTYLE_2
 73
           1
 44
1.0
1001
ACAD
1000
MTEXTBEGIN
1070
          73
1070
           1
1070
          44
1040
0.9
1070
          74
1070
           0
1000
MTEXTEND
  0
MTEXT
  5
286
100
AcDbEntity
  8
0
  6
CONTINUOUS
 62
           2
100
AcDbMText
 10
188.6925693725
 20
71.2
 30
0.0
 40
0.8
 41
1.84
 71
           1
 72
           1
  1
106
  7
TEXTSTYLE_2
 73
           1
 44
1.0
1001
ACAD
1000
MTEXTBEGIN
1070
          73
1070
           1
1070
          44
1040
0.9
1070
          74
1070
           0
1000
MTEXTEND
  0
MTEXT
  5
287
100
AcDbEntity
  8
0
  6
CONTINUOUS
 62
           2
100
AcDbMText
 10
188.9992360392
 20
70.0
 30
0.0
 40
0.8
 41
1.2266666667
 71
           1
 72
           1
  1
90
  7
TEXTSTYLE_2
 73
           1
 44
1.0
1001
ACAD
1000
MTEXTBEGIN
1070
          73
1070
           1
1070
          44
1040
0.9
1070
          74
1070
           0
1000
MTEXTEND
  0
MTEXT
  5
288
100
AcDbEntity
  8
0
  6
CONTINUOUS
 62
           2
100
AcDbMText
 10
188.9992360392
 20
68.8
 30
0.0
 40
0.8
 41
1.2266666667
 71
           1
 72
           1
  1
82
  7
TEXTSTYLE_2
 73
           1
 44
1.0
1001
ACAD
1000
MTEXTBEGIN
1070
          73
1070
           1
1070
          44
1040
0.9
1070
          74
1070
           0
1000
MTEXTEND
  0
MTEXT
  5
289
100
AcDbEntity
  8
0
  6
CONTINUOUS
 62
           2
100
AcDbMText
 10
188.9992360392
 20
67.6
 30
0.0
 40
0.8
 41
1.2266666667
 71
           1
 72
           1
  1
74
  7
TEXTSTYLE_2
 73
           1
 44
1.0
1001
ACAD
1000
MTEXTBEGIN
1070
          73
1070
           1
1070
          44
1040
0.9
1070
          74
1070
           0
1000
MTEXTEND
  0
MTEXT
  5
28A
100
AcDbEntity
  8
0
  6
CONTINUOUS
 62
           2
100
AcDbMText
 10
188.9992360392
 20
66.4
 30
0.0
 40
0.8
 41
1.2266666667
 71
           1
 72
           1
  1
63
  7
TEXTSTYLE_2
 73
           1
 44
1.0
1001
ACAD
1000
MTEXTBEGIN
1070
          73
1070
           1
1070
          44
1040
0.9
1070
          74
1070
           0
1000
MTEXTEND
  0
MTEXT
  5
28B
100
AcDbEntity
  8
0
  6
CONTINUOUS
 62
           2
100
AcDbMText
 10
197.3034831716
 20
71.2204952825
 30
0.0
 40
0.8
 41
1.84
 71
           1
 72
           1
  1
402
  7
TEXTSTYLE_2
 73
           1
 44
1.0
1001
ACAD
1000
MTEXTBEGIN
1070
          73
1070
           1
1070
          44
1040
0.9
1070
          74
1070
           0
1000
MTEXTEND
  0
MTEXT
  5
28C
100
AcDbEntity
  8
0
  6
CONTINUOUS
 62
           2
100
AcDbMText
 10
197.3034831716
 20
70.0204952825
 30
0.0
 40
0.8
 41
1.84
 71
           1
 72
           1
  1
341
  7
TEXTSTYLE_2
 73
           1
 44
1.0
1001
ACAD
1000
MTEXTBEGIN
1070
          73
1070
           1
1070
          44
1040
0.9
1070
          74
1070
           0
1000
MTEXTEND
  0
MTEXT
  5
28D
100
AcDbEntity
  8
0
  6
CONTINUOUS
 62
           2
100
AcDbMText
 10
197.3034831716
 20
68.8204952825
 30
0.0
 40
0.8
 41
1.84
 71
           1
 72
           1
  1
311
  7
TEXTSTYLE_2
 73
           1
 44
1.0
1001
ACAD
1000
MTEXTBEGIN
1070
          73
1070
           1
1070
          44
1040
0.9
1070
          74
1070
           0
1000
MTEXTEND
  0
MTEXT
  5
28E
100
AcDbEntity
  8
0
  6
CONTINUOUS
 62
           2
100
AcDbMText
 10
197.3034831716
 20
67.6204952825
 30
0.0
 40
0.8
 41
1.84
 71
           1
 72
           1
  1
282
  7
TEXTSTYLE_2
 73
           1
 44
1.0
1001
ACAD
1000
MTEXTBEGIN
1070
          73
1070
           1
1070
          44
1040
0.9
1070
          74
1070
           0
1000
MTEXTEND
  0
MTEXT
  5
28F
100
AcDbEntity
  8
0
  6
CONTINUOUS
 62
           2
100
AcDbMText
 10
197.3034831716
 20
66.4204952825
 30
0.0
 40
0.8
 41
1.84
 71
           1
 72
           1
  1
239
  7
TEXTSTYLE_2
 73
           1
 44
1.0
1001
ACAD
1000
MTEXTBEGIN
1070
          73
1070
           1
1070
          44
1040
0.9
1070
          74
1070
           0
1000
MTEXTEND
  0
MTEXT
  5
290
100
AcDbEntity
  8
0
  6
CONTINUOUS
 62
           2
100
AcDbMText
 10
205.6370498966
 20
71.2
 30
0.0
 40
0.8
 41
1.2266666667
 71
           1
 72
           1
  1
88
  7
TEXTSTYLE_2
 73
           1
 44
1.0
1001
ACAD
1000
MTEXTBEGIN
1070
          73
1070
           1
1070
          44
1040
0.9
1070
          74
1070
           0
1000
MTEXTEND
  0
MTEXT
  5
291
100
AcDbEntity
  8
0
  6
CONTINUOUS
 62
           2
100
AcDbMText
 10
205.6370498966
 20
70.0
 30
0.0
 40
0.8
 41
1.2266666667
 71
           1
 72
           1
  1
75
  7
TEXTSTYLE_2
 73
           1
 44
1.0
1001
ACAD
1000
MTEXTBEGIN
1070
          73
1070
           1
1070
          44
1040
0.9
1070
          74
1070
           0
1000
MTEXTEND
  0
MTEXT
  5
292
100
AcDbEntity
  8
0
  6
CONTINUOUS
 62
           2
100
AcDbMText
 10
205.6370498966
 20
68.8
 30
0.0
 40
0.8
 41
1.2266666667
 71
           1
 72
           1
  1
68
  7
TEXTSTYLE_2
 73
           1
 44
1.0
1001
ACAD
1000
MTEXTBEGIN
1070
          73
1070
           1
1070
          44
1040
0.9
1070
          74
1070
           0
1000
MTEXTEND
  0
MTEXT
  5
293
100
AcDbEntity
  8
0
  6
CONTINUOUS
 62
           2
100
AcDbMText
 10
205.6370498966
 20
67.6
 30
0.0
 40
0.8
 41
1.2266666667
 71
           1
 72
           1
  1
62
  7
TEXTSTYLE_2
 73
           1
 44
1.0
1001
ACAD
1000
MTEXTBEGIN
1070
          73
1070
           1
1070
          44
1040
0.9
1070
          74
1070
           0
1000
MTEXTEND
  0
MTEXT
  5
294
100
AcDbEntity
  8
0
  6
CONTINUOUS
 62
           2
100
AcDbMText
 10
205.6370498966
 20
66.4
 30
0.0
 40
0.8
 41
1.2266666667
 71
           1
 72
           1
  1
53
  7
TEXTSTYLE_2
 73
           1
 44
1.0
1001
ACAD
1000
MTEXTBEGIN
1070
          73
1070
           1
1070
          44
1040
0.9
1070
          74
1070
           0
1000
MTEXTEND
  0
ENDBLK
  5
295
100
AcDbEntity
  8
0
  6
ByBlock
 62
           0
100
AcDbBlockEnd
1001
ACAD
1000
RTMaterial
1005
185D
  0
BLOCK
  5
296
100
AcDbEntity
  8
0
  6
CONTINUOUS
 62
           2
100
AcDbBlockBegin
  2
L03-USAGE_INTERNE_SEULEM_BL0
 70
          64
 10
59.6825708244
 20
47.9396909914
 30
0.0
  3
L03-USAGE_INTERNE_SEULEM_BL0
  1

1001
ACAD
1000
RTMaterial
1005
185D
  0
LINE
  5
297
100
AcDbEntity
  8
0
  6
CONTINUOUS
 62
           2
100
AcDbLine
 10
76.3104328924
 20
42.7274506498
 30
0.0
 11
76.3185436116
 21
42.735561369
 31
0.0
1001
ACAD
1000
RTMaterial
1005
185D
  0
LINE
  5
298
100
AcDbEntity
  8
0
  6
CONTINUOUS
 62
           2
100
AcDbLine
 10
75.4313494127
 20
42.5724445141
 30
0.0
 11
76.2100071468
 21
43.3511022482
 31
0.0
1001
ACAD
1000
RTMaterial
1005
185D
  0
LINE
  5
299
100
AcDbEntity
  8
0
  6
CONTINUOUS
 62
           2
100
AcDbLine
 10
74.552265933
 20
42.4174383783
 30
0.0
 11
76.1014706821
 21
43.9666431274
 31
0.0
1001
ACAD
1000
RTMaterial
1005
185D
  0
LINE
  5
29A
100
AcDbEntity
  8
0
  6
CONTINUOUS
 62
           2
100
AcDbLine
 10
73.6731824533
 20
42.2624322425
 30
0.0
 11
75.9929342174
 21
44.5821840066
 31
0.0
1001
ACAD
1000
RTMaterial
1005
185D
  0
LINE
  5
29B
100
AcDbEntity
  8
0
  6
CONTINUOUS
 62
           2
100
AcDbLine
 10
72.7940989736
 20
42.1074261068
 30
0.0
 11
75.8843977527
 21
45.1977248858
 31
0.0
1001
ACAD
1000
RTMaterial
1005
185D
  0
LINE
  5
29C
100
AcDbEntity
  8
0
  6
CONTINUOUS
 62
           2
100
AcDbLine
 10
71.9150154939
 20
41.952419971
 30
0.0
 11
73.7642200716
 21
43.8016245487
 31
0.0
1001
ACAD
1000
RTMaterial
1005
185D
  0
LINE
  5
29D
100
AcDbEntity
  8
0
  6
CONTINUOUS
 62
           2
100
AcDbLine
 10
74.4810343029
 20
44.51843878
 30
0.0
 11
75.7758612879
 21
45.813265765
 31
0.0
1001
ACAD
1000
RTMaterial
1005
185D
  0
LINE
  5
29E
100
AcDbEntity
  8
0
  6
CONTINUOUS
 62
           2
100
AcDbLine
 10
71.0359320142
 20
41.7974138352
 30
0.0
 11
72.8851365919
 21
43.646618413
 31
0.0
1001
ACAD
1000
RTMaterial
1005
185D
  0
LINE
  5
29F
100
AcDbEntity
  8
0
  6
CONTINUOUS
 62
           2
100
AcDbLine
 10
74.3724978382
 20
45.1339796592
 30
0.0
 11
75.6673248232
 21
46.4288066442
 31
0.0
1001
ACAD
1000
RTMaterial
1005
185D
  0
LINE
  5
2A0
100
AcDbEntity
  8
0
  6
CONTINUOUS
 62
           2
100
AcDbLine
 10
70.1568485345
 20
41.6424076995
 30
0.0
 11
72.0060531122
 21
43.4916122772
 31
0.0
1001
ACAD
1000
RTMaterial
1005
185D
  0
LINE
  5
2A1
100
AcDbEntity
  8
0
  6
CONTINUOUS
 62
           2
100
AcDbLine
 10
74.2639613734
 20
45.7495205384
 30
0.0
 11
75.5587883585
 21
47.0443475234
 31
0.0
1001
ACAD
1000
RTMaterial
1005
185D
  0
LINE
  5
2A2
100
AcDbEntity
  8
0
  6
CONTINUOUS
 62
           2
100
AcDbLine
 10
69.2777650548
 20
41.4874015637
 30
0.0
 11
71.1269696325
 21
43.3366061414
 31
0.0
1001
ACAD
1000
RTMaterial
1005
185D
  0
LINE
  5
2A3
100
AcDbEntity
  8
0
  6
CONTINUOUS
 62
           2
100
AcDbLine
 10
74.1554249087
 20
46.3650614176
 30
0.0
 11
75.4502518937
 21
47.6598884026
 31
0.0
1001
ACAD
1000
RTMaterial
1005
185D
  0
LINE
  5
2A4
100
AcDbEntity
  8
0
  6
CONTINUOUS
 62
           2
100
AcDbLine
 10
68.3986815751
 20
41.3323954279
 30
0.0
 11
70.2478861528
 21
43.1816000057
 31
0.0
1001
ACAD
1000
RTMaterial
1005
185D
  0
LINE
  5
2A5
100
AcDbEntity
  8
0
  6
CONTINUOUS
 62
           2
100
AcDbLine
 10
74.046888444
 20
46.9806022968
 30
0.0
 11
75.341715429
 21
48.2754292818
 31
0.0
1001
ACAD
1000
RTMaterial
1005
185D
  0
LINE
  5
2A6
100
AcDbEntity
  8
0
  6
CONTINUOUS
 62
           2
100
AcDbLine
 10
67.5195980954
 20
41.1773892922
 30
0.0
 11
69.3688026731
 21
43.0265938699
 31
0.0
1001
ACAD
1000
RTMaterial
1005
185D
  0
LINE
  5
2A7
100
AcDbEntity
  8
0
  6
CONTINUOUS
 62
           2
100
AcDbLine
 10
73.9383519792
 20
47.596143176
 30
0.0
 11
75.2331789643
 21
48.890970161
 31
0.0
1001
ACAD
1000
RTMaterial
1005
185D
  0
LINE
  5
2A8
100
AcDbEntity
  8
0
  6
CONTINUOUS
 62
           2
100
AcDbLine
 10
66.6405146157
 20
41.0223831564
 30
0.0
 11
68.4897191934
 21
42.8715877341
 31
0.0
1001
ACAD
1000
RTMaterial
1005
185D
  0
LINE
  5
2A9
100
AcDbEntity
  8
0
  6
CONTINUOUS
 62
           2
100
AcDbLine
 10
73.8298155145
 20
48.2116840552
 30
0.0
 11
75.1246424995
 21
49.5065110402
 31
0.0
1001
ACAD
1000
RTMaterial
1005
185D
  0
LINE
  5
2AA
100
AcDbEntity
  8
0
  6
CONTINUOUS
 62
           2
100
AcDbLine
 10
65.761431136
 20
40.8673770206
 30
0.0
 11
67.6106357137
 21
42.7165815984
 31
0.0
1001
ACAD
1000
RTMaterial
1005
185D
  0
LINE
  5
2AB
100
AcDbEntity
  8
0
  6
CONTINUOUS
 62
           2
100
AcDbLine
 10
73.7212790498
 20
48.8272249344
 30
0.0
 11
75.0161060348
 21
50.1220519195
 31
0.0
1001
ACAD
1000
RTMaterial
1005
185D
  0
LINE
  5
2AC
100
AcDbEntity
  8
0
  6
CONTINUOUS
 62
           2
100
AcDbLine
 10
64.8823476563
 20
40.7123708849
 30
0.0
 11
66.731552234
 21
42.5615754626
 31
0.0
1001
ACAD
1000
RTMaterial
1005
185D
  0
LINE
  5
2AD
100
AcDbEntity
  8
0
  6
CONTINUOUS
 62
           2
100
AcDbLine
 10
73.612742585
 20
49.4427658136
 30
0.0
 11
74.9075695701
 21
50.7375927987
 31
0.0
1001
ACAD
1000
RTMaterial
1005
185D
  0
LINE
  5
2AE
100
AcDbEntity
  8
0
  6
CONTINUOUS
 62
           2
100
AcDbLine
 10
64.0032641766
 20
40.5573647491
 30
0.0
 11
65.8524687543
 21
42.4065693268
 31
0.0
1001
ACAD
1000
RTMaterial
1005
185D
  0
LINE
  5
2AF
100
AcDbEntity
  8
0
  6
CONTINUOUS
 62
           2
100
AcDbLine
 10
73.2492870652
 20
49.8033876378
 30
0.0
 11
74.7990331053
 21
51.3531336779
 31
0.0
1001
ACAD
1000
RTMaterial
1005
185D
  0
LINE
  5
2B0
100
AcDbEntity
  8
0
  6
CONTINUOUS
 62
           2
100
AcDbLine
 10
63.1241806969
 20
40.4023586133
 30
0.0
 11
64.9733852746
 21
42.2515631911
 31
0.0
1001
ACAD
1000
RTMaterial
1005
185D
  0
LINE
  5
2B1
100
AcDbEntity
  8
0
  6
CONTINUOUS
 62
           2
100
AcDbLine
 10
72.3702035855
 20
49.648381502
 30
0.0
 11
74.6904966406
 21
51.9686745571
 31
0.0
1001
ACAD
1000
RTMaterial
1005
185D
  0
LINE
  5
2B2
100
AcDbEntity
  8
0
  6
CONTINUOUS
 62
           2
100
AcDbLine
 10
62.2450972172
 20
40.2473524776
 30
0.0
 11
64.0943017949
 21
42.0965570553
 31
0.0
1001
ACAD
1000
RTMaterial
1005
185D
  0
LINE
  5
2B3
100
AcDbEntity
  8
0
  6
CONTINUOUS
 62
           2
100
AcDbLine
 10
71.4911201058
 20
49.4933753662
 30
0.0
 11
72.7239308638
 21
50.7261861242
 31
0.0
1001
ACAD
1000
RTMaterial
1005
185D
  0
LINE
  5
2B4
100
AcDbEntity
  8
0
  6
CONTINUOUS
 62
           2
100
AcDbLine
 10
73.2871331908
 20
51.2893884512
 30
0.0
 11
74.5819601759
 21
52.5842154363
 31
0.0
1001
ACAD
1000
RTMaterial
1005
185D
  0
LINE
  5
2B5
100
AcDbEntity
  8
0
  6
CONTINUOUS
 62
           2
100
AcDbLine
 10
61.3660137375
 20
40.0923463418
 30
0.0
 11
63.2152183152
 21
41.9415509195
 31
0.0
1001
ACAD
1000
RTMaterial
1005
185D
  0
LINE
  5
2B6
100
AcDbEntity
  8
0
  6
CONTINUOUS
 62
           2
100
AcDbLine
 10
70.6120366261
 20
49.3383692305
 30
0.0
 11
71.8448471325
 21
50.5711797369
 31
0.0
1001
ACAD
1000
RTMaterial
1005
185D
  0
LINE
  5
2B7
100
AcDbEntity
  8
0
  6
CONTINUOUS
 62
           2
100
AcDbLine
 10
73.1785967261
 20
51.9049293304
 30
0.0
 11
74.4734237111
 21
53.1997563155
 31
0.0
1001
ACAD
1000
RTMaterial
1005
185D
  0
LINE
  5
2B8
100
AcDbEntity
  8
0
  6
CONTINUOUS
 62
           2
100
AcDbLine
 10
60.4869302578
 20
39.937340206
 30
0.0
 11
62.3361348355
 21
41.7865447838
 31
0.0
1001
ACAD
1000
RTMaterial
1005
185D
  0
LINE
  5
2B9
100
AcDbEntity
  8
0
  6
CONTINUOUS
 62
           2
100
AcDbLine
 10
69.7329531464
 20
49.1833630947
 30
0.0
 11
70.9657634013
 21
50.4161733496
 31
0.0
1001
ACAD
1000
RTMaterial
1005
185D
  0
LINE
  5
2BA
100
AcDbEntity
  8
0
  6
CONTINUOUS
 62
           2
100
AcDbLine
 10
73.0700602614
 20
52.5204702096
 30
0.0
 11
74.3648872464
 21
53.8152971947
 31
0.0
1001
ACAD
1000
RTMaterial
1005
185D
  0
LINE
  5
2BB
100
AcDbEntity
  8
0
  6
CONTINUOUS
 62
           2
100
AcDbLine
 10
59.6078467781
 20
39.7823340703
 30
0.0
 11
61.4570513558
 21
41.631538648
 31
0.0
1001
ACAD
1000
RTMaterial
1005
185D
  0
LINE
  5
2BC
100
AcDbEntity
  8
0
  6
CONTINUOUS
 62
           2
100
AcDbLine
 10
68.8538696667
 20
49.0283569589
 30
0.0
 11
70.0866796701
 21
50.2611669623
 31
0.0
1001
ACAD
1000
RTMaterial
1005
185D
  0
LINE
  5
2BD
100
AcDbEntity
  8
0
  6
CONTINUOUS
 62
           2
100
AcDbLine
 10
72.9615237966
 20
53.1360110889
 30
0.0
 11
74.2563507817
 21
54.4308380739
 31
0.0
1001
ACAD
1000
RTMaterial
1005
185D
  0
LINE
  5
2BE
100
AcDbEntity
  8
0
  6
CONTINUOUS
 62
           2
100
AcDbLine
 10
58.7287632984
 20
39.6273279345
 30
0.0
 11
60.5779678761
 21
41.4765325122
 31
0.0
1001
ACAD
1000
RTMaterial
1005
185D
  0
LINE
  5
2BF
100
AcDbEntity
  8
0
  6
CONTINUOUS
 62
           2
100
AcDbLine
 10
67.974786187
 20
48.8733508232
 30
0.0
 11
69.2075959388
 21
50.106160575
 31
0.0
1001
ACAD
1000
RTMaterial
1005
185D
  0
LINE
  5
2C0
100
AcDbEntity
  8
0
  6
CONTINUOUS
 62
           2
100
AcDbLine
 10
72.8529873319
 20
53.7515519681
 30
0.0
 11
74.1478143169
 21
55.0463789531
 31
0.0
1001
ACAD
1000
RTMaterial
1005
185D
  0
LINE
  5
2C1
100
AcDbEntity
  8
0
  6
CONTINUOUS
 62
           2
100
AcDbLine
 10
57.8496798187
 20
39.4723217987
 30
0.0
 11
59.6988843964
 21
41.3215263765
 31
0.0
1001
ACAD
1000
RTMaterial
1005
185D
  0
LINE
  5
2C2
100
AcDbEntity
  8
0
  6
CONTINUOUS
 62
           2
100
AcDbLine
 10
67.0957027073
 20
48.7183446874
 30
0.0
 11
68.3285122076
 21
49.9511541877
 31
0.0
1001
ACAD
1000
RTMaterial
1005
185D
  0
LINE
  5
2C3
100
AcDbEntity
  8
0
  6
CONTINUOUS
 62
           2
100
AcDbLine
 10
72.7444508672
 20
54.3670928473
 30
0.0
 11
74.0392778522
 21
55.6619198323
 31
0.0
1001
ACAD
1000
RTMaterial
1005
185D
  0
LINE
  5
2C4
100
AcDbEntity
  8
0
  6
CONTINUOUS
 62
           2
100
AcDbLine
 10
56.970596339
 20
39.317315663
 30
0.0
 11
58.8198009167
 21
41.1665202407
 31
0.0
1001
ACAD
1000
RTMaterial
1005
185D
  0
LINE
  5
2C5
100
AcDbEntity
  8
0
  6
CONTINUOUS
 62
           2
100
AcDbLine
 10
66.2166192276
 20
48.5633385516
 30
0.0
 11
67.4494284764
 21
49.7961478004
 31
0.0
1001
ACAD
1000
RTMaterial
1005
185D
  0
LINE
  5
2C6
100
AcDbEntity
  8
0
  6
CONTINUOUS
 62
           2
100
AcDbLine
 10
72.6359144024
 20
54.9826337265
 30
0.0
 11
73.9307413875
 21
56.2774607115
 31
0.0
1001
ACAD
1000
RTMaterial
1005
185D
  0
LINE
  5
2C7
100
AcDbEntity
  8
0
  6
CONTINUOUS
 62
           2
100
AcDbLine
 10
56.0915128593
 20
39.1623095272
 30
0.0
 11
57.940717437
 21
41.0115141049
 31
0.0
1001
ACAD
1000
RTMaterial
1005
185D
  0
LINE
  5
2C8
100
AcDbEntity
  8
0
  6
CONTINUOUS
 62
           2
100
AcDbLine
 10
65.3375357479
 20
48.4083324159
 30
0.0
 11
66.5703447451
 21
49.6411414131
 31
0.0
1001
ACAD
1000
RTMaterial
1005
185D
  0
LINE
  5
2C9
100
AcDbEntity
  8
0
  6
CONTINUOUS
 62
           2
100
AcDbLine
 10
72.5273779377
 20
55.5981746057
 30
0.0
 11
73.8222049227
 21
56.8930015907
 31
0.0
1001
ACAD
1000
RTMaterial
1005
185D
  0
LINE
  5
2CA
100
AcDbEntity
  8
0
  6
CONTINUOUS
 62
           2
100
AcDbLine
 10
55.2124293796
 20
39.0073033914
 30
0.0
 11
57.0616339573
 21
40.8565079692
 31
0.0
1001
ACAD
1000
RTMaterial
1005
185D
  0
LINE
  5
2CB
100
AcDbEntity
  8
0
  6
CONTINUOUS
 62
           2
100
AcDbLine
 10
64.4584522682
 20
48.2533262801
 30
0.0
 11
65.6912610139
 21
49.4861350258
 31
0.0
1001
ACAD
1000
RTMaterial
1005
185D
  0
LINE
  5
2CC
100
AcDbEntity
  8
0
  6
CONTINUOUS
 62
           2
100
AcDbLine
 10
72.418841473
 20
56.2137154849
 30
0.0
 11
73.713668458
 21
57.5085424699
 31
0.0
1001
ACAD
1000
RTMaterial
1005
185D
  0
LINE
  5
2CD
100
AcDbEntity
  8
0
  6
CONTINUOUS
 62
           2
100
AcDbLine
 10
54.3333458999
 20
38.8522972557
 30
0.0
 11
56.1825504776
 21
40.7015018334
 31
0.0
1001
ACAD
1000
RTMaterial
1005
185D
  0
LINE
  5
2CE
100
AcDbEntity
  8
0
  6
CONTINUOUS
 62
           2
100
AcDbLine
 10
63.5793687885
 20
48.0983201443
 30
0.0
 11
64.8121772826
 21
49.3311286385
 31
0.0
1001
ACAD
1000
RTMaterial
1005
185D
  0
LINE
  5
2CF
100
AcDbEntity
  8
0
  6
CONTINUOUS
 62
           2
100
AcDbLine
 10
72.2089901513
 20
56.7279415071
 30
0.0
 11
73.6051319933
 21
58.1240833491
 31
0.0
1001
ACAD
1000
RTMaterial
1005
185D
  0
LINE
  5
2D0
100
AcDbEntity
  8
0
  6
CONTINUOUS
 62
           2
100
AcDbLine
 10
53.4542624202
 20
38.6972911199
 30
0.0
 11
55.3034669979
 21
40.5464956976
 31
0.0
1001
ACAD
1000
RTMaterial
1005
185D
  0
LINE
  5
2D1
100
AcDbEntity
  8
0
  6
CONTINUOUS
 62
           2
100
AcDbLine
 10
62.7002853088
 20
47.9433140086
 30
0.0
 11
63.9330935514
 21
49.1761222512
 31
0.0
1001
ACAD
1000
RTMaterial
1005
185D
  0
LINE
  5
2D2
100
AcDbEntity
  8
0
  6
CONTINUOUS
 62
           2
100
AcDbLine
 10
71.3299066716
 20
56.5729353713
 30
0.0
 11
73.1791112493
 21
58.4221399491
 31
0.0
1001
ACAD
1000
RTMaterial
1005
185D
  0
LINE
  5
2D3
100
AcDbEntity
  8
0
  6
CONTINUOUS
 62
           2
100
AcDbLine
 10
52.5751789405
 20
38.5422849842
 30
0.0
 11
54.4243835182
 21
40.3914895619
 31
0.0
1001
ACAD
1000
RTMaterial
1005
185D
  0
LINE
  5
2D4
100
AcDbEntity
  8
0
  6
CONTINUOUS
 62
           2
100
AcDbLine
 10
61.8212018291
 20
47.7883078728
 30
0.0
 11
63.0540098202
 21
49.0211158639
 31
0.0
1001
ACAD
1000
RTMaterial
1005
185D
  0
LINE
  5
2D5
100
AcDbEntity
  8
0
  6
CONTINUOUS
 62
           2
100
AcDbLine
 10
70.4508231919
 20
56.4179292356
 30
0.0
 11
72.3000277696
 21
58.2671338133
 31
0.0
1001
ACAD
1000
RTMaterial
1005
185D
  0
LINE
  5
2D6
100
AcDbEntity
  8
0
  6
CONTINUOUS
 62
           2
100
AcDbLine
 10
51.6960954608
 20
38.3872788484
 30
0.0
 11
53.5453000385
 21
40.2364834261
 31
0.0
1001
ACAD
1000
RTMaterial
1005
185D
  0
LINE
  5
2D7
100
AcDbEntity
  8
0
  6
CONTINUOUS
 62
           2
100
AcDbLine
 10
60.9421183494
 20
47.633301737
 30
0.0
 11
62.1749260889
 21
48.8661094766
 31
0.0
1001
ACAD
1000
RTMaterial
1005
185D
  0
LINE
  5
2D8
100
AcDbEntity
  8
0
  6
CONTINUOUS
 62
           2
100
AcDbLine
 10
69.5717397122
 20
56.2629230998
 30
0.0
 11
71.4209442899
 21
58.1121276775
 31
0.0
1001
ACAD
1000
RTMaterial
1005
185D
  0
LINE
  5
2D9
100
AcDbEntity
  8
0
  6
CONTINUOUS
 62
           2
100
AcDbLine
 10
50.8170119811
 20
38.2322727126
 30
0.0
 11
52.6662165588
 21
40.0814772904
 31
0.0
1001
ACAD
1000
RTMaterial
1005
185D
  0
LINE
  5
2DA
100
AcDbEntity
  8
0
  6
CONTINUOUS
 62
           2
100
AcDbLine
 10
60.0630348697
 20
47.4782956013
 30
0.0
 11
61.2958423577
 21
48.7111030893
 31
0.0
1001
ACAD
1000
RTMaterial
1005
185D
  0
LINE
  5
2DB
100
AcDbEntity
  8
0
  6
CONTINUOUS
 62
           2
100
AcDbLine
 10
68.6926562325
 20
56.107916964
 30
0.0
 11
70.5418608102
 21
57.9571215418
 31
0.0
1001
ACAD
1000
RTMaterial
1005
185D
  0
LINE
  5
2DC
100
AcDbEntity
  8
0
  6
CONTINUOUS
 62
           2
100
AcDbLine
 10
49.9379285014
 20
38.0772665769
 30
0.0
 11
51.7871330791
 21
39.9264711546
 31
0.0
1001
ACAD
1000
RTMaterial
1005
185D
  0
LINE
  5
2DD
100
AcDbEntity
  8
0
  6
CONTINUOUS
 62
           2
100
AcDbLine
 10
59.18395139
 20
47.3232894655
 30
0.0
 11
60.4167586265
 21
48.556096702
 31
0.0
1001
ACAD
1000
RTMaterial
1005
185D
  0
LINE
  5
2DE
100
AcDbEntity
  8
0
  6
CONTINUOUS
 62
           2
100
AcDbLine
 10
67.8135727528
 20
55.9529108283
 30
0.0
 11
69.6627773305
 21
57.802115406
 31
0.0
1001
ACAD
1000
RTMaterial
1005
185D
  0
LINE
  5
2DF
100
AcDbEntity
  8
0
  6
CONTINUOUS
 62
           2
100
AcDbLine
 10
49.0588450217
 20
37.9222604411
 30
0.0
 11
50.9080495994
 21
39.7714650188
 31
0.0
1001
ACAD
1000
RTMaterial
1005
185D
  0
LINE
  5
2E0
100
AcDbEntity
  8
0
  6
CONTINUOUS
 62
           2
100
AcDbLine
 10
58.3048679103
 20
47.1682833297
 30
0.0
 11
59.5376748952
 21
48.4010903147
 31
0.0
1001
ACAD
1000
RTMaterial
1005
185D
  0
LINE
  5
2E1
100
AcDbEntity
  8
0
  6
CONTINUOUS
 62
           2
100
AcDbLine
 10
66.9344892731
 20
55.7979046925
 30
0.0
 11
68.7836938508
 21
57.6471092702
 31
0.0
1001
ACAD
1000
RTMaterial
1005
185D
  0
LINE
  5
2E2
100
AcDbEntity
  8
0
  6
CONTINUOUS
 62
           2
100
AcDbLine
 10
48.179761542
 20
37.7672543053
 30
0.0
 11
50.0289661197
 21
39.6164588831
 31
0.0
1001
ACAD
1000
RTMaterial
1005
185D
  0
LINE
  5
2E3
100
AcDbEntity
  8
0
  6
CONTINUOUS
 62
           2
100
AcDbLine
 10
57.4257844306
 20
47.013277194
 30
0.0
 11
58.658591164
 21
48.2460839274
 31
0.0
1001
ACAD
1000
RTMaterial
1005
185D
  0
LINE
  5
2E4
100
AcDbEntity
  8
0
  6
CONTINUOUS
 62
           2
100
AcDbLine
 10
66.0554057934
 20
55.6428985567
 30
0.0
 11
67.9046103711
 21
57.4921031345
 31
0.0
1001
ACAD
1000
RTMaterial
1005
185D
  0
LINE
  5
2E5
100
AcDbEntity
  8
0
  6
CONTINUOUS
 62
           2
100
AcDbLine
 10
47.3006780623
 20
37.6122481696
 30
0.0
 11
49.14988264
 21
39.4614527473
 31
0.0
1001
ACAD
1000
RTMaterial
1005
185D
  0
LINE
  5
2E6
100
AcDbEntity
  8
0
  6
CONTINUOUS
 62
           2
100
AcDbLine
 10
56.5467009509
 20
46.8582710582
 30
0.0
 11
57.7795074328
 21
48.0910775401
 31
0.0
1001
ACAD
1000
RTMaterial
1005
185D
  0
LINE
  5
2E7
100
AcDbEntity
  8
0
  6
CONTINUOUS
 62
           2
100
AcDbLine
 10
65.1763223137
 20
55.487892421
 30
0.0
 11
67.0255268914
 21
57.3370969987
 31
0.0
1001
ACAD
1000
RTMaterial
1005
185D
  0
LINE
  5
2E8
100
AcDbEntity
  8
0
  6
CONTINUOUS
 62
           2
100
AcDbLine
 10
46.4215945826
 20
37.4572420338
 30
0.0
 11
48.2707991603
 21
39.3064466115
 31
0.0
1001
ACAD
1000
RTMaterial
1005
185D
  0
LINE
  5
2E9
100
AcDbEntity
  8
0
  6
CONTINUOUS
 62
           2
100
AcDbLine
 10
55.6676174712
 20
46.7032649224
 30
0.0
 11
56.9004237015
 21
47.9360711528
 31
0.0
1001
ACAD
1000
RTMaterial
1005
185D
  0
LINE
  5
2EA
100
AcDbEntity
  8
0
  6
CONTINUOUS
 62
           2
100
AcDbLine
 10
64.297238834
 20
55.3328862852
 30
0.0
 11
66.1464434117
 21
57.1820908629
 31
0.0
1001
ACAD
1000
RTMaterial
1005
185D
  0
LINE
  5
2EB
100
AcDbEntity
  8
0
  6
CONTINUOUS
 62
           2
100
AcDbLine
 10
45.7600096555
 20
37.5197344507
 30
0.0
 11
47.3917156806
 21
39.1514404758
 31
0.0
1001
ACAD
1000
RTMaterial
1005
185D
  0
LINE
  5
2EC
100
AcDbEntity
  8
0
  6
CONTINUOUS
 62
           2
100
AcDbLine
 10
54.7885339915
 20
46.5482587867
 30
0.0
 11
56.0213399703
 21
47.7810647655
 31
0.0
1001
ACAD
1000
RTMaterial
1005
185D
  0
LINE
  5
2ED
100
AcDbEntity
  8
0
  6
CONTINUOUS
 62
           2
100
AcDbLine
 10
63.4181553543
 20
55.1778801494
 30
0.0
 11
65.267359932
 21
57.0270847272
 31
0.0
1001
ACAD
1000
RTMaterial
1005
185D
  0
LINE
  5
2EE
100
AcDbEntity
  8
0
  6
CONTINUOUS
 62
           2
100
AcDbLine
 10
45.6514731908
 20
38.1352753299
 30
0.0
 11
46.9463001758
 21
39.4301023149
 31
0.0
1001
ACAD
1000
RTMaterial
1005
185D
  0
LINE
  5
2EF
100
AcDbEntity
  8
0
  6
CONTINUOUS
 62
           2
100
AcDbLine
 10
53.9094505118
 20
46.3932526509
 30
0.0
 11
55.1422562391
 21
47.6260583782
 31
0.0
1001
ACAD
1000
RTMaterial
1005
185D
  0
LINE
  5
2F0
100
AcDbEntity
  8
0
  6
CONTINUOUS
 62
           2
100
AcDbLine
 10
62.5390718746
 20
55.0228740137
 30
0.0
 11
64.3882764523
 21
56.8720785914
 31
0.0
1001
ACAD
1000
RTMaterial
1005
185D
  0
LINE
  5
2F1
100
AcDbEntity
  8
0
  6
CONTINUOUS
 62
           2
100
AcDbLine
 10
45.5429367261
 20
38.7508162091
 30
0.0
 11
46.8377637111
 21
40.0456431941
 31
0.0
1001
ACAD
1000
RTMaterial
1005
185D
  0
LINE
  5
2F2
100
AcDbEntity
  8
0
  6
CONTINUOUS
 62
           2
100
AcDbLine
 10
53.0303670321
 20
46.2382465151
 30
0.0
 11
54.2631725078
 21
47.4710519909
 31
0.0
1001
ACAD
1000
RTMaterial
1005
185D
  0
LINE
  5
2F3
100
AcDbEntity
  8
0
  6
CONTINUOUS
 62
           2
100
AcDbLine
 10
61.6599883949
 20
54.8678678779
 30
0.0
 11
63.5091929726
 21
56.7170724556
 31
0.0
1001
ACAD
1000
RTMaterial
1005
185D
  0
LINE
  5
2F4
100
AcDbEntity
  8
0
  6
CONTINUOUS
 62
           2
100
AcDbLine
 10
45.4344002613
 20
39.3663570883
 30
0.0
 11
46.7292272464
 21
40.6611840733
 31
0.0
1001
ACAD
1000
RTMaterial
1005
185D
  0
LINE
  5
2F5
100
AcDbEntity
  8
0
  6
CONTINUOUS
 62
           2
100
AcDbLine
 10
52.1512835524
 20
46.0832403794
 30
0.0
 11
53.3840887766
 21
47.3160456036
 31
0.0
1001
ACAD
1000
RTMaterial
1005
185D
  0
LINE
  5
2F6
100
AcDbEntity
  8
0
  6
CONTINUOUS
 62
           2
100
AcDbLine
 10
60.7809049152
 20
54.7128617421
 30
0.0
 11
62.6301094929
 21
56.5620663199
 31
0.0
1001
ACAD
1000
RTMaterial
1005
185D
  0
LINE
  5
2F7
100
AcDbEntity
  8
0
  6
CONTINUOUS
 62
           2
100
AcDbLine
 10
45.3258637966
 20
39.9818979675
 30
0.0
 11
46.6206907816
 21
41.2767249525
 31
0.0
1001
ACAD
1000
RTMaterial
1005
185D
  0
LINE
  5
2F8
100
AcDbEntity
  8
0
  6
CONTINUOUS
 62
           2
100
AcDbLine
 10
51.2722000727
 20
45.9282342436
 30
0.0
 11
52.5050050454
 21
47.1610392163
 31
0.0
1001
ACAD
1000
RTMaterial
1005
185D
  0
LINE
  5
2F9
100
AcDbEntity
  8
0
  6
CONTINUOUS
 62
           2
100
AcDbLine
 10
59.9018214355
 20
54.5578556064
 30
0.0
 11
61.7510260132
 21
56.4070601841
 31
0.0
1001
ACAD
1000
RTMaterial
1005
185D
  0
LINE
  5
2FA
100
AcDbEntity
  8
0
  6
CONTINUOUS
 62
           2
100
AcDbLine
 10
45.2173273319
 20
40.5974388467
 30
0.0
 11
46.5121543169
 21
41.8922658317
 31
0.0
1001
ACAD
1000
RTMaterial
1005
185D
  0
LINE
  5
2FB
100
AcDbEntity
  8
0
  6
CONTINUOUS
 62
           2
100
AcDbLine
 10
50.393116593
 20
45.7732281078
 30
0.0
 11
51.6259213141
 21
47.006032829
 31
0.0
1001
ACAD
1000
RTMaterial
1005
185D
  0
LINE
  5
2FC
100
AcDbEntity
  8
0
  6
CONTINUOUS
 62
           2
100
AcDbLine
 10
59.0227379558
 20
54.4028494706
 30
0.0
 11
60.8719425335
 21
56.2520540483
 31
0.0
1001
ACAD
1000
RTMaterial
1005
185D
  0
LINE
  5
2FD
100
AcDbEntity
  8
0
  6
CONTINUOUS
 62
           2
100
AcDbLine
 10
45.1087908671
 20
41.2129797259
 30
0.0
 11
46.4036178522
 21
42.5078067109
 31
0.0
1001
ACAD
1000
RTMaterial
1005
185D
  0
LINE
  5
2FE
100
AcDbEntity
  8
0
  6
CONTINUOUS
 62
           2
100
AcDbLine
 10
49.5140331133
 20
45.6182219721
 30
0.0
 11
50.7468375829
 21
46.8510264417
 31
0.0
1001
ACAD
1000
RTMaterial
1005
185D
  0
LINE
  5
2FF
100
AcDbEntity
  8
0
  6
CONTINUOUS
 62
           2
100
AcDbLine
 10
58.1436544761
 20
54.2478433348
 30
0.0
 11
59.9928590538
 21
56.0970479126
 31
0.0
1001
ACAD
1000
RTMaterial
1005
185D
  0
LINE
  5
300
100
AcDbEntity
  8
0
  6
CONTINUOUS
 62
           2
100
AcDbLine
 10
45.0002544024
 20
41.8285206051
 30
0.0
 11
46.2950813874
 21
43.1233475901
 31
0.0
1001
ACAD
1000
RTMaterial
1005
185D
  0
LINE
  5
301
100
AcDbEntity
  8
0
  6
CONTINUOUS
 62
           2
100
AcDbLine
 10
48.6349496336
 20
45.4632158363
 30
0.0
 11
49.8677538517
 21
46.6960200544
 31
0.0
1001
ACAD
1000
RTMaterial
1005
185D
  0
LINE
  5
302
100
AcDbEntity
  8
0
  6
CONTINUOUS
 62
           2
100
AcDbLine
 10
57.2645709964
 20
54.0928371991
 30
0.0
 11
59.1137755741
 21
55.9420417768
 31
0.0
1001
ACAD
1000
RTMaterial
1005
185D
  0
LINE
  5
303
100
AcDbEntity
  8
0
  6
CONTINUOUS
 62
           2
100
AcDbLine
 10
44.8917179377
 20
42.4440614843
 30
0.0
 11
46.1865449227
 21
43.7388884693
 31
0.0
1001
ACAD
1000
RTMaterial
1005
185D
  0
LINE
  5
304
100
AcDbEntity
  8
0
  6
CONTINUOUS
 62
           2
100
AcDbLine
 10
47.7558661539
 20
45.3082097005
 30
0.0
 11
48.9886701204
 21
46.5410136671
 31
0.0
1001
ACAD
1000
RTMaterial
1005
185D
  0
LINE
  5
305
100
AcDbEntity
  8
0
  6
CONTINUOUS
 62
           2
100
AcDbLine
 10
56.3854875167
 20
53.9378310633
 30
0.0
 11
58.2346920944
 21
55.787035641
 31
0.0
1001
ACAD
1000
RTMaterial
1005
185D
  0
LINE
  5
306
100
AcDbEntity
  8
0
  6
CONTINUOUS
 62
           2
100
AcDbLine
 10
44.7831814729
 20
43.0596023635
 30
0.0
 11
46.078008458
 21
44.3544293485
 31
0.0
1001
ACAD
1000
RTMaterial
1005
185D
  0
LINE
  5
307
100
AcDbEntity
  8
0
  6
CONTINUOUS
 62
           2
100
AcDbLine
 10
46.8767826742
 20
45.1532035648
 30
0.0
 11
48.1095863892
 21
46.3860072798
 31
0.0
1001
ACAD
1000
RTMaterial
1005
185D
  0
LINE
  5
308
100
AcDbEntity
  8
0
  6
CONTINUOUS
 62
           2
100
AcDbLine
 10
55.506404037
 20
53.7828249275
 30
0.0
 11
57.3556086147
 21
55.6320295053
 31
0.0
1001
ACAD
1000
RTMaterial
1005
185D
  0
LINE
  5
309
100
AcDbEntity
  8
0
  6
CONTINUOUS
 62
           2
100
AcDbLine
 10
44.6746450082
 20
43.6751432427
 30
0.0
 11
45.9694719932
 21
44.9699702277
 31
0.0
1001
ACAD
1000
RTMaterial
1005
185D
  0
LINE
  5
30A
100
AcDbEntity
  8
0
  6
CONTINUOUS
 62
           2
100
AcDbLine
 10
45.9976991945
 20
44.998197429
 30
0.0
 11
47.230502658
 21
46.2310008925
 31
0.0
1001
ACAD
1000
RTMaterial
1005
185D
  0
LINE
  5
30B
100
AcDbEntity
  8
0
  6
CONTINUOUS
 62
           2
100
AcDbLine
 10
54.6273205573
 20
53.6278187918
 30
0.0
 11
56.476525135
 21
55.4770233695
 31
0.0
1001
ACAD
1000
RTMaterial
1005
185D
  0
LINE
  5
30C
100
AcDbEntity
  8
0
  6
CONTINUOUS
 62
           2
100
AcDbLine
 10
44.5661085435
 20
44.2906841219
 30
0.0
 11
46.3514189267
 21
46.0759945052
 31
0.0
1001
ACAD
1000
RTMaterial
1005
185D
  0
LINE
  5
30D
100
AcDbEntity
  8
0
  6
CONTINUOUS
 62
           2
100
AcDbLine
 10
53.7482370776
 20
53.472812656
 30
0.0
 11
55.5974416553
 21
55.3220172337
 31
0.0
1001
ACAD
1000
RTMaterial
1005
185D
  0
LINE
  5
30E
100
AcDbEntity
  8
0
  6
CONTINUOUS
 62
           2
100
AcDbLine
 10
44.4575720787
 20
44.9062250011
 30
0.0
 11
45.7523990638
 21
46.2010519861
 31
0.0
1001
ACAD
1000
RTMaterial
1005
185D
  0
LINE
  5
30F
100
AcDbEntity
  8
0
  6
CONTINUOUS
 62
           2
100
AcDbLine
 10
52.8691535978
 20
53.3178065202
 30
0.0
 11
54.7183581756
 21
55.167011098
 31
0.0
1001
ACAD
1000
RTMaterial
1005
185D
  0
LINE
  5
310
100
AcDbEntity
  8
0
  6
CONTINUOUS
 62
           2
100
AcDbLine
 10
44.349035614
 20
45.5217658803
 30
0.0
 11
45.643862599
 21
46.8165928653
 31
0.0
1001
ACAD
1000
RTMaterial
1005
185D
  0
LINE
  5
311
100
AcDbEntity
  8
0
  6
CONTINUOUS
 62
           2
100
AcDbLine
 10
51.9900701181
 20
53.1628003845
 30
0.0
 11
53.8392746959
 21
55.0120049622
 31
0.0
1001
ACAD
1000
RTMaterial
1005
185D
  0
LINE
  5
312
100
AcDbEntity
  8
0
  6
CONTINUOUS
 62
           2
100
AcDbLine
 10
44.2404991493
 20
46.1373067595
 30
0.0
 11
45.5353261343
 21
47.4321337446
 31
0.0
1001
ACAD
1000
RTMaterial
1005
185D
  0
LINE
  5
313
100
AcDbEntity
  8
0
  6
CONTINUOUS
 62
           2
100
AcDbLine
 10
51.1109866384
 20
53.0077942487
 30
0.0
 11
52.9601912162
 21
54.8569988264
 31
0.0
1001
ACAD
1000
RTMaterial
1005
185D
  0
LINE
  5
314
100
AcDbEntity
  8
0
  6
CONTINUOUS
 62
           2
100
AcDbLine
 10
44.1319626845
 20
46.7528476387
 30
0.0
 11
45.4267896696
 21
48.0476746238
 31
0.0
1001
ACAD
1000
RTMaterial
1005
185D
  0
LINE
  5
315
100
AcDbEntity
  8
0
  6
CONTINUOUS
 62
           2
100
AcDbLine
 10
50.2319031587
 20
52.8527881129
 30
0.0
 11
52.0811077365
 21
54.7019926907
 31
0.0
1001
ACAD
1000
RTMaterial
1005
185D
  0
LINE
  5
316
100
AcDbEntity
  8
0
  6
CONTINUOUS
 62
           2
100
AcDbLine
 10
44.0234262198
 20
47.3683885179
 30
0.0
 11
45.3182532048
 21
48.663215503
 31
0.0
1001
ACAD
1000
RTMaterial
1005
185D
  0
LINE
  5
317
100
AcDbEntity
  8
0
  6
CONTINUOUS
 62
           2
100
AcDbLine
 10
49.352819679
 20
52.6977819772
 30
0.0
 11
51.2020242568
 21
54.5469865549
 31
0.0
1001
ACAD
1000
RTMaterial
1005
185D
  0
LINE
  5
318
100
AcDbEntity
  8
0
  6
CONTINUOUS
 62
           2
100
AcDbLine
 10
43.9148897551
 20
47.9839293971
 30
0.0
 11
45.2097167401
 21
49.2787563822
 31
0.0
1001
ACAD
1000
RTMaterial
1005
185D
  0
LINE
  5
319
100
AcDbEntity
  8
0
  6
CONTINUOUS
 62
           2
100
AcDbLine
 10
48.4737361993
 20
52.5427758414
 30
0.0
 11
50.3229407771
 21
54.3919804191
 31
0.0
1001
ACAD
1000
RTMaterial
1005
185D
  0
LINE
  5
31A
100
AcDbEntity
  8
0
  6
CONTINUOUS
 62
           2
100
AcDbLine
 10
43.8063532903
 20
48.5994702763
 30
0.0
 11
45.1011802754
 21
49.8942972614
 31
0.0
1001
ACAD
1000
RTMaterial
1005
185D
  0
LINE
  5
31B
100
AcDbEntity
  8
0
  6
CONTINUOUS
 62
           2
100
AcDbLine
 10
47.5946527196
 20
52.3877697056
 30
0.0
 11
49.4438572974
 21
54.2369742834
 31
0.0
1001
ACAD
1000
RTMaterial
1005
185D
  0
LINE
  5
31C
100
AcDbEntity
  8
0
  6
CONTINUOUS
 62
           2
100
AcDbLine
 10
43.6978168256
 20
49.2150111555
 30
0.0
 11
44.9926438106
 21
50.5098381406
 31
0.0
1001
ACAD
1000
RTMaterial
1005
185D
  0
LINE
  5
31D
100
AcDbEntity
  8
0
  6
CONTINUOUS
 62
           2
100
AcDbLine
 10
46.7155692399
 20
52.2327635699
 30
0.0
 11
48.5647738177
 21
54.0819681476
 31
0.0
1001
ACAD
1000
RTMaterial
1005
185D
  0
LINE
  5
31E
100
AcDbEntity
  8
0
  6
CONTINUOUS
 62
           2
100
AcDbLine
 10
43.5892803609
 20
49.8305520347
 30
0.0
 11
44.8841073459
 21
51.1253790198
 31
0.0
1001
ACAD
1000
RTMaterial
1005
185D
  0
LINE
  5
31F
100
AcDbEntity
  8
0
  6
CONTINUOUS
 62
           2
100
AcDbLine
 10
45.8364857602
 20
52.0777574341
 30
0.0
 11
47.685690338
 21
53.9269620118
 31
0.0
1001
ACAD
1000
RTMaterial
1005
185D
  0
LINE
  5
320
100
AcDbEntity
  8
0
  6
CONTINUOUS
 62
           2
100
AcDbLine
 10
43.4807438961
 20
50.4460929139
 30
0.0
 11
44.7755708812
 21
51.740919899
 31
0.0
1001
ACAD
1000
RTMaterial
1005
185D
  0
LINE
  5
321
100
AcDbEntity
  8
0
  6
CONTINUOUS
 62
           2
100
AcDbLine
 10
44.9574022805
 20
51.9227512983
 30
0.0
 11
46.8066068583
 21
53.7719558761
 31
0.0
1001
ACAD
1000
RTMaterial
1005
185D
  0
LINE
  5
322
100
AcDbEntity
  8
0
  6
CONTINUOUS
 62
           2
100
AcDbLine
 10
43.3722074314
 20
51.0616337932
 30
0.0
 11
45.9275233786
 21
53.6169497403
 31
0.0
1001
ACAD
1000
RTMaterial
1005
185D
  0
LINE
  5
323
100
AcDbEntity
  8
0
  6
CONTINUOUS
 62
           2
100
AcDbLine
 10
43.2636709667
 20
51.6771746724
 30
0.0
 11
45.0484398989
 21
53.4619436045
 31
0.0
1001
ACAD
1000
RTMaterial
1005
185D
  0
LINE
  5
324
100
AcDbEntity
  8
0
  6
CONTINUOUS
 62
           2
100
AcDbLine
 10
43.155134502
 20
52.2927155516
 30
0.0
 11
44.1693564192
 21
53.3069374688
 31
0.0
1001
ACAD
1000
RTMaterial
1005
185D
  0
LINE
  5
325
100
AcDbEntity
  8
0
  6
CONTINUOUS
 62
           2
100
AcDbLine
 10
43.0465980372
 20
52.9082564308
 30
0.0
 11
43.2902729395
 21
53.151931333
 31
0.0
1001
ACAD
1000
RTMaterial
1005
185D
  0
MTEXT
  5
326
100
AcDbEntity
  8
0
  6
CONTINUOUS
 62
           2
100
AcDbMText
 10
51.3068710699
 20
51.7653074162
 30
0.0
 40
1.3952
 41
16.5098666667
 71
           1
 72
           1
  1
INTERNAL USE 
  7
TEXTSTYLE_4
 11
0.984807753006
 21
0.173648177701
 31
0.0
 73
           1
 44
1.0
1001
ACAD
1000
MTEXTBEGIN
1070
          73
1070
           1
1070
          44
1040
0.9
1070
          74
1070
           0
1000
MTEXTEND
  0
MTEXT
  5
327
100
AcDbEntity
  8
0
  6
CONTINUOUS
 62
           2
100
AcDbMText
 10
50.6198691814
 20
49.5439956875
 30
0.0
 40
1.3952
 41
17.9050666667
 71
           1
 72
           1
  1
DOCUMENT ONLY
  7
TEXTSTYLE_4
 11
0.984807753006
 21
0.173648177701
 31
0.0
 73
           1
 44
1.0
1001
ACAD
1000
MTEXTBEGIN
1070
          73
1070
           1
1070
          44
1040
0.9
1070
          74
1070
           0
1000
MTEXTEND
  0
MTEXT
  5
328
100
AcDbEntity
  8
0
  6
CONTINUOUS
 62
           2
100
AcDbMText
 10
47.2854755171
 20
44.2082440346
 30
0.0
 40
1.3952
 41
25.8112
 71
           1
 72
           1
  1
DOCUMENT POUR USAGE
  7
TEXTSTYLE_4
 11
0.984807753006
 21
0.173648177701
 31
0.0
 73
           1
 44
1.0
1001
ACAD
1000
MTEXTBEGIN
1070
          73
1070
           1
1070
          44
1040
0.9
1070
          74
1070
           0
1000
MTEXTEND
  0
MTEXT
  5
329
100
AcDbEntity
  8
0
  6
CONTINUOUS
 62
           2
100
AcDbMText
 10
47.3196980185
 20
42.0891935716
 30
0.0
 40
1.3952
 41
26.4797333333
 71
           1
 72
           1
  1
A L'INTERNE SEULEMENT
  7
TEXTSTYLE_4
 11
0.984807753006
 21
0.173648177701
 31
0.0
 73
           1
 44
1.0
1001
ACAD
1000
MTEXTBEGIN
1070
          73
1070
           1
1070
          44
1040
0.9
1070
          74
1070
           0
1000
MTEXTEND
  0
ENDBLK
  5
32A
100
AcDbEntity
  8
0
  6
ByBlock
 62
           0
100
AcDbBlockEnd
1001
ACAD
1000
RTMaterial
1005
185D
  0
ENDSEC
  0
SECTION
  2
ENTITIES
  0
LWPOLYLINE
  5
A99
100
AcDbEntity
  8
0
  6
CONTINUOUS
 62
           7
100
AcDbPolyline
 90
       17
 70
           0
 10
154.631507023
 20
24.7668261648
 10
154.6352765589
 20
24.7775841148
 10
154.6396926717
 20
24.7904019667
 10
154.6445598493
 20
24.804810957
 10
154.6497393445
 20
24.8204881677
 10
154.6551629383
 20
24.8373086955
 10
154.6607714226
 20
24.8551690036
 10
154.6665164635
 20
24.8739942416
 10
154.6723601338
 20
24.8937396846
 10
154.6782680102
 20
24.9143703322
 10
154.6842092223
 20
24.9358622412
 10
154.6901180676
 20
24.9580571574
 10
154.695877426
 20
24.9805675554
 10
154.7013625465
 20
25.0029077936
 10
154.7064736091
 20
25.024614655
 10
154.7111316635
 20
25.0452393479
 10
154.7152906645
 20
25.064416763
1001
ACAD
1000
RTMaterial
1005
185D
  0
LINE
  5
1758
100
AcDbEntity
  8
0
  6
CONTINUOUS
 62
           7
100
AcDbLine
 10
120.766431755
 20
41.7431005779
 30
0.0
 11
120.6648750443
 21
40.5823020631
 31
0.0
1001
ACAD
1000
RTMaterial
1005
185D
  0
LWPOLYLINE
  5
1759
100
AcDbEntity
  8
0
  6
CONTINUOUS
 62
           9
100
AcDbPolyline
 90
        6
 70
           0
 10
120.7727032297
 20
41.7852148619
 10
120.7726490624
 20
41.7857456062
 10
120.7837191917
 20
41.8273958465
 10
120.799495878
 20
41.8675007845
 10
120.8197706908
 20
41.9055306006
 10
120.8442757801
 20
41.9409829158
1001
ACAD
1000
RTMaterial
1005
185D
  0
LWPOLYLINE
  5
175A
100
AcDbEntity
  8
0
  6
CONTINUOUS
 62
           7
100
AcDbPolyline
 90
       13
 70
           0
 10
120.7723872086
 20
41.7844597573
 10
120.7829260194
 20
41.824958498
 10
120.7985691825
 20
41.8654870349
 10
120.8185014021
 20
41.9034469155
 10
120.8434793421
 20
41.9399766267
 10
120.8717234507
 20
41.9724285915
 10
120.9048960787
 20
42.0025622255
 10
120.9403870691
 20
42.0278720259
 10
120.9785057537
 20
42.048858988
 10
121.0190393001
 20
42.0653708832
 10
121.0604119655
 20
42.0768728414
 10
121.102282583
 20
42.0835147489
 10
121.1442658018
 20
42.0853926447
1001
ACAD
1000
RTMaterial
1005
185D
  0
LINE
  5
175B
100
AcDbEntity
  8
0
  6
CONTINUOUS
 62
           9
100
AcDbLine
 10
120.8717234507
 20
41.9724285915
 30
0.0
 11
120.8726874071
 21
41.9733894016
 31
0.0
1001
ACAD
1000
RTMaterial
1005
185D
  0
LINE
  5
175C
100
AcDbEntity
  8
0
  6
CONTINUOUS
 62
           9
100
AcDbLine
 10
120.9046302247
 20
42.0023219738
 30
0.0
 11
120.9048960787
 21
42.0025622255
 31
0.0
1001
ACAD
1000
RTMaterial
1005
185D
  0
LINE
  5
175D
100
AcDbEntity
  8
0
  6
CONTINUOUS
 62
           9
100
AcDbLine
 10
120.9396822669
 20
42.0273984664
 30
0.0
 11
120.9403870691
 21
42.0278720259
 31
0.0
1001
ACAD
1000
RTMaterial
1005
185D
  0
LINE
  5
175E
100
AcDbEntity
  8
0
  6
CONTINUOUS
 62
           9
100
AcDbLine
 10
120.9773804798
 20
42.0482876365
 30
0.0
 11
120.9785057537
 21
42.048858988
 31
0.0
1001
ACAD
1000
RTMaterial
1005
185D
  0
LWPOLYLINE
  5
175F
100
AcDbEntity
  8
0
  6
CONTINUOUS
 62
           7
100
AcDbPolyline
 90
       92
 70
           0
 10
128.614680215
 20
25.062879318
 10
128.6256953916
 20
25.0136579856
 10
128.6382659861
 20
24.9626944234
 10
128.6517791088
 20
24.9126619887
 10
128.666190039
 20
24.8635607263
 10
128.681455652
 20
24.8153892167
 10
128.6975344172
 20
24.7681446856
 10
128.7143863928
 20
24.7218231098
 10
128.7319732174
 20
24.6764193156
 10
128.7502580948
 20
24.631927082
 10
128.7692057792
 20
24.5883392306
 10
128.7887825576
 20
24.5456477116
 10
128.8089562293
 20
24.5038436885
 10
128.8296960825
 20
24.4629176179
 10
128.8509728708
 20
24.4228593252
 10
128.8727587859
 20
24.3836580773
 10
128.8950274308
 20
24.3453026511
 10
128.9177537905
 20
24.3077813985
 10
128.9409142027
 20
24.2710823081
 10
128.9644863263
 20
24.235193064
 10
128.9884485032
 20
24.2001019737
 10
129.012777983
 20
24.1658002711
 10
129.0374524254
 20
24.1322795522
 10
129.062450372
 20
24.0995310582
 10
129.087751232
 20
24.0675457136
 10
129.1133352674
 20
24.0363141602
 10
129.1391835772
 20
24.0058267919
 10
129.1652780813
 20
23.9760737859
 10
129.191601504
 20
23.9470451336
 10
129.2181373569
 20
23.9187306696
 10
129.2448699219
 20
23.8911200995
 10
129.2717842336
 20
23.8642030257
 10
129.2988660615
 20
23.8379689728
 10
129.3261018923
 20
23.8124074109
 10
129.3534788588
 20
23.7875078256
 10
129.3809843671
 20
23.7632600396
 10
129.4086062892
 20
23.7396540022
 10
129.4363331137
 20
23.7166796493
 10
129.4641539311
 20
23.6943269204
 10
129.4920584176
 20
23.6725857758
 10
129.5200368195
 20
23.6514462122
 10
129.5480799375
 20
23.6308982783
 10
129.5761791109
 20
23.6109320886
 10
129.6043262019
 20
23.5915378369
 10
129.6325135798
 20
23.5727058094
 10
129.6607341058
 20
23.5544263959
 10
129.6889811168
 20
23.5366901017
 10
129.7172484104
 20
23.5194875579
 10
129.745530229
 20
23.5028095315
 10
129.7738212442
 20
23.4866469346
 10
129.8021163592
 20
23.4709909326
 10
129.8304076898
 20
23.4558345195
 10
129.8586850536
 20
23.4411719974
 10
129.8869384374
 20
23.4269975478
 10
129.9151580659
 20
23.4133052007
 10
129.943334402
 20
23.400088844
 10
129.9714581455
 20
23.3873422311
 10
129.9995202321
 20
23.3750589901
 10
130.0275118313
 20
23.3632326318
 10
130.0554243434
 20
23.351856558
 10
130.0832493964
 20
23.34092407
 10
130.1109788402
 20
23.3304283767
 10
130.1386047408
 20
23.3203626032
 10
130.1661193716
 20
23.3107197989
 10
130.1935152038
 20
23.3014929459
 10
130.2207848927
 20
23.2926749672
 10
130.2479212625
 20
23.284258735
 10
130.2749172855
 20
23.2762370791
 10
130.3017660582
 20
23.2686027947
 10
130.3284587688
 20
23.2613491819
 10
130.3549762833
 20
23.2544720516
 10
130.3812968353
 20
23.2479672425
 10
130.4073987596
 20
23.2418298549
 10
130.4332602709
 20
23.2360543266
 10
130.4588597134
 20
23.2306343948
 10
130.4841754912
 20
23.2255631399
 10
130.5091859402
 20
23.220833034
 10
130.5338691022
 20
23.2164359987
 10
130.5582023344
 20
23.2123634757
 10
130.5821617112
 20
23.2086065058
 10
130.6057222165
 20
23.2051556631
 10
130.6288500348
 20
23.2020020424
 10
130.6515109452
 20
23.199135843
 10
130.6736721562
 20
23.1965461985
 10
130.6952972366
 20
23.1942218226
 10
130.7163322357
 20
23.1921522025
 10
130.736717468
 20
23.1903258969
 10
130.7561824175
 20
23.1887461946
 10
130.7743443068
 20
23.1874161823
 10
130.7906491135
 20
23.1863397079
 10
130.8043331245
 20
23.185521044
 10
130.8254447582
 20
23.1844057013
1001
ACAD
1000
RTMaterial
1005
185D
  0
LINE
  5
1760
100
AcDbEntity
  8
0
  6
CONTINUOUS
 62
           7
100
AcDbLine
 10
125.3159520618
 20
40.5823020631
 30
0.0
 11
128.6145891589
 21
25.0634782839
 31
0.0
1001
ACAD
1000
RTMaterial
1005
185D
  0
LINE
  5
1761
100
AcDbEntity
  8
0
  6
CONTINUOUS
 62
           7
100
AcDbLine
 10
121.1448159738
 20
42.0843499381
 30
0.0
 11
121.144270628
 21
42.0853536985
 31
0.0
1001
ACAD
1000
RTMaterial
1005
185D
  0
LWPOLYLINE
  5
1762
100
AcDbEntity
  8
0
  6
CONTINUOUS
 62
           7
100
AcDbPolyline
 90
        3
 70
           0
 10
133.8174911571
 20
22.9400944473
 10
133.8560691597
 20
22.9285261158
 10
133.8965632243
 20
22.9123036234
1001
ACAD
1000
RTMaterial
1005
185D
  0
LINE
  5
1763
100
AcDbEntity
  8
0
  6
CONTINUOUS
 62
           7
100
AcDbLine
 10
133.9763929053
 20
22.8659300242
 30
0.0
 11
133.8525577687
 21
22.9297594691
 31
0.0
1001
ACAD
1000
RTMaterial
1005
185D
  0
LINE
  5
1764
100
AcDbEntity
  8
0
  6
CONTINUOUS
 62
           7
100
AcDbLine
 10
133.8965632243
 20
22.9123036234
 30
0.0
 11
133.9376384788
 21
22.8910751549
 31
0.0
1001
ACAD
1000
RTMaterial
1005
185D
  0
LWPOLYLINE
  5
1765
100
AcDbEntity
  8
0
  6
CONTINUOUS
 62
           7
100
AcDbPolyline
 90
        5
 70
           0
 10
133.9376384788
 20
22.8910751549
 10
133.977695312
 20
22.8649786852
 10
134.0155761749
 20
22.8343160358
 10
134.0507686064
 20
22.7991071811
 10
134.0824883096
 20
22.7597261779
1001
ACAD
1000
RTMaterial
1005
185D
  0
LINE
  5
1766
100
AcDbEntity
  8
0
  6
CONTINUOUS
 62
           7
100
AcDbLine
 10
134.0759977899
 20
22.7685232472
 30
0.0
 11
133.9763929053
 21
22.8659300242
 31
0.0
1001
ACAD
1000
RTMaterial
1005
185D
  0
LINE
  5
1767
100
AcDbEntity
  8
0
  6
CONTINUOUS
 62
           7
100
AcDbLine
 10
134.0824883096
 20
22.7597261779
 30
0.0
 11
134.1100397152
 21
22.7167003478
 31
0.0
1001
ACAD
1000
RTMaterial
1005
185D
  0
LINE
  5
1768
100
AcDbEntity
  8
0
  6
CONTINUOUS
 62
           7
100
AcDbLine
 10
121.1450409226
 20
42.0839959954
 30
0.0
 11
121.1448159738
 21
42.0843499381
 31
0.0
1001
ACAD
1000
RTMaterial
1005
185D
  0
LINE
  5
1769
100
AcDbEntity
  8
0
  6
CONTINUOUS
 62
           7
100
AcDbLine
 10
134.1377300853
 20
22.6588726869
 30
0.0
 11
134.0759977899
 21
22.7685232472
 31
0.0
1001
ACAD
1000
RTMaterial
1005
185D
  0
LINE
  5
176A
100
AcDbEntity
  8
0
  6
CONTINUOUS
 62
           9
100
AcDbLine
 10
134.0194268548
 20
23.0758284742
 30
0.0
 11
134.0166942454
 21
23.0808217026
 31
0.0
1001
ACAD
1000
RTMaterial
1005
185D
  0
LWPOLYLINE
  5
176B
100
AcDbEntity
  8
0
  6
CONTINUOUS
 62
           7
100
AcDbPolyline
 90
        3
 70
           0
 10
134.1100397152
 20
22.7167003478
 10
134.1328485067
 20
22.6706889372
 10
134.1377300853
 20
22.6588726869
1001
ACAD
1000
RTMaterial
1005
185D
  0
LWPOLYLINE
  5
176C
100
AcDbEntity
  8
0
  6
CONTINUOUS
 62
           7
100
AcDbPolyline
 90
       10
 70
           0
 10
141.7937801982
 20
22.3377785767
 10
141.8192288837
 20
22.341000095
 10
141.8510298149
 20
22.3460873387
 10
141.9014475363
 20
22.356625242
 10
141.9417918247
 20
22.3673105592
 10
141.9863588087
 20
22.3815430659
 10
142.0286100065
 20
22.3975080949
 10
142.0900554813
 20
22.4253300518
 10
142.1417619968
 20
22.4533643858
 10
142.1480919394
 20
22.4573020631
1001
ACAD
1000
RTMaterial
1005
185D
  0
LINE
  5
176D
100
AcDbEntity
  8
0
  6
CONTINUOUS
 62
           7
100
AcDbLine
 10
141.7662101369
 20
22.335126861
 30
0.0
 11
141.7937801982
 21
22.3377785767
 31
0.0
1001
ACAD
1000
RTMaterial
1005
185D
  0
LINE
  5
176E
100
AcDbEntity
  8
0
  6
CONTINUOUS
 62
           7
100
AcDbLine
 10
149.6490419682
 20
22.9866339546
 30
0.0
 11
149.6198600161
 21
22.9847681316
 31
0.0
1001
ACAD
1000
RTMaterial
1005
185D
  0
LINE
  5
176F
100
AcDbEntity
  8
0
  6
CONTINUOUS
 62
           7
100
AcDbLine
 10
149.6499355839
 20
22.9553970543
 30
0.0
 11
149.6120399823
 21
22.95318545
 31
0.0
1001
ACAD
1000
RTMaterial
1005
185D
  0
LWPOLYLINE
  5
1770
100
AcDbEntity
  8
0
  6
CONTINUOUS
 62
           7
100
AcDbPolyline
 90
       71
 70
           0
 10
152.521055328
 20
23.1852744955
 10
152.5340468217
 20
23.1860267788
 10
152.5485075506
 20
23.1869459399
 10
152.5641348754
 20
23.1880371636
 10
152.5808105117
 20
23.1893145527
 10
152.5983393392
 20
23.1907836864
 10
152.6166013487
 20
23.1924526322
 10
152.6354872724
 20
23.1943276544
 10
152.6549101799
 20
23.1964146067
 10
152.6747785839
 20
23.1987164004
 10
152.6950009231
 20
23.2012332007
 10
152.7156001884
 20
23.2039780381
 10
152.7366224727
 20
23.2069684277
 10
152.7581146354
 20
23.2102240225
 10
152.7801240302
 20
23.2137667292
 10
152.8026974051
 20
23.2176206814
 10
152.8258755427
 20
23.2218113717
 10
152.8496531284
 20
23.2263576269
 10
152.8739996377
 20
23.2312735985
 10
152.8988841677
 20
23.2365727999
 10
152.9242755488
 20
23.242268053
 10
152.950142521
 20
23.2483714604
 10
152.9764580007
 20
23.2548954294
 10
153.0031984267
 20
23.2618527044
 10
153.0303401674
 20
23.2692555505
 10
153.0578593722
 20
23.2771156794
 10
153.0857319494
 20
23.2854442029
 10
153.113933556
 20
23.2942515885
 10
153.1424395978
 20
23.3035476171
 10
153.1712252382
 20
23.3133413431
 10
153.2002662181
 20
23.3236413486
 10
153.2295713781
 20
23.3344680183
 10
153.2591930666
 20
23.3458601308
 10
153.2891848852
 20
23.3578611391
 10
153.3195983474
 20
23.3705181614
 10
153.3504826583
 20
23.3838820719
 10
153.3818844746
 20
23.3980076013
 10
153.4138476426
 20
23.4129534433
 10
153.4464145617
 20
23.4287831847
 10
153.479658658
 20
23.4455824727
 10
153.5136809215
 20
23.4634610218
 10
153.5485768955
 20
23.4825382972
 10
153.5843799075
 20
23.5029115775
 10
153.6209446848
 20
23.5245799159
 10
153.6580930088
 20
23.547514482
 10
153.6956497615
 20
23.5716769059
 10
153.7334436619
 20
23.5970188298
 10
153.7713080459
 20
23.6234816258
 10
153.8091159417
 20
23.6510217632
 10
153.8468389457
 20
23.6796612308
 10
153.8844632501
 20
23.7094347983
 10
153.9219723881
 20
23.740378227
 10
153.9593470852
 20
23.7725281819
 10
153.996565101
 20
23.8059221291
 10
154.0336010568
 20
23.8405982089
 10
154.070426233
 20
23.8765950653
 10
154.1070082713
 20
23.9139515516
 10
154.1433119179
 20
23.9527075196
 10
154.1792991243
 20
23.9929041337
 10
154.2149268306
 20
24.0345815051
 10
154.2501833228
 20
24.0778241076
 10
154.2851326274
 20
24.1228306624
 10
154.3198309655
 20
24.1698277732
 10
154.354310957
 20
24.2190535098
 10
154.3885980054
 20
24.2707856107
 10
154.4228965275
 20
24.3256608749
 10
154.4574673735
 20
24.3845808923
 10
154.4926219191
 20
24.4488058513
 10
154.5335901556
 20
24.5302186608
 10
154.5870055053
 20
24.6500193092
 10
154.6468438272
 20
24.8111367987
1001
ACAD
1000
RTMaterial
1005
185D
  0
LINE
  5
1771
100
AcDbEntity
  8
0
  6
CONTINUOUS
 62
           7
100
AcDbLine
 10
152.5007241419
 20
23.1842333462
 30
0.0
 11
152.521055328
 21
23.1852744955
 31
0.0
1001
ACAD
1000
RTMaterial
1005
185D
  0
LWPOLYLINE
  5
1772
100
AcDbEntity
  8
0
  6
CONTINUOUS
 62
           7
100
AcDbPolyline
 90
        3
 70
           0
 10
152.4790009799
 20
23.1832908704
 10
152.4857578331
 20
23.1835666139
 10
152.5007241419
 20
23.1842333462
1001
ACAD
1000
RTMaterial
1005
185D
  0
LWPOLYLINE
  5
1773
100
AcDbEntity
  8
0
  6
CONTINUOUS
 62
           7
100
AcDbPolyline
 90
        3
 70
           0
 10
141.7178727418
 20
22.332507223
 10
141.7401913599
 20
22.3334073896
 10
141.7662101369
 20
22.335126861
1001
ACAD
1000
RTMaterial
1005
185D
  0
LINE
  5
1774
100
AcDbEntity
  8
0
  6
CONTINUOUS
 62
           7
100
AcDbLine
 10
149.6198600161
 20
22.9847681316
 30
0.0
 11
149.5342611897
 21
22.9819094718
 31
0.0
1001
ACAD
1000
RTMaterial
1005
185D
  0
LINE
  5
1775
100
AcDbEntity
  8
0
  6
CONTINUOUS
 62
           7
100
AcDbLine
 10
149.6120399823
 20
22.95318545
 30
0.0
 11
149.5008780334
 21
22.9496928178
 31
0.0
1001
ACAD
1000
RTMaterial
1005
185D
  0
LINE
  5
1776
100
AcDbEntity
  8
0
  6
CONTINUOUS
 62
           7
100
AcDbLine
 10
149.5342611897
 20
22.9819094718
 30
0.0
 11
149.500017484
 21
22.9809309339
 31
0.0
1001
ACAD
1000
RTMaterial
1005
185D
  0
LWPOLYLINE
  5
1777
100
AcDbEntity
  8
0
  6
CONTINUOUS
 62
           7
100
AcDbPolyline
 90
        3
 70
           0
 10
149.5008780334
 20
22.9496928178
 10
149.3196101742
 20
22.9450266631
 10
149.0784385829
 20
22.9393582665
1001
ACAD
1000
RTMaterial
1005
185D
  0
LINE
  5
1778
100
AcDbEntity
  8
0
  6
CONTINUOUS
 62
           7
100
AcDbLine
 10
147.9165982303
 20
22.9126079117
 30
0.0
 11
147.0669224242
 21
22.8914850726
 31
0.0
1001
ACAD
1000
RTMaterial
1005
185D
  0
LINE
  5
1779
100
AcDbEntity
  8
0
  6
CONTINUOUS
 62
           7
100
AcDbLine
 10
148.4757636774
 20
22.925703737
 30
0.0
 11
147.9165982303
 21
22.9126079117
 31
0.0
1001
ACAD
1000
RTMaterial
1005
185D
  0
LINE
  5
177A
100
AcDbEntity
  8
0
  6
CONTINUOUS
 62
           7
100
AcDbLine
 10
147.0669224242
 20
22.8914850726
 30
0.0
 11
146.7811090521
 21
22.8846655368
 31
0.0
1001
ACAD
1000
RTMaterial
1005
185D
  0
LINE
  5
177B
100
AcDbEntity
  8
0
  6
CONTINUOUS
 62
           7
100
AcDbLine
 10
146.7811090521
 20
22.8846655368
 30
0.0
 11
146.7278613367
 21
22.8834455006
 31
0.0
1001
ACAD
1000
RTMaterial
1005
185D
  0
LINE
  5
177C
100
AcDbEntity
  8
0
  6
CONTINUOUS
 62
           7
100
AcDbLine
 10
140.3934284349
 20
22.4573020631
 30
0.0
 11
142.9363216537
 21
22.4573020631
 31
0.0
1001
ACAD
1000
RTMaterial
1005
185D
  0
LWPOLYLINE
  5
177D
100
AcDbEntity
  8
0
  6
CONTINUOUS
 62
           7
100
AcDbPolyline
 90
        5
 70
           0
 10
141.6140820944
 20
22.332444468
 10
141.63933365
 20
22.3319862422
 10
141.6690169412
 20
22.331862909
 10
141.6955986828
 20
22.3320472516
 10
141.7178727418
 20
22.332507223
1001
ACAD
1000
RTMaterial
1005
185D
  0
LINE
  5
177E
100
AcDbEntity
  8
0
  6
CONTINUOUS
 62
           7
100
AcDbLine
 10
136.4436747511
 20
22.8870705757
 30
0.0
 11
136.6018858384
 21
22.8834455638
 31
0.0
1001
ACAD
1000
RTMaterial
1005
185D
  0
LINE
  5
177F
100
AcDbEntity
  8
0
  6
CONTINUOUS
 62
           7
100
AcDbLine
 10
134.8539864112
 20
22.925703737
 30
0.0
 11
135.4131511681
 21
22.9126079284
 31
0.0
1001
ACAD
1000
RTMaterial
1005
185D
  0
LINE
  5
1780
100
AcDbEntity
  8
0
  6
CONTINUOUS
 62
           7
100
AcDbLine
 10
135.4131511681
 20
22.9126079284
 30
0.0
 11
135.8586440374
 21
22.9016313944
 31
0.0
1001
ACAD
1000
RTMaterial
1005
185D
  0
LINE
  5
1781
100
AcDbEntity
  8
0
  6
CONTINUOUS
 62
           7
100
AcDbLine
 10
135.8586440374
 20
22.9016313944
 30
0.0
 11
136.4436747511
 21
22.8870705757
 31
0.0
1001
ACAD
1000
RTMaterial
1005
185D
  0
LWPOLYLINE
  5
1782
100
AcDbEntity
  8
0
  6
CONTINUOUS
 62
           7
100
AcDbPolyline
 90
        3
 70
           0
 10
133.8288720552
 20
22.9496928178
 10
134.0101399144
 20
22.9450266631
 10
134.2513115058
 20
22.9393582665
1001
ACAD
1000
RTMaterial
1005
185D
  0
LINE
  5
1783
100
AcDbEntity
  8
0
  6
CONTINUOUS
 62
           7
100
AcDbLine
 10
133.795488899
 20
22.9819094718
 30
0.0
 11
133.8297326047
 21
22.9809309339
 31
0.0
1001
ACAD
1000
RTMaterial
1005
185D
  0
LINE
  5
1784
100
AcDbEntity
  8
0
  6
CONTINUOUS
 62
           7
100
AcDbLine
 10
133.7177101064
 20
22.95318545
 30
0.0
 11
133.8288720552
 21
22.9496928178
 31
0.0
1001
ACAD
1000
RTMaterial
1005
185D
  0
LINE
  5
1785
100
AcDbEntity
  8
0
  6
CONTINUOUS
 62
           7
100
AcDbLine
 10
133.7098900726
 20
22.9847681316
 30
0.0
 11
133.795488899
 21
22.9819094718
 31
0.0
1001
ACAD
1000
RTMaterial
1005
185D
  0
LINE
  5
1786
100
AcDbEntity
  8
0
  6
CONTINUOUS
 62
           7
100
AcDbLine
 10
130.8426285458
 20
23.1836233899
 30
0.0
 11
130.8569682362
 21
23.1830494475
 31
0.0
1001
ACAD
1000
RTMaterial
1005
185D
  0
LINE
  5
1787
100
AcDbEntity
  8
0
  6
CONTINUOUS
 62
           7
100
AcDbLine
 10
130.8254447582
 20
23.1844057013
 30
0.0
 11
130.8426285458
 21
23.1836233899
 31
0.0
1001
ACAD
1000
RTMaterial
1005
185D
  0
LINE
  5
1788
100
AcDbEntity
  8
0
  6
CONTINUOUS
 62
           7
100
AcDbLine
 10
133.6798145047
 20
22.9553970543
 30
0.0
 11
133.7177101064
 21
22.95318545
 31
0.0
1001
ACAD
1000
RTMaterial
1005
185D
  0
LINE
  5
1789
100
AcDbEntity
  8
0
  6
CONTINUOUS
 62
           7
100
AcDbLine
 10
133.6807081205
 20
22.9866339546
 30
0.0
 11
133.7098900726
 21
22.9847681316
 31
0.0
1001
ACAD
1000
RTMaterial
1005
185D
  0
LWPOLYLINE
  5
178A
100
AcDbEntity
  8
0
  6
CONTINUOUS
 62
           7
100
AcDbPolyline
 90
        3
 70
           0
 10
141.558361435
 20
22.3355591217
 10
141.5881624148
 20
22.3334808223
 10
141.6140820944
 20
22.332444468
1001
ACAD
1000
RTMaterial
1005
185D
  0
LWPOLYLINE
  5
178B
100
AcDbEntity
  8
0
  6
CONTINUOUS
 62
           7
100
AcDbPolyline
 90
       11
 70
           0
 10
139.6964680769
 20
22.9676172908
 10
139.6984986857
 20
22.9672565267
 10
139.703185488
 20
22.9662472475
 10
139.7091448337
 20
22.9646740189
 10
139.7161680276
 20
22.9623949947
 10
139.7239384157
 20
22.9593117439
 10
139.7321806695
 20
22.9553462659
 10
139.7408003305
 20
22.950349837
 10
139.7498538457
 20
22.9440262863
 10
139.7593382953
 20
22.9359740364
 10
139.7621702135
 20
22.9332302198
1001
ACAD
1000
RTMaterial
1005
185D
  0
LINE
  5
178C
100
AcDbEntity
  8
0
  6
CONTINUOUS
 62
           7
100
AcDbLine
 10
133.8525577687
 20
22.9297594691
 30
0.0
 11
133.8165136624
 21
22.9362292808
 31
0.0
1001
ACAD
1000
RTMaterial
1005
185D
  0
LINE
  5
178D
100
AcDbEntity
  8
0
  6
CONTINUOUS
 62
           7
100
AcDbLine
 10
134.1425738018
 20
22.6461434958
 30
0.0
 11
134.1377300853
 21
22.6588726869
 31
0.0
1001
ACAD
1000
RTMaterial
1005
185D
  0
LWPOLYLINE
  5
178E
100
AcDbEntity
  8
0
  6
CONTINUOUS
 62
           7
100
AcDbPolyline
 90
        3
 70
           0
 10
133.6421625017
 20
23.0912442016
 10
133.6707367885
 20
23.0142937162
 10
133.6748719223
 20
23.0031509037
1001
ACAD
1000
RTMaterial
1005
185D
  0
LWPOLYLINE
  5
178F
100
AcDbEntity
  8
0
  6
CONTINUOUS
 62
           7
100
AcDbPolyline
 90
        3
 70
           0
 10
133.6297013756
 20
23.0915983041
 10
133.6754897944
 20
22.9676902791
 10
133.6798145047
 20
22.9553970543
1001
ACAD
1000
RTMaterial
1005
185D
  0
LWPOLYLINE
  5
1790
100
AcDbEntity
  8
0
  6
CONTINUOUS
 62
           7
100
AcDbPolyline
 90
        3
 70
           0
 10
133.6748719223
 20
23.0031509037
 10
133.6768848774
 20
22.9976250885
 10
133.6807081205
 20
22.9866339546
1001
ACAD
1000
RTMaterial
1005
185D
  0
LINE
  5
1791
100
AcDbEntity
  8
0
  6
CONTINUOUS
 62
           7
100
AcDbLine
 10
134.1416970738
 20
22.6485249205
 30
0.0
 11
134.2545478179
 21
22.3384700493
 31
0.0
1001
ACAD
1000
RTMaterial
1005
185D
  0
LINE
  5
1792
100
AcDbEntity
  8
0
  6
CONTINUOUS
 62
           7
100
AcDbLine
 10
134.0194268639
 20
23.075828449
 30
0.0
 11
134.0560478865
 21
22.9752130161
 31
0.0
1001
ACAD
1000
RTMaterial
1005
185D
  0
LINE
  5
1793
100
AcDbEntity
  8
0
  6
CONTINUOUS
 62
           9
100
AcDbLine
 10
133.6807081205
 20
22.9866339546
 30
0.0
 11
133.6798145047
 21
22.9553970543
 31
0.0
1001
ACAD
1000
RTMaterial
1005
185D
  0
LINE
  5
1794
100
AcDbEntity
  8
0
  6
CONTINUOUS
 62
           7
100
AcDbLine
 10
136.6171480771
 20
22.8659291701
 30
0.0
 11
136.6613465246
 21
22.8756842888
 31
0.0
1001
ACAD
1000
RTMaterial
1005
185D
  0
LINE
  5
1795
100
AcDbEntity
  8
0
  6
CONTINUOUS
 62
           7
100
AcDbLine
 10
136.5987313207
 20
22.8605277188
 30
0.0
 11
136.6201972905
 21
22.8636368335
 31
0.0
1001
ACAD
1000
RTMaterial
1005
185D
  0
LINE
  5
1796
100
AcDbEntity
  8
0
  6
CONTINUOUS
 62
           7
100
AcDbLine
 10
140.0537056968
 20
22.9753579022
 30
0.0
 11
140.2090674307
 21
22.9821801323
 31
0.0
1001
ACAD
1000
RTMaterial
1005
185D
  0
LWPOLYLINE
  5
1797
100
AcDbEntity
  8
0
  6
CONTINUOUS
 62
           7
100
AcDbPolyline
 90
       14
 70
           0
 10
140.2090674307
 20
22.9821801323
 10
140.3807303823
 20
22.9892336248
 10
140.4708461559
 20
22.9927353172
 10
140.5636871703
 20
22.9961248299
 10
140.659176049
 20
22.9993515181
 10
140.7575367537
 20
23.0023922029
 10
140.8590799898
 20
23.0052268507
 10
140.9637892403
 20
23.0078216104
 10
141.0716620282
 20
23.0101419556
 10
141.1830530912
 20
23.0121564203
 10
141.2980216065
 20
23.013818842
 10
141.4164884462
 20
23.0150744329
 10
141.5386399543
 20
23.0158704089
 10
141.6648750782
 20
23.0161499115
1001
ACAD
1000
RTMaterial
1005
185D
  0
LINE
  5
1798
100
AcDbEntity
  8
0
  6
CONTINUOUS
 62
           7
100
AcDbLine
 10
151.6314368634
 20
23.1525520227
 30
0.0
 11
152.4790009799
 21
23.1832908704
 31
0.0
1001
ACAD
1000
RTMaterial
1005
185D
  0
LINE
  5
1799
100
AcDbEntity
  8
0
  6
CONTINUOUS
 62
           7
100
AcDbLine
 10
151.2754884934
 20
23.1403872702
 30
0.0
 11
151.6314368634
 21
23.1525520227
 31
0.0
1001
ACAD
1000
RTMaterial
1005
185D
  0
LINE
  5
179A
100
AcDbEntity
  8
0
  6
CONTINUOUS
 62
           7
100
AcDbLine
 10
151.0178175262
 20
23.1318495082
 30
0.0
 11
151.2754884934
 21
23.1403872702
 31
0.0
1001
ACAD
1000
RTMaterial
1005
185D
  0
LINE
  5
179B
100
AcDbEntity
  8
0
  6
CONTINUOUS
 62
           7
100
AcDbLine
 10
150.8081157817
 20
23.1250653695
 30
0.0
 11
151.0178175262
 21
23.1318495082
 31
0.0
1001
ACAD
1000
RTMaterial
1005
185D
  0
LINE
  5
179C
100
AcDbEntity
  8
0
  6
CONTINUOUS
 62
           7
100
AcDbLine
 10
150.643092929
 20
23.1198291631
 30
0.0
 11
150.8081157817
 21
23.1250653695
 31
0.0
1001
ACAD
1000
RTMaterial
1005
185D
  0
LINE
  5
179D
100
AcDbEntity
  8
0
  6
CONTINUOUS
 62
           7
100
AcDbLine
 10
150.4800848954
 20
23.1147447026
 30
0.0
 11
150.643092929
 21
23.1198291631
 31
0.0
1001
ACAD
1000
RTMaterial
1005
185D
  0
LINE
  5
179E
100
AcDbEntity
  8
0
  6
CONTINUOUS
 62
           7
100
AcDbLine
 10
150.3188798504
 20
23.1098015627
 30
0.0
 11
150.4800848954
 21
23.1147447026
 31
0.0
1001
ACAD
1000
RTMaterial
1005
185D
  0
LINE
  5
179F
100
AcDbEntity
  8
0
  6
CONTINUOUS
 62
           7
100
AcDbLine
 10
150.1594507049
 20
23.1049953551
 30
0.0
 11
150.3188798504
 21
23.1098015627
 31
0.0
1001
ACAD
1000
RTMaterial
1005
185D
  0
LINE
  5
17A0
100
AcDbEntity
  8
0
  6
CONTINUOUS
 62
           7
100
AcDbLine
 10
150.0017777272
 20
23.1003220316
 30
0.0
 11
150.1594507049
 21
23.1049953551
 31
0.0
1001
ACAD
1000
RTMaterial
1005
185D
  0
LINE
  5
17A1
100
AcDbEntity
  8
0
  6
CONTINUOUS
 62
           7
100
AcDbLine
 10
149.8846624848
 20
23.0969018341
 30
0.0
 11
150.0017777272
 21
23.1003220316
 31
0.0
1001
ACAD
1000
RTMaterial
1005
185D
  0
LINE
  5
17A2
100
AcDbEntity
  8
0
  6
CONTINUOUS
 62
           7
100
AcDbLine
 10
149.7685139478
 20
23.0935524587
 30
0.0
 11
149.8846624848
 21
23.0969018341
 31
0.0
1001
ACAD
1000
RTMaterial
1005
185D
  0
LINE
  5
17A3
100
AcDbEntity
  8
0
  6
CONTINUOUS
 62
           7
100
AcDbLine
 10
149.6533247467
 20
23.090272293
 30
0.0
 11
149.7685139478
 21
23.0935524587
 31
0.0
1001
ACAD
1000
RTMaterial
1005
185D
  0
LINE
  5
17A4
100
AcDbEntity
  8
0
  6
CONTINUOUS
 62
           7
100
AcDbLine
 10
149.5390873644
 20
23.0870597495
 30
0.0
 11
149.6533247467
 21
23.090272293
 31
0.0
1001
ACAD
1000
RTMaterial
1005
185D
  0
LINE
  5
17A5
100
AcDbEntity
  8
0
  6
CONTINUOUS
 62
           7
100
AcDbLine
 10
149.4257940852
 20
23.0839132641
 30
0.0
 11
149.5390873644
 21
23.0870597495
 31
0.0
1001
ACAD
1000
RTMaterial
1005
185D
  0
LINE
  5
17A6
100
AcDbEntity
  8
0
  6
CONTINUOUS
 62
           7
100
AcDbLine
 10
149.3134369941
 20
23.0808312965
 30
0.0
 11
149.4257940852
 21
23.0839132641
 31
0.0
1001
ACAD
1000
RTMaterial
1005
185D
  0
LINE
  5
17A7
100
AcDbEntity
  8
0
  6
CONTINUOUS
 62
           7
100
AcDbLine
 10
149.202007974
 20
23.0778123304
 30
0.0
 11
149.3134369941
 21
23.0808312965
 31
0.0
1001
ACAD
1000
RTMaterial
1005
185D
  0
LINE
  5
17A8
100
AcDbEntity
  8
0
  6
CONTINUOUS
 62
           7
100
AcDbLine
 10
149.0914987035
 20
23.0748548737
 30
0.0
 11
149.202007974
 21
23.0778123304
 31
0.0
1001
ACAD
1000
RTMaterial
1005
185D
  0
LINE
  5
17A9
100
AcDbEntity
  8
0
  6
CONTINUOUS
 62
           7
100
AcDbLine
 10
149.500017484
 20
22.9809309339
 30
0.0
 11
149.3962824173
 21
22.9781883358
 31
0.0
1001
ACAD
1000
RTMaterial
1005
185D
  0
LINE
  5
17AA
100
AcDbEntity
  8
0
  6
CONTINUOUS
 62
           7
100
AcDbLine
 10
149.0183326255
 20
23.0729166818
 30
0.0
 11
149.0914987035
 21
23.0748548737
 31
0.0
1001
ACAD
1000
RTMaterial
1005
185D
  0
LINE
  5
17AB
100
AcDbEntity
  8
0
  6
CONTINUOUS
 62
           7
100
AcDbLine
 10
148.9093518207
 20
23.0700588709
 30
0.0
 11
149.0183326255
 21
23.0729166818
 31
0.0
1001
ACAD
1000
RTMaterial
1005
185D
  0
LINE
  5
17AC
100
AcDbEntity
  8
0
  6
CONTINUOUS
 62
           7
100
AcDbLine
 10
148.8372169098
 20
23.0681862973
 30
0.0
 11
148.9093518207
 21
23.0700588709
 31
0.0
1001
ACAD
1000
RTMaterial
1005
185D
  0
LINE
  5
17AD
100
AcDbEntity
  8
0
  6
CONTINUOUS
 62
           7
100
AcDbLine
 10
148.7297857478
 20
23.0654253064
 30
0.0
 11
148.8372169098
 21
23.0681862973
 31
0.0
1001
ACAD
1000
RTMaterial
1005
185D
  0
LINE
  5
17AE
100
AcDbEntity
  8
0
  6
CONTINUOUS
 62
           7
100
AcDbLine
 10
148.6586751288
 20
23.0636159472
 30
0.0
 11
148.7297857478
 21
23.0654253064
 31
0.0
1001
ACAD
1000
RTMaterial
1005
185D
  0
LINE
  5
17AF
100
AcDbEntity
  8
0
  6
CONTINUOUS
 62
           7
100
AcDbLine
 10
148.5879697306
 20
23.0618311556
 30
0.0
 11
148.6586751288
 21
23.0636159472
 31
0.0
1001
ACAD
1000
RTMaterial
1005
185D
  0
LINE
  5
17B0
100
AcDbEntity
  8
0
  6
CONTINUOUS
 62
           7
100
AcDbLine
 10
148.4826665301
 20
23.059199177
 30
0.0
 11
148.5879697306
 21
23.0618311556
 31
0.0
1001
ACAD
1000
RTMaterial
1005
185D
  0
LINE
  5
17B1
100
AcDbEntity
  8
0
  6
CONTINUOUS
 62
           7
100
AcDbLine
 10
147.8188845771
 20
22.9414972615
 30
0.0
 11
146.9419162485
 21
22.9196721322
 31
0.0
1001
ACAD
1000
RTMaterial
1005
185D
  0
LINE
  5
17B2
100
AcDbEntity
  8
0
  6
CONTINUOUS
 62
           7
100
AcDbLine
 10
149.3962824173
 20
22.9781883358
 30
0.0
 11
149.2107310274
 21
22.9736845527
 31
0.0
1001
ACAD
1000
RTMaterial
1005
185D
  0
LINE
  5
17B3
100
AcDbEntity
  8
0
  6
CONTINUOUS
 62
           7
100
AcDbLine
 10
149.0784385829
 20
22.9393582665
 30
0.0
 11
148.4757636774
 21
22.925703737
 31
0.0
1001
ACAD
1000
RTMaterial
1005
185D
  0
LINE
  5
17B4
100
AcDbEntity
  8
0
  6
CONTINUOUS
 62
           7
100
AcDbLine
 10
149.2107310274
 20
22.9736845527
 30
0.0
 11
147.8188845771
 21
22.9414972615
 31
0.0
1001
ACAD
1000
RTMaterial
1005
185D
  0
LINE
  5
17B5
100
AcDbEntity
  8
0
  6
CONTINUOUS
 62
           7
100
AcDbLine
 10
146.9419162485
 20
22.9196721322
 30
0.0
 11
146.6664913116
 21
22.9134139956
 31
0.0
1001
ACAD
1000
RTMaterial
1005
185D
  0
LINE
  5
17B6
100
AcDbEntity
  8
0
  6
CONTINUOUS
 62
           7
100
AcDbLine
 10
146.768294449
 20
23.0204985981
 30
0.0
 11
148.4826665301
 21
23.059199177
 31
0.0
1001
ACAD
1000
RTMaterial
1005
185D
  0
LINE
  5
17B7
100
AcDbEntity
  8
0
  6
CONTINUOUS
 62
           7
100
AcDbLine
 10
136.8268379343
 20
22.9108930546
 30
0.0
 11
136.8587501553
 21
22.9115263682
 31
0.0
1001
ACAD
1000
RTMaterial
1005
185D
  0
LINE
  5
17B8
100
AcDbEntity
  8
0
  6
CONTINUOUS
 62
           7
100
AcDbLine
 10
146.7278613367
 20
22.8834455006
 30
0.0
 11
146.5980992083
 21
22.8808641057
 31
0.0
1001
ACAD
1000
RTMaterial
1005
185D
  0
LINE
  5
17B9
100
AcDbEntity
  8
0
  6
CONTINUOUS
 62
           7
100
AcDbLine
 10
146.6664913116
 20
22.9134139956
 30
0.0
 11
146.5936910326
 21
22.9120426069
 31
0.0
1001
ACAD
1000
RTMaterial
1005
185D
  0
LINE
  5
17BA
100
AcDbEntity
  8
0
  6
CONTINUOUS
 62
           7
100
AcDbLine
 10
136.8230663027
 20
22.8796641445
 30
0.0
 11
136.8581539906
 21
22.8802823536
 31
0.0
1001
ACAD
1000
RTMaterial
1005
185D
  0
LINE
  5
17BB
100
AcDbEntity
  8
0
  6
CONTINUOUS
 62
           7
100
AcDbLine
 10
144.796952162
 20
22.9845835033
 30
0.0
 11
146.768294449
 21
23.0204985981
 31
0.0
1001
ACAD
1000
RTMaterial
1005
185D
  0
LINE
  5
17BC
100
AcDbEntity
  8
0
  6
CONTINUOUS
 62
           7
100
AcDbLine
 10
146.5980992083
 20
22.8808641057
 30
0.0
 11
146.5066830493
 21
22.8796641405
 31
0.0
1001
ACAD
1000
RTMaterial
1005
185D
  0
LINE
  5
17BD
100
AcDbEntity
  8
0
  6
CONTINUOUS
 62
           7
100
AcDbLine
 10
146.5936910326
 20
22.9120426069
 30
0.0
 11
146.5029121544
 21
22.9108930546
 31
0.0
1001
ACAD
1000
RTMaterial
1005
185D
  0
LINE
  5
17BE
100
AcDbEntity
  8
0
  6
CONTINUOUS
 62
           7
100
AcDbLine
 10
143.5389419248
 20
22.9664898898
 30
0.0
 11
144.796952162
 21
22.9845835033
 31
0.0
1001
ACAD
1000
RTMaterial
1005
185D
  0
LWPOLYLINE
  5
17BF
100
AcDbEntity
  8
0
  6
CONTINUOUS
 62
           7
100
AcDbPolyline
 90
       12
 70
           0
 10
141.6648750104
 20
23.0161499115
 10
141.7910746573
 20
23.0158705655
 10
141.9132309881
 20
23.0150746966
 10
142.0317118003
 20
23.0138190518
 10
142.1466875264
 20
23.0121565748
 10
142.2580817613
 20
23.0101420806
 10
142.3659593327
 20
23.0078216455
 10
142.4706709162
 20
23.0052268291
 10
142.5722141935
 20
23.0023921776
 10
142.6705761504
 20
22.9993514497
 10
142.766065953
 20
22.9961247232
 10
142.858906612
 20
22.992735216
1001
ACAD
1000
RTMaterial
1005
185D
  0
LWPOLYLINE
  5
17C0
100
AcDbEntity
  8
0
  6
CONTINUOUS
 62
           7
100
AcDbPolyline
 90
        4
 70
           0
 10
139.7908059694
 20
22.9664899256
 10
139.8461253077
 20
22.9662679721
 10
139.9138266651
 20
22.967880413
 10
140.0537056968
 20
22.9753579022
1001
ACAD
1000
RTMaterial
1005
185D
  0
LINE
  5
17C1
100
AcDbEntity
  8
0
  6
CONTINUOUS
 62
           7
100
AcDbLine
 10
136.736059056
 20
22.9120426069
 30
0.0
 11
136.8268379343
 21
22.9108930546
 31
0.0
1001
ACAD
1000
RTMaterial
1005
185D
  0
LINE
  5
17C2
100
AcDbEntity
  8
0
  6
CONTINUOUS
 62
           7
100
AcDbLine
 10
136.7316488625
 20
22.8808641407
 30
0.0
 11
136.8230663027
 21
22.8796641445
 31
0.0
1001
ACAD
1000
RTMaterial
1005
185D
  0
LINE
  5
17C3
100
AcDbEntity
  8
0
  6
CONTINUOUS
 62
           7
100
AcDbLine
 10
146.5066830493
 20
22.8796641405
 30
0.0
 11
146.471596098
 21
22.8802823536
 31
0.0
1001
ACAD
1000
RTMaterial
1005
185D
  0
LINE
  5
17C4
100
AcDbEntity
  8
0
  6
CONTINUOUS
 62
           7
100
AcDbLine
 10
146.5029121544
 20
22.9108930546
 30
0.0
 11
146.4709999334
 21
22.9115263682
 31
0.0
1001
ACAD
1000
RTMaterial
1005
185D
  0
LINE
  5
17C5
100
AcDbEntity
  8
0
  6
CONTINUOUS
 62
           7
100
AcDbLine
 10
136.6018858384
 20
22.8834455638
 30
0.0
 11
136.7316488625
 21
22.8808641407
 31
0.0
1001
ACAD
1000
RTMaterial
1005
185D
  0
LINE
  5
17C6
100
AcDbEntity
  8
0
  6
CONTINUOUS
 62
           7
100
AcDbLine
 10
134.2513115058
 20
22.9393582665
 30
0.0
 11
134.8539864112
 21
22.925703737
 31
0.0
1001
ACAD
1000
RTMaterial
1005
185D
  0
LINE
  5
17C7
100
AcDbEntity
  8
0
  6
CONTINUOUS
 62
           7
100
AcDbLine
 10
134.1190190613
 20
22.9736845527
 30
0.0
 11
135.1471969891
 21
22.9501748549
 31
0.0
1001
ACAD
1000
RTMaterial
1005
185D
  0
LINE
  5
17C8
100
AcDbEntity
  8
0
  6
CONTINUOUS
 62
           7
100
AcDbLine
 10
136.3878338402
 20
22.9196721322
 30
0.0
 11
136.549052083
 21
22.9159150372
 31
0.0
1001
ACAD
1000
RTMaterial
1005
185D
  0
LINE
  5
17C9
100
AcDbEntity
  8
0
  6
CONTINUOUS
 62
           7
100
AcDbLine
 10
136.549052083
 20
22.9159150372
 30
0.0
 11
136.736059056
 21
22.9120426069
 31
0.0
1001
ACAD
1000
RTMaterial
1005
185D
  0
LINE
  5
17CA
100
AcDbEntity
  8
0
  6
CONTINUOUS
 62
           7
100
AcDbLine
 10
135.1471969891
 20
22.9501748549
 30
0.0
 11
135.5108655116
 21
22.9414972615
 31
0.0
1001
ACAD
1000
RTMaterial
1005
185D
  0
LINE
  5
17CB
100
AcDbEntity
  8
0
  6
CONTINUOUS
 62
           7
100
AcDbLine
 10
135.1935700989
 20
23.0507563166
 30
0.0
 11
139.7908059694
 21
22.9664899256
 31
0.0
1001
ACAD
1000
RTMaterial
1005
185D
  0
LWPOLYLINE
  5
17CC
100
AcDbEntity
  8
0
  6
CONTINUOUS
 62
           7
100
AcDbPolyline
 90
        3
 70
           0
 10
143.4159089687
 20
22.9678810361
 10
143.4836081366
 20
22.966268078
 10
143.5389419248
 20
22.9664898898
1001
ACAD
1000
RTMaterial
1005
185D
  0
LINE
  5
17CD
100
AcDbEntity
  8
0
  6
CONTINUOUS
 62
           7
100
AcDbLine
 10
135.5108655116
 20
22.9414972615
 30
0.0
 11
136.3878338402
 21
22.9196721322
 31
0.0
1001
ACAD
1000
RTMaterial
1005
185D
  0
LINE
  5
17CE
100
AcDbEntity
  8
0
  6
CONTINUOUS
 62
           7
100
AcDbLine
 10
133.8297326047
 20
22.9809309339
 30
0.0
 11
134.1190190613
 21
22.9736845527
 31
0.0
1001
ACAD
1000
RTMaterial
1005
185D
  0
LINE
  5
17CF
100
AcDbEntity
  8
0
  6
CONTINUOUS
 62
           7
100
AcDbLine
 10
133.8615994948
 20
23.0850850449
 30
0.0
 11
135.1935700989
 21
23.0507563166
 31
0.0
1001
ACAD
1000
RTMaterial
1005
185D
  0
LINE
  5
17D0
100
AcDbEntity
  8
0
  6
CONTINUOUS
 62
           7
100
AcDbLine
 10
132.7527902826
 20
23.1177558953
 30
0.0
 11
133.8615994948
 21
23.0850850449
 31
0.0
1001
ACAD
1000
RTMaterial
1005
185D
  0
LINE
  5
17D1
100
AcDbEntity
  8
0
  6
CONTINUOUS
 62
           7
100
AcDbLine
 10
131.8026254701
 20
23.1489422135
 30
0.0
 11
132.7527902826
 21
23.1177558953
 31
0.0
1001
ACAD
1000
RTMaterial
1005
185D
  0
LINE
  5
17D2
100
AcDbEntity
  8
0
  6
CONTINUOUS
 62
           7
100
AcDbLine
 10
130.9557465248
 20
23.1793403052
 30
0.0
 11
131.8026254701
 21
23.1489422135
 31
0.0
1001
ACAD
1000
RTMaterial
1005
185D
  0
LINE
  5
17D3
100
AcDbEntity
  8
0
  6
CONTINUOUS
 62
           7
100
AcDbLine
 10
130.8571390996
 20
23.1830432257
 30
0.0
 11
130.9557465248
 21
23.1793403052
 31
0.0
1001
ACAD
1000
RTMaterial
1005
185D
  0
LINE
  5
17D4
100
AcDbEntity
  8
0
  6
CONTINUOUS
 62
           7
100
AcDbLine
 10
142.858906612
 20
22.992735216
 30
0.0
 11
143.0363347763
 21
22.9856950979
 31
0.0
1001
ACAD
1000
RTMaterial
1005
185D
  0
LWPOLYLINE
  5
17D5
100
AcDbEntity
  8
0
  6
CONTINUOUS
 62
           7
100
AcDbPolyline
 90
        4
 70
           0
 10
143.0363347763
 20
22.9856950979
 10
143.2010407539
 20
22.9787431889
 10
143.2760484818
 20
22.9753577041
 10
143.4159089687
 20
22.9678810361
1001
ACAD
1000
RTMaterial
1005
185D
  0
LINE
  5
17D6
100
AcDbEntity
  8
0
  6
CONTINUOUS
 62
           7
100
AcDbLine
 10
146.731018768
 20
22.8605277188
 30
0.0
 11
146.7144325902
 21
22.8629300481
 31
0.0
1001
ACAD
1000
RTMaterial
1005
185D
  0
LINE
  5
17D7
100
AcDbEntity
  8
0
  6
CONTINUOUS
 62
           7
100
AcDbLine
 10
146.6494180192
 20
22.8785130821
 30
0.0
 11
146.6928654844
 21
22.8708419836
 31
0.0
1001
ACAD
1000
RTMaterial
1005
185D
  0
LWPOLYLINE
  5
17D8
100
AcDbEntity
  8
0
  6
CONTINUOUS
 62
           7
100
AcDbPolyline
 90
       11
 70
           0
 10
141.1814597514
 20
22.4573020631
 10
141.2218821124
 20
22.4344862192
 10
141.2555686182
 20
22.417594792
 10
141.2826383509
 20
22.4052931568
 10
141.3203056218
 20
22.3899592856
 10
141.3788315602
 20
22.370013973
 10
141.4167257475
 20
22.3594828708
 10
141.4578781972
 20
22.35007145
 10
141.500418397
 20
22.3424875496
 10
141.5249471532
 20
22.3390820284
 10
141.558361435
 20
22.3355591217
1001
ACAD
1000
RTMaterial
1005
185D
  0
LINE
  5
17D9
100
AcDbEntity
  8
0
  6
CONTINUOUS
 62
           7
100
AcDbLine
 10
140.128263392
 20
22.5671370202
 30
0.0
 11
139.7621707599
 21
22.9332296523
 31
0.0
1001
ACAD
1000
RTMaterial
1005
185D
  0
LWPOLYLINE
  5
17DA
100
AcDbEntity
  8
0
  6
CONTINUOUS
 62
           9
100
AcDbPolyline
 90
        3
 70
           0
 10
134.0302830028
 20
23.0804508774
 10
134.0238113539
 20
23.0788667243
 10
134.0194268691
 20
23.0758284346
1001
ACAD
1000
RTMaterial
1005
185D
  0
LWPOLYLINE
  5
17DB
100
AcDbEntity
  8
0
  6
CONTINUOUS
 62
           9
100
AcDbPolyline
 90
        3
 70
           0
 10
149.2994657038
 20
23.0804512157
 10
149.3059387348
 20
23.0788667243
 10
149.3103232196
 20
23.0758284346
1001
ACAD
1000
RTMaterial
1005
185D
  0
LINE
  5
17DC
100
AcDbEntity
  8
0
  6
CONTINUOUS
 62
           7
100
AcDbLine
 10
146.6928654844
 20
22.8708419836
 30
0.0
 11
146.740731584
 21
22.8573142624
 31
0.0
1001
ACAD
1000
RTMaterial
1005
185D
  0
LINE
  5
17DD
100
AcDbEntity
  8
0
  6
CONTINUOUS
 62
           7
100
AcDbLine
 10
146.740731584
 20
22.8573142624
 30
0.0
 11
146.7900695755
 21
22.8372909764
 31
0.0
1001
ACAD
1000
RTMaterial
1005
185D
  0
LINE
  5
17DE
100
AcDbEntity
  8
0
  6
CONTINUOUS
 62
           9
100
AcDbLine
 10
136.8587501553
 20
22.9115263682
 30
0.0
 11
136.8581539906
 21
22.8802823536
 31
0.0
1001
ACAD
1000
RTMaterial
1005
185D
  0
LINE
  5
17DF
100
AcDbEntity
  8
0
  6
CONTINUOUS
 62
           7
100
AcDbLine
 10
146.8668171194
 20
22.7914999758
 30
0.0
 11
146.731018768
 21
22.8605277188
 31
0.0
1001
ACAD
1000
RTMaterial
1005
185D
  0
LINE
  5
17E0
100
AcDbEntity
  8
0
  6
CONTINUOUS
 62
           7
100
AcDbLine
 10
146.7900695755
 20
22.8372909764
 30
0.0
 11
146.8389463556
 21
22.8104655585
 31
0.0
1001
ACAD
1000
RTMaterial
1005
185D
  0
LINE
  5
17E1
100
AcDbEntity
  8
0
  6
CONTINUOUS
 62
           7
100
AcDbLine
 10
146.8389463556
 20
22.8104655585
 30
0.0
 11
146.8857836942
 21
22.7768109194
 31
0.0
1001
ACAD
1000
RTMaterial
1005
185D
  0
LINE
  5
17E2
100
AcDbEntity
  8
0
  6
CONTINUOUS
 62
           7
100
AcDbLine
 10
146.8857836942
 20
22.7768109194
 30
0.0
 11
146.9293322481
 21
22.7363984158
 31
0.0
1001
ACAD
1000
RTMaterial
1005
185D
  0
LWPOLYLINE
  5
17E3
100
AcDbEntity
  8
0
  6
CONTINUOUS
 62
           7
100
AcDbPolyline
 90
       20
 70
           0
 10
140.4773750444
 20
38.5665578995
 10
140.4813834369
 20
38.6630848022
 10
140.4934410851
 20
38.7592929451
 10
140.5134898313
 20
38.8542620744
 10
140.5414653741
 20
38.9474822054
 10
140.5770938952
 20
39.0379804258
 10
140.6201884383
 20
39.125296641
 10
140.6704094057
 20
39.208738632
 10
140.7274101054
 20
39.2877510684
 10
140.7908854219
 20
39.3618993095
 10
140.8602490519
 20
39.4305068308
 10
140.935212515
 20
39.4932907284
 10
141.0150788569
 20
39.5496666362
 10
141.0994430699
 20
39.5993581227
 10
141.1876789464
 20
39.641988794
 10
141.2791049747
 20
39.6772418212
 10
141.3732734303
 20
39.7049422814
 10
141.4693054553
 20
39.7248362175
 10
141.5667934866
 20
39.7368419988
 10
141.6648750444
 20
39.7408487571
1001
ACAD
1000
RTMaterial
1005
185D
  0
LINE
  5
17E4
100
AcDbEntity
  8
0
  6
CONTINUOUS
 62
           7
100
AcDbLine
 10
146.9682771206
 20
22.6896175043
 30
0.0
 11
146.8668171194
 21
22.7914999758
 31
0.0
1001
ACAD
1000
RTMaterial
1005
185D
  0
LINE
  5
17E5
100
AcDbEntity
  8
0
  6
CONTINUOUS
 62
           7
100
AcDbLine
 10
146.9293322481
 20
22.7363984158
 30
0.0
 11
146.9682676173
 21
22.6896389953
 31
0.0
1001
ACAD
1000
RTMaterial
1005
185D
  0
LWPOLYLINE
  5
17E6
100
AcDbEntity
  8
0
  6
CONTINUOUS
 62
           7
100
AcDbPolyline
 90
       20
 70
           0
 10
140.4781087508
 20
38.5665888927
 10
140.4815245009
 20
38.4857273536
 10
140.4939413256
 20
38.3881752009
 10
140.5144667406
 20
38.2922473423
 10
140.5429215358
 20
38.1984987488
 10
140.5789140263
 20
38.1079035767
 10
140.6221671736
 20
38.0208559829
 10
140.6722696148
 20
37.9379708323
 10
140.7288766474
 20
37.8596511446
 10
140.7916989387
 20
37.7862237262
 10
140.8602463557
 20
37.7182221368
 10
140.9343285775
 20
37.6558498943
 10
141.0133561843
 20
37.5996516413
 10
141.0970471865
 20
37.5498910632
 10
141.1848750711
 20
37.5069790679
 10
141.2762542274
 20
37.4712912801
 10
141.3707426811
 20
37.4431043601
 10
141.4674135679
 20
37.4227763313
 10
141.5657869124
 20
37.4104713567
 10
141.6648750444
 20
37.4063587315
1001
ACAD
1000
RTMaterial
1005
185D
  0
LINE
  5
17E7
100
AcDbEntity
  8
0
  6
CONTINUOUS
 62
           9
100
AcDbLine
 10
141.6648516627
 20
41.7287066172
 30
0.0
 11
141.6648516642
 21
42.0710232165
 31
0.0
1001
ACAD
1000
RTMaterial
1005
185D
  0
LINE
  5
17E9
100
AcDbEntity
  8
0
  6
CONTINUOUS
 62
           9
100
AcDbLine
 10
141.6648750443
 20
37.4063587315
 30
0.0
 11
141.6648750443
 21
40.5823020631
 31
0.0
1001
ACAD
1000
RTMaterial
1005
185D
  0
LINE
  5
17EA
100
AcDbEntity
  8
DEFAULT_1
  6
CENTER
 62
           7
100
AcDbLine
 10
141.6648750443
 20
21.0723020631
 30
0.0
 11
141.6648750443
 21
22.9797387838
 31
0.0
1001
ACAD
1000
RTMaterial
1005
185D
  0
LINE
  5
17EB
100
AcDbEntity
  8
DEFAULT_1
  6
CENTER
 62
           7
100
AcDbLine
 10
141.6648750449
 20
25.1247405693
 30
0.0
 11
141.6648750443
 21
37.4063587315
 31
0.0
1001
ACAD
1000
RTMaterial
1005
185D
  0
LINE
  5
17EC
100
AcDbEntity
  8
DEFAULT_1
  6
CENTER
 62
           7
100
AcDbLine
 10
141.6648516642
 20
42.0710232165
 30
0.0
 11
141.6648750443
 21
43.3763891526
 31
0.0
1001
ACAD
1000
RTMaterial
1005
185D
  0
LINE
  5
17ED
100
AcDbEntity
  8
DEFAULT_1
  6
CENTER
 62
           7
100
AcDbLine
 10
141.6648750443
 20
40.5823020631
 30
0.0
 11
141.6648516627
 21
41.7287066172
 31
0.0
1001
ACAD
1000
RTMaterial
1005
185D
  0
LINE
  5
17EE
100
AcDbEntity
  8
0
  6
CONTINUOUS
 62
           9
100
AcDbLine
 10
141.6648750443
 20
22.9797387838
 30
0.0
 11
141.6648750449
 21
25.1247405693
 31
0.0
1001
ACAD
1000
RTMaterial
1005
185D
  0
LINE
  5
17EF
100
AcDbEntity
  8
0
  6
CONTINUOUS
 62
           7
100
AcDbLine
 10
146.973308469
 20
22.6825714093
 30
0.0
 11
146.9682771206
 21
22.6896175043
 31
0.0
1001
ACAD
1000
RTMaterial
1005
185D
  0
LINE
  5
17F0
100
AcDbEntity
  8
0
  6
CONTINUOUS
 62
           7
100
AcDbLine
 10
146.4584920299
 20
22.899232405
 30
0.0
 11
146.4546185446
 21
22.9046955002
 31
0.0
1001
ACAD
1000
RTMaterial
1005
185D
  0
LINE
  5
17F1
100
AcDbEntity
  8
0
  6
CONTINUOUS
 62
           7
100
AcDbLine
 10
147.3713215014
 20
22.1141498904
 30
0.0
 11
146.9733084623
 21
22.6825714189
 31
0.0
1001
ACAD
1000
RTMaterial
1005
185D
  0
LINE
  5
17F2
100
AcDbEntity
  8
0
  6
CONTINUOUS
 62
           7
100
AcDbLine
 10
146.7747460759
 20
23.0206306076
 30
0.0
 11
146.8409091553
 21
22.9261399377
 31
0.0
1001
ACAD
1000
RTMaterial
1005
185D
  0
LINE
  5
17F3
100
AcDbEntity
  8
0
  6
CONTINUOUS
 62
           7
100
AcDbLine
 10
146.4546185446
 20
22.9046955002
 30
0.0
 11
146.3798291127
 21
23.0127401301
 31
0.0
1001
ACAD
1000
RTMaterial
1005
185D
  0
LINE
  5
17F4
100
AcDbEntity
  8
0
  6
CONTINUOUS
 62
           7
100
AcDbLine
 10
146.4530179308
 20
22.937400144
 30
0.0
 11
146.4006675712
 21
23.0131474305
 31
0.0
1001
ACAD
1000
RTMaterial
1005
185D
  0
LWPOLYLINE
  5
17F5
100
AcDbEntity
  8
0
  6
CONTINUOUS
 62
           7
100
AcDbPolyline
 90
        5
 70
           0
 10
146.471596098
 20
22.8802823536
 10
146.4699426306
 20
22.882742326
 10
146.4677454574
 20
22.8859583554
 10
146.4650713905
 20
22.8898259369
 10
146.4584920299
 20
22.899232405
1001
ACAD
1000
RTMaterial
1005
185D
  0
LWPOLYLINE
  5
17F6
100
AcDbEntity
  8
0
  6
CONTINUOUS
 62
           7
100
AcDbPolyline
 90
        6
 70
           0
 10
146.4709999334
 20
22.9115263682
 10
146.4688623675
 20
22.9147177738
 10
146.4658635853
 20
22.9190995966
 10
146.4621525471
 20
22.9244474783
 10
146.4578724333
 20
22.9305504921
 10
146.4530179308
 20
22.937400144
1001
ACAD
1000
RTMaterial
1005
185D
  0
LINE
  5
17F7
100
AcDbEntity
  8
0
  6
CONTINUOUS
 62
           7
100
AcDbLine
 10
142.8483646342
 20
38.6631090498
 30
0.0
 11
142.8523750444
 21
38.5665578995
 31
0.0
1001
ACAD
1000
RTMaterial
1005
185D
  0
LWPOLYLINE
  5
17F8
100
AcDbEntity
  8
0
  6
CONTINUOUS
 62
           7
100
AcDbPolyline
 90
       20
 70
           0
 10
142.8523750444
 20
38.5665578995
 10
142.8482257246
 20
38.4683288608
 10
142.8358082564
 20
38.3707721854
 10
142.8152827156
 20
38.2748449665
 10
142.7868255391
 20
38.1810903648
 10
142.7508301317
 20
38.090490712
 10
142.7075756965
 20
38.0034435
 10
142.6574692964
 20
37.9205548543
 10
142.6008628362
 20
37.8422388441
 10
142.5380366509
 20
37.7688095747
 10
142.4694881206
 20
37.7008096053
 10
142.3954062541
 20
37.6384401039
 10
142.3163749104
 20
37.5822415673
 10
142.2326904332
 20
37.5324868773
 10
142.1448606081
 20
37.4895755296
 10
142.0534901157
 20
37.4538922872
 10
141.9590042532
 20
37.4257067042
 10
141.8623351714
 20
37.4053793696
 10
141.7639688572
 20
37.3930751667
 10
141.6648750444
 20
37.3889620939
1001
ACAD
1000
RTMaterial
1005
185D
  0
LWPOLYLINE
  5
17F9
100
AcDbEntity
  8
0
  6
CONTINUOUS
 62
           7
100
AcDbPolyline
 90
        7
 70
           0
 10
136.8587501553
 20
22.9115263682
 10
136.8608877212
 20
22.9147177738
 10
136.8638865034
 20
22.9190995966
 10
136.8675975416
 20
22.9244474783
 10
136.8718776554
 20
22.9305504921
 10
136.8767321578
 20
22.937400144
 10
136.9290827347
 20
23.013147745
1001
ACAD
1000
RTMaterial
1005
185D
  0
LWPOLYLINE
  5
17FA
100
AcDbEntity
  8
0
  6
CONTINUOUS
 62
           7
100
AcDbPolyline
 90
        3
 70
           0
 10
136.8581539906
 20
22.8802823536
 10
136.8598074534
 20
22.8827423191
 10
136.8620046195
 20
22.8859583382
1001
ACAD
1000
RTMaterial
1005
185D
  0
LWPOLYLINE
  5
17FB
100
AcDbEntity
  8
0
  6
CONTINUOUS
 62
           7
100
AcDbPolyline
 90
        5
 70
           0
 10
136.8620046195
 20
22.8859583382
 10
136.8677729586
 20
22.8942691081
 10
136.8712580143
 20
22.8992323422
 10
136.875131486
 20
22.904695418
 10
136.9499208923
 20
23.0127400092
1001
ACAD
1000
RTMaterial
1005
185D
  0
LINE
  5
17FC
100
AcDbEntity
  8
0
  6
CONTINUOUS
 62
           7
100
AcDbLine
 10
136.4827630796
 20
22.9174598629
 30
0.0
 11
136.5550042063
 21
23.020630884
 31
0.0
1001
ACAD
1000
RTMaterial
1005
185D
  0
LINE
  5
17FD
100
AcDbEntity
  8
0
  6
CONTINUOUS
 62
           7
100
AcDbLine
 10
136.3564416264
 20
22.6825714189
 30
0.0
 11
135.9584285872
 21
22.1141498904
 31
0.0
1001
ACAD
1000
RTMaterial
1005
185D
  0
LINE
  5
17FE
100
AcDbEntity
  8
0
  6
CONTINUOUS
 62
           7
100
AcDbLine
 10
136.3564416196
 20
22.6825714093
 30
0.0
 11
136.3614467569
 21
22.6895815014
 31
0.0
1001
ACAD
1000
RTMaterial
1005
185D
  0
LINE
  5
17FF
100
AcDbEntity
  8
0
  6
CONTINUOUS
 62
           7
100
AcDbLine
 10
136.3614426352
 20
22.6895842808
 30
0.0
 11
136.39009097
 21
22.7251570128
 31
0.0
1001
ACAD
1000
RTMaterial
1005
185D
  0
LINE
  5
1800
100
AcDbEntity
  8
0
  6
CONTINUOUS
 62
           7
100
AcDbLine
 10
136.3614467569
 20
22.6895815014
 30
0.0
 11
136.4629329693
 21
22.7914999758
 31
0.0
1001
ACAD
1000
RTMaterial
1005
185D
  0
LINE
  5
1801
100
AcDbEntity
  8
0
  6
CONTINUOUS
 62
           7
100
AcDbLine
 10
136.39009097
 20
22.7251570128
 30
0.0
 11
136.4313111049
 21
22.7661010835
 31
0.0
1001
ACAD
1000
RTMaterial
1005
185D
  0
LINE
  5
1802
100
AcDbEntity
  8
0
  6
CONTINUOUS
 62
           9
100
AcDbLine
 10
146.4709999334
 20
22.9115263682
 30
0.0
 11
146.471596098
 21
22.8802823536
 31
0.0
1001
ACAD
1000
RTMaterial
1005
185D
  0
LWPOLYLINE
  5
1803
100
AcDbEntity
  8
0
  6
CONTINUOUS
 62
           7
100
AcDbPolyline
 90
        3
 70
           0
 10
136.4313111049
 20
22.7661010835
 10
136.4759415503
 20
22.8007187516
 10
136.5227237409
 20
22.828834016
1001
ACAD
1000
RTMaterial
1005
185D
  0
LINE
  5
1804
100
AcDbEntity
  8
0
  6
CONTINUOUS
 62
           7
100
AcDbLine
 10
136.4629329693
 20
22.7914999758
 30
0.0
 11
136.5987313207
 21
22.8605277188
 31
0.0
1001
ACAD
1000
RTMaterial
1005
185D
  0
LINE
  5
1805
100
AcDbEntity
  8
0
  6
CONTINUOUS
 62
           7
100
AcDbLine
 10
136.5227237409
 20
22.828834016
 30
0.0
 11
136.5703198291
 21
22.8504908803
 31
0.0
1001
ACAD
1000
RTMaterial
1005
185D
  0
LWPOLYLINE
  5
1806
100
AcDbEntity
  8
0
  6
CONTINUOUS
 62
           7
100
AcDbPolyline
 90
       20
 70
           0
 10
141.6648750444
 20
37.4063587315
 10
141.7640417036
 20
37.4104778892
 10
141.8625565131
 20
37.4228131917
 10
141.9594083571
 20
37.4432062208
 10
142.0540729583
 20
37.4714898964
 10
142.1455831415
 20
37.5072900344
 10
142.2334977616
 20
37.5503210667
 10
142.3172107777
 20
37.6001842177
 10
142.396226528
 20
37.6564739044
 10
142.4702505296
 20
37.7189054805
 10
142.5387085585
 20
37.7869319686
 10
142.6014170298
 20
37.8603423183
 10
142.6578809574
 20
37.9385760847
 10
142.7078371506
 20
38.0213188124
 10
142.7509628063
 20
38.1081876828
 10
142.7868737137
 20
38.1986278523
 10
142.8152882892
 20
38.292266471
 10
142.8358009271
 20
38.3881292166
 10
142.8482213939
 20
38.4856778055
 10
142.851640968
 20
38.566588924
1001
ACAD
1000
RTMaterial
1005
185D
  0
LWPOLYLINE
  5
1807
100
AcDbEntity
  8
0
  6
CONTINUOUS
 62
           7
100
AcDbPolyline
 90
       20
 70
           0
 10
141.6648750444
 20
37.3889620939
 10
141.5657179311
 20
37.3930804324
 10
141.467200311
 20
37.4054153266
 10
141.3703492377
 20
37.4258074568
 10
141.2756821774
 20
37.4540911398
 10
141.1841616957
 20
37.4898951248
 10
141.0962466801
 20
37.5329266756
 10
141.0125246367
 20
37.5827960892
 10
140.9335103455
 20
37.6390861799
 10
140.85948355
 20
37.701521881
 10
140.7910245483
 20
37.7695517318
 10
140.7283179017
 20
37.8429627768
 10
140.6718518089
 20
37.9212031835
 10
140.6218991477
 20
38.0039445816
 10
140.5787757804
 20
38.0908138996
 10
140.5428695473
 20
38.1812476054
 10
140.5144589609
 20
38.2748775343
 10
140.4939476606
 20
38.3707379839
 10
140.4815285831
 20
38.4682790159
 10
140.4773750444
 20
38.5665578995
1001
ACAD
1000
RTMaterial
1005
185D
  0
LINE
  5
1808
100
AcDbEntity
  8
0
  6
CONTINUOUS
 62
           9
100
AcDbLine
 10
149.6490419682
 20
22.9866339546
 30
0.0
 11
149.6499355839
 21
22.9553970543
 31
0.0
1001
ACAD
1000
RTMaterial
1005
185D
  0
LINE
  5
1809
100
AcDbEntity
  8
0
  6
CONTINUOUS
 62
           7
100
AcDbLine
 10
143.2014866967
 20
22.5671370202
 30
0.0
 11
143.5675793288
 21
22.9332296522
 31
0.0
1001
ACAD
1000
RTMaterial
1005
185D
  0
LWPOLYLINE
  5
180A
100
AcDbEntity
  8
0
  6
CONTINUOUS
 62
           7
100
AcDbPolyline
 90
       11
 70
           0
 10
143.5675798868
 20
22.9332302315
 10
143.570193353
 20
22.9357684885
 10
143.5797429654
 20
22.9439086025
 10
143.5890813604
 20
22.9504332157
 10
143.5980829084
 20
22.9556155107
 10
143.6066449942
 20
22.9596718351
 10
143.6145060643
 20
22.9627217275
 10
143.6213334931
 20
22.9648837921
 10
143.626886077
 20
22.966322879
 10
143.6311882088
 20
22.9672442564
 10
143.6332654869
 20
22.9676170784
1001
ACAD
1000
RTMaterial
1005
185D
  0
LINE
  5
180B
100
AcDbEntity
  8
0
  6
CONTINUOUS
 62
           7
100
AcDbLine
 10
136.5703198291
 20
22.8504908803
 30
0.0
 11
136.6171480771
 21
22.8659291701
 31
0.0
1001
ACAD
1000
RTMaterial
1005
185D
  0
LWPOLYLINE
  5
180C
100
AcDbEntity
  8
0
  6
CONTINUOUS
 62
           7
100
AcDbPolyline
 90
       19
 70
           0
 10
141.6648750444
 20
39.7408487571
 10
141.7629456523
 20
39.7368428949
 10
141.8604351237
 20
39.7248377855
 10
141.9564639875
 20
39.7049454512
 10
142.0506292826
 20
39.6772471919
 10
142.1420583581
 20
39.6419943353
 10
142.2302873167
 20
39.5993686609
 10
142.314655377
 20
39.5496768763
 10
142.394517137
 20
39.4933064549
 10
142.4694813936
 20
39.4305247149
 10
142.538845385
 20
39.361920028
 10
142.602319703
 20
39.2877768523
 10
142.659324008
 20
39.2087638954
 10
142.7095439788
 20
39.1253289758
 10
142.7526408568
 20
39.0380150683
 10
142.7882710394
 20
38.9475216981
 10
142.8162495725
 20
38.85430396
 10
142.8363033736
 20
38.7593264747
 10
142.8483646342
 20
38.6631090498
1001
ACAD
1000
RTMaterial
1005
185D
  0
LINE
  5
180D
100
AcDbEntity
  8
0
  6
CONTINUOUS
 62
           7
100
AcDbLine
 10
120.6648750443
 20
40.5823020631
 30
0.0
 11
162.6648750443
 21
40.5823020631
 31
0.0
1001
ACAD
1000
RTMaterial
1005
185D
  0
LINE
  5
180E
100
AcDbEntity
  8
0
  6
CONTINUOUS
 62
           7
100
AcDbLine
 10
149.6528652112
 20
22.9976250885
 30
0.0
 11
149.6490419682
 21
22.9866339546
 31
0.0
1001
ACAD
1000
RTMaterial
1005
185D
  0
LINE
  5
180F
100
AcDbEntity
  8
0
  6
CONTINUOUS
 62
           7
100
AcDbLine
 10
149.6542602916
 20
22.9676902715
 30
0.0
 11
149.6499355839
 21
22.9553970543
 31
0.0
1001
ACAD
1000
RTMaterial
1005
185D
  0
LINE
  5
1810
100
AcDbEntity
  8
0
  6
CONTINUOUS
 62
           7
100
AcDbLine
 10
149.1880530148
 20
22.6485249205
 30
0.0
 11
149.0752022707
 21
22.3384700493
 31
0.0
1001
ACAD
1000
RTMaterial
1005
185D
  0
LINE
  5
1811
100
AcDbEntity
  8
0
  6
CONTINUOUS
 62
           7
100
AcDbLine
 10
149.6548781664
 20
23.0031509037
 30
0.0
 11
149.6528652112
 21
22.9976250885
 31
0.0
1001
ACAD
1000
RTMaterial
1005
185D
  0
LINE
  5
1812
100
AcDbEntity
  8
0
  6
CONTINUOUS
 62
           7
100
AcDbLine
 10
149.7000486917
 20
23.0915982465
 30
0.0
 11
149.6542602916
 21
22.9676902715
 31
0.0
1001
ACAD
1000
RTMaterial
1005
185D
  0
LINE
  5
1813
100
AcDbEntity
  8
0
  6
CONTINUOUS
 62
           7
100
AcDbLine
 10
149.6875874679
 20
23.0912438809
 30
0.0
 11
149.6548781664
 21
23.0031509037
 31
0.0
1001
ACAD
1000
RTMaterial
1005
185D
  0
LINE
  5
1814
100
AcDbEntity
  8
0
  6
CONTINUOUS
 62
           7
100
AcDbLine
 10
149.1919963646
 20
22.6588131686
 30
0.0
 11
149.2095849451
 21
22.6978158405
 31
0.0
1001
ACAD
1000
RTMaterial
1005
185D
  0
LINE
  5
1815
100
AcDbEntity
  8
0
  6
CONTINUOUS
 62
           9
100
AcDbLine
 10
149.3103232339
 20
23.0758284742
 30
0.0
 11
149.3130554126
 21
23.0808209158
 31
0.0
1001
ACAD
1000
RTMaterial
1005
185D
  0
LWPOLYLINE
  5
1816
100
AcDbEntity
  8
0
  6
CONTINUOUS
 62
           7
100
AcDbPolyline
 90
       14
 70
           0
 10
121.1450982746
 20
42.0839984439
 10
121.1027304832
 20
42.0821896674
 10
121.0608338438
 20
42.0756081602
 10
121.0198130732
 20
42.0642923763
 10
120.9802731441
 20
42.048371455
 10
120.942638173
 20
42.0279691074
 10
120.9074403247
 20
42.0033050235
 10
120.8751672053
 20
41.9746474179
 10
120.8462874114
 20
41.94232883
 10
120.8212339296
 20
41.9067396565
 10
120.8003921503
 20
41.8683156119
 10
120.7841272593
 20
41.8276191525
 10
120.7727032297
 20
41.7852148619
 10
120.7663108042
 20
41.7417181033
1001
ACAD
1000
RTMaterial
1005
185D
  0
LINE
  5
1817
100
AcDbEntity
  8
0
  6
CONTINUOUS
 62
           9
100
AcDbLine
 10
162.0284375455
 20
42.083925712
 30
0.0
 11
162.1854793609
 21
42.0853536633
 31
0.0
1001
ACAD
1000
RTMaterial
1005
185D
  0
LWPOLYLINE
  5
1818
100
AcDbEntity
  8
0
  6
CONTINUOUS
 62
           7
100
AcDbPolyline
 90
        4
 70
           0
 10
162.1846458363
 20
42.0839983537
 10
161.0299630498
 20
42.0807278469
 10
159.8166979549
 20
42.0794658451
 10
158.5567221911
 20
42.0784040883
1001
ACAD
1000
RTMaterial
1005
185D
  0
LINE
  5
1819
100
AcDbEntity
  8
0
  6
CONTINUOUS
 62
           9
100
AcDbLine
 10
161.895106851
 20
42.0833891423
 30
0.0
 11
162.0284375455
 21
42.083925712
 31
0.0
1001
ACAD
1000
RTMaterial
1005
185D
  0
LWPOLYLINE
  5
181A
100
AcDbEntity
  8
0
  6
CONTINUOUS
 62
           7
100
AcDbPolyline
 90
        5
 70
           0
 10
162.185484244
 20
42.0853926026
 10
160.831646731
 20
42.0829689807
 10
159.402600331
 20
42.0822146339
 10
157.9083542376
 20
42.0813434353
 10
154.7188417561
 20
42.0791929212
1001
ACAD
1000
RTMaterial
1005
185D
  0
LINE
  5
181B
100
AcDbEntity
  8
0
  6
CONTINUOUS
 62
           7
100
AcDbLine
 10
154.7188417561
 20
42.0791929212
 30
0.0
 11
147.5961732583
 21
42.0735456223
 31
0.0
1001
ACAD
1000
RTMaterial
1005
185D
  0
LWPOLYLINE
  5
181C
100
AcDbEntity
  8
0
  6
CONTINUOUS
 62
           7
100
AcDbPolyline
 90
        3
 70
           0
 10
147.5961732583
 20
42.0735456223
 10
145.6701192895
 20
42.0722607023
 10
143.6890838049
 20
42.0713482992
1001
ACAD
1000
RTMaterial
1005
185D
  0
LINE
  5
181D
100
AcDbEntity
  8
0
  6
CONTINUOUS
 62
           7
100
AcDbLine
 10
158.5567221911
 20
42.0784040883
 30
0.0
 11
149.9898146227
 21
42.0735114937
 31
0.0
1001
ACAD
1000
RTMaterial
1005
185D
  0
LINE
  5
181E
100
AcDbEntity
  8
0
  6
CONTINUOUS
 62
           9
100
AcDbLine
 10
145.5192415477
 20
42.0716384522
 30
0.0
 11
147.5961732583
 21
42.0735456223
 31
0.0
1001
ACAD
1000
RTMaterial
1005
185D
  0
LINE
  5
181F
100
AcDbEntity
  8
0
  6
CONTINUOUS
 62
           9
100
AcDbLine
 10
151.2769916286
 20
42.0764927694
 30
0.0
 11
154.7188417561
 21
42.0791929212
 31
0.0
1001
ACAD
1000
RTMaterial
1005
185D
  0
LINE
  5
1820
100
AcDbEntity
  8
0
  6
CONTINUOUS
 62
           9
100
AcDbLine
 10
157.9083542376
 20
42.0813434353
 30
0.0
 11
157.923930498
 21
42.0811970079
 31
0.0
1001
ACAD
1000
RTMaterial
1005
185D
  0
LINE
  5
1821
100
AcDbEntity
  8
0
  6
CONTINUOUS
 62
           7
100
AcDbLine
 10
149.9898146227
 20
42.0735114937
 30
0.0
 11
146.7782973613
 21
42.0720472334
 31
0.0
1001
ACAD
1000
RTMaterial
1005
185D
  0
LINE
  5
1822
100
AcDbEntity
  8
0
  6
CONTINUOUS
 62
           9
100
AcDbLine
 10
160.831646731
 20
42.0829689807
 30
0.0
 11
161.7961180059
 21
42.0833389644
 31
0.0
1001
ACAD
1000
RTMaterial
1005
185D
  0
LINE
  5
1823
100
AcDbEntity
  8
0
  6
CONTINUOUS
 62
           9
100
AcDbLine
 10
161.7961180059
 20
42.0833389644
 30
0.0
 11
161.895106851
 21
42.0833891423
 31
0.0
1001
ACAD
1000
RTMaterial
1005
185D
  0
LINE
  5
1824
100
AcDbEntity
  8
0
  6
CONTINUOUS
 62
           7
100
AcDbLine
 10
146.7782973613
 20
42.0720472334
 30
0.0
 11
141.8043245471
 21
42.0710333784
 31
0.0
1001
ACAD
1000
RTMaterial
1005
185D
  0
LINE
  5
1825
100
AcDbEntity
  8
0
  6
CONTINUOUS
 62
           7
100
AcDbLine
 10
143.4025008936
 20
42.0711498126
 30
0.0
 11
141.6648516642
 21
42.0710232172
 31
0.0
1001
ACAD
1000
RTMaterial
1005
185D
  0
LINE
  5
1826
100
AcDbEntity
  8
0
  6
CONTINUOUS
 62
           7
100
AcDbLine
 10
141.525557205
 20
42.0710333601
 30
0.0
 11
138.2201183071
 21
42.0715055199
 31
0.0
1001
ACAD
1000
RTMaterial
1005
185D
  0
LINE
  5
1827
100
AcDbEntity
  8
0
  6
CONTINUOUS
 62
           7
100
AcDbLine
 10
141.6648516642
 20
42.0710232165
 30
0.0
 11
139.9280499328
 21
42.071149693
 31
0.0
1001
ACAD
1000
RTMaterial
1005
185D
  0
LINE
  5
1828
100
AcDbEntity
  8
0
  6
CONTINUOUS
 62
           7
100
AcDbLine
 10
138.2201183071
 20
42.0715055199
 30
0.0
 11
134.9254711878
 21
42.0727308631
 31
0.0
1001
ACAD
1000
RTMaterial
1005
185D
  0
LWPOLYLINE
  5
1829
100
AcDbEntity
  8
0
  6
CONTINUOUS
 62
           7
100
AcDbPolyline
 90
        4
 70
           0
 10
139.6397810034
 20
42.0713486001
 10
137.6587506303
 20
42.0722612091
 10
135.7327015999
 20
42.0735462712
 10
130.3003095157
 20
42.077905292
1001
ACAD
1000
RTMaterial
1005
185D
  0
LWPOLYLINE
  5
182A
100
AcDbEntity
  8
0
  6
CONTINUOUS
 62
           9
100
AcDbPolyline
 90
        3
 70
           0
 10
121.5356514955
 20
42.0833378769
 10
121.5944490652
 20
42.0833078813
 10
122.497258248
 20
42.0829694049
1001
ACAD
1000
RTMaterial
1005
185D
  0
LINE
  5
182B
100
AcDbEntity
  8
0
  6
CONTINUOUS
 62
           7
100
AcDbLine
 10
134.9254711878
 20
42.0727308631
 30
0.0
 11
124.7738610204
 21
42.0784031556
 31
0.0
1001
ACAD
1000
RTMaterial
1005
185D
  0
LINE
  5
182C
100
AcDbEntity
  8
0
  6
CONTINUOUS
 62
           7
100
AcDbLine
 10
125.420546629
 20
42.0813439551
 30
0.0
 11
122.497258248
 21
42.0829694049
 31
0.0
1001
ACAD
1000
RTMaterial
1005
185D
  0
LWPOLYLINE
  5
182D
100
AcDbEntity
  8
0
  6
CONTINUOUS
 62
           7
100
AcDbPolyline
 90
        3
 70
           0
 10
124.7738610204
 20
42.0784031556
 10
123.5138869308
 20
42.0794650263
 10
122.3006259369
 20
42.0807269491
1001
ACAD
1000
RTMaterial
1005
185D
  0
LINE
  5
182E
100
AcDbEntity
  8
0
  6
CONTINUOUS
 62
           9
100
AcDbLine
 10
134.7026710655
 20
42.0738925691
 30
0.0
 11
137.0998592676
 21
42.0720633159
 31
0.0
1001
ACAD
1000
RTMaterial
1005
185D
  0
LINE
  5
182F
100
AcDbEntity
  8
0
  6
CONTINUOUS
 62
           9
100
AcDbLine
 10
128.2182993756
 20
42.079260677
 30
0.0
 11
134.7026710655
 21
42.0738925691
 31
0.0
1001
ACAD
1000
RTMaterial
1005
185D
  0
LINE
  5
1830
100
AcDbEntity
  8
0
  6
CONTINUOUS
 62
           7
100
AcDbLine
 10
130.3003095157
 20
42.077905292
 30
0.0
 11
125.420546629
 21
42.0813439551
 31
0.0
1001
ACAD
1000
RTMaterial
1005
185D
  0
LINE
  5
1831
100
AcDbEntity
  8
0
  6
CONTINUOUS
 62
           7
100
AcDbLine
 10
122.497258248
 20
42.0829694049
 30
0.0
 11
121.1442658486
 21
42.0853926029
 31
0.0
1001
ACAD
1000
RTMaterial
1005
185D
  0
LINE
  5
1832
100
AcDbEntity
  8
0
  6
CONTINUOUS
 62
           7
100
AcDbLine
 10
122.3006259369
 20
42.0807269491
 30
0.0
 11
121.1451042493
 21
42.0839983581
 31
0.0
1001
ACAD
1000
RTMaterial
1005
185D
  0
LINE
  5
1833
100
AcDbEntity
  8
0
  6
CONTINUOUS
 62
           9
100
AcDbLine
 10
121.3472204254
 20
42.0836594088
 30
0.0
 11
121.5356514955
 21
42.0833378769
 31
0.0
1001
ACAD
1000
RTMaterial
1005
185D
  0
LWPOLYLINE
  5
1834
100
AcDbEntity
  8
0
  6
CONTINUOUS
 62
           9
100
AcDbPolyline
 90
        3
 70
           0
 10
121.1442707277
 20
42.0853536642
 10
121.2010546354
 20
42.0847498037
 10
121.3472204254
 20
42.0836594088
1001
ACAD
1000
RTMaterial
1005
185D
  0
LINE
  5
1835
100
AcDbEntity
  8
0
  6
CONTINUOUS
 62
           7
100
AcDbLine
 10
149.2095849451
 20
22.6978158405
 30
0.0
 11
149.2385789961
 21
22.7472464708
 31
0.0
1001
ACAD
1000
RTMaterial
1005
185D
  0
LWPOLYLINE
  5
1836
100
AcDbEntity
  8
0
  6
CONTINUOUS
 62
           7
100
AcDbPolyline
 90
        5
 70
           0
 10
149.2385789961
 20
22.7472464708
 10
149.2729684468
 20
22.7922834552
 10
149.3118242193
 20
22.8321882458
 10
149.3540831707
 20
22.8664445598
 10
149.3988582352
 20
22.8949209502
1001
ACAD
1000
RTMaterial
1005
185D
  0
LINE
  5
1837
100
AcDbEntity
  8
0
  6
CONTINUOUS
 62
           7
100
AcDbLine
 10
149.3988582352
 20
22.8949209502
 30
0.0
 11
149.444725169
 21
22.9173759646
 31
0.0
1001
ACAD
1000
RTMaterial
1005
185D
  0
LWPOLYLINE
  5
1838
100
AcDbEntity
  8
0
  6
CONTINUOUS
 62
           7
100
AcDbPolyline
 90
        3
 70
           0
 10
149.444725169
 20
22.9173759646
 10
149.4896279417
 20
22.9337485933
 10
149.5318936
 20
22.9446212444
1001
ACAD
1000
RTMaterial
1005
185D
  0
LINE
  5
1839
100
AcDbEntity
  8
0
  6
CONTINUOUS
 62
           9
100
AcDbLine
 10
121.1012368757
 20
42.0833696372
 30
0.0
 11
121.1442707282
 21
42.0853537027
 31
0.0
1001
ACAD
1000
RTMaterial
1005
185D
  0
LINE
  5
183A
100
AcDbEntity
  8
0
  6
CONTINUOUS
 62
           9
100
AcDbLine
 10
162.228513213
 20
42.0833696371
 30
0.0
 11
162.1854793605
 21
42.0853537027
 31
0.0
1001
ACAD
1000
RTMaterial
1005
185D
  0
LINE
  5
183B
100
AcDbEntity
  8
0
  6
CONTINUOUS
 62
           7
100
AcDbLine
 10
154.7150869979
 20
25.0631304629
 30
0.0
 11
158.0137980269
 21
40.5823020631
 31
0.0
1001
ACAD
1000
RTMaterial
1005
185D
  0
LINE
  5
183C
100
AcDbEntity
  8
0
  6
CONTINUOUS
 62
           7
100
AcDbLine
 10
162.1854794971
 20
42.0853536975
 30
0.0
 11
162.1847089582
 21
42.0839956959
 31
0.0
1001
ACAD
1000
RTMaterial
1005
185D
  0
LWPOLYLINE
  5
183D
100
AcDbEntity
  8
0
  6
CONTINUOUS
 62
           9
100
AcDbPolyline
 90
        3
 70
           0
 10
121.0172271025
 20
42.0647136462
 10
121.0586949598
 20
42.0764592682
 10
121.0604119655
 20
42.0768728414
1001
ACAD
1000
RTMaterial
1005
185D
  0
LWPOLYLINE
  5
183E
100
AcDbEntity
  8
0
  6
CONTINUOUS
 62
           9
100
AcDbPolyline
 90
        3
 70
           0
 10
162.3125229864
 20
42.0647136461
 10
162.271055129
 20
42.0764592682
 10
162.2693381231
 20
42.0768728414
1001
ACAD
1000
RTMaterial
1005
185D
  0
LWPOLYLINE
  5
183F
100
AcDbEntity
  8
0
  6
CONTINUOUS
 62
           9
100
AcDbPolyline
 90
        3
 70
           0
 10
162.390067822
 20
42.0273984663
 10
162.3523696091
 20
42.0482876364
 10
162.3512443349
 20
42.048858988
1001
ACAD
1000
RTMaterial
1005
185D
  0
LINE
  5
1840
100
AcDbEntity
  8
0
  6
CONTINUOUS
 62
           9
100
AcDbLine
 10
162.4251198641
 20
42.0023219736
 30
0.0
 11
162.42485401
 21
42.0025622255
 31
0.0
1001
ACAD
1000
RTMaterial
1005
185D
  0
LINE
  5
1841
100
AcDbEntity
  8
0
  6
CONTINUOUS
 62
           7
100
AcDbLine
 10
162.6648750443
 20
40.5823020631
 30
0.0
 11
162.5633187759
 21
41.7430955383
 31
0.0
1001
ACAD
1000
RTMaterial
1005
185D
  0
LINE
  5
1842
100
AcDbEntity
  8
0
  6
CONTINUOUS
 62
           9
100
AcDbLine
 10
162.458026638
 20
41.9724285915
 30
0.0
 11
162.4570626817
 21
41.9733894014
 31
0.0
1001
ACAD
1000
RTMaterial
1005
185D
  0
LWPOLYLINE
  5
1843
100
AcDbEntity
  8
0
  6
CONTINUOUS
 62
           7
100
AcDbPolyline
 90
       13
 70
           0
 10
162.5574685326
 20
41.7831533787
 10
162.5468979203
 20
41.8237229845
 10
162.5312094474
 20
41.8643081266
 10
162.5112235272
 20
41.9023078615
 10
162.4861721187
 20
41.938877789
 10
162.4578545895
 20
41.9713460835
 10
162.4245866186
 20
42.0014921484
 10
162.3889940119
 20
42.0267974155
 10
162.3507836465
 20
42.0477537557
 10
162.3101452926
 20
42.0642219143
 10
162.2686734327
 20
42.0756604375
 10
162.2267113253
 20
42.0822202329
 10
162.1846458953
 20
42.0839983616
1001
ACAD
1000
RTMaterial
1005
185D
  0
LWPOLYLINE
  5
1844
100
AcDbEntity
  8
0
  6
CONTINUOUS
 62
           9
100
AcDbPolyline
 90
        6
 70
           0
 10
162.5573628801
 20
41.7844597573
 10
162.5571010262
 20
41.7857456062
 10
162.5460308969
 20
41.8273958464
 10
162.5302542107
 20
41.8675007844
 10
162.5099793979
 20
41.9055306005
 10
162.4854743087
 20
41.9409829156
1001
ACAD
1000
RTMaterial
1005
185D
  0
LWPOLYLINE
  5
1845
100
AcDbEntity
  8
0
  6
CONTINUOUS
 62
           7
100
AcDbPolyline
 90
       14
 70
           0
 10
162.5634392845
 20
41.7417181033
 10
162.5573628801
 20
41.7844597573
 10
162.5468240693
 20
41.824958498
 10
162.5311809062
 20
41.8654870349
 10
162.5112486865
 20
41.9034469155
 10
162.4862707466
 20
41.9399766267
 10
162.458026638
 20
41.9724285915
 10
162.42485401
 20
42.0025622255
 10
162.3893630196
 20
42.0278720259
 10
162.3512443349
 20
42.048858988
 10
162.3107107886
 20
42.0653708832
 10
162.2693381231
 20
42.0768728414
 10
162.2274675057
 20
42.0835147489
 10
162.1854842869
 20
42.0853926447
1001
ACAD
1000
RTMaterial
1005
185D
  0
ARC
  5
1850
100
AcDbEntity
  8
0
  6
CONTINUOUS
 62
           7
100
AcDbCircle
 10
148.1648750443
 20
22.6698020631
 30
0.0
 40
0.96875
100
AcDbArc
 50
215.0
 51
340.0
1001
ACAD
1000
RTMaterial
1005
185D
  0
ARC
  5
1851
100
AcDbEntity
  8
0
  6
CONTINUOUS
 62
           7
100
AcDbCircle
 10
135.1648750443
 20
22.6698020631
 30
0.0
 40
0.96875
100
AcDbArc
 50
200.0
 51
325.0
1001
ACAD
1000
RTMaterial
1005
185D
  0
ARC
  5
1852
100
AcDbEntity
  8
0
  6
CONTINUOUS
 62
           7
100
AcDbCircle
 10
140.3934284349
 20
22.8323020631
 30
0.0
 40
0.375
100
AcDbArc
 50
225.0
 51
270.0
1001
ACAD
1000
RTMaterial
1005
185D
  0
ARC
  5
1853
100
AcDbEntity
  8
0
  6
CONTINUOUS
 62
           7
100
AcDbCircle
 10
142.9363216537
 20
22.8323020631
 30
0.0
 40
0.375
100
AcDbArc
 50
270.0
 51
315.0
1001
ACAD
1000
RTMaterial
1005
185D
  0
ENDSEC
  0
SECTION
  2
OBJECTS
  0
DICTIONARY
  5
C
100
AcDbDictionary
280
           0
281
           1
  3
ACAD_COLOR
350
1886
  3
ACAD_GROUP
350
D
  3
ACAD_LAYOUT
350
1A
  3
ACAD_MATERIAL
350
185C
  3
ACAD_MLEADERSTYLE
350
18AB
  3
ACAD_MLINESTYLE
350
17
  3
ACAD_PLOTSETTINGS
350
19
  3
ACAD_SCALELIST
350
1889
  3
ACAD_TABLESTYLE
350
1887
  3
ACAD_VISUALSTYLE
350
1875
  3
ACDB_RECOMPOSE_DATA
350
18B0
  3
ACDBVARIABLEDICTIONARY
350
18F1
  0
DICTIONARY
  5
D
102
{ACAD_REACTORS
330
C
102
}
100
AcDbDictionary
280
           0
281
           1
  0
DICTIONARY
  5
17
102
{ACAD_REACTORS
330
C
102
}
100
AcDbDictionary
280
           0
281
           1
  3
STANDARD
350
18
  0
MLINESTYLE
  5
18
102
{ACAD_REACTORS
330
17
102
}
100
AcDbMlineStyle
  2
Standard
 70
           0
  3

 62
         256
 51
90.0
 52
90.0
 71
           2
 49
0.5
 62
         256
  6
BYLAYER
 49
-0.5
 62
         256
  6
BYLAYER
  0
ACDBDICTIONARYWDFLT
  5
18FB
102
{ACAD_REACTORS
330
C
102
}
100
AcDbDictionary
281
           1
  3
Normal
350
18FA
100
AcDbDictionaryWithDefault
340
18FA
  0
ACDBPLACEHOLDER
  5
18FA
102
{ACAD_REACTORS
330
18FB
102
}
  0
LAYOUT
  5
1858
102
{ACAD_REACTORS
330
1A
102
}
100
AcDbPlotSettings
  1

  2
none_device
  4

  6

 40
0.0
 41
0.0
 42
0.0
 43
0.0
 44
431.8
 45
279.4
 46
0.0
 47
0.0
 48
0.0
 49
0.0
140
0.0
141
0.0
142
1.0
143
1.0
 70
        1024
 72
           0
 73
           0
 74
           0
  7

 75
           0
147
1.0
148
0.0
149
0.0
100
AcDbLayout
  1
Model
 70
           0
 71
           0
 10
0.0
 20
0.0
 11
17.0
 21
11.0
 12
0.0
 22
0.0
 32
0.0
 14
0.0
 24
0.0
 34
0.0
 15
0.0
 25
0.0
 35
0.0
146
0.0
 13
0.0
 23
0.0
 33
0.0
 16
1.0
 26
0.0
 36
0.0
 17
0.0
 27
1.0
 37
0.0
 76
           0
330
21C
331
0
345
0
346
0
  0
LAYOUT
  5
1859
102
{ACAD_REACTORS
330
1A
102
}
100
AcDbPlotSettings
  1

  2
none_device
  4

  6

 40
0.0
 41
0.0
 42
0.0
 43
0.0
 44
431.8
 45
279.4
 46
0.0
 47
0.0
 48
0.0
 49
0.0
140
0.0
141
0.0
142
1.0
143
1.0
 70
           0
 72
           0
 73
           0
 74
           0
  7

 75
           0
147
1.0
148
0.0
149
0.0
100
AcDbLayout
  1
Layout1
 70
           0
 71
           1
 10
0.0
 20
0.0
 11
17.0
 21
11.0
 12
0.0
 22
0.0
 32
0.0
 14
0.0
 24
0.0
 34
0.0
 15
0.0
 25
0.0
 35
0.0
146
0.0
 13
0.0
 23
0.0
 33
0.0
 16
1.0
 26
0.0
 36
0.0
 17
0.0
 27
1.0
 37
0.0
 76
           0
330
21D
331
0
345
0
346
0
  0
DICTIONARY
  5
1A
102
{ACAD_REACTORS
330
C
102
}
100
AcDbDictionary
280
           0
281
           1
  3
LAYOUT1
350
1859
  3
MODEL
350
1858
  0
DICTIONARY
  5
19
102
{ACAD_REACTORS
330
C
102
}
100
AcDbDictionary
280
           0
281
           1
  0
WIPEOUTVARIABLES
  5
18FC
100
AcDbWipeoutVariables
 70
           1
  0
ACDBDICTIONARYWDFLT
  5
E
102
{ACAD_REACTORS
330
C
102
}
100
AcDbDictionary
281
           1
  3
NORMAL
350
F
100
AcDbDictionaryWithDefault
340
F
  0
ACDBPLACEHOLDER
  5
F
102
{ACAD_REACTORS
330
E
102
}
  0
DICTIONARY
  5
185C
102
{ACAD_REACTORS
330
C
102
}
100
AcDbDictionary
280
           0
281
           1
  3
BYBLOCK
350
1865
  3
BYLAYER
350
185D
  3
GLOBAL
350
186D
  0
ACAD_PROXY_OBJECT
  5
185D
102
{ACAD_REACTORS
330
185C
102
}
330
185C
100
AcDbProxyObject
 90
      499
 91
      503
 95
        0
 70
           0
 93
     1340
310
42109E53185E595C802004014080404555555555555953FAA155555555555654FEA9AA400014080404555555555555953FAA155555555555654FEA9AA400000000000000E03F4080404555555555555953FAA155555555555654FEA9AA4014080404555555555555953FAA155555555555654FEA9AA4010201011555555555
310
55654FEA8555555555555953FAA6A9005020101155555555555654FEA8555555555555953FAA6A9000
 94
        0
  0
DICTIONARY
  5
185E
100
AcDbDictionary
280
           0
281
           1
  3
ACAD_XREC_ROUNDTRIP
350
18ED
  3
BUMPTILE
350
1860
  3
DIFFUSETILE
350
185F
  3
OPACITYTILE
350
1863
  3
REFLECTIONTILE
350
1862
  3
REFRACTIONTILE
350
1864
  3
SPECULARTILE
350
1861
  0
XRECORD
  5
185F
102
{ACAD_REACTORS
330
185E
102
}
100
AcDbXrecord
280
           0
  0
XRECORD
  5
1860
102
{ACAD_REACTORS
330
185E
102
}
100
AcDbXrecord
280
           0
  0
XRECORD
  5
1861
102
{ACAD_REACTORS
330
185E
102
}
100
AcDbXrecord
280
           0
  0
XRECORD
  5
1862
102
{ACAD_REACTORS
330
185E
102
}
100
AcDbXrecord
280
           0
  0
XRECORD
  5
1863
102
{ACAD_REACTORS
330
185E
102
}
100
AcDbXrecord
280
           0
  0
XRECORD
  5
1864
102
{ACAD_REACTORS
330
185E
102
}
100
AcDbXrecord
280
           0
  0
ACAD_PROXY_OBJECT
  5
1865
102
{ACAD_REACTORS
330
185C
102
}
330
185C
100
AcDbProxyObject
 90
      499
 91
      503
 95
        0
 70
           0
 93
     1340
310
42109E509B1BD8DAC02004014080404555555555555953FAA155555555555654FEA9AA400014080404555555555555953FAA155555555555654FEA9AA400000000000000E03F4080404555555555555953FAA155555555555654FEA9AA4014080404555555555555953FAA155555555555654FEA9AA4010201011555555555
310
55654FEA8555555555555953FAA6A9005020101155555555555654FEA8555555555555953FAA6A9000
 94
        0
  0
DICTIONARY
  5
1866
100
AcDbDictionary
280
           0
281
           1
  3
ACAD_XREC_ROUNDTRIP
350
18EE
  3
BUMPTILE
350
1868
  3
DIFFUSETILE
350
1867
  3
OPACITYTILE
350
186B
  3
REFLECTIONTILE
350
186A
  3
REFRACTIONTILE
350
186C
  3
SPECULARTILE
350
1869
  0
XRECORD
  5
1867
102
{ACAD_REACTORS
330
1866
102
}
100
AcDbXrecord
280
           0
  0
XRECORD
  5
1868
102
{ACAD_REACTORS
330
1866
102
}
100
AcDbXrecord
280
           0
  0
XRECORD
  5
1869
102
{ACAD_REACTORS
330
1866
102
}
100
AcDbXrecord
280
           0
  0
XRECORD
  5
186A
102
{ACAD_REACTORS
330
1866
102
}
100
AcDbXrecord
280
           0
  0
XRECORD
  5
186B
102
{ACAD_REACTORS
330
1866
102
}
100
AcDbXrecord
280
           0
  0
XRECORD
  5
186C
102
{ACAD_REACTORS
330
1866
102
}
100
AcDbXrecord
280
           0
  0
ACAD_PROXY_OBJECT
  5
186D
102
{ACAD_REACTORS
330
185C
102
}
330
185C
100
AcDbProxyObject
 90
      499
 91
      503
 95
        0
 70
           0
 93
     1332
310
41D1DB1BD8985B002004014080404555555555555953FAA155555555555654FEA9AA400014080404555555555555953FAA155555555555654FEA9AA400000000000000E03F4080404555555555555953FAA155555555555654FEA9AA4014080404555555555555953FAA155555555555654FEA9AA401020101155555555555
310
654FEA8555555555555953FAA6A9005020101155555555555654FEA8555555555555953FAA6A9000
 94
        0
  0
DICTIONARY
  5
186E
100
AcDbDictionary
280
           0
281
           1
  3
ACAD_XREC_ROUNDTRIP
350
18EF
  3
BUMPTILE
350
1870
  3
DIFFUSETILE
350
186F
  3
OPACITYTILE
350
1873
  3
REFLECTIONTILE
350
1872
  3
REFRACTIONTILE
350
1874
  3
SPECULARTILE
350
1871
  0
XRECORD
  5
186F
102
{ACAD_REACTORS
330
186E
102
}
100
AcDbXrecord
280
           0
  0
XRECORD
  5
1870
102
{ACAD_REACTORS
330
186E
102
}
100
AcDbXrecord
280
           0
  0
XRECORD
  5
1871
102
{ACAD_REACTORS
330
186E
102
}
100
AcDbXrecord
280
           0
  0
XRECORD
  5
1872
102
{ACAD_REACTORS
330
186E
102
}
100
AcDbXrecord
280
           0
  0
XRECORD
  5
1873
102
{ACAD_REACTORS
330
186E
102
}
100
AcDbXrecord
280
           0
  0
XRECORD
  5
1874
102
{ACAD_REACTORS
330
186E
102
}
100
AcDbXrecord
280
           0
  0
DICTIONARY
  5
1875
102
{ACAD_REACTORS
330
C
102
}
100
AcDbDictionary
280
           0
281
           1
  3
2DWIREFRAME
350
187B
  3
3D HIDDEN
350
187D
  3
3DWIREFRAME
350
187C
  3
BASIC
350
187A
  3
BRIGHTEN
350
1881
  3
COLORCHANGE
350
1885
  3
CONCEPTUAL
350
187E
  3
DIM
350
1880
  3
FACEPATTERN
350
1884
  3
FLAT
350
1876
  3
FLATWITHEDGES
350
1877
  3
GOURAUD
350
1878
  3
GOURAUDWITHEDGES
350
1879
  3
LINEPATTERN
350
1883
  3
REALISTIC
350
187F
  3
THICKEN
350
1882
  0
ACAD_PROXY_OBJECT
  5
1876
102
{ACAD_REACTORS
330
1875
102
}
330
1875
100
AcDbProxyObject
 90
      499
 91
      504
 95
        0
 70
           0
 93
      396
310
41519B185D00240901404333333333333E3BF0000000000000F9010740A41107004050150841D405064090741402480A1B50
 94
        0
1001
ACAD
1000
AcDbSavedByObjectVersion
1070
           0
  0
ACAD_PROXY_OBJECT
  5
1877
102
{ACAD_REACTORS
330
1875
102
}
330
1875
100
AcDbProxyObject
 90
      499
 91
      504
 95
        0
 70
           0
 93
      484
310
43919B185D15DA5D1A115919D95CC010140901404333333333333E3BF0000000000000F9010740901411070040501600405405064090741402480A1B50
 94
        0
1001
ACAD
1000
AcDbSavedByObjectVersion
1070
           0
  0
ACAD_PROXY_OBJECT
  5
1878
102
{ACAD_REACTORS
330
1875
102
}
330
1875
100
AcDbProxyObject
 90
      499
 91
      504
 95
        0
 70
           0
 93
      420
310
4211DBDD5C985D590010240902404333333333333E3BF0000000000000F9010740A411070040501641D405064090741402480A1B50
 94
        0
1001
ACAD
1000
AcDbSavedByObjectVersion
1070
           0
  0
ACAD_PROXY_OBJECT
  5
1879
102
{ACAD_REACTORS
330
1875
102
}
330
1875
100
AcDbProxyObject
 90
      499
 91
      504
 95
        0
 70
           0
 93
      508
310
4451DBDD5C985D5915DA5D1A115919D95CC010340902404333333333333E3BF0000000000000F9010740901411070040501600405405064090741402480A1B50
 94
        0
1001
ACAD
1000
AcDbSavedByObjectVersion
1070
           0
  0
ACAD_PROXY_OBJECT
  5
187A
102
{ACAD_REACTORS
330
1875
102
}
330
1875
100
AcDbProxyObject
 90
      499
 91
      504
 95
        0
 70
           0
 93
      396
310
4190985CDA58C0107406404333333333333E3BF0000000000000FB0107A41107004050150841D405064090741402480A0350
 94
        0
1001
ACAD
1000
AcDbSavedByObjectVersion
1070
           0
  0
ACAD_PROXY_OBJECT
  5
187B
102
{ACAD_REACTORS
330
1875
102
}
330
1875
100
AcDbProxyObject
 90
      499
 91
      504
 95
        0
 70
           0
 93
      444
310
430C9915DA5C99599C985B59401049028333333333333E3BF0000000000000FB0107901411070040501600405405064090741402480A0340
 94
        0
1001
ACAD
1000
AcDbSavedByObjectVersion
1070
           0
  0
ACAD_PROXY_OBJECT
  5
187C
102
{ACAD_REACTORS
330
1875
102
}
330
1875
100
AcDbProxyObject
 90
      499
 91
      504
 95
        0
 70
           0
 93
      444
310
430CD915DA5C99599C985B59401059028333333333333E3BF0000000000000FB0107901411070040501600405405064090741402480A0340
 94
        0
1001
ACAD
1000
AcDbSavedByObjectVersion
1070
           0
  0
ACAD_PROXY_OBJECT
  5
187D
102
{ACAD_REACTORS
330
1875
102
}
330
1875
100
AcDbProxyObject
 90
      499
 91
      504
 95
        0
 70
           0
 93
      508
310
428CD108121A5919195B8010640502408333333333333E3BF0000000000000FB01079024090700405020000000000001110200405405064090740C02480A0340
 94
        0
1001
ACAD
1000
AcDbSavedByObjectVersion
1070
           0
  0
ACAD_PROXY_OBJECT
  5
187E
102
{ACAD_REACTORS
330
1875
102
}
330
1875
100
AcDbProxyObject
 90
      499
 91
      504
 95
        0
 70
           0
 93
      508
310
42D0DBDB98D95C1D1D585B0010940D028333333333333E3BF0000000000000FB0107902409070040501000000000000111010841D405064090740C02480A0340
 94
        0
1001
ACAD
1000
AcDbSavedByObjectVersion
1070
           0
  0
ACAD_PROXY_OBJECT
  5
187F
102
{ACAD_REACTORS
330
1875
102
}
330
1875
100
AcDbProxyObject
 90
      499
 91
      504
 95
        0
 70
           0
 93
      428
310
429499585B1A5CDD1A58C0108409028333333333333E3BF0000000000000FB01079019070040501508421405064090741402480A1B40
 94
        0
1001
ACAD
1000
AcDbSavedByObjectVersion
1070
           0
  0
ACAD_PROXY_OBJECT
  5
1880
102
{ACAD_REACTORS
330
1875
102
}
330
1875
100
AcDbProxyObject
 90
      499
 91
      504
 95
        0
 70
           0
 93
      420
310
41111A5B4010B409028333333333333E3BF0000000000000FB010790141107004050150841D405064090741402480A02677FFFFFD0
 94
        0
1001
ACAD
1000
AcDbSavedByObjectVersion
1070
           0
  0
ACAD_PROXY_OBJECT
  5
1881
102
{ACAD_REACTORS
330
1875
102
}
330
1875
100
AcDbProxyObject
 90
      499
 91
      504
 95
        0
 70
           0
 93
      436
310
42509C9A59DA1D195B8010C409028333333333333E3BF0000000000000FB010790141107004050150841D405064090741402480A029950
 94
        0
1001
ACAD
1000
AcDbSavedByObjectVersion
1070
           0
  0
ACAD_PROXY_OBJECT
  5
1882
102
{ACAD_REACTORS
330
1875
102
}
330
1875
100
AcDbProxyObject
 90
      499
 91
      504
 95
        0
 70
           0
 93
      420
310
42151A1A58DAD95B8010D409028333333333333E3BF0000000000000FB010790141107004050150C41D405064090741402480A0350
 94
        0
1001
ACAD
1000
AcDbSavedByObjectVersion
1070
           0
  0
ACAD_PROXY_OBJECT
  5
1883
102
{ACAD_REACTORS
330
1875
102
}
330
1875
100
AcDbProxyObject
 90
      499
 91
      504
 95
        0
 70
           0
 93
      452
310
43131A5B995C185D1D195C9B8010E409028333333333333E3BF0000000000000FB010790141107004050750841D405064090741402483A0350
 94
        0
1001
ACAD
1000
AcDbSavedByObjectVersion
1070
           0
  0
ACAD_PROXY_OBJECT
  5
1884
102
{ACAD_REACTORS
330
1875
102
}
330
1875
100
AcDbProxyObject
 90
      499
 91
      504
 95
        0
 70
           0
 93
      452
310
43119858D95C185D1D195C9B8010F409028333333333333E3BF0000000000000FB010790141107004050150841D405064090741402480A0350
 94
        0
1001
ACAD
1000
AcDbSavedByObjectVersion
1070
           0
  0
ACAD_PROXY_OBJECT
  5
1885
102
{ACAD_REACTORS
330
1875
102
}
330
1875
100
AcDbProxyObject
 90
      499
 91
      504
 95
        0
 70
           0
 93
      460
310
4310DBDB1BDC90DA185B99D9401104090240C333333333333E3BF0000000000000FB0108901411070040501508421405064090741402480A0350
 94
        0
1001
ACAD
1000
AcDbSavedByObjectVersion
1070
           0
  0
DICTIONARY
  5
1886
102
{ACAD_REACTORS
330
C
102
}
100
AcDbDictionary
280
           0
281
           1
  0
DICTIONARY
  5
1887
102
{ACAD_REACTORS
330
C
102
}
100
AcDbDictionary
280
           0
281
           1
  3
STANDARD
350
1888
  0
ACAD_PROXY_OBJECT
  5
1888
102
{ACAD_REACTORS
330
1887
102
}
330
1887
100
AcDbProxyObject
 90
      499
 91
      505
 95
        0
 70
           0
 93
     1849
310
4254DD185B99185C990028B81E85EB51B8AE3F2E07A17AD46E2B8FC02B5E8DC0F42B1CFD028000000C1008070000C3001FDFF8000000C1003FBFF000000182007F7FE00000030400FEFFC00000060801FDFF8000000C1003FBFF00000018200000000000000681FA0B0000001820100E000186003FBFF000000182007F7FE0
310
0000030400FEFFC00000060801FDFF8000000C1003FBFF000000182007F7FE000000304000AD7A3703D0AC73F4160000003040201C00030C007F7FE00000030400FEFFC00000060801FDFF8000000C1003FBFF000000182007F7FE00000030400FEFFC000000608000
340
11
340
11
340
11
 94
        0
  0
DICTIONARY
  5
1889
102
{ACAD_REACTORS
330
C
102
}
100
AcDbDictionary
280
           0
281
           1
  3
A0
350
188A
  3
A1
350
188B
  3
A2
350
188C
  3
A3
350
188D
  3
A4
350
188E
  3
A5
350
188F
  3
A6
350
1890
  3
A7
350
1891
  3
A8
350
1892
  3
A9
350
1893
  3
B0
350
1894
  3
B1
350
1895
  3
B2
350
1896
  3
B3
350
1897
  3
B4
350
1898
  3
B5
350
1899
  3
B6
350
189A
  3
B7
350
189B
  3
B8
350
189C
  3
B9
350
189D
  3
C0
350
189E
  3
C1
350
189F
  3
C2
350
18A0
  3
C3
350
18A1
  3
C4
350
18A2
  3
C5
350
18A3
  3
C6
350
18A4
  3
C7
350
18A5
  3
C8
350
18A6
  3
C9
350
18A7
  3
D0
350
18A8
  3
D1
350
18A9
  3
D2
350
18AA
  0
ACAD_PROXY_OBJECT
  5
188A
102
{ACAD_REACTORS
330
1889
102
}
330
1889
100
AcDbProxyObject
 90
      499
 91
      506
 95
        0
 70
           0
 93
       49
310
904313A3100580
 94
        0
  0
ACAD_PROXY_OBJECT
  5
188B
102
{ACAD_REACTORS
330
1889
102
}
330
1889
100
AcDbProxyObject
 90
      499
 91
      506
 95
        0
 70
           0
 93
      113
310
904313A32004000000000000004000
 94
        0
  0
ACAD_PROXY_OBJECT
  5
188C
102
{ACAD_REACTORS
330
1889
102
}
330
1889
100
AcDbProxyObject
 90
      499
 91
      506
 95
        0
 70
           0
 93
      113
310
904313A34004000000000000104000
 94
        0
  0
ACAD_PROXY_OBJECT
  5
188D
102
{ACAD_REACTORS
330
1889
102
}
330
1889
100
AcDbProxyObject
 90
      499
 91
      506
 95
        0
 70
           0
 93
      113
310
904313A35004000000000000144000
 94
        0
  0
ACAD_PROXY_OBJECT
  5
188E
102
{ACAD_REACTORS
330
1889
102
}
330
1889
100
AcDbProxyObject
 90
      499
 91
      506
 95
        0
 70
           0
 93
      113
310
904313A38004000000000000204000
 94
        0
  0
ACAD_PROXY_OBJECT
  5
188F
102
{ACAD_REACTORS
330
1889
102
}
330
1889
100
AcDbProxyObject
 90
      499
 91
      506
 95
        0
 70
           0
 93
      121
310
905313A3130004000000000000244000
 94
        0
  0
ACAD_PROXY_OBJECT
  5
1890
102
{ACAD_REACTORS
330
1889
102
}
330
1889
100
AcDbProxyObject
 90
      499
 91
      506
 95
        0
 70
           0
 93
      121
310
905313A3136004000000000000304000
 94
        0
  0
ACAD_PROXY_OBJECT
  5
1891
102
{ACAD_REACTORS
330
1889
102
}
330
1889
100
AcDbProxyObject
 90
      499
 91
      506
 95
        0
 70
           0
 93
      121
310
905313A3230004000000000000344000
 94
        0
  0
ACAD_PROXY_OBJECT
  5
1892
102
{ACAD_REACTORS
330
1889
102
}
330
1889
100
AcDbProxyObject
 90
      499
 91
      506
 95
        0
 70
           0
 93
      121
310
905313A33300040000000000003E4000
 94
        0
  0
ACAD_PROXY_OBJECT
  5
1893
102
{ACAD_REACTORS
330
1889
102
}
330
1889
100
AcDbProxyObject
 90
      499
 91
      506
 95
        0
 70
           0
 93
      121
310
905313A3430004000000000000444000
 94
        0
  0
ACAD_PROXY_OBJECT
  5
1894
102
{ACAD_REACTORS
330
1889
102
}
330
1889
100
AcDbProxyObject
 90
      499
 91
      506
 95
        0
 70
           0
 93
      121
310
905313A3530004000000000000494000
 94
        0
  0
ACAD_PROXY_OBJECT
  5
1895
102
{ACAD_REACTORS
330
1889
102
}
330
1889
100
AcDbProxyObject
 90
      499
 91
      506
 95
        0
 70
           0
 93
      129
310
906313A313030004000000000000594000
 94
        0
  0
ACAD_PROXY_OBJECT
  5
1896
102
{ACAD_REACTORS
330
1889
102
}
330
1889
100
AcDbProxyObject
 90
      499
 91
      506
 95
        0
 70
           0
 93
      113
310
904323A31000000000000000010100
 94
        0
  0
ACAD_PROXY_OBJECT
  5
1897
102
{ACAD_REACTORS
330
1889
102
}
330
1889
100
AcDbProxyObject
 90
      499
 91
      506
 95
        0
 70
           0
 93
      113
310
904343A31000000000000000410100
 94
        0
  0
ACAD_PROXY_OBJECT
  5
1898
102
{ACAD_REACTORS
330
1889
102
}
330
1889
100
AcDbProxyObject
 90
      499
 91
      506
 95
        0
 70
           0
 93
      113
310
904383A31000000000000000810100
 94
        0
  0
ACAD_PROXY_OBJECT
  5
1899
102
{ACAD_REACTORS
330
1889
102
}
330
1889
100
AcDbProxyObject
 90
      499
 91
      506
 95
        0
 70
           0
 93
      121
310
90531303A31000000000000000910100
 94
        0
  0
ACAD_PROXY_OBJECT
  5
189A
102
{ACAD_REACTORS
330
1889
102
}
330
1889
100
AcDbProxyObject
 90
      499
 91
      506
 95
        0
 70
           0
 93
      129
310
9063130303A31000000000000001650100
 94
        0
  0
ACAD_PROXY_OBJECT
  5
189B
102
{ACAD_REACTORS
330
1889
102
}
330
1889
100
AcDbProxyObject
 90
      499
 91
      506
 95
        0
 70
           0
 93
      265
310
90F312F31323822203D2031272D302200000000000000200FC000000000000284000
 94
        0
  0
ACAD_PROXY_OBJECT
  5
189C
102
{ACAD_REACTORS
330
1889
102
}
330
1889
100
AcDbProxyObject
 90
      499
 91
      506
 95
        0
 70
           0
 93
      257
310
90E312F363422203D2031272D302200000000000000240FC000000000000284000
 94
        0
  0
ACAD_PROXY_OBJECT
  5
189D
102
{ACAD_REACTORS
330
1889
102
}
330
1889
100
AcDbProxyObject
 90
      499
 91
      506
 95
        0
 70
           0
 93
      257
310
90E312F333222203D2031272D302200000000000000280FC000000000000284000
 94
        0
  0
ACAD_PROXY_OBJECT
  5
189E
102
{ACAD_REACTORS
330
1889
102
}
330
1889
100
AcDbProxyObject
 90
      499
 91
      506
 95
        0
 70
           0
 93
      257
310
90E312F313622203D2031272D3022000000000000002C0FC000000000000284000
 94
        0
  0
ACAD_PROXY_OBJECT
  5
189F
102
{ACAD_REACTORS
330
1889
102
}
330
1889
100
AcDbProxyObject
 90
      499
 91
      506
 95
        0
 70
           0
 93
      257
310
90E332F333222203D2031272D3022000000000000002E0FC000000000000284000
 94
        0
  0
ACAD_PROXY_OBJECT
  5
18A0
102
{ACAD_REACTORS
330
1889
102
}
330
1889
100
AcDbProxyObject
 90
      499
 91
      506
 95
        0
 70
           0
 93
      249
310
90D312F3822203D2031272D302200000000000000300FC000000000000284000
 94
        0
  0
ACAD_PROXY_OBJECT
  5
18A1
102
{ACAD_REACTORS
330
1889
102
}
330
1889
100
AcDbProxyObject
 90
      499
 91
      506
 95
        0
 70
           0
 93
      257
310
90E332F313622203D2031272D302200000000000000320FC000000000000284000
 94
        0
  0
ACAD_PROXY_OBJECT
  5
18A2
102
{ACAD_REACTORS
330
1889
102
}
330
1889
100
AcDbProxyObject
 90
      499
 91
      506
 95
        0
 70
           0
 93
      249
310
90D312F3422203D2031272D302200000000000000340FC000000000000284000
 94
        0
  0
ACAD_PROXY_OBJECT
  5
18A3
102
{ACAD_REACTORS
330
1889
102
}
330
1889
100
AcDbProxyObject
 90
      499
 91
      506
 95
        0
 70
           0
 93
      249
310
90D332F3822203D2031272D302200000000000000360FC000000000000284000
 94
        0
  0
ACAD_PROXY_OBJECT
  5
18A4
102
{ACAD_REACTORS
330
1889
102
}
330
1889
100
AcDbProxyObject
 90
      499
 91
      506
 95
        0
 70
           0
 93
      249
310
90D312F3222203D2031272D302200000000000000380FC000000000000284000
 94
        0
  0
ACAD_PROXY_OBJECT
  5
18A5
102
{ACAD_REACTORS
330
1889
102
}
330
1889
100
AcDbProxyObject
 90
      499
 91
      506
 95
        0
 70
           0
 93
      249
310
90D332F3422203D2031272D3022000000000000003A0FC000000000000284000
 94
        0
  0
ACAD_PROXY_OBJECT
  5
18A6
102
{ACAD_REACTORS
330
1889
102
}
330
1889
100
AcDbProxyObject
 90
      499
 91
      506
 95
        0
 70
           0
 93
      169
310
90B3122203D2031272D3022004000000000000284000
 94
        0
  0
ACAD_PROXY_OBJECT
  5
18A7
102
{ACAD_REACTORS
330
1889
102
}
330
1889
100
AcDbProxyObject
 90
      499
 91
      506
 95
        0
 70
           0
 93
      265
310
90F312D312F3222203D2031272D3022000000000000003E0FC000000000000284000
 94
        0
  0
ACAD_PROXY_OBJECT
  5
18A8
102
{ACAD_REACTORS
330
1889
102
}
330
1889
100
AcDbProxyObject
 90
      499
 91
      506
 95
        0
 70
           0
 93
      233
310
90B3322203D2031272D30220000000000000002100000000000000284000
 94
        0
  0
ACAD_PROXY_OBJECT
  5
18A9
102
{ACAD_REACTORS
330
1889
102
}
330
1889
100
AcDbProxyObject
 90
      499
 91
      506
 95
        0
 70
           0
 93
      233
310
90B3622203D2031272D30220000000000000006100000000000000284000
 94
        0
  0
ACAD_PROXY_OBJECT
  5
18AA
102
{ACAD_REACTORS
330
1889
102
}
330
1889
100
AcDbProxyObject
 90
      499
 91
      506
 95
        0
 70
           0
 93
      257
310
90E31272D3022203D2031272D3022000000000000000A100000000000000284000
 94
        0
  0
DICTIONARY
  5
18AB
102
{ACAD_REACTORS
330
C
102
}
100
AcDbDictionary
280
           0
281
           1
  3
STANDARD
350
18AC
  0
ACAD_PROXY_OBJECT
  5
18AC
102
{ACAD_REACTORS
330
18AB
102
}
330
18AB
100
AcDbProxyObject
 90
      499
 91
      507
 95
        0
 70
           0
 93
      618
310
40901902A4063FBFFFFFE056BD1B81E855B9FC0AD7A3703D0AD73F4254DD185B99185C990000AD7A3703D0AC73F90141901A02B5E8DC0F42B1CFC02B5E8DC0F42B1CFE5764000000000000300FC0
340
14
340
18FA
340
11
340
18FB
 94
        0
1001
ACAD_MLEADERVER
1070
           2
  0
DICTIONARY
  5
18AE
100
AcDbDictionary
280
           0
281
           1
  3
ACAD_ROUNDTRIP_2008_TABLESTYLE_CELLSTYLEMAP
350
18AF
  3
ACAD_XREC_ROUNDTRIP
350
18F0
  0
ACAD_PROXY_OBJECT
  5
18AF
102
{ACAD_REACTORS
330
18AE
102
}
330
18AE
100
AcDbProxyObject
 90
      499
 91
      508
 95
        0
 70
           0
 93
     1044
310
40D054060020000020000003200101A000080002A5058000000C100000000000000340FE901405075F5449544C450041501A8000000C800406800020000A9416000000304000AD7A3703D0AC73FA409014217D2115051115480105406A0000003200101A000080002A5028000000C10002B5E8DC0F42B1CFE903409065F444
310
15441000
340
11
340
11
340
11
 94
        0
  0
XRECORD
  5
18B0
102
{ACAD_REACTORS
330
C
102
}
100
AcDbXrecord
280
           0
 90
        1
330
1888
  0
DICTIONARY
  5
18B1
100
AcDbDictionary
280
           0
281
           1
  3
ACAD_XREC_ROUNDTRIP
350
18B2
  0
XRECORD
  5
18B2
102
{ACAD_REACTORS
330
18B1
102
}
100
AcDbXrecord
280
           0
102
VTR_0.000_0.000_1.000_1.000_VISUALSTYLE
340
7B18000000000000
102
VTR_0.000_0.000_1.000_1.000_GRIDDISPLAY
 70
           3
102
VTR_0.000_0.000_1.000_1.000_GRIDMAJOR
 70
           5
102
VTR_0.000_0.000_1.000_1.000_DEFAULTLIGHTING
  0
DICTIONARY
  5
18B3
100
AcDbDictionary
280
           0
281
           1
  3
ACAD_XREC_ROUNDTRIP
350
18B4
  0
XRECORD
  5
18B4
102
{ACAD_REACTORS
330
18B3
102
}
100
AcDbXrecord
280
           0
102
MATERIAL
340
6D18000000000000
  0
DICTIONARY
  5
18B5
100
AcDbDictionary
280
           0
281
           1
  3
ACAD_XREC_ROUNDTRIP
350
18B6
  0
XRECORD
  5
18B6
102
{ACAD_REACTORS
330
18B5
102
}
100
AcDbXrecord
280
           0
102
MATERIAL
340
6D18000000000000
  0
DICTIONARY
  5
18B7
100
AcDbDictionary
280
           0
281
           1
  3
ACAD_XREC_ROUNDTRIP
350
18B8
  0
XRECORD
  5
18B8
102
{ACAD_REACTORS
330
18B7
102
}
100
AcDbXrecord
280
           0
102
MATERIAL
340
6D18000000000000
  0
DICTIONARY
  5
18B9
100
AcDbDictionary
280
           0
281
           1
  3
ACAD_XREC_ROUNDTRIP
350
18BA
  0
XRECORD
  5
18BA
102
{ACAD_REACTORS
330
18B9
102
}
100
AcDbXrecord
280
           0
102
MATERIAL
340
6D18000000000000
  0
DICTIONARY
  5
18BB
100
AcDbDictionary
280
           0
281
           1
  3
ACAD_XREC_ROUNDTRIP
350
18BC
  0
XRECORD
  5
18BC
102
{ACAD_REACTORS
330
18BB
102
}
100
AcDbXrecord
280
           0
102
MATERIAL
340
6D18000000000000
  0
DICTIONARY
  5
18BD
100
AcDbDictionary
280
           0
281
           1
  3
ACAD_XREC_ROUNDTRIP
350
18BE
  0
XRECORD
  5
18BE
102
{ACAD_REACTORS
330
18BD
102
}
100
AcDbXrecord
280
           0
102
MATERIAL
340
6D18000000000000
  0
DICTIONARY
  5
18BF
100
AcDbDictionary
280
           0
281
           1
  3
ACAD_XREC_ROUNDTRIP
350
18C0
  0
XRECORD
  5
18C0
102
{ACAD_REACTORS
330
18BF
102
}
100
AcDbXrecord
280
           0
102
MATERIAL
340
6D18000000000000
  0
DICTIONARY
  5
18C1
100
AcDbDictionary
280
           0
281
           1
  3
ACAD_XREC_ROUNDTRIP
350
18C2
  0
XRECORD
  5
18C2
102
{ACAD_REACTORS
330
18C1
102
}
100
AcDbXrecord
280
           0
102
MATERIAL
340
6D18000000000000
  0
DICTIONARY
  5
18C3
100
AcDbDictionary
280
           0
281
           1
  3
ACAD_XREC_ROUNDTRIP
350
18C4
  0
XRECORD
  5
18C4
102
{ACAD_REACTORS
330
18C3
102
}
100
AcDbXrecord
280
           0
102
MATERIAL
340
6D18000000000000
  0
DICTIONARY
  5
18C5
100
AcDbDictionary
280
           0
281
           1
  3
ACAD_XREC_ROUNDTRIP
350
18C6
  0
XRECORD
  5
18C6
102
{ACAD_REACTORS
330
18C5
102
}
100
AcDbXrecord
280
           0
102
MATERIAL
340
6D18000000000000
  0
DICTIONARY
  5
18C7
100
AcDbDictionary
280
           0
281
           1
  3
ACAD_XREC_ROUNDTRIP
350
18C8
  0
XRECORD
  5
18C8
102
{ACAD_REACTORS
330
18C7
102
}
100
AcDbXrecord
280
           0
102
MATERIAL
340
6D18000000000000
  0
DICTIONARY
  5
18C9
100
AcDbDictionary
280
           0
281
           1
  3
ACAD_XREC_ROUNDTRIP
350
18CA
  0
XRECORD
  5
18CA
102
{ACAD_REACTORS
330
18C9
102
}
100
AcDbXrecord
280
           0
102
MATERIAL
340
6D18000000000000
  0
DICTIONARY
  5
18CB
100
AcDbDictionary
280
           0
281
           1
  3
ACAD_XREC_ROUNDTRIP
350
18CC
  0
XRECORD
  5
18CC
102
{ACAD_REACTORS
330
18CB
102
}
100
AcDbXrecord
280
           0
102
MATERIAL
340
6D18000000000000
  0
DICTIONARY
  5
18CD
100
AcDbDictionary
280
           0
281
           1
  3
ACAD_XREC_ROUNDTRIP
350
18CE
  0
XRECORD
  5
18CE
102
{ACAD_REACTORS
330
18CD
102
}
100
AcDbXrecord
280
           0
102
MATERIAL
340
6D18000000000000
  0
DICTIONARY
  5
18CF
100
AcDbDictionary
280
           0
281
           1
  3
ACAD_XREC_ROUNDTRIP
350
18D0
  0
XRECORD
  5
18D0
102
{ACAD_REACTORS
330
18CF
102
}
100
AcDbXrecord
280
           0
102
MATERIAL
340
6D18000000000000
  0
DICTIONARY
  5
18D1
100
AcDbDictionary
280
           0
281
           1
  3
ACAD_XREC_ROUNDTRIP
350
18D2
  0
XRECORD
  5
18D2
102
{ACAD_REACTORS
330
18D1
102
}
100
AcDbXrecord
280
           0
102
MATERIAL
340
6D18000000000000
  0
DICTIONARY
  5
18D3
100
AcDbDictionary
280
           0
281
           1
  3
ACAD_XREC_ROUNDTRIP
350
18D4
  0
XRECORD
  5
18D4
102
{ACAD_REACTORS
330
18D3
102
}
100
AcDbXrecord
280
           0
102
MATERIAL
340
6D18000000000000
  0
DICTIONARY
  5
18D5
100
AcDbDictionary
280
           0
281
           1
  3
ACAD_XREC_ROUNDTRIP
350
18D6
  0
XRECORD
  5
18D6
102
{ACAD_REACTORS
330
18D5
102
}
100
AcDbXrecord
280
           0
102
MATERIAL
340
6D18000000000000
  0
DICTIONARY
  5
18D7
100
AcDbDictionary
280
           0
281
           1
  3
ACAD_XREC_ROUNDTRIP
350
18D8
  0
XRECORD
  5
18D8
102
{ACAD_REACTORS
330
18D7
102
}
100
AcDbXrecord
280
           0
102
MATERIAL
340
6D18000000000000
  0
DICTIONARY
  5
18D9
100
AcDbDictionary
280
           0
281
           1
  3
ACAD_XREC_ROUNDTRIP
350
18DA
  0
XRECORD
  5
18DA
102
{ACAD_REACTORS
330
18D9
102
}
100
AcDbXrecord
280
           0
102
MATERIAL
340
6D18000000000000
  0
DICTIONARY
  5
18DB
100
AcDbDictionary
280
           0
281
           1
  3
ACAD_XREC_ROUNDTRIP
350
18DC
  0
XRECORD
  5
18DC
102
{ACAD_REACTORS
330
18DB
102
}
100
AcDbXrecord
280
           0
102
MATERIAL
340
6D18000000000000
  0
DICTIONARY
  5
18DD
100
AcDbDictionary
280
           0
281
           1
  3
ACAD_XREC_ROUNDTRIP
350
18DE
  0
XRECORD
  5
18DE
102
{ACAD_REACTORS
330
18DD
102
}
100
AcDbXrecord
280
           0
102
MATERIAL
340
6D18000000000000
  0
DICTIONARY
  5
18DF
100
AcDbDictionary
280
           0
281
           1
  3
ACAD_XREC_ROUNDTRIP
350
18E0
  0
XRECORD
  5
18E0
102
{ACAD_REACTORS
330
18DF
102
}
100
AcDbXrecord
280
           0
102
MATERIAL
340
6D18000000000000
  0
DICTIONARY
  5
18E1
100
AcDbDictionary
280
           0
281
           1
  3
ACAD_XREC_ROUNDTRIP
350
18E2
  0
XRECORD
  5
18E2
102
{ACAD_REACTORS
330
18E1
102
}
100
AcDbXrecord
280
           0
102
MATERIAL
340
6D18000000000000
  0
DICTIONARY
  5
18E3
100
AcDbDictionary
280
           0
281
           1
  3
ACAD_XREC_ROUNDTRIP
350
18E4
  0
XRECORD
  5
18E4
102
{ACAD_REACTORS
330
18E3
102
}
100
AcDbXrecord
280
           0
102
MATERIAL
340
6D18000000000000
  0
DICTIONARY
  5
18E5
100
AcDbDictionary
280
           0
281
           1
  3
ACAD_XREC_ROUNDTRIP
350
18E6
  0
XRECORD
  5
18E6
102
{ACAD_REACTORS
330
18E5
102
}
100
AcDbXrecord
280
           0
102
MATERIAL
340
6D18000000000000
  0
DICTIONARY
  5
18E7
100
AcDbDictionary
280
           0
281
           1
  3
ACAD_XREC_ROUNDTRIP
350
18E8
  0
XRECORD
  5
18E8
102
{ACAD_REACTORS
330
18E7
102
}
100
AcDbXrecord
280
           0
102
MATERIAL
340
6D18000000000000
  0
DICTIONARY
  5
18E9
100
AcDbDictionary
280
           0
281
           1
  3
ACAD_XREC_ROUNDTRIP
350
18EA
  0
XRECORD
  5
18EA
102
{ACAD_REACTORS
330
18E9
102
}
100
AcDbXrecord
280
           0
102
SHADEPLOT
 70
           0
102
SHADEPLOTRESLEVEL
 70
           2
102
SHADEPLOTCUSTOMDPI
 70
         300
  0
DICTIONARY
  5
18EB
100
AcDbDictionary
280
           0
281
           1
  3
ACAD_XREC_ROUNDTRIP
350
18EC
  0
XRECORD
  5
18EC
102
{ACAD_REACTORS
330
18EB
102
}
100
AcDbXrecord
280
           0
102
SHADEPLOT
 70
           0
102
SHADEPLOTRESLEVEL
 70
           2
102
SHADEPLOTCUSTOMDPI
 70
         300
  0
XRECORD
  5
18ED
102
{ACAD_REACTORS
330
185E
102
}
100
AcDbXrecord
280
           0
102
MATERIAL
  0
XRECORD
  5
18EE
102
{ACAD_REACTORS
330
1866
102
}
100
AcDbXrecord
280
           0
102
MATERIAL
  0
XRECORD
  5
18EF
102
{ACAD_REACTORS
330
186E
102
}
100
AcDbXrecord
280
           0
102
MATERIAL
  0
XRECORD
  5
18F0
102
{ACAD_REACTORS
330
18AE
102
}
100
AcDbXrecord
280
           0
102
ACAD_ROUNDTRIP_PRE2007_TABLESTYLE
 90
      512
 91
        0
  1

 92
      512
 93
        0
  2

 94
      512
 95
        0
  3

  0
DICTIONARY
  5
18F1
102
{ACAD_REACTORS
330
C
102
}
100
AcDbDictionary
280
           0
281
           1
  3
CANNOSCALE
350
18F4
  3
CMLEADERSTYLE
350
18F3
  3
CTABLESTYLE
350
18F2
  3
DIMASSOC
350
18F7
  3
INDEXCTL
350
18F6
  3
SORTENTS
350
18F5
  3
DIMADEC
350
18F8
  0
DICTIONARYVAR
  5
18F2
102
{ACAD_REACTORS
330
18F1
102
}
100
DictionaryVariables
280
           0
  1
STANDARD
  0
DICTIONARYVAR
  5
18F3
102
{ACAD_REACTORS
330
18F1
102
}
100
DictionaryVariables
280
           0
  1
STANDARD
  0
DICTIONARYVAR
  5
18F4
102
{ACAD_REACTORS
330
18F1
102
}
100
DictionaryVariables
280
           0
  1
1:1
  0
DICTIONARYVAR
  5
18F5
102
{ACAD_REACTORS
330
18F1
102
}
100
DictionaryVariables
280
           0
  1
127
  0
DICTIONARYVAR
  5
18F6
102
{ACAD_REACTORS
330
18F1
102
}
100
DictionaryVariables
280
           0
  1
0
  0
DICTIONARYVAR
  5
18F7
102
{ACAD_REACTORS
330
18F1
102
}
100
DictionaryVariables
280
           0
  1
1
  0
DICTIONARYVAR
  5
18F8
102
{ACAD_REACTORS
330
18F1
102
}
100
DictionaryVariables
280
           0
  1
0
  0
WIPEOUTVARIABLES
  5
18F9
100
AcDbWipeoutVariables
 70
           1
  0
ENDSEC
  0
EOF
