  0
SECTION
  2
HEADER
  9
$ACADVER
  1
AC1015
  9
$ACADMAINTVER
 70
    20
  9
$DWGCODEPAGE
  3
ANSI_1252
  9
$INSBASE
 10
0.0
 20
0.0
 30
0.0
  9
$EXTMIN
 10
-148.8760867488172
 20
-10.20143186754544
 30
0.0
  9
$EXTMAX
 10
127.4748335679
 20
124.8772845611875
 30
0.0
  9
$LIMMIN
 10
0.0
 20
0.0
  9
$LIMMAX
 10
181.3333333333
 20
117.3333333333
  9
$ORTHOMODE
 70
     1
  9
$REGENMODE
 70
     1
  9
$FILLMODE
 70
     1
  9
$QTEXTMODE
 70
     0
  9
$MIRRTEXT
 70
     0
  9
$LTSCALE
 40
9.973333333300001
  9
$ATTMODE
 70
     1
  9
$TEXTSIZE
 40
0.2
  9
$TRACEWID
 40
0.05
  9
$TEXTSTYLE
  7
STANDARD
  9
$CLAYER
  8
0
  9
$CELTYPE
  6
BYLAYER
  9
$CECOLOR
 62
   256
  9
$CELTSCALE
 40
1.0
  9
$DISPSILH
 70
     0
  9
$DIMSCALE
 40
1.0
  9
$DIMASZ
 40
2.0
  9
$DIMEXO
 40
0.0625
  9
$DIMDLI
 40
6.890666666699999
  9
$DIMRND
 40
0.0
  9
$DIMDLE
 40
0.0
  9
$DIMEXE
 40
0.125
  9
$DIMTP
 40
0.00001
  9
$DIMTM
 40
0.00001
  9
$DIMTXT
 40
1.333333333299999
  9
$DIMCEN
 40
1.631999999999999
  9
$DIMTSZ
 40
0.0
  9
$DIMTOL
 70
     1
  9
$DIMLIM
 70
     0
  9
$DIMTIH
 70
     1
  9
$DIMTOH
 70
     1
  9
$DIMSE1
 70
     0
  9
$DIMSE2
 70
     0
  9
$DIMTAD
 70
     0
  9
$DIMZIN
 70
     0
  9
$DIMBLK
  1
_FILLED
  9
$DIMASO
 70
     1
  9
$DIMSHO
 70
     1
  9
$DIMPOST
  1

  9
$DIMAPOST
  1

  9
$DIMALT
 70
     0
  9
$DIMALTD
 70
     2
  9
$DIMALTF
 40
25.4
  9
$DIMLFAC
 40
1.0
  9
$DIMTOFL
 70
     0
  9
$DIMTVP
 40
0.0
  9
$DIMTIX
 70
     0
  9
$DIMSOXD
 70
     0
  9
$DIMSAH
 70
     0
  9
$DIMBLK1
  1

  9
$DIMBLK2
  1

  9
$DIMSTYLE
  2
STANDARD
  9
$DIMCLRD
 70
     0
  9
$DIMCLRE
 70
     0
  9
$DIMCLRT
 70
     0
  9
$DIMTFAC
 40
1.0
  9
$DIMGAP
 40
0.09
  9
$DIMJUST
 70
     0
  9
$DIMSD1
 70
     0
  9
$DIMSD2
 70
     0
  9
$DIMTOLJ
 70
     1
  9
$DIMTZIN
 70
     0
  9
$DIMALTZ
 70
     0
  9
$DIMALTTZ
 70
     0
  9
$DIMUPT
 70
     0
  9
$DIMDEC
 70
     4
  9
$DIMTDEC
 70
     4
  9
$DIMALTU
 70
     2
  9
$DIMALTTD
 70
     2
  9
$DIMTXSTY
  7
STANDARD
  9
$DIMAUNIT
 70
     0
  9
$DIMADEC
 70
     0
  9
$DIMALTRND
 40
0.0
  9
$DIMAZIN
 70
     0
  9
$DIMDSEP
 70
    46
  9
$DIMATFIT
 70
     3
  9
$DIMFRAC
 70
     0
  9
$DIMLDRBLK
  1

  9
$DIMLUNIT
 70
     2
  9
$DIMLWD
 70
    -2
  9
$DIMLWE
 70
    -2
  9
$DIMTMOVE
 70
     0
  9
$LUNITS
 70
     2
  9
$LUPREC
 70
     4
  9
$SKETCHINC
 40
0.1
  9
$FILLETRAD
 40
0.0
  9
$AUNITS
 70
     0
  9
$AUPREC
 70
     0
  9
$MENU
  1
.
  9
$ELEVATION
 40
0.0
  9
$PELEVATION
 40
0.0
  9
$THICKNESS
 40
0.0
  9
$LIMCHECK
 70
     0
  9
$CHAMFERA
 40
0.0
  9
$CHAMFERB
 40
0.0
  9
$CHAMFERC
 40
0.0
  9
$CHAMFERD
 40
0.0
  9
$SKPOLY
 70
     0
  9
$TDCREATE
 40
2456090.309306274
  9
$TDUCREATE
 40
2456090.475972940
  9
$TDUPDATE
 40
2456090.325262767
  9
$TDUUPDATE
 40
2456090.491929433
  9
$TDINDWG
 40
0.0048925347
  9
$TDUSRTIMER
 40
0.0048925347
  9
$USRTIMER
 70
     1
  9
$ANGBASE
 50
0.0
  9
$ANGDIR
 70
     0
  9
$PDMODE
 70
     3
  9
$PDSIZE
 40
0.03125
  9
$PLINEWID
 40
0.0
  9
$SPLFRAME
 70
     0
  9
$SPLINETYPE
 70
     6
  9
$SPLINESEGS
 70
     8
  9
$HANDSEED
  5
32E7
  9
$SURFTAB1
 70
     6
  9
$SURFTAB2
 70
     6
  9
$SURFTYPE
 70
     6
  9
$SURFU
 70
     6
  9
$SURFV
 70
     6
  9
$UCSBASE
  2

  9
$UCSNAME
  2

  9
$UCSORG
 10
0.0
 20
0.0
 30
0.0
  9
$UCSXDIR
 10
1.0
 20
0.0
 30
0.0
  9
$UCSYDIR
 10
0.0
 20
1.0
 30
0.0
  9
$UCSORTHOREF
  2

  9
$UCSORTHOVIEW
 70
     0
  9
$UCSORGTOP
 10
0.0
 20
0.0
 30
0.0
  9
$UCSORGBOTTOM
 10
0.0
 20
0.0
 30
0.0
  9
$UCSORGLEFT
 10
0.0
 20
0.0
 30
0.0
  9
$UCSORGRIGHT
 10
0.0
 20
0.0
 30
0.0
  9
$UCSORGFRONT
 10
0.0
 20
0.0
 30
0.0
  9
$UCSORGBACK
 10
0.0
 20
0.0
 30
0.0
  9
$PUCSBASE
  2

  9
$PUCSNAME
  2

  9
$PUCSORG
 10
0.0
 20
0.0
 30
0.0
  9
$PUCSXDIR
 10
1.0
 20
0.0
 30
0.0
  9
$PUCSYDIR
 10
0.0
 20
1.0
 30
0.0
  9
$PUCSORTHOREF
  2

  9
$PUCSORTHOVIEW
 70
     0
  9
$PUCSORGTOP
 10
0.0
 20
0.0
 30
0.0
  9
$PUCSORGBOTTOM
 10
0.0
 20
0.0
 30
0.0
  9
$PUCSORGLEFT
 10
0.0
 20
0.0
 30
0.0
  9
$PUCSORGRIGHT
 10
0.0
 20
0.0
 30
0.0
  9
$PUCSORGFRONT
 10
0.0
 20
0.0
 30
0.0
  9
$PUCSORGBACK
 10
0.0
 20
0.0
 30
0.0
  9
$USERI1
 70
     0
  9
$USERI2
 70
     0
  9
$USERI3
 70
     0
  9
$USERI4
 70
     0
  9
$USERI5
 70
     0
  9
$USERR1
 40
0.0
  9
$USERR2
 40
0.0
  9
$USERR3
 40
0.0
  9
$USERR4
 40
0.0
  9
$USERR5
 40
0.0
  9
$WORLDVIEW
 70
     1
  9
$SHADEDGE
 70
     3
  9
$SHADEDIF
 70
    70
  9
$TILEMODE
 70
     1
  9
$MAXACTVP
 70
    64
  9
$PINSBASE
 10
0.0
 20
0.0
 30
0.0
  9
$PLIMCHECK
 70
     0
  9
$PEXTMIN
 10
1.000000000000000E+20
 20
1.000000000000000E+20
 30
1.000000000000000E+20
  9
$PEXTMAX
 10
-1.000000000000000E+20
 20
-1.000000000000000E+20
 30
-1.000000000000000E+20
  9
$PLIMMIN
 10
0.0
 20
0.0
  9
$PLIMMAX
 10
12.0
 20
9.0
  9
$UNITMODE
 70
     0
  9
$VISRETAIN
 70
     1
  9
$PLINEGEN
 70
     0
  9
$PSLTSCALE
 70
     1
  9
$TREEDEPTH
 70
  3020
  9
$CMLSTYLE
  2
Standard
  9
$CMLJUST
 70
     0
  9
$CMLSCALE
 40
1.0
  9
$PROXYGRAPHICS
 70
     1
  9
$MEASUREMENT
 70
     0
  9
$CELWEIGHT
370
    -1
  9
$ENDCAPS
280
     0
  9
$JOINSTYLE
280
     0
  9
$LWDISPLAY
290
     0
  9
$INSUNITS
 70
     1
  9
$HYPERLINKBASE
  1

  9
$STYLESHEET
  1

  9
$XEDIT
290
     1
  9
$CEPSNTYPE
380
     0
  9
$PSTYLEMODE
290
     1
  9
$FINGERPRINTGUID
  2
{6DA70B51-C1B6-4CD3-A26A-BE467E4E35BE}
  9
$VERSIONGUID
  2
{7892A9BC-968F-46A8-8518-DE6744ED6DA2}
  9
$EXTNAMES
290
     1
  9
$PSVPSCALE
 40
0.0
  9
$OLESTARTUP
290
     0
  0
ENDSEC
  0
SECTION
  2
CLASSES
  0
CLASS
  1
ACDBDICTIONARYWDFLT
  2
AcDbDictionaryWithDefault
  3
ObjectDBX Classes
 90
        0
280
     0
281
     0
  0
CLASS
  1
ACDBPLACEHOLDER
  2
AcDbPlaceHolder
  3
ObjectDBX Classes
 90
        0
280
     0
281
     0
  0
CLASS
  1
LAYOUT
  2
AcDbLayout
  3
ObjectDBX Classes
 90
        0
280
     0
281
     0
  0
CLASS
  1
MATERIAL
  2
AcDbMaterial
  3
ObjectDBX Classes
 90
     1153
280
     0
281
     0
  0
CLASS
  1
VISUALSTYLE
  2
AcDbVisualStyle
  3
ObjectDBX Classes
 90
     4095
280
     0
281
     0
  0
CLASS
  1
TABLESTYLE
  2
AcDbTableStyle
  3
ObjectDBX Classes
 90
     4095
280
     0
281
     0
  0
CLASS
  1
SCALE
  2
AcDbScale
  3
ObjectDBX Classes
 90
     1153
280
     0
281
     0
  0
CLASS
  1
MLEADERSTYLE
  2
AcDbMLeaderStyle
  3
ACDB_MLEADERSTYLE_CLASS
 90
     4095
280
     0
281
     0
  0
CLASS
  1
CELLSTYLEMAP
  2
AcDbCellStyleMap
  3
ObjectDBX Classes
 90
     1152
280
     0
281
     0
  0
CLASS
  1
DICTIONARYVAR
  2
AcDbDictionaryVar
  3
ObjectDBX Classes
 90
        0
280
     0
281
     0
  0
ENDSEC
  0
SECTION
  2
TABLES
  0
TABLE
  2
VPORT
  5
8
102
{ACAD_XDICTIONARY
360
1F8B
102
}
330
0
100
AcDbSymbolTable
 70
     1
  0
VPORT
  5
1F4
330
8
100
AcDbSymbolTableRecord
100
AcDbViewportTableRecord
  2
*ACTIVE
 70
     0
 10
0.0
 20
0.0
 11
1.0
 21
1.0
 12
52.17438910473493
 22
84.42114987719989
 13
0.0
 23
0.0
 14
1.0
 24
1.0
 15
0.0
 25
0.0
 16
0.0
 26
0.0
 36
1.0
 17
0.0
 27
0.0
 37
0.0
 40
244.9096384032414
 41
2.280385078219013
 42
50.0
 43
0.0
 44
0.0
 50
0.0
 51
0.0
 71
     0
 72
   100
 73
     1
 74
     1
 75
     0
 76
     0
 77
     0
 78
     0
281
     0
 65
     1
110
0.0
120
0.0
130
0.0
111
1.0
121
0.0
131
0.0
112
0.0
122
1.0
132
0.0
 79
     0
146
0.0
  0
ENDTAB
  0
TABLE
  2
LTYPE
  5
5
330
0
100
AcDbSymbolTable
 70
     6
  0
LTYPE
  5
14
330
5
100
AcDbSymbolTableRecord
100
AcDbLinetypeTableRecord
  2
BYBLOCK
 70
     0
  3

 72
    65
 73
     0
 40
0.0
  0
LTYPE
  5
15
330
5
100
AcDbSymbolTableRecord
100
AcDbLinetypeTableRecord
  2
BYLAYER
 70
     0
  3

 72
    65
 73
     0
 40
0.0
  0
LTYPE
  5
16
330
5
100
AcDbSymbolTableRecord
100
AcDbLinetypeTableRecord
  2
CONTINUOUS
 70
     0
  3
Solid line
 72
    65
 73
     0
 40
0.0
  0
LTYPE
  5
1F5
330
5
100
AcDbSymbolTableRecord
100
AcDbLinetypeTableRecord
  2
CENTER
 70
     0
  3
____ _ ____ _ ____ _ ____ _ ____ _ ____ _ ____
 72
    65
 73
     4
 40
0.6
 49
0.375
 74
     0
 49
-0.075
 74
     0
 49
0.075
 74
     0
 49
-0.075
 74
     0
  0
LTYPE
  5
1F6
330
5
100
AcDbSymbolTableRecord
100
AcDbLinetypeTableRecord
  2
HIDDEN
 70
     0
  3
- - - - - - - - - - - - - - - - - - - -
 72
    65
 73
     2
 40
0.2
 49
0.1
 74
     0
 49
-0.1
 74
     0
  0
LTYPE
  5
1F7
330
5
100
AcDbSymbolTableRecord
100
AcDbLinetypeTableRecord
  2
PHANTOM
 70
     0
  3
_____ _ _ _____ _ _ _____ _ _ _____
 72
    65
 73
     6
 40
0.8
 49
0.45
 74
     0
 49
-0.05
 74
     0
 49
0.1
 74
     0
 49
-0.05
 74
     0
 49
0.1
 74
     0
 49
-0.05
 74
     0
  0
LTYPE
  5
1F8
330
5
100
AcDbSymbolTableRecord
100
AcDbLinetypeTableRecord
  2
DOT
 70
     0
  3
. . . . . . . . . . . . . . . . . . . .
 72
    65
 73
     2
 40
0.2
 49
0.1
 74
     0
 49
-0.1
 74
     0
  0
LTYPE
  5
1F9
330
5
100
AcDbSymbolTableRecord
100
AcDbLinetypeTableRecord
  2
DASHED
 70
     0
  3
- - - - - - - - - - - - - - - - - - - -
 72
    65
 73
     2
 40
0.2
 49
0.1
 74
     0
 49
-0.1
 74
     0
  0
ENDTAB
  0
TABLE
  2
LAYER
  5
2
330
0
100
AcDbSymbolTable
 70
    16
  0
LAYER
  5
10
102
{ACAD_XDICTIONARY
360
32B2
102
}
330
2
100
AcDbSymbolTableRecord
100
AcDbLayerTableRecord
  2
0
 70
     0
 62
     7
  6
CONTINUOUS
370
    -3
390
F
  0
LAYER
  5
1FA
102
{ACAD_XDICTIONARY
360
32B4
102
}
330
2
100
AcDbSymbolTableRecord
100
AcDbLayerTableRecord
  2
DEFAULT_1
 70
     0
 62
     7
  6
CENTER
370
    -3
390
F
  0
LAYER
  5
1FB
102
{ACAD_XDICTIONARY
360
32B6
102
}
330
2
100
AcDbSymbolTableRecord
100
AcDbLayerTableRecord
  2
DEFAULT_2
 70
     0
 62
     7
  6
HIDDEN
370
    -3
390
F
  0
LAYER
  5
1FC
102
{ACAD_XDICTIONARY
360
32B8
102
}
330
2
100
AcDbSymbolTableRecord
100
AcDbLayerTableRecord
  2
DEFAULT_3
 70
     0
 62
     7
  6
PHANTOM
370
    -3
390
F
  0
LAYER
  5
1FD
102
{ACAD_XDICTIONARY
360
32BA
102
}
330
2
100
AcDbSymbolTableRecord
100
AcDbLayerTableRecord
  2
1_CURVES
 70
     0
 62
     7
  6
CONTINUOUS
370
    -3
390
F
  0
LAYER
  5
1FE
102
{ACAD_XDICTIONARY
360
32BC
102
}
330
2
100
AcDbSymbolTableRecord
100
AcDbLayerTableRecord
  2
1_CURVES_SPEC
 70
     0
 62
     7
  6
CONTINUOUS
370
    -3
390
F
  0
LAYER
  5
1FF
102
{ACAD_XDICTIONARY
360
32BE
102
}
330
2
100
AcDbSymbolTableRecord
100
AcDbLayerTableRecord
  2
1_CURVES_ZONE-ROBINETERIE
 70
     0
 62
     7
  6
CONTINUOUS
370
    -3
390
F
  0
LAYER
  5
200
102
{ACAD_XDICTIONARY
360
32C0
102
}
330
2
100
AcDbSymbolTableRecord
100
AcDbLayerTableRecord
  2
2_PLANES
 70
     0
 62
     7
  6
CONTINUOUS
370
    -3
390
F
  0
LAYER
  5
201
102
{ACAD_XDICTIONARY
360
32C2
102
}
330
2
100
AcDbSymbolTableRecord
100
AcDbLayerTableRecord
  2
3_POINTS
 70
     0
 62
     7
  6
CONTINUOUS
370
    -3
390
F
  0
LAYER
  5
202
102
{ACAD_XDICTIONARY
360
32C4
102
}
330
2
100
AcDbSymbolTableRecord
100
AcDbLayerTableRecord
  2
4_CSYS
 70
     0
 62
     7
  6
CONTINUOUS
370
    -3
390
F
  0
LAYER
  5
203
102
{ACAD_XDICTIONARY
360
32C6
102
}
330
2
100
AcDbSymbolTableRecord
100
AcDbLayerTableRecord
  2
5_AXIS
 70
     0
 62
     7
  6
CONTINUOUS
370
    -3
390
F
  0
LAYER
  5
204
102
{ACAD_XDICTIONARY
360
32C8
102
}
330
2
100
AcDbSymbolTableRecord
100
AcDbLayerTableRecord
  2
6_SURFACES
 70
     0
 62
     7
  6
CONTINUOUS
370
    -3
390
F
  0
LAYER
  5
205
102
{ACAD_XDICTIONARY
360
32CA
102
}
330
2
100
AcDbSymbolTableRecord
100
AcDbLayerTableRecord
  2
6_SURFACES_OFFSET-FIBRE
 70
     0
 62
     7
  6
CONTINUOUS
370
    -3
390
F
  0
LAYER
  5
206
102
{ACAD_XDICTIONARY
360
32CC
102
}
330
2
100
AcDbSymbolTableRecord
100
AcDbLayerTableRecord
  2
6_SURFACES_TOOLING
 70
     0
 62
     7
  6
CONTINUOUS
370
    -3
390
F
  0
LAYER
  5
207
102
{ACAD_XDICTIONARY
360
32CE
102
}
330
2
100
AcDbSymbolTableRecord
100
AcDbLayerTableRecord
  2
7_NOTES
 70
     0
 62
     7
  6
CONTINUOUS
370
    -3
390
F
  0
LAYER
  5
208
102
{ACAD_XDICTIONARY
360
32D0
102
}
330
2
100
AcDbSymbolTableRecord
100
AcDbLayerTableRecord
  2
XSEC_DATUMS
 70
     0
 62
     7
  6
CONTINUOUS
370
    -3
390
F
  0
ENDTAB
  0
TABLE
  2
STYLE
  5
3
330
0
100
AcDbSymbolTable
 70
     8
  0
STYLE
  5
11
330
3
100
AcDbSymbolTableRecord
100
AcDbTextStyleTableRecord
  2
STANDARD
 70
     0
 40
0.0
 41
0.8
 50
0.0
 71
     0
 42
0.2
  3
txt
  4

  0
STYLE
  5
209
330
3
100
AcDbSymbolTableRecord
100
AcDbTextStyleTableRecord
  2
TEXTSTYLE_1
 70
     0
 40
0.0
 41
0.8
 50
0.0
 71
     0
 42
0.2
  3
gdt
  4

  0
STYLE
  5
20A
330
3
100
AcDbSymbolTableRecord
100
AcDbTextStyleTableRecord
  2
TEXTSTYLE_2
 70
     0
 40
0.0
 41
1.0
 50
0.0
 71
     0
 42
0.2
  3
trium.ttf
  4

  0
STYLE
  5
20B
330
3
100
AcDbSymbolTableRecord
100
AcDbTextStyleTableRecord
  2
TEXTSTYLE_3
 70
     0
 40
0.0
 41
1.0
 50
0.0
 71
     0
 42
0.2
  3
trium.ttf
  4

  0
STYLE
  5
20C
330
3
100
AcDbSymbolTableRecord
100
AcDbTextStyleTableRecord
  2
TEXTSTYLE_4
 70
     0
 40
0.0
 41
1.0
 50
0.0
 71
     0
 42
0.2
  3
txt_____.ttf
  4

1001
ACAD
1000
txt
1071
        2
  0
STYLE
  5
20D
330
3
100
AcDbSymbolTableRecord
100
AcDbTextStyleTableRecord
  2
TEXTSTYLE_5
 70
     0
 40
0.0
 41
1.0
 50
0.0
 71
     0
 42
0.2
  3
txt_____.ttf
  4

1001
ACAD
1000
txt
1071
        2
  0
STYLE
  5
20E
330
3
100
AcDbSymbolTableRecord
100
AcDbTextStyleTableRecord
  2
TEXTSTYLE_6
 70
     0
 40
0.0
 41
1.0
 50
0.0
 71
     0
 42
0.2
  3
trium.ttf
  4

  0
STYLE
  5
20F
330
3
100
AcDbSymbolTableRecord
100
AcDbTextStyleTableRecord
  2
TEXTSTYLE_7
 70
     0
 40
0.0
 41
0.8
 50
0.0
 71
     0
 42
0.2
  3
txt_____.ttf
  4

1001
ACAD
1000
txt
1071
        2
  0
ENDTAB
  0
TABLE
  2
VIEW
  5
6
330
0
100
AcDbSymbolTable
 70
     0
  0
ENDTAB
  0
TABLE
  2
UCS
  5
7
330
0
100
AcDbSymbolTable
 70
     0
  0
ENDTAB
  0
TABLE
  2
APPID
  5
9
330
0
100
AcDbSymbolTable
 70
     2
  0
APPID
  5
210
330
9
100
AcDbSymbolTableRecord
100
AcDbRegAppTableRecord
  2
ACAD
 70
     0
  0
APPID
  5
1FBB
330
9
100
AcDbSymbolTableRecord
100
AcDbRegAppTableRecord
  2
ACAD_MLEADERVER
 70
     0
  0
ENDTAB
  0
TABLE
  2
DIMSTYLE
  5
A
330
0
100
AcDbSymbolTable
 70
     9
100
AcDbDimStyleTable
 71
     0
  0
DIMSTYLE
105
235
330
A
100
AcDbSymbolTableRecord
100
AcDbDimStyleTableRecord
  2
STANDARD
 70
     0
 41
2.0
 44
0.125
 47
0.00001
 48
0.00001
 71
     1
 78
     4
140
1.333333333299999
271
     5
272
     5
284
     4
340
11
341
213
342
213
343
213
344
213
  0
DIMSTYLE
105
236
330
A
100
AcDbSymbolTableRecord
100
AcDbDimStyleTableRecord
  2
DIMSTYLE_1
 70
     0
 41
2.0
 44
0.125
 47
0.00001
 48
0.00001
 78
     4
140
1.333333333299999
147
0.0625
271
     3
272
     3
284
     4
340
11
341
213
342
213
343
213
344
213
  0
DIMSTYLE
105
237
330
A
100
AcDbSymbolTableRecord
100
AcDbDimStyleTableRecord
  2
DIMSTYLE_2
 70
     0
 41
2.0
 44
0.125
 47
0.001
 48
0.001
 78
     4
140
1.333333333299999
147
0.0625
271
     3
272
     3
284
     4
340
11
341
213
342
213
343
213
344
213
  0
DIMSTYLE
105
238
330
A
100
AcDbSymbolTableRecord
100
AcDbDimStyleTableRecord
  2
DIMSTYLE_3
 70
     0
 41
2.0
 44
0.125
 47
0.001
 48
0.001
 78
     4
140
1.333333333299999
147
0.0625
271
     2
272
     2
284
     4
340
11
341
213
342
213
343
213
344
213
  0
DIMSTYLE
105
239
330
A
100
AcDbSymbolTableRecord
100
AcDbDimStyleTableRecord
  2
DIMSTYLE_4
 70
     0
 41
2.0
 44
0.125
 47
0.00001
 48
0.00001
 78
     4
140
1.333333333299999
147
0.0625
271
     2
272
     2
284
     4
340
11
341
213
342
213
343
213
344
213
  0
DIMSTYLE
105
23A
330
A
100
AcDbSymbolTableRecord
100
AcDbDimStyleTableRecord
  2
DIMSTYLE_5
 70
     0
 41
2.0
 44
0.125
 47
0.00001
 48
0.00001
 78
     4
140
1.333333333299999
147
0.0625
271
     6
272
     6
284
     4
340
11
341
213
342
213
343
213
344
213
  0
DIMSTYLE
105
23B
330
A
100
AcDbSymbolTableRecord
100
AcDbDimStyleTableRecord
  2
DIMSTYLE_6
 70
     0
 41
2.0
 44
0.125
 47
0.00001
 48
0.00001
 78
     4
140
1.333333333299999
147
0.0625
284
     4
340
11
341
213
342
213
343
213
344
213
  0
DIMSTYLE
105
23C
330
A
100
AcDbSymbolTableRecord
100
AcDbDimStyleTableRecord
  2
DIMSTYLE_7
 70
     0
 41
2.0
 44
0.125
 47
1.0
 48
1.0
 78
     4
140
1.333333333299999
271
     0
272
     0
284
     4
340
11
341
213
342
213
343
213
344
213
  0
DIMSTYLE
105
23D
330
A
100
AcDbSymbolTableRecord
100
AcDbDimStyleTableRecord
  2
DIMSTYLE_8
 70
     0
 41
2.0
 44
0.125
 47
0.00001
 48
0.00001
 78
     4
140
1.333333333299999
147
0.0625
271
     1
272
     1
284
     4
340
11
341
213
342
213
343
213
344
213
  0
ENDTAB
  0
TABLE
  2
BLOCK_RECORD
  5
1
330
0
100
AcDbSymbolTable
 70
    34
  0
BLOCK_RECORD
  5
211
330
1
100
AcDbSymbolTableRecord
100
AcDbBlockTableRecord
  2
*Model_Space
340
1F2D
  0
BLOCK_RECORD
  5
212
330
1
100
AcDbSymbolTableRecord
100
AcDbBlockTableRecord
  2
*Paper_Space
340
1F2E
  0
BLOCK_RECORD
  5
213
330
1
100
AcDbSymbolTableRecord
100
AcDbBlockTableRecord
  2
_FILLED
340
0
102
{BLKREFS
331
33A
331
33B
331
343
331
344
331
34C
331
34D
331
355
331
356
331
35F
331
360
331
369
331
36A
331
372
331
373
331
37B
331
37C
331
384
331
385
331
38D
331
38E
331
396
331
397
331
39F
331
3A0
331
3A8
331
3A9
331
3B1
331
3B2
331
3BB
331
3BC
331
3C4
331
3C5
331
3CE
331
3CF
331
3D7
331
3D8
331
3EE
331
3EF
331
3F7
331
3F8
331
401
331
402
102
}
  0
BLOCK_RECORD
  5
22B
330
1
100
AcDbSymbolTableRecord
100
AcDbBlockTableRecord
  2
SYMBOL_14_BL9
340
0
  0
BLOCK_RECORD
  5
22C
330
1
100
AcDbSymbolTableRecord
100
AcDbBlockTableRecord
  2
SYMBOL_12_BL8
340
0
  0
BLOCK_RECORD
  5
22D
330
1
100
AcDbSymbolTableRecord
100
AcDbBlockTableRecord
  2
SYMBOL_10_BL7
340
0
  0
BLOCK_RECORD
  5
22E
330
1
100
AcDbSymbolTableRecord
100
AcDbBlockTableRecord
  2
SYMBOL_9_BL6
340
0
  0
BLOCK_RECORD
  5
22F
330
1
100
AcDbSymbolTableRecord
100
AcDbBlockTableRecord
  2
SYMBOL_15_BL5
340
0
  0
BLOCK_RECORD
  5
230
330
1
100
AcDbSymbolTableRecord
100
AcDbBlockTableRecord
  2
SYMBOL_8_BL4
340
0
  0
BLOCK_RECORD
  5
231
330
1
100
AcDbSymbolTableRecord
100
AcDbBlockTableRecord
  2
SYMBOL_7_BL3
340
0
  0
BLOCK_RECORD
  5
232
330
1
100
AcDbSymbolTableRecord
100
AcDbBlockTableRecord
  2
SYMBOL_6_BL2
340
0
  0
BLOCK_RECORD
  5
233
330
1
100
AcDbSymbolTableRecord
100
AcDbBlockTableRecord
  2
SYMBOL_18_BL1
340
0
  0
BLOCK_RECORD
  5
234
330
1
100
AcDbSymbolTableRecord
100
AcDbBlockTableRecord
  2
SYMBOL_3_BL0
340
0
  0
ENDTAB
  0
ENDSEC
  0
SECTION
  2
BLOCKS
  0
BLOCK
  5
20
330
211
100
AcDbEntity
  8
0
100
AcDbBlockBegin
  2
*Model_Space
 70
     0
 10
0.0
 20
0.0
 30
0.0
  3
*Model_Space
  1

  0
ENDBLK
  5
21
330
211
100
AcDbEntity
  8
0
100
AcDbBlockEnd
  0
BLOCK
  5
1C
330
212
100
AcDbEntity
 67
     1
  8
0
100
AcDbBlockBegin
  2
*Paper_Space
 70
     0
 10
0.0
 20
0.0
 30
0.0
  3
*Paper_Space
  1

  0
ENDBLK
  5
1D
330
212
100
AcDbEntity
 67
     1
  8
0
100
AcDbBlockEnd
  0
BLOCK
  5
331
330
213
100
AcDbEntity
  8
0
100
AcDbBlockBegin
  2
_FILLED
 70
     0
 10
0.0
 20
0.0
 30
0.0
  3
_FILLED
  1

  0
SOLID
  5
332
330
213
100
AcDbEntity
  8
0
  6
ByBlock
 62
     0
100
AcDbTrace
 10
0.0
 20
0.0
 30
0.0
 11
-1.0
 21
0.1666666667
 31
0.0
 12
-1.0
 22
-0.1666666667
 32
0.0
 13
-1.0
 23
-0.1666666667
 33
0.0
  0
ENDBLK
  5
333
330
213
100
AcDbEntity
  8
0
  6
ByBlock
 62
     0
100
AcDbBlockEnd
  0
BLOCK
  5
23E
330
22B
100
AcDbEntity
  8
0
  6
Continuous
 62
     7
100
AcDbBlockBegin
  2
SYMBOL_14_BL9
 70
     0
 10
169.3347058447
 20
86.35975699339999
 30
0.0
  3
SYMBOL_14_BL9
  1

  0
TEXT
  5
23F
330
22B
100
AcDbEntity
  8
0
  6
Continuous
 62
     7
100
AcDbText
 10
168.7717426627
 20
85.69309006739999
 30
0.0
 40
1.333333852099999
  1
T
  7
TEXTSTYLE_2
100
AcDbText
  0
ELLIPSE
  5
240
330
22B
100
AcDbEntity
  8
0
  6
Continuous
 62
     7
100
AcDbEllipse
 10
169.3347058447
 20
86.35975699339999
 30
0.0
 11
-1.942887567899999
 21
0.0
 31
0.0
210
0.0
220
0.0
230
1.0
 40
0.6606458385
 41
0.0
 42
6.283185307179586
  0
ENDBLK
  5
241
330
22B
100
AcDbEntity
  8
0
  6
ByBlock
 62
     0
100
AcDbBlockEnd
  0
BLOCK
  5
242
330
22C
100
AcDbEntity
  8
0
  6
Continuous
 62
     7
100
AcDbBlockBegin
  2
SYMBOL_12_BL8
 70
     0
 10
167.7152194173
 20
74.36863287
 30
0.0
  3
SYMBOL_12_BL8
  1

  0
TEXT
  5
243
330
22C
100
AcDbEntity
  8
0
  6
Continuous
 62
     7
100
AcDbText
 10
167.9592364481
 20
73.4579489132
 30
0.0
 40
1.333333852099999
  1
C
 50
60.0
  7
TEXTSTYLE_2
100
AcDbText
  0
ELLIPSE
  5
244
330
22C
100
AcDbEntity
  8
0
  6
Continuous
 62
     7
100
AcDbEllipse
 10
167.7152194173
 20
74.36863287
 30
0.0
 11
-0.9714437840000002
 21
-1.682589990499999
 31
0.0
210
0.0
220
0.0
230
1.0
 40
0.6606458385
 41
0.0
 42
6.283185307179586
  0
ENDBLK
  5
245
330
22C
100
AcDbEntity
  8
0
  6
ByBlock
 62
     0
100
AcDbBlockEnd
  0
BLOCK
  5
246
330
22D
100
AcDbEntity
  8
0
  6
Continuous
 62
     7
100
AcDbBlockBegin
  2
SYMBOL_10_BL7
 70
     0
 10
129.1356091794
 20
78.37100808069999
 30
0.0
  3
SYMBOL_10_BL7
  1

  0
TEXT
  5
247
330
22D
100
AcDbEntity
  8
0
  6
Continuous
 62
     7
100
AcDbText
 10
128.5861339794
 20
77.69813574069999
 30
0.0
 40
1.333333852099999
  1
L
  7
TEXTSTYLE_2
100
AcDbText
  0
TEXT
  5
248
330
22D
100
AcDbEntity
  8
0
  6
Continuous
 62
     7
100
AcDbText
 10
124.9015477011
 20
77.71054656869999
 30
0.0
 40
1.333333852099999
  1
7
  7
TEXTSTYLE_2
100
AcDbText
  0
TEXT
  5
249
330
22D
100
AcDbEntity
  8
0
  6
Continuous
 62
     7
100
AcDbText
 10
132.3474480378
 20
77.71054656869999
 30
0.0
 40
1.333333852099999
  1
8
  7
TEXTSTYLE_2
100
AcDbText
  0
ELLIPSE
  5
24A
330
22D
100
AcDbEntity
  8
0
  6
Continuous
 62
     7
100
AcDbEllipse
 10
129.1145292467
 20
78.3648026667
 30
0.0
 11
-1.942887567899999
 21
0.0
 31
0.0
210
0.0
220
0.0
230
1.0
 40
0.6606458385
 41
0.0
 42
6.283185307179586
  0
ENDBLK
  5
24B
330
22D
100
AcDbEntity
  8
0
  6
ByBlock
 62
     0
100
AcDbBlockEnd
  0
BLOCK
  5
24C
330
22E
100
AcDbEntity
  8
0
  6
Continuous
 62
     7
100
AcDbBlockBegin
  2
SYMBOL_9_BL6
 70
     0
 10
150.67063841
 20
93.8107328699
 30
0.0
  3
SYMBOL_9_BL6
  1

  0
TEXT
  5
24D
330
22E
100
AcDbEntity
  8
0
  6
Continuous
 62
     7
100
AcDbText
 10
150.1211632099
 20
93.1378605299
 30
0.0
 40
1.333333852099999
  1
L
  7
TEXTSTYLE_2
100
AcDbText
  0
TEXT
  5
24E
330
22E
100
AcDbEntity
  8
0
  6
Continuous
 62
     7
100
AcDbText
 10
145.9254656217
 20
93.15027135790002
 30
0.0
 40
1.333333852099999
  1
12
  7
TEXTSTYLE_2
100
AcDbText
  0
TEXT
  5
24F
330
22E
100
AcDbEntity
  8
0
  6
Continuous
 62
     7
100
AcDbText
 10
153.3713659584
 20
93.15027135790002
 30
0.0
 40
1.333333852099999
  1
13
  7
TEXTSTYLE_2
100
AcDbText
  0
ELLIPSE
  5
250
330
22E
100
AcDbEntity
  8
0
  6
Continuous
 62
     7
100
AcDbEllipse
 10
150.6495584772
 20
93.8045274559
 30
0.0
 11
-1.942887567899999
 21
0.0
 31
0.0
210
0.0
220
0.0
230
1.0
 40
0.6606458385
 41
0.0
 42
6.283185307179586
  0
ENDBLK
  5
251
330
22E
100
AcDbEntity
  8
0
  6
ByBlock
 62
     0
100
AcDbBlockEnd
  0
BLOCK
  5
252
330
22F
100
AcDbEntity
  8
0
  6
Continuous
 62
     7
100
AcDbBlockBegin
  2
SYMBOL_15_BL5
 70
     0
 10
19.0743854699
 20
86.2950605147
 30
0.0
  3
SYMBOL_15_BL5
  1

  0
TEXT
  5
253
330
22F
100
AcDbEntity
  8
0
  6
Continuous
 62
     7
100
AcDbText
 10
18.5114222879
 20
85.62839358869998
 30
0.0
 40
1.333333852099999
  1
T
  7
TEXTSTYLE_2
100
AcDbText
  0
ELLIPSE
  5
254
330
22F
100
AcDbEntity
  8
0
  6
Continuous
 62
     7
100
AcDbEllipse
 10
19.0743854699
 20
86.2950605147
 30
0.0
 11
-1.942887567899999
 21
0.0
 31
0.0
210
0.0
220
0.0
230
1.0
 40
0.6606458385
 41
0.0
 42
6.283185307179586
  0
ENDBLK
  5
255
330
22F
100
AcDbEntity
  8
0
  6
ByBlock
 62
     0
100
AcDbBlockEnd
  0
BLOCK
  5
256
330
230
100
AcDbEntity
  8
0
  6
Continuous
 62
     7
100
AcDbBlockBegin
  2
SYMBOL_8_BL4
 70
     0
 10
37.5708202858
 20
78.4014605191
 30
0.0
  3
SYMBOL_8_BL4
  1

  0
TEXT
  5
257
330
230
100
AcDbEntity
  8
0
  6
Continuous
 62
     7
100
AcDbText
 10
37.0213450858
 20
77.7285881791
 30
0.0
 40
1.333333852099999
  1
L
  7
TEXTSTYLE_2
100
AcDbText
  0
TEXT
  5
258
330
230
100
AcDbEntity
  8
0
  6
Continuous
 62
     7
100
AcDbText
 10
32.8256474975
 20
77.7409990071
 30
0.0
 40
1.333333852099999
  1
13
  7
TEXTSTYLE_2
100
AcDbText
  0
TEXT
  5
259
330
230
100
AcDbEntity
  8
0
  6
Continuous
 62
     7
100
AcDbText
 10
40.2715478343
 20
77.7409990071
 30
0.0
 40
1.333333852099999
  1
12
  7
TEXTSTYLE_2
100
AcDbText
  0
ELLIPSE
  5
25A
330
230
100
AcDbEntity
  8
0
  6
Continuous
 62
     7
100
AcDbEllipse
 10
37.5497403531
 20
78.3952551051
 30
0.0
 11
-1.942887567899999
 21
0.0
 31
0.0
210
0.0
220
0.0
230
1.0
 40
0.6606458385
 41
0.0
 42
6.283185307179586
  0
ENDBLK
  5
25B
330
230
100
AcDbEntity
  8
0
  6
ByBlock
 62
     0
100
AcDbBlockEnd
  0
BLOCK
  5
25C
330
231
100
AcDbEntity
  8
0
  6
Continuous
 62
     7
100
AcDbBlockBegin
  2
SYMBOL_7_BL3
 70
     0
 10
61.24476066819999
 20
94.05023700940001
 30
0.0
  3
SYMBOL_7_BL3
  1

  0
TEXT
  5
25D
330
231
100
AcDbEntity
  8
0
  6
Continuous
 62
     7
100
AcDbText
 10
60.69528546819999
 20
93.3773646694
 30
0.0
 40
1.333333852099999
  1
L
  7
TEXTSTYLE_2
100
AcDbText
  0
TEXT
  5
25E
330
231
100
AcDbEntity
  8
0
  6
Continuous
 62
     7
100
AcDbText
 10
57.0106991899
 20
93.38977549739999
 30
0.0
 40
1.333333852099999
  1
8
  7
TEXTSTYLE_2
100
AcDbText
  0
TEXT
  5
25F
330
231
100
AcDbEntity
  8
0
  6
Continuous
 62
     7
100
AcDbText
 10
64.4565995266
 20
93.38977549739999
 30
0.0
 40
1.333333852099999
  1
7
  7
TEXTSTYLE_2
100
AcDbText
  0
ELLIPSE
  5
260
330
231
100
AcDbEntity
  8
0
  6
Continuous
 62
     7
100
AcDbEllipse
 10
61.2236807355
 20
94.04403159540001
 30
0.0
 11
-1.942887567899999
 21
0.0
 31
0.0
210
0.0
220
0.0
230
1.0
 40
0.6606458385
 41
0.0
 42
6.283185307179586
  0
ENDBLK
  5
261
330
231
100
AcDbEntity
  8
0
  6
ByBlock
 62
     0
100
AcDbBlockEnd
  0
BLOCK
  5
262
330
232
100
AcDbEntity
  8
0
  6
Continuous
 62
     7
100
AcDbBlockBegin
  2
SYMBOL_6_BL2
 70
     0
 10
21.0701617374
 20
96.552234411
 30
0.0
  3
SYMBOL_6_BL2
  1

  0
TEXT
  5
263
330
232
100
AcDbEntity
  8
0
  6
Continuous
 62
     7
100
AcDbText
 10
21.3141787682
 20
95.6415504541
 30
0.0
 40
1.333333852099999
  1
C
 50
60.0
  7
TEXTSTYLE_2
100
AcDbText
  0
ELLIPSE
  5
264
330
232
100
AcDbEntity
  8
0
  6
Continuous
 62
     7
100
AcDbEllipse
 10
21.0701617374
 20
96.552234411
 30
0.0
 11
-0.9714437840000002
 21
-1.682589990499999
 31
0.0
210
0.0
220
0.0
230
1.0
 40
0.6606458385
 41
0.0
 42
6.283185307179586
  0
ENDBLK
  5
265
330
232
100
AcDbEntity
  8
0
  6
ByBlock
 62
     0
100
AcDbBlockEnd
  0
BLOCK
  5
266
330
233
100
AcDbEntity
  8
0
  6
Continuous
 62
     7
100
AcDbBlockBegin
  2
SYMBOL_18_BL1
 70
     0
 10
160.6666666667
 20
55.33333333329999
 30
0.0
  3
SYMBOL_18_BL1
  1

  0
TEXT
  5
267
330
233
100
AcDbEntity
  8
0
  6
Continuous
 62
     7
100
AcDbText
 10
144.4188815905
 20
63.10676672439999
 30
0.0
 40
0.5
  1
Infomations Techniques/Technical Infomations
  7
TEXTSTYLE_2
100
AcDbText
  0
TEXT
  5
268
330
233
100
AcDbEntity
  8
0
  6
Continuous
 62
     7
100
AcDbText
 10
144.6666666667
 20
61.6666666667
 30
0.0
 40
0.6666666667
  1
NOMBRE DE JETS:     
  7
TEXTSTYLE_2
100
AcDbText
  0
TEXT
  5
269
330
233
100
AcDbEntity
  8
0
  6
Continuous
 62
     7
100
AcDbText
 10
154.5111111111
 20
61.6666666667
 30
0.0
 40
0.6666666667
  1
36
  7
TEXTSTYLE_2
100
AcDbText
  0
TEXT
  5
26A
330
233
100
AcDbEntity
  8
0
  6
Continuous
 62
     7
100
AcDbText
 10
144.6666666667
 20
60.6666666667
 30
0.0
 40
0.6666666667
  1
 
  7
TEXTSTYLE_2
100
AcDbText
  0
TEXT
  5
26B
330
233
100
AcDbEntity
  8
0
  6
Continuous
 62
     7
100
AcDbText
 10
144.6666666667
 20
59.66666666670001
 30
0.0
 40
0.6666666667
  1
NIVEAU D'EAU              GALLONS(US)        LITRES        GALLONS(UK)
  7
TEXTSTYLE_2
100
AcDbText
  0
TEXT
  5
26C
330
233
100
AcDbEntity
  8
0
  6
Continuous
 62
     7
100
AcDbText
 10
144.6666666667
 20
58.6666666667
 30
0.0
 40
0.6666666667
  1
PLEIN
  7
TEXTSTYLE_2
100
AcDbText
  0
TEXT
  5
26D
330
233
100
AcDbEntity
  8
0
  6
Continuous
 62
     7
100
AcDbText
 10
144.6666666667
 20
57.6666666667
 30
0.0
 40
0.6666666667
  1
HAUT T.PLEIN
  7
TEXTSTYLE_2
100
AcDbText
  0
TEXT
  5
26E
330
233
100
AcDbEntity
  8
0
  6
Continuous
 62
     7
100
AcDbText
 10
144.6666666667
 20
56.6666666667
 30
0.0
 40
0.6666666667
  1
MILIEU T.PLEIN
  7
TEXTSTYLE_2
100
AcDbText
  0
TEXT
  5
26F
330
233
100
AcDbEntity
  8
0
  6
Continuous
 62
     7
100
AcDbText
 10
144.6666666667
 20
55.6666666667
 30
0.0
 40
0.6666666667
  1
BAS T.PLEIN
  7
TEXTSTYLE_2
100
AcDbText
  0
TEXT
  5
270
330
233
100
AcDbEntity
  8
0
  6
Continuous
 62
     7
100
AcDbText
 10
144.6666666667
 20
54.66666666670001
 30
0.0
 40
0.6666666667
  1
3" EN BAS T.PLEIN
  7
TEXTSTYLE_2
100
AcDbText
  0
TEXT
  5
271
330
233
100
AcDbEntity
  8
0
  6
Continuous
 62
     7
100
AcDbText
 10
144.6666666667
 20
53.6666666667
 30
0.0
 40
0.6666666667
  1
 
  7
TEXTSTYLE_2
100
AcDbText
  0
TEXT
  5
272
330
233
100
AcDbEntity
  8
0
  6
Continuous
 62
     7
100
AcDbText
 10
144.4665051611
 20
53.1198797418
 30
0.0
 40
0.5
  1
Legende/Legend
  7
TEXTSTYLE_2
100
AcDbText
  0
TEXT
  5
273
330
233
100
AcDbEntity
  8
0
  6
Continuous
 62
     7
100
AcDbText
 10
150.9953401051
 20
51.6086147641
 30
0.0
 40
0.6666666667
  1
ZONE DE ROBINETTERIE
  7
TEXTSTYLE_2
100
AcDbText
  0
TEXT
  5
274
330
233
100
AcDbEntity
  8
0
  6
Continuous
 62
     7
100
AcDbText
 10
145.9156155382
 20
50.1133702497
 30
0.0
 40
0.6666666667
  1
L   :  SYSTEME LED       DC   :  DOUBLE DOSSIER CHAUFFANT
  7
TEXTSTYLE_2
100
AcDbText
  0
TEXT
  5
275
330
233
100
AcDbEntity
  8
0
  6
Continuous
 62
     7
100
AcDbText
 10
145.9156155382
 20
48.7800369164
 30
0.0
 40
0.6666666667
  1
C   :  CONTROLE
  7
TEXTSTYLE_2
100
AcDbText
  0
TEXT
  5
276
330
233
100
AcDbEntity
  8
0
  6
Continuous
 62
     7
100
AcDbText
 10
145.9156155382
 20
47.4467035831
 30
0.0
 40
0.6666666667
  1
T   :  MOTEUR
  7
TEXTSTYLE_2
100
AcDbText
  0
TEXT
  5
277
330
233
100
AcDbEntity
  8
0
  6
Continuous
 62
     7
100
AcDbText
 10
157.499363366
 20
58.6666666667
 30
0.0
 40
0.6666666667
  1
69
  7
TEXTSTYLE_2
100
AcDbText
  0
TEXT
  5
278
330
233
100
AcDbEntity
  8
0
  6
Continuous
 62
     7
100
AcDbText
 10
157.499363366
 20
57.6666666667
 30
0.0
 40
0.6666666667
  1
59
  7
TEXTSTYLE_2
100
AcDbText
  0
TEXT
  5
279
330
233
100
AcDbEntity
  8
0
  6
Continuous
 62
     7
100
AcDbText
 10
157.499363366
 20
56.6666666667
 30
0.0
 40
0.6666666667
  1
54
  7
TEXTSTYLE_2
100
AcDbText
  0
TEXT
  5
27A
330
233
100
AcDbEntity
  8
0
  6
Continuous
 62
     7
100
AcDbText
 10
157.499363366
 20
55.6666666667
 30
0.0
 40
0.6666666667
  1
48
  7
TEXTSTYLE_2
100
AcDbText
  0
TEXT
  5
27B
330
233
100
AcDbEntity
  8
0
  6
Continuous
 62
     7
100
AcDbText
 10
157.499363366
 20
54.66666666670001
 30
0.0
 40
0.6666666667
  1
35
  7
TEXTSTYLE_2
100
AcDbText
  0
TEXT
  5
27C
330
233
100
AcDbEntity
  8
0
  6
Continuous
 62
     7
100
AcDbText
 10
164.4195693097
 20
58.68374606879999
 30
0.0
 40
0.6666666667
  1
262
  7
TEXTSTYLE_2
100
AcDbText
  0
TEXT
  5
27D
330
233
100
AcDbEntity
  8
0
  6
Continuous
 62
     7
100
AcDbText
 10
164.4195693097
 20
57.6837460688
 30
0.0
 40
0.6666666667
  1
223
  7
TEXTSTYLE_2
100
AcDbText
  0
TEXT
  5
27E
330
233
100
AcDbEntity
  8
0
  6
Continuous
 62
     7
100
AcDbText
 10
164.4195693097
 20
56.6837460688
 30
0.0
 40
0.6666666667
  1
203
  7
TEXTSTYLE_2
100
AcDbText
  0
TEXT
  5
27F
330
233
100
AcDbEntity
  8
0
  6
Continuous
 62
     7
100
AcDbText
 10
164.4195693097
 20
55.68374606879999
 30
0.0
 40
0.6666666667
  1
183
  7
TEXTSTYLE_2
100
AcDbText
  0
TEXT
  5
280
330
233
100
AcDbEntity
  8
0
  6
Continuous
 62
     7
100
AcDbText
 10
164.4195693097
 20
54.6837460688
 30
0.0
 40
0.6666666667
  1
134
  7
TEXTSTYLE_2
100
AcDbText
  0
TEXT
  5
281
330
233
100
AcDbEntity
  8
0
  6
Continuous
 62
     7
100
AcDbText
 10
171.3642082472
 20
58.6666666667
 30
0.0
 40
0.6666666667
  1
58
  7
TEXTSTYLE_2
100
AcDbText
  0
TEXT
  5
282
330
233
100
AcDbEntity
  8
0
  6
Continuous
 62
     7
100
AcDbText
 10
171.3642082472
 20
57.6666666667
 30
0.0
 40
0.6666666667
  1
49
  7
TEXTSTYLE_2
100
AcDbText
  0
TEXT
  5
283
330
233
100
AcDbEntity
  8
0
  6
Continuous
 62
     7
100
AcDbText
 10
171.3642082472
 20
56.6666666667
 30
0.0
 40
0.6666666667
  1
45
  7
TEXTSTYLE_2
100
AcDbText
  0
TEXT
  5
284
330
233
100
AcDbEntity
  8
0
  6
Continuous
 62
     7
100
AcDbText
 10
171.3642082472
 20
55.6666666667
 30
0.0
 40
0.6666666667
  1
40
  7
TEXTSTYLE_2
100
AcDbText
  0
TEXT
  5
285
330
233
100
AcDbEntity
  8
0
  6
Continuous
 62
     7
100
AcDbText
 10
171.3642082472
 20
54.66666666670001
 30
0.0
 40
0.6666666667
  1
29
  7
TEXTSTYLE_2
100
AcDbText
  0
LINE
  5
286
330
233
100
AcDbEntity
  8
0
  6
Continuous
 62
     7
100
AcDbLine
 10
144.0
 20
64.0
 30
0.0
 11
144.0
 21
46.6666666667
 31
0.0
  0
LINE
  5
287
330
233
100
AcDbEntity
  8
0
  6
Continuous
 62
     7
100
AcDbLine
 10
144.0
 20
64.0
 30
0.0
 11
177.3333333333
 21
64.0
 31
0.0
  0
LINE
  5
288
330
233
100
AcDbEntity
  8
0
  6
Continuous
 62
     7
100
AcDbLine
 10
177.3333333333
 20
64.0
 30
0.0
 11
177.3333333333
 21
46.6666666667
 31
0.0
  0
LINE
  5
289
330
233
100
AcDbEntity
  8
0
  6
Continuous
 62
     7
100
AcDbLine
 10
144.0
 20
46.6666666667
 30
0.0
 11
177.3333333333
 21
46.6666666667
 31
0.0
  0
LINE
  5
28A
330
233
100
AcDbEntity
  8
0
  6
Continuous
 62
     7
100
AcDbLine
 10
145.3333333333
 20
54.0
 30
0.0
 11
176.0
 21
54.0
 31
0.0
  0
LINE
  5
28B
330
233
100
AcDbEntity
  8
0
  6
Continuous
 62
     7
100
AcDbLine
 10
145.3333333333
 20
61.0
 30
0.0
 11
176.0
 21
61.0
 31
0.0
  0
LINE
  5
28C
330
233
100
AcDbEntity
  8
0
  6
Continuous
 62
     7
100
AcDbLine
 10
144.8089065593
 20
52.3781645044
 30
0.0
 11
144.4398858169
 21
52.009143762
 31
0.0
  0
LINE
  5
28D
330
233
100
AcDbEntity
  8
0
  6
Continuous
 62
     7
100
AcDbLine
 10
145.4755732259
 20
52.3781645044
 30
0.0
 11
144.6775574355
 21
51.5801487139
 31
0.0
  0
LINE
  5
28E
330
233
100
AcDbEntity
  8
0
  6
Continuous
 62
     7
100
AcDbLine
 10
146.1422398926
 20
52.3781645044
 30
0.0
 11
145.3442241022
 21
51.5801487139
 31
0.0
  0
LINE
  5
28F
330
233
100
AcDbEntity
  8
0
  6
Continuous
 62
     7
100
AcDbLine
 10
146.8089065593
 20
52.3781645044
 30
0.0
 11
146.0108907688
 21
51.5801487139
 31
0.0
  0
LINE
  5
290
330
233
100
AcDbEntity
  8
0
  6
Continuous
 62
     7
100
AcDbLine
 10
147.4755732259
 20
52.3781645044
 30
0.0
 11
146.6775574355
 21
51.5801487139
 31
0.0
  0
LINE
  5
291
330
233
100
AcDbEntity
  8
0
  6
Continuous
 62
     7
100
AcDbLine
 10
148.1422398926
 20
52.3781645044
 30
0.0
 11
147.3442241022
 21
51.5801487139
 31
0.0
  0
LINE
  5
292
330
233
100
AcDbEntity
  8
0
  6
Continuous
 62
     7
100
AcDbLine
 10
148.8089065593
 20
52.3781645044
 30
0.0
 11
148.0108907688
 21
51.5801487139
 31
0.0
  0
LINE
  5
293
330
233
100
AcDbEntity
  8
0
  6
Continuous
 62
     7
100
AcDbLine
 10
149.4755732259
 20
52.3781645044
 30
0.0
 11
148.6775574355
 21
51.5801487139
 31
0.0
  0
LINE
  5
294
330
233
100
AcDbEntity
  8
0
  6
Continuous
 62
     7
100
AcDbLine
 10
150.1422398926
 20
52.3781645044
 30
0.0
 11
149.3442241022
 21
51.5801487139
 31
0.0
  0
LINE
  5
295
330
233
100
AcDbEntity
  8
0
  6
Continuous
 62
     7
100
AcDbLine
 10
150.5857273268
 20
52.1549852718
 30
0.0
 11
150.0108907688
 21
51.5801487139
 31
0.0
  0
ELLIPSE
  5
296
330
233
100
AcDbEntity
  8
0
  6
Continuous
 62
     7
100
AcDbEllipse
 10
146.1454024822
 20
50.43094770689999
 30
0.0
 11
1.0473539356
 21
0.0
 31
0.0
210
0.0
220
0.0
230
1.0
 40
0.4938647983
 41
0.0
 42
6.283185307179586
  0
ELLIPSE
  5
297
330
233
100
AcDbEntity
  8
0
  6
Continuous
 62
     7
100
AcDbEllipse
 10
146.1454024822
 20
49.0976143736
 30
0.0
 11
1.0473539356
 21
0.0
 31
0.0
210
0.0
220
0.0
230
1.0
 40
0.4938647983
 41
0.0
 42
6.283185307179586
  0
ELLIPSE
  5
298
330
233
100
AcDbEntity
  8
0
  6
Continuous
 62
     7
100
AcDbEllipse
 10
146.1454024822
 20
47.76428104029999
 30
0.0
 11
1.0473539356
 21
0.0
 31
0.0
210
0.0
220
0.0
230
1.0
 40
0.4938647983
 41
0.0
 42
6.283185307179586
  0
ELLIPSE
  5
299
330
233
100
AcDbEntity
  8
0
  6
Continuous
 62
     7
100
AcDbEllipse
 10
157.1640380633
 20
50.45046906399999
 30
0.0
 11
1.0473539356
 21
0.0
 31
0.0
210
0.0
220
0.0
230
1.0
 40
0.4938647983
 41
0.0
 42
6.283185307179586
  0
ENDBLK
  5
29A
330
233
100
AcDbEntity
  8
0
  6
ByBlock
 62
     0
100
AcDbBlockEnd
  0
BLOCK
  5
29B
330
234
100
AcDbEntity
  8
0
  6
Continuous
 62
     7
100
AcDbBlockBegin
  2
SYMBOL_3_BL0
 70
     0
 10
114.4882002152
 20
52.29659140239999
 30
0.0
  3
SYMBOL_3_BL0
  1

  0
TEXT
  5
29C
330
234
100
AcDbEntity
  8
0
  6
Continuous
 62
     7
100
AcDbText
 10
108.1741399134
 20
54.5416253882
 30
0.0
 40
1.1626666667
  1
INTERNAL USE 
 50
10.0
  7
TEXTSTYLE_3
100
AcDbText
  0
TEXT
  5
29D
330
234
100
AcDbEntity
  8
0
  6
Continuous
 62
     7
100
AcDbText
 10
107.4304557094
 20
52.54010421050001
 30
0.0
 40
1.1626666667
  1
DOCUMENT ONLY
 50
10.0
  7
TEXTSTYLE_3
100
AcDbText
  0
TEXT
  5
29E
330
234
100
AcDbEntity
  8
0
  6
Continuous
 62
     7
100
AcDbText
 10
113.2151832727
 20
52.29167616
 30
0.0
 40
1.1626666667
  1
 
 50
10.0
  7
TEXTSTYLE_5
100
AcDbText
  0
TEXT
  5
29F
330
234
100
AcDbEntity
  8
0
  6
Continuous
 62
     7
100
AcDbText
 10
104.7705353897
 20
48.1145817537
 30
0.0
 40
1.1626666667
  1
DOCUMENT POUR USAGE
 50
10.0
  7
TEXTSTYLE_3
100
AcDbText
  0
TEXT
  5
2A0
330
234
100
AcDbEntity
  8
0
  6
Continuous
 62
     7
100
AcDbText
 10
105.1996348357
 20
46.09783329329999
 30
0.0
 40
1.1626666667
  1
A L'INTERNE SEULEMENT
 50
10.0
  7
TEXTSTYLE_3
100
AcDbText
  0
LINE
  5
2A1
330
234
100
AcDbEntity
  8
0
  6
Continuous
 62
     7
100
AcDbLine
 10
128.3447519385
 20
47.95305778439999
 30
0.0
 11
128.3515108712
 21
47.95981671709999
 31
0.0
  0
LINE
  5
2A2
330
234
100
AcDbEntity
  8
0
  6
Continuous
 62
     7
100
AcDbLine
 10
127.6121823721
 20
47.8238860046
 30
0.0
 11
128.2610638172
 21
48.4727674497
 31
0.0
  0
LINE
  5
2A3
330
234
100
AcDbEntity
  8
0
  6
Continuous
 62
     7
100
AcDbLine
 10
126.8796128057
 20
47.69471422479999
 30
0.0
 11
128.1706167633
 21
48.9857181824
 31
0.0
  0
LINE
  5
2A4
330
234
100
AcDbEntity
  8
0
  6
Continuous
 62
     7
100
AcDbLine
 10
126.1470432393
 20
47.565542445
 30
0.0
 11
128.0801697093
 21
49.49866891510001
 31
0.0
  0
LINE
  5
2A5
330
234
100
AcDbEntity
  8
0
  6
Continuous
 62
     7
100
AcDbLine
 10
125.4144736729
 20
47.4363706652
 30
0.0
 11
127.9897226554
 21
50.0116196477
 31
0.0
  0
LINE
  5
2A6
330
234
100
AcDbEntity
  8
0
  6
Continuous
 62
     7
100
AcDbLine
 10
124.6819041064
 20
47.3071988854
 30
0.0
 11
126.2229079212
 21
48.8482027002
 31
0.0
  0
LINE
  5
2A7
330
234
100
AcDbEntity
  8
0
  6
Continuous
 62
     7
100
AcDbLine
 10
126.8202531139
 20
49.4455478929
 30
0.0
 11
127.8992756015
 21
50.5245703804
 31
0.0
  0
LINE
  5
2A8
330
234
100
AcDbEntity
  8
0
  6
Continuous
 62
     7
100
AcDbLine
 10
123.94933454
 20
47.1780271056
 30
0.0
 11
125.4903383548
 21
48.7190309204
 31
0.0
  0
LINE
  5
2A9
330
234
100
AcDbEntity
  8
0
  6
Continuous
 62
     7
100
AcDbLine
 10
126.72980606
 20
49.9584986256
 30
0.0
 11
127.8088285475
 21
51.03752111310001
 31
0.0
  0
LINE
  5
2AA
330
234
100
AcDbEntity
  8
0
  6
Continuous
 62
     7
100
AcDbLine
 10
123.2167649736
 20
47.04885532579999
 30
0.0
 11
124.7577687884
 21
48.5898591406
 31
0.0
  0
LINE
  5
2AB
330
234
100
AcDbEntity
  8
0
  6
Continuous
 62
     7
100
AcDbLine
 10
126.639359006
 20
50.4714493582
 30
0.0
 11
127.7183814936
 21
51.55047184569999
 31
0.0
  0
LINE
  5
2AC
330
234
100
AcDbEntity
  8
0
  6
Continuous
 62
     7
100
AcDbLine
 10
122.4841954072
 20
46.919683546
 30
0.0
 11
124.025199222
 21
48.4606873608
 31
0.0
  0
LINE
  5
2AD
330
234
100
AcDbEntity
  8
0
  6
Continuous
 62
     7
100
AcDbLine
 10
126.5489119521
 20
50.9844000909
 30
0.0
 11
127.6279344396
 21
52.0634225784
 31
0.0
  0
LINE
  5
2AE
330
234
100
AcDbEntity
  8
0
  6
Continuous
 62
     7
100
AcDbLine
 10
121.7516258408
 20
46.79051176619999
 30
0.0
 11
123.2926296555
 21
48.3315155809
 31
0.0
  0
LINE
  5
2AF
330
234
100
AcDbEntity
  8
0
  6
Continuous
 62
     7
100
AcDbLine
 10
126.4584648982
 20
51.49735082359999
 30
0.0
 11
127.5374873857
 21
52.5763733111
 31
0.0
  0
LINE
  5
2B0
330
234
100
AcDbEntity
  8
0
  6
Continuous
 62
     7
100
AcDbLine
 10
121.0190562743
 20
46.6613399864
 30
0.0
 11
122.5600600891
 21
48.2023438011
 31
0.0
  0
LINE
  5
2B1
330
234
100
AcDbEntity
  8
0
  6
Continuous
 62
     7
100
AcDbLine
 10
126.3680178442
 20
52.01030155619999
 30
0.0
 11
127.4470403317
 21
53.0893240438
 31
0.0
  0
LINE
  5
2B2
330
234
100
AcDbEntity
  8
0
  6
Continuous
 62
     7
100
AcDbLine
 10
120.2864867079
 20
46.53216820659999
 30
0.0
 11
121.8274905227
 21
48.07317202130001
 31
0.0
  0
LINE
  5
2B3
330
234
100
AcDbEntity
  8
0
  6
Continuous
 62
     7
100
AcDbLine
 10
126.2775707903
 20
52.52325228890001
 30
0.0
 11
127.3565932778
 21
53.6022747764
 31
0.0
  0
LINE
  5
2B4
330
234
100
AcDbEntity
  8
0
  6
Continuous
 62
     7
100
AcDbLine
 10
119.5539171415
 20
46.4029964268
 30
0.0
 11
121.0949209563
 21
47.94400024149999
 31
0.0
  0
LINE
  5
2B5
330
234
100
AcDbEntity
  8
0
  6
Continuous
 62
     7
100
AcDbLine
 10
126.1871237363
 20
53.03620302159999
 30
0.0
 11
127.2661462238
 21
54.1152255091
 31
0.0
  0
LINE
  5
2B6
330
234
100
AcDbEntity
  8
0
  6
Continuous
 62
     7
100
AcDbLine
 10
118.8213475751
 20
46.2738246469
 30
0.0
 11
120.3623513899
 21
47.8148284617
 31
0.0
  0
LINE
  5
2B7
330
234
100
AcDbEntity
  8
0
  6
Continuous
 62
     7
100
AcDbLine
 10
126.0966766824
 20
53.5491537542
 30
0.0
 11
127.1756991699
 21
54.62817624180001
 31
0.0
  0
LINE
  5
2B8
330
234
100
AcDbEntity
  8
0
  6
Continuous
 62
     7
100
AcDbLine
 10
118.0887780087
 20
46.14465286709999
 30
0.0
 11
119.6297818234
 21
47.68565668189999
 31
0.0
  0
LINE
  5
2B9
330
234
100
AcDbEntity
  8
0
  6
Continuous
 62
     7
100
AcDbLine
 10
125.7937970826
 20
53.849671941
 30
0.0
 11
127.085252116
 21
55.14112697439999
 31
0.0
  0
LINE
  5
2BA
330
234
100
AcDbEntity
  8
0
  6
Continuous
 62
     7
100
AcDbLine
 10
117.3562084423
 20
46.01548108729999
 30
0.0
 11
118.897212257
 21
47.5564849021
 31
0.0
  0
LINE
  5
2BB
330
234
100
AcDbEntity
  8
0
  6
Continuous
 62
     7
100
AcDbLine
 10
125.0612275161
 20
53.7205001612
 30
0.0
 11
126.994805062
 21
55.6540777071
 31
0.0
  0
LINE
  5
2BC
330
234
100
AcDbEntity
  8
0
  6
Continuous
 62
     7
100
AcDbLine
 10
116.6236388758
 20
45.88630930749999
 30
0.0
 11
118.1646426906
 21
47.42731312229999
 31
0.0
  0
LINE
  5
2BD
330
234
100
AcDbEntity
  8
0
  6
Continuous
 62
     7
100
AcDbLine
 10
124.3286579497
 20
53.5913283814
 30
0.0
 11
125.356000248
 21
54.6186706797
 31
0.0
  0
LINE
  5
2BE
330
234
100
AcDbEntity
  8
0
  6
Continuous
 62
     7
100
AcDbLine
 10
125.8253355206
 20
55.08800595229999
 30
0.0
 11
126.9043580081
 21
56.16702843979999
 31
0.0
  0
LINE
  5
2BF
330
234
100
AcDbEntity
  8
0
  6
Continuous
 62
     7
100
AcDbLine
 10
115.8910693094
 20
45.7571375277
 30
0.0
 11
117.4320731242
 21
47.2981413425
 31
0.0
  0
LINE
  5
2C0
330
234
100
AcDbEntity
  8
0
  6
Continuous
 62
     7
100
AcDbLine
 10
123.5960883833
 20
53.4621566016
 30
0.0
 11
124.623430472
 21
54.48949869029999
 31
0.0
  0
LINE
  5
2C1
330
234
100
AcDbEntity
  8
0
  6
Continuous
 62
     7
100
AcDbLine
 10
125.7348884666
 20
55.60095668489999
 30
0.0
 11
126.8139109541
 21
56.6799791724
 31
0.0
  0
LINE
  5
2C2
330
234
100
AcDbEntity
  8
0
  6
Continuous
 62
     7
100
AcDbLine
 10
115.158499743
 20
45.6279657479
 30
0.0
 11
116.6995035578
 21
47.16896956270001
 31
0.0
  0
LINE
  5
2C3
330
234
100
AcDbEntity
  8
0
  6
Continuous
 62
     7
100
AcDbLine
 10
122.8635188169
 20
53.3329848218
 30
0.0
 11
123.8908606959
 21
54.3603267008
 31
0.0
  0
LINE
  5
2C4
330
234
100
AcDbEntity
  8
0
  6
Continuous
 62
     7
100
AcDbLine
 10
125.6444414127
 20
56.11390741760001
 30
0.0
 11
126.7234639002
 21
57.1929299051
 31
0.0
  0
LINE
  5
2C5
330
234
100
AcDbEntity
  8
0
  6
Continuous
 62
     7
100
AcDbLine
 10
114.4259301766
 20
45.4987939681
 30
0.0
 11
115.9669339914
 21
47.0397977829
 31
0.0
  0
LINE
  5
2C6
330
234
100
AcDbEntity
  8
0
  6
Continuous
 62
     7
100
AcDbLine
 10
122.1309492505
 20
53.203813042
 30
0.0
 11
123.1582909199
 21
54.2311547114
 31
0.0
  0
LINE
  5
2C7
330
234
100
AcDbEntity
  8
0
  6
Continuous
 62
     7
100
AcDbLine
 10
125.5539943587
 20
56.62685815029999
 30
0.0
 11
126.6330168462
 21
57.70588063779999
 31
0.0
  0
LINE
  5
2C8
330
234
100
AcDbEntity
  8
0
  6
Continuous
 62
     7
100
AcDbLine
 10
113.6933606102
 20
45.3696221883
 30
0.0
 11
115.2343644249
 21
46.9106260031
 31
0.0
  0
LINE
  5
2C9
330
234
100
AcDbEntity
  8
0
  6
Continuous
 62
     7
100
AcDbLine
 10
121.398379684
 20
53.07464126220001
 30
0.0
 11
122.4257211439
 21
54.10198272199999
 31
0.0
  0
LINE
  5
2CA
330
234
100
AcDbEntity
  8
0
  6
Continuous
 62
     7
100
AcDbLine
 10
125.4635473048
 20
57.1398088829
 30
0.0
 11
126.5425697923
 21
58.2188313704
 31
0.0
  0
LINE
  5
2CB
330
234
100
AcDbEntity
  8
0
  6
Continuous
 62
     7
100
AcDbLine
 10
112.9607910437
 20
45.2404504085
 30
0.0
 11
114.5017948585
 21
46.7814542233
 31
0.0
  0
LINE
  5
2CC
330
234
100
AcDbEntity
  8
0
  6
Continuous
 62
     7
100
AcDbLine
 10
120.6658101176
 20
52.9454694824
 30
0.0
 11
121.6931513678
 21
53.9728107326
 31
0.0
  0
LINE
  5
2CD
330
234
100
AcDbEntity
  8
0
  6
Continuous
 62
     7
100
AcDbLine
 10
125.3731002508
 20
57.6527596156
 30
0.0
 11
126.4521227384
 21
58.7317821031
 31
0.0
  0
LINE
  5
2CE
330
234
100
AcDbEntity
  8
0
  6
Continuous
 62
     7
100
AcDbLine
 10
112.2282214773
 20
45.1112786287
 30
0.0
 11
113.7692252921
 21
46.6522824435
 31
0.0
  0
LINE
  5
2CF
330
234
100
AcDbEntity
  8
0
  6
Continuous
 62
     7
100
AcDbLine
 10
119.9332405512
 20
52.8162977026
 30
0.0
 11
120.9605815918
 21
53.84363874319999
 31
0.0
  0
LINE
  5
2D0
330
234
100
AcDbEntity
  8
0
  6
Continuous
 62
     7
100
AcDbLine
 10
125.2826531969
 20
58.16571034829999
 30
0.0
 11
126.3616756844
 21
59.2447328358
 31
0.0
  0
LINE
  5
2D1
330
234
100
AcDbEntity
  8
0
  6
Continuous
 62
     7
100
AcDbLine
 10
111.4956519109
 20
44.9821068489
 30
0.0
 11
113.0366557257
 21
46.52311066369999
 31
0.0
  0
LINE
  5
2D2
330
234
100
AcDbEntity
  8
0
  6
Continuous
 62
     7
100
AcDbLine
 10
119.2006709848
 20
52.68712592279999
 30
0.0
 11
120.2280118158
 21
53.7144667538
 31
0.0
  0
LINE
  5
2D3
330
234
100
AcDbEntity
  8
0
  6
Continuous
 62
     7
100
AcDbLine
 10
125.1922061429
 20
58.6786610809
 30
0.0
 11
126.2712286305
 21
59.7576835684
 31
0.0
  0
LINE
  5
2D4
330
234
100
AcDbEntity
  8
0
  6
Continuous
 62
     7
100
AcDbLine
 10
110.7630823445
 20
44.85293506909999
 30
0.0
 11
112.3040861593
 21
46.3939388839
 31
0.0
  0
LINE
  5
2D5
330
234
100
AcDbEntity
  8
0
  6
Continuous
 62
     7
100
AcDbLine
 10
118.4681014184
 20
52.557954143
 30
0.0
 11
119.4954420398
 21
53.5852947644
 31
0.0
  0
LINE
  5
2D6
330
234
100
AcDbEntity
  8
0
  6
Continuous
 62
     7
100
AcDbLine
 10
125.101759089
 20
59.19161181359999
 30
0.0
 11
126.1807815765
 21
60.2706343011
 31
0.0
  0
LINE
  5
2D7
330
234
100
AcDbEntity
  8
0
  6
Continuous
 62
     7
100
AcDbLine
 10
110.0305127781
 20
44.7237632893
 30
0.0
 11
111.5715165929
 21
46.26476710409999
 31
0.0
  0
LINE
  5
2D8
330
234
100
AcDbEntity
  8
0
  6
Continuous
 62
     7
100
AcDbLine
 10
117.735531852
 20
52.4287823632
 30
0.0
 11
118.7628722637
 21
53.45612277489999
 31
0.0
  0
LINE
  5
2D9
330
234
100
AcDbEntity
  8
0
  6
Continuous
 62
     7
100
AcDbLine
 10
124.9268829876
 20
59.6201334988
 30
0.0
 11
126.0903345226
 21
60.7835850338
 31
0.0
  0
LINE
  5
2DA
330
234
100
AcDbEntity
  8
0
  6
Continuous
 62
     7
100
AcDbLine
 10
109.2979432117
 20
44.59459150949999
 30
0.0
 11
110.8389470264
 21
46.1355953243
 31
0.0
  0
LINE
  5
2DB
330
234
100
AcDbEntity
  8
0
  6
Continuous
 62
     7
100
AcDbLine
 10
117.0029622855
 20
52.2996105834
 30
0.0
 11
118.0303024877
 21
53.3269507855
 31
0.0
  0
LINE
  5
2DC
330
234
100
AcDbEntity
  8
0
  6
Continuous
 62
     7
100
AcDbLine
 10
124.1943134212
 20
59.49096171899999
 30
0.0
 11
125.7353172359
 21
61.0319655338
 31
0.0
  0
LINE
  5
2DD
330
234
100
AcDbEntity
  8
0
  6
Continuous
 62
     7
100
AcDbLine
 10
108.5653736452
 20
44.4654197297
 30
0.0
 11
110.10637746
 21
46.00642354449999
 31
0.0
  0
LINE
  5
2DE
330
234
100
AcDbEntity
  8
0
  6
Continuous
 62
     7
100
AcDbLine
 10
116.2703927191
 20
52.1704388036
 30
0.0
 11
117.2977327117
 21
53.1977787961
 31
0.0
  0
LINE
  5
2DF
330
234
100
AcDbEntity
  8
0
  6
Continuous
 62
     7
100
AcDbLine
 10
123.4617438548
 20
59.3617899392
 30
0.0
 11
125.0027476695
 21
60.90279375399999
 31
0.0
  0
LINE
  5
2E0
330
234
100
AcDbEntity
  8
0
  6
Continuous
 62
     7
100
AcDbLine
 10
107.8328040788
 20
44.3362479499
 30
0.0
 11
109.3738078936
 21
45.8772517646
 31
0.0
  0
LINE
  5
2E1
330
234
100
AcDbEntity
  8
0
  6
Continuous
 62
     7
100
AcDbLine
 10
115.5378231527
 20
52.0412670238
 30
0.0
 11
116.5651629356
 21
53.0686068067
 31
0.0
  0
LINE
  5
2E2
330
234
100
AcDbEntity
  8
0
  6
Continuous
 62
     7
100
AcDbLine
 10
122.7291742883
 20
59.2326181594
 30
0.0
 11
124.2701781031
 21
60.7736219742
 31
0.0
  0
LINE
  5
2E3
330
234
100
AcDbEntity
  8
0
  6
Continuous
 62
     7
100
AcDbLine
 10
107.1002345124
 20
44.2070761701
 30
0.0
 11
108.6412383272
 21
45.74807998479999
 31
0.0
  0
LINE
  5
2E4
330
234
100
AcDbEntity
  8
0
  6
Continuous
 62
     7
100
AcDbLine
 10
114.8052535863
 20
51.9120952439
 30
0.0
 11
115.8325931596
 21
52.9394348173
 31
0.0
  0
LINE
  5
2E5
330
234
100
AcDbEntity
  8
0
  6
Continuous
 62
     7
100
AcDbLine
 10
121.9966047219
 20
59.1034463796
 30
0.0
 11
123.5376085367
 21
60.64445019439999
 31
0.0
  0
LINE
  5
2E6
330
234
100
AcDbEntity
  8
0
  6
Continuous
 62
     7
100
AcDbLine
 10
106.367664946
 20
44.0779043903
 30
0.0
 11
107.9086687608
 21
45.61890820499999
 31
0.0
  0
LINE
  5
2E7
330
234
100
AcDbEntity
  8
0
  6
Continuous
 62
     7
100
AcDbLine
 10
114.0726840199
 20
51.7829234641
 30
0.0
 11
115.1000233836
 21
52.8102628279
 31
0.0
  0
LINE
  5
2E8
330
234
100
AcDbEntity
  8
0
  6
Continuous
 62
     7
100
AcDbLine
 10
121.2640351555
 20
58.9742745998
 30
0.0
 11
122.8050389703
 21
60.51527841449999
 31
0.0
  0
LINE
  5
2E9
330
234
100
AcDbEntity
  8
0
  6
Continuous
 62
     7
100
AcDbLine
 10
105.6350953796
 20
43.9487326105
 30
0.0
 11
107.1760991943
 21
45.4897364252
 31
0.0
  0
LINE
  5
2EA
330
234
100
AcDbEntity
  8
0
  6
Continuous
 62
     7
100
AcDbLine
 10
113.3401144535
 20
51.6537516843
 30
0.0
 11
114.3674536076
 21
52.6810908384
 31
0.0
  0
LINE
  5
2EB
330
234
100
AcDbEntity
  8
0
  6
Continuous
 62
     7
100
AcDbLine
 10
120.5314655891
 20
58.84510282
 30
0.0
 11
122.0724694039
 21
60.3861066347
 31
0.0
  0
LINE
  5
2EC
330
234
100
AcDbEntity
  8
0
  6
Continuous
 62
     7
100
AcDbLine
 10
104.9025258131
 20
43.8195608306
 30
0.0
 11
106.4435296279
 21
45.36056464539999
 31
0.0
  0
LINE
  5
2ED
330
234
100
AcDbEntity
  8
0
  6
Continuous
 62
     7
100
AcDbLine
 10
112.607544887
 20
51.5245799045
 30
0.0
 11
113.6348838315
 21
52.551918849
 31
0.0
  0
LINE
  5
2EE
330
234
100
AcDbEntity
  8
0
  6
Continuous
 62
     7
100
AcDbLine
 10
119.7988960227
 20
58.7159310402
 30
0.0
 11
121.3398998374
 21
60.25693485489999
 31
0.0
  0
LINE
  5
2EF
330
234
100
AcDbEntity
  8
0
  6
Continuous
 62
     7
100
AcDbLine
 10
104.1699562467
 20
43.6903890508
 30
0.0
 11
105.7109600615
 21
45.23139286560001
 31
0.0
  0
LINE
  5
2F0
330
234
100
AcDbEntity
  8
0
  6
Continuous
 62
     7
100
AcDbLine
 10
111.8749753206
 20
51.3954081247
 30
0.0
 11
112.9023140555
 21
52.4227468596
 31
0.0
  0
LINE
  5
2F1
330
234
100
AcDbEntity
  8
0
  6
Continuous
 62
     7
100
AcDbLine
 10
119.0663264562
 20
58.5867592604
 30
0.0
 11
120.607330271
 21
60.1277630751
 31
0.0
  0
LINE
  5
2F2
330
234
100
AcDbEntity
  8
0
  6
Continuous
 62
     7
100
AcDbLine
 10
103.4373866803
 20
43.561217271
 30
0.0
 11
104.9783904951
 21
45.10222108579999
 31
0.0
  0
LINE
  5
2F3
330
234
100
AcDbEntity
  8
0
  6
Continuous
 62
     7
100
AcDbLine
 10
111.1424057542
 20
51.2662363449
 30
0.0
 11
112.1697442795
 21
52.2935748702
 31
0.0
  0
LINE
  5
2F4
330
234
100
AcDbEntity
  8
0
  6
Continuous
 62
     7
100
AcDbLine
 10
118.3337568898
 20
58.4575874805
 30
0.0
 11
119.8747607046
 21
59.99859129529999
 31
0.0
  0
LINE
  5
2F5
330
234
100
AcDbEntity
  8
0
  6
Continuous
 62
     7
100
AcDbLine
 10
102.8860659078
 20
43.6132942851
 30
0.0
 11
104.2458209287
 21
44.97304930600001
 31
0.0
  0
LINE
  5
2F6
330
234
100
AcDbEntity
  8
0
  6
Continuous
 62
     7
100
AcDbLine
 10
110.4098361878
 20
51.1370645651
 30
0.0
 11
111.4371745034
 21
52.1644028808
 31
0.0
  0
LINE
  5
2F7
330
234
100
AcDbEntity
  8
0
  6
Continuous
 62
     7
100
AcDbLine
 10
117.6011873234
 20
58.3284157007
 30
0.0
 11
119.1421911382
 21
59.8694195155
 31
0.0
  0
LINE
  5
2F8
330
234
100
AcDbEntity
  8
0
  6
Continuous
 62
     7
100
AcDbLine
 10
102.7956188538
 20
44.12624501779999
 30
0.0
 11
103.8746413414
 21
45.2052675053
 31
0.0
  0
LINE
  5
2F9
330
234
100
AcDbEntity
  8
0
  6
Continuous
 62
     7
100
AcDbLine
 10
109.6772666214
 20
51.00789278529999
 30
0.0
 11
110.7046047274
 21
52.0352308914
 31
0.0
  0
LINE
  5
2FA
330
234
100
AcDbEntity
  8
0
  6
Continuous
 62
     7
100
AcDbLine
 10
116.868617757
 20
58.1992439209
 30
0.0
 11
118.4096215718
 21
59.7402477357
 31
0.0
  0
LINE
  5
2FB
330
234
100
AcDbEntity
  8
0
  6
Continuous
 62
     7
100
AcDbLine
 10
102.7051717999
 20
44.6391957505
 30
0.0
 11
103.7841942874
 21
45.71821823799999
 31
0.0
  0
LINE
  5
2FC
330
234
100
AcDbEntity
  8
0
  6
Continuous
 62
     7
100
AcDbLine
 10
108.9446970549
 20
50.87872100550001
 30
0.0
 11
109.9720349514
 21
51.90605890189999
 31
0.0
  0
LINE
  5
2FD
330
234
100
AcDbEntity
  8
0
  6
Continuous
 62
     7
100
AcDbLine
 10
116.1360481906
 20
58.0700721411
 30
0.0
 11
117.6770520053
 21
59.6110759559
 31
0.0
  0
LINE
  5
2FE
330
234
100
AcDbEntity
  8
0
  6
Continuous
 62
     7
100
AcDbLine
 10
102.614724746
 20
45.1521464831
 30
0.0
 11
103.6937472335
 21
46.2311689707
 31
0.0
  0
LINE
  5
2FF
330
234
100
AcDbEntity
  8
0
  6
Continuous
 62
     7
100
AcDbLine
 10
108.2121274885
 20
50.74954922569999
 30
0.0
 11
109.2394651754
 21
51.7768869125
 31
0.0
  0
LINE
  5
300
330
234
100
AcDbEntity
  8
0
  6
Continuous
 62
     7
100
AcDbLine
 10
115.4034786242
 20
57.9409003613
 30
0.0
 11
116.9444824389
 21
59.4819041761
 31
0.0
  0
LINE
  5
301
330
234
100
AcDbEntity
  8
0
  6
Continuous
 62
     7
100
AcDbLine
 10
102.524277692
 20
45.6650972158
 30
0.0
 11
103.6033001795
 21
46.7441197033
 31
0.0
  0
LINE
  5
302
330
234
100
AcDbEntity
  8
0
  6
Continuous
 62
     7
100
AcDbLine
 10
107.4795579220999
 20
50.6203774459
 30
0.0
 11
108.5068953993
 21
51.6477149231
 31
0.0
  0
LINE
  5
303
330
234
100
AcDbEntity
  8
0
  6
Continuous
 62
     7
100
AcDbLine
 10
114.6709090577
 20
57.8117285815
 30
0.0
 11
116.2119128725
 21
59.35273239629999
 31
0.0
  0
LINE
  5
304
330
234
100
AcDbEntity
  8
0
  6
Continuous
 62
     7
100
AcDbLine
 10
102.4338306381
 20
46.1780479485
 30
0.0
 11
103.5128531256
 21
47.257070436
 31
0.0
  0
LINE
  5
305
330
234
100
AcDbEntity
  8
0
  6
Continuous
 62
     7
100
AcDbLine
 10
106.7469883557
 20
50.4912056661
 30
0.0
 11
107.7743256233
 21
51.5185429337
 31
0.0
  0
LINE
  5
306
330
234
100
AcDbEntity
  8
0
  6
Continuous
 62
     7
100
AcDbLine
 10
113.9383394913
 20
57.6825568017
 30
0.0
 11
115.4793433061
 21
59.22356061649999
 31
0.0
  0
LINE
  5
307
330
234
100
AcDbEntity
  8
0
  6
Continuous
 62
     7
100
AcDbLine
 10
102.3433835841
 20
46.69099868109999
 30
0.0
 11
103.4224060716
 21
47.7700211687
 31
0.0
  0
LINE
  5
308
330
234
100
AcDbEntity
  8
0
  6
Continuous
 62
     7
100
AcDbLine
 10
106.0144187893
 20
50.3620338863
 30
0.0
 11
107.0417558473
 21
51.38937094430001
 31
0.0
  0
LINE
  5
309
330
234
100
AcDbEntity
  8
0
  6
Continuous
 62
     7
100
AcDbLine
 10
113.2057699249
 20
57.55338502189999
 30
0.0
 11
114.7467737397
 21
59.0943888367
 31
0.0
  0
LINE
  5
30A
330
234
100
AcDbEntity
  8
0
  6
Continuous
 62
     7
100
AcDbLine
 10
102.2529365302
 20
47.2039494138
 30
0.0
 11
103.3319590177
 21
48.2829719013
 31
0.0
  0
LINE
  5
30B
330
234
100
AcDbEntity
  8
0
  6
Continuous
 62
     7
100
AcDbLine
 10
105.2818492229
 20
50.23286210649999
 30
0.0
 11
106.3091860712
 21
51.26019895489999
 31
0.0
  0
LINE
  5
30C
330
234
100
AcDbEntity
  8
0
  6
Continuous
 62
     7
100
AcDbLine
 10
112.4732003585
 20
57.4242132421
 30
0.0
 11
114.0142041733
 21
58.96521705689999
 31
0.0
  0
LINE
  5
30D
330
234
100
AcDbEntity
  8
0
  6
Continuous
 62
     7
100
AcDbLine
 10
102.1624894762
 20
47.71690014649999
 30
0.0
 11
103.2415119638
 21
48.79592263399999
 31
0.0
  0
LINE
  5
30E
330
234
100
AcDbEntity
  8
0
  6
Continuous
 62
     7
100
AcDbLine
 10
104.5492796564
 20
50.1036903267
 30
0.0
 11
105.5766162952
 21
51.1310269654
 31
0.0
  0
LINE
  5
30F
330
234
100
AcDbEntity
  8
0
  6
Continuous
 62
     7
100
AcDbLine
 10
111.7406307921
 20
57.2950414623
 30
0.0
 11
113.2816346068
 21
58.8360452771
 31
0.0
  0
LINE
  5
310
330
234
100
AcDbEntity
  8
0
  6
Continuous
 62
     7
100
AcDbLine
 10
102.0720424223
 20
48.2298508791
 30
0.0
 11
103.1510649098
 21
49.3088733667
 31
0.0
  0
LINE
  5
311
330
234
100
AcDbEntity
  8
0
  6
Continuous
 62
     7
100
AcDbLine
 10
103.81671009
 20
49.97451854689999
 30
0.0
 11
104.8440465192
 21
51.001854976
 31
0.0
  0
LINE
  5
312
330
234
100
AcDbEntity
  8
0
  6
Continuous
 62
     7
100
AcDbLine
 10
111.0080612256
 20
57.1658696825
 30
0.0
 11
112.5490650404
 21
58.70687349729999
 31
0.0
  0
LINE
  5
313
330
234
100
AcDbEntity
  8
0
  6
Continuous
 62
     7
100
AcDbLine
 10
101.9815953684
 20
48.7428016118
 30
0.0
 11
103.0606178559
 21
49.8218240993
 31
0.0
  0
LINE
  5
314
330
234
100
AcDbEntity
  8
0
  6
Continuous
 62
     7
100
AcDbLine
 10
103.0841405236
 20
49.8453467671
 30
0.0
 11
104.1114767432
 21
50.87268298659999
 31
0.0
  0
LINE
  5
315
330
234
100
AcDbEntity
  8
0
  6
Continuous
 62
     7
100
AcDbLine
 10
110.2754916592
 20
57.03669790270001
 30
0.0
 11
111.816495474
 21
58.5777017175
 31
0.0
  0
LINE
  5
316
330
234
100
AcDbEntity
  8
0
  6
Continuous
 62
     7
100
AcDbLine
 10
101.8911483144
 20
49.2557523445
 30
0.0
 11
103.3789069671
 21
50.74351099720001
 31
0.0
  0
LINE
  5
317
330
234
100
AcDbEntity
  8
0
  6
Continuous
 62
     7
100
AcDbLine
 10
109.5429220928
 20
56.9075261229
 30
0.0
 11
111.0839259076
 21
58.4485299377
 31
0.0
  0
LINE
  5
318
330
234
100
AcDbEntity
  8
0
  6
Continuous
 62
     7
100
AcDbLine
 10
101.8007012605
 20
49.7687030772
 30
0.0
 11
102.879723748
 21
50.84772556469999
 31
0.0
  0
LINE
  5
319
330
234
100
AcDbEntity
  8
0
  6
Continuous
 62
     7
100
AcDbLine
 10
108.8103525264
 20
56.77835434310001
 30
0.0
 11
110.3513563412
 21
58.3193581579
 31
0.0
  0
LINE
  5
31A
330
234
100
AcDbEntity
  8
0
  6
Continuous
 62
     7
100
AcDbLine
 10
101.7102542065
 20
50.28165380979999
 30
0.0
 11
102.789276694
 21
51.3606762973
 31
0.0
  0
LINE
  5
31B
330
234
100
AcDbEntity
  8
0
  6
Continuous
 62
     7
100
AcDbLine
 10
108.07778296
 20
56.6491825633
 30
0.0
 11
109.6187867748
 21
58.1901863781
 31
0.0
  0
LINE
  5
31C
330
234
100
AcDbEntity
  8
0
  6
Continuous
 62
     7
100
AcDbLine
 10
101.6198071526
 20
50.7946045425
 30
0.0
 11
102.6988296401
 21
51.87362703
 31
0.0
  0
LINE
  5
31D
330
234
100
AcDbEntity
  8
0
  6
Continuous
 62
     7
100
AcDbLine
 10
107.3452133936
 20
56.5200107835
 30
0.0
 11
108.8862172083
 21
58.06101459819999
 31
0.0
  0
LINE
  5
31E
330
234
100
AcDbEntity
  8
0
  6
Continuous
 62
     7
100
AcDbLine
 10
101.5293600986
 20
51.3075552752
 30
0.0
 11
102.6083825862
 21
52.38657776270001
 31
0.0
  0
LINE
  5
31F
330
234
100
AcDbEntity
  8
0
  6
Continuous
 62
     7
100
AcDbLine
 10
106.6126438271
 20
56.3908390037
 30
0.0
 11
108.1536476419
 21
57.9318428184
 31
0.0
  0
LINE
  5
320
330
234
100
AcDbEntity
  8
0
  6
Continuous
 62
     7
100
AcDbLine
 10
101.4389130447
 20
51.8205060078
 30
0.0
 11
102.5179355322
 21
52.89952849529999
 31
0.0
  0
LINE
  5
321
330
234
100
AcDbEntity
  8
0
  6
Continuous
 62
     7
100
AcDbLine
 10
105.8800742607
 20
56.2616672239
 30
0.0
 11
107.4210780755
 21
57.80267103859999
 31
0.0
  0
LINE
  5
322
330
234
100
AcDbEntity
  8
0
  6
Continuous
 62
     7
100
AcDbLine
 10
101.3484659907
 20
52.3334567405
 30
0.0
 11
102.4274884783
 21
53.412479228
 31
0.0
  0
LINE
  5
323
330
234
100
AcDbEntity
  8
0
  6
Continuous
 62
     7
100
AcDbLine
 10
105.1475046943
 20
56.1324954441
 30
0.0
 11
106.6885085091
 21
57.6734992588
 31
0.0
  0
LINE
  5
324
330
234
100
AcDbEntity
  8
0
  6
Continuous
 62
     7
100
AcDbLine
 10
101.2580189368
 20
52.8464074732
 30
0.0
 11
102.3370414243
 21
53.92542996069999
 31
0.0
  0
LINE
  5
325
330
234
100
AcDbEntity
  8
0
  6
Continuous
 62
     7
100
AcDbLine
 10
104.4149351279
 20
56.0033236642
 30
0.0
 11
105.9559389427
 21
57.544327479
 31
0.0
  0
LINE
  5
326
330
234
100
AcDbEntity
  8
0
  6
Continuous
 62
     7
100
AcDbLine
 10
101.1675718829
 20
53.3593582058
 30
0.0
 11
102.2465943704
 21
54.43838069339999
 31
0.0
  0
LINE
  5
327
330
234
100
AcDbEntity
  8
0
  6
Continuous
 62
     7
100
AcDbLine
 10
103.6823655615
 20
55.87415188439999
 30
0.0
 11
105.2233693762
 21
57.4151556992
 31
0.0
  0
LINE
  5
328
330
234
100
AcDbEntity
  8
0
  6
Continuous
 62
     7
100
AcDbLine
 10
101.0771248289
 20
53.8723089385
 30
0.0
 11
102.1561473164
 21
54.951331426
 31
0.0
  0
LINE
  5
329
330
234
100
AcDbEntity
  8
0
  6
Continuous
 62
     7
100
AcDbLine
 10
102.949795995
 20
55.74498010460001
 30
0.0
 11
104.4907998098
 21
57.2859839194
 31
0.0
  0
LINE
  5
32A
330
234
100
AcDbEntity
  8
0
  6
Continuous
 62
     7
100
AcDbLine
 10
100.986677775
 20
54.3852596712
 30
0.0
 11
102.0657002625
 21
55.4642821587
 31
0.0
  0
LINE
  5
32B
330
234
100
AcDbEntity
  8
0
  6
Continuous
 62
     7
100
AcDbLine
 10
102.2172264286
 20
55.61580832479999
 30
0.0
 11
103.7582302434
 21
57.15681213959999
 31
0.0
  0
LINE
  5
32C
330
234
100
AcDbEntity
  8
0
  6
Continuous
 62
     7
100
AcDbLine
 10
100.896230721
 20
54.8982104038
 30
0.0
 11
103.025660677
 21
57.02764035979999
 31
0.0
  0
LINE
  5
32D
330
234
100
AcDbEntity
  8
0
  6
Continuous
 62
     7
100
AcDbLine
 10
100.8057836671
 20
55.4111611365
 30
0.0
 11
102.2930911106
 21
56.89846858
 31
0.0
  0
LINE
  5
32E
330
234
100
AcDbEntity
  8
0
  6
Continuous
 62
     7
100
AcDbLine
 10
100.7153366131
 20
55.92411186919999
 30
0.0
 11
101.5605215442
 21
56.7692968002
 31
0.0
  0
LINE
  5
32F
330
234
100
AcDbEntity
  8
0
  6
Continuous
 62
     7
100
AcDbLine
 10
100.6248895592
 20
56.4370626018
 30
0.0
 11
100.8279519777
 21
56.6401250204
 31
0.0
  0
ENDBLK
  5
330
330
234
100
AcDbEntity
  8
0
  6
ByBlock
 62
     0
100
AcDbBlockEnd
  0
ENDSEC
  0
SECTION
  2
ENTITIES
  0
LWPOLYLINE
  5
296D
330
211
100
AcDbEntity
  8
0
  6
Continuous
 62
     7
100
AcDbPolyline
 90
      105
 70
     0
 43
0.0
 10
-38.54190309221726
 20
71.64354610450001
 10
-38.54204703351725
 20
71.6376573885
 10
-38.54212310031726
 20
71.6317840267
 10
-38.54213162901725
 20
71.6259264742
 10
-38.54207279881725
 20
71.6200871243
 10
-38.54194687151725
 20
71.61426796569999
 10
-38.54175413941725
 20
71.6084706194
 10
-38.54149492031725
 20
71.602696833
 10
-38.54116955561725
 20
71.5969481616
 10
-38.54077840311725
 20
71.59122615279999
 10
-38.54032186381726
 20
71.58553251890001
 10
-38.53980033431725
 20
71.5798686813
 10
-38.53921434181725
 20
71.57423699209999
 10
-38.53856440891725
 20
71.5686393342
 10
-38.53785123011725
 20
71.5630784376
 10
-38.53707552441725
 20
71.5575567301
 10
-38.53623814091725
 20
71.5520768595
 10
-38.53534008851725
 20
71.5466420244
 10
-38.53438203471725
 20
71.5412528259
 10
-38.53336513651725
 20
71.53591244640001
 10
-38.53228901771725
 20
71.53061623060001
 10
-38.53115320201725
 20
71.5253601989
 10
-38.52995819511725
 20
71.52014570529999
 10
-38.52870333741726
 20
71.5149693332
 10
-38.52739141081725
 20
71.5098414529
 10
-38.52602556521726
 20
71.50477219959999
 10
-38.52460562341725
 20
71.499758251
 10
-38.52313210041726
 20
71.49479932140001
 10
-38.52160587651726
 20
71.4898964087
 10
-38.52002773701725
 20
71.48505018609999
 10
-38.51839846221725
 20
71.48026125689999
 10
-38.51671882361726
 20
71.4755302233
 10
-38.51498960861725
 20
71.470857682
 10
-38.51321157051726
 20
71.4662441617
 10
-38.51138556181725
 20
71.4616903897
 10
-38.50951238811725
 20
71.45719698269999
 10
-38.50759295261725
 20
71.45276470899999
 10
-38.50562814541725
 20
71.4483943028
 10
-38.50361884301725
 20
71.44408637640001
 10
-38.50156593361725
 20
71.4398415738
 10
-38.49947029161725
 20
71.4356604302
 10
-38.49733279751725
 20
71.4315435021
 10
-38.49515433051725
 20
71.4274912705
 10
-38.49293578051726
 20
71.4235042454
 10
-38.49067799811725
 20
71.41958280060001
 10
-38.48838184731726
 20
71.41572734659999
 10
-38.48604816611725
 20
71.41193819600001
 10
-38.48367780071725
 20
71.4082156882
 10
-38.48127157031725
 20
71.4045600735
 10
-38.47883030491725
 20
71.4009716322
 10
-38.47635478961725
 20
71.3974505405
 10
-38.47384582361725
 20
71.393997009
 10
-38.47130415601725
 20
71.39061115060001
 10
-38.46873054951725
 20
71.38729311119999
 10
-38.46612571441724
 20
71.3840429496
 10
-38.46349036991725
 20
71.3808607502
 10
-38.46082519631725
 20
71.3777465395
 10
-38.45813085801726
 20
71.3747003397
 10
-38.45540806381725
 20
71.3717222146
 10
-38.45265749891725
 20
71.3688122108
 10
-38.44987984991725
 20
71.3659703643
 10
-38.44707580311725
 20
71.363196719
 10
-38.44424599661726
 20
71.3604912615
 10
-38.44139109491725
 20
71.35785401140001
 10
-38.43851165301725
 20
71.35528488680001
 10
-38.43560831291725
 20
71.3527838885
 10
-38.43268141661725
 20
71.350350781
 10
-38.42973133801725
 20
71.3479853706
 10
-38.42675853691725
 20
71.3456875726
 10
-38.42376306101725
 20
71.3434570127
 10
-38.42074645001725
 20
71.341294395
 10
-38.41770973571725
 20
71.3392000428
 10
-38.41465455371725
 20
71.3371745329
 10
-38.41158241751725
 20
71.3352183617
 10
-38.40849482071725
 20
71.3333318154
 10
-38.40539327861725
 20
71.3315152105
 10
-38.40227931151725
 20
71.3297686776
 10
-38.39915455781726
 20
71.32809242430001
 10
-38.39602022811725
 20
71.32648626329999
 10
-38.39287796201725
 20
71.32495023209999
 10
-38.38972811291725
 20
71.32348365680001
 10
-38.38657144691725
 20
71.32208608149999
 10
-38.38340828271725
 20
71.3207568684
 10
-38.38023914241725
 20
71.31949546770001
 10
-38.37706408071725
 20
71.3183012025
 10
-38.37388342371725
 20
71.3171734925
 10
-38.37069676641725
 20
71.31611160840001
 10
-38.36750392721726
 20
71.3151148937
 10
-38.36430443421725
 20
71.31418275979999
 10
-38.36109785821725
 20
71.3133146209
 10
-38.35788377291725
 20
71.3125100612
 10
-38.35466171861725
 20
71.3117686416
 10
-38.35143127251726
 20
71.31109009460001
 10
-38.34819199121725
 20
71.310474132
 10
-38.34494340651725
 20
71.30992061899999
 10
-38.34168503901725
 20
71.3094294043
 10
-38.33841643011725
 20
71.30900049510001
 10
-38.33513698191725
 20
71.30863387179999
 10
-38.33184660431725
 20
71.30832970659999
 10
-38.32854498691725
 20
71.30808813659999
 10
-38.32523219091725
 20
71.3079094208
 10
-38.32190817151725
 20
71.3077937997
 10
-38.31857295281725
 20
71.3077415888
 10
-38.31522626591725
 20
71.3077531555
 10
-38.31186897321725
 20
71.3078286985
  0
LINE
  5
296E
330
211
100
AcDbEntity
  8
0
  6
Continuous
 62
     7
100
AcDbLine
 10
-38.31186897321725
 20
70.7356930984
 30
0.0
 11
-38.31186897321725
 21
101.7356930984
 31
0.0
  0
LINE
  5
296F
330
211
100
AcDbEntity
  8
0
  6
Continuous
 62
     7
100
AcDbLine
 10
-38.54190309221726
 20
101.2356930984
 30
0.0
 11
-38.54190309221726
 21
71.64354610450001
 31
0.0
  0
LWPOLYLINE
  5
2970
330
211
100
AcDbEntity
  8
0
  6
Continuous
 62
     7
100
AcDbPolyline
 90
       77
 70
     0
 43
0.0
 10
-42.02318460681725
 20
86.23569456209999
 10
-42.02762882651724
 20
85.80653883869999
 10
-42.04095798141724
 20
85.3775533994
 10
-42.06316537731725
 20
84.9489669535
 10
-42.09424529861725
 20
84.520887799
 10
-42.13434153871725
 20
84.0920177583
 10
-42.18300371791725
 20
83.6667759824
 10
-42.24012639741725
 20
83.2447638106
 10
-42.30341837541724
 20
82.83896096499999
 10
-42.36925241631725
 20
82.4640157928
 10
-42.43721252571726
 20
82.11367768749999
 10
-42.50617074661724
 20
81.78736670810001
 10
-42.57555264751725
 20
81.48260944409999
 10
-42.64492885991725
 20
81.19722315529999
 10
-42.71384282691725
 20
80.9298083796
 10
-42.78205211741725
 20
80.67862705859999
 10
-42.84925450141725
 20
80.4425795655
 10
-42.91531014891726
 20
80.2203106608
 10
-42.98002756431725
 20
80.01091557609999
 10
-43.04333790281726
 20
79.8133059817
 10
-43.10512223831724
 20
79.6267378846
 10
-43.16535673691724
 20
79.45032778789999
 10
-43.22397135311724
 20
79.28345858250001
 10
-43.28097005141725
 20
79.12540750939999
 10
-43.33631832601724
 20
78.97565295079999
 10
-43.39004031081724
 20
78.83359131649999
 10
-43.44212378681724
 20
78.69878393399999
 10
-43.49260466001725
 20
78.570724355
 10
-43.54148464531725
 20
78.4490443679
 10
-43.58880252461725
 20
78.3333256418
 10
-43.63457658831724
 20
78.2232384889
 10
-43.67885748391725
 20
78.1184085962
 10
-43.72166090781725
 20
78.0185742389
 10
-43.76302957681725
 20
77.92343503859999
 10
-43.80298985261725
 20
77.8327509379
 10
-43.84158685131725
 20
77.74625883520001
 10
-43.87885257621725
 20
77.6637429339
 10
-43.91483759311724
 20
77.58496212459999
 10
-43.94956826931725
 20
77.5097425858
 10
-43.98308384431724
 20
77.43789442349999
 10
-44.01542519791725
 20
77.3692355279
 10
-44.04664486701725
 20
77.3035695984
 10
-44.07677194291724
 20
77.2407590158
 10
-44.10585673921725
 20
77.18062986159999
 10
-44.13390736851726
 20
77.1231024851
 10
-44.16094631241725
 20
77.06807281979999
 10
-44.18699422591725
 20
77.01544566649999
 10
-44.21207462111725
 20
76.9651247566
 10
-44.23621309311725
 20
76.9170140989
 10
-44.25943614241726
 20
76.87102004
 10
-44.28177488891726
 20
76.8270436601
 10
-44.30325960901725
 20
76.7849914028
 10
-44.32392850371726
 20
76.7447576941
 10
-44.34381939761725
 20
76.70624109960001
 10
-44.36297208871725
 20
76.6693394845
 10
-44.38142750021724
 20
76.6339514924
 10
-44.39922725931725
 20
76.5999771746
 10
-44.41641422361725
 20
76.5673167984
 10
-44.43303198171725
 20
76.5358717103
 10
-44.44912518051725
 20
76.5055434403
 10
-44.46473948301725
 20
76.47623365779999
 10
-44.47993106711725
 20
76.44782612810001
 10
-44.49471783081725
 20
76.42027733369999
 10
-44.50919461541725
 20
76.39340197260001
 10
-44.52318917711724
 20
76.3675107765
 10
-44.53657348021724
 20
76.3428292958
 10
-44.54930255341724
 20
76.3194283727
 10
-44.56121449971725
 20
76.29759298919999
 10
-44.57253118701724
 20
76.27690600290001
 10
-44.58337083601725
 20
76.25714395189999
 10
-44.59389266071725
 20
76.23801120479999
 10
-44.60425365281724
 20
76.2192192512
 10
-44.61458451101726
 20
76.2005302256
 10
-44.62507617021724
 20
76.181600052
 10
-44.63571833041725
 20
76.1624492688
 10
-44.64657210171725
 20
76.142967595
 10
-44.66885103161724
 20
76.1030887026
  0
LWPOLYLINE
  5
2971
330
211
100
AcDbEntity
  8
0
  6
Continuous
 62
     7
100
AcDbPolyline
 90
       76
 70
     0
 43
0.0
 10
-42.02318460681725
 20
86.23569456209999
 10
-42.02762884921725
 20
86.6648484557
 10
-42.04095798141724
 20
87.0938327974
 10
-42.06316536601724
 20
87.5224190606
 10
-42.09424529861725
 20
87.9504983978
 10
-42.13434153871725
 20
88.37936843840001
 10
-42.18300371791725
 20
88.80461021429999
 10
-42.24012639741725
 20
89.2266223862
 10
-42.30341837541724
 20
89.63242523179999
 10
-42.36925241631725
 20
90.007370404
 10
-42.43721252571726
 20
90.3577085092
 10
-42.50617074661724
 20
90.6840194886
 10
-42.57555264751725
 20
90.98877675270001
 10
-42.64492885991725
 20
91.27416304150001
 10
-42.71384282691725
 20
91.5415778172
 10
-42.78205211741725
 20
91.79275913819999
 10
-42.84925450141725
 20
92.02880663129999
 10
-42.91531014891726
 20
92.251075536
 10
-42.98002756431725
 20
92.46047062059998
 10
-43.04333790281726
 20
92.6580802151
 10
-43.10512223831724
 20
92.8446483121
 10
-43.16535673691724
 20
93.02105840889998
 10
-43.22397135311724
 20
93.18792761430001
 10
-43.28097005141725
 20
93.34597868729998
 10
-43.33631832601724
 20
93.4957332459
 10
-43.39004031081724
 20
93.63779488030001
 10
-43.44212378681724
 20
93.7726022628
 10
-43.49260466001725
 20
93.9006618418
 10
-43.54148464531725
 20
94.02234182879999
 10
-43.58880252461725
 20
94.138060555
 10
-43.63457658831724
 20
94.24814770780001
 10
-43.67885748391725
 20
94.3529776006
 10
-43.72166090781725
 20
94.4528119579
 10
-43.76302957681725
 20
94.54795115809998
 10
-43.80298985261725
 20
94.63863525889999
 10
-43.84158685131725
 20
94.7251273616
 10
-43.87885257621725
 20
94.80764326290001
 10
-43.91483759311724
 20
94.88642407219998
 10
-43.94956826931725
 20
94.96164361099999
 10
-43.98308384431724
 20
95.03349177329999
 10
-44.01542519791725
 20
95.10215066879998
 10
-44.04664486701725
 20
95.1678165983
 10
-44.07677194291724
 20
95.230627181
 10
-44.10585673921725
 20
95.29075633519999
 10
-44.13390736851726
 20
95.3482837117
 10
-44.16094631241725
 20
95.40331337700001
 10
-44.18699422591725
 20
95.45594053030001
 10
-44.21207462111725
 20
95.5062614402
 10
-44.23621309311725
 20
95.55437209790001
 10
-44.25943614241726
 20
95.60036615680001
 10
-44.28177488891726
 20
95.64434253669999
 10
-44.30325960901725
 20
95.68639479389998
 10
-44.32392850371726
 20
95.72662850270001
 10
-44.34381939761725
 20
95.76514509719999
 10
-44.36297208871725
 20
95.80204671229999
 10
-44.38142750021724
 20
95.83743470440001
 10
-44.39922725931725
 20
95.87140902219999
 10
-44.41641422361725
 20
95.9040693983
 10
-44.43303198171725
 20
95.9355144865
 10
-44.44912518051725
 20
95.9658427565
 10
-44.46473948301725
 20
95.99515253889999
 10
-44.47993106711725
 20
96.0235600686
 10
-44.49471783081725
 20
96.051108863
 10
-44.50919461541725
 20
96.0779842242
 10
-44.52318917711724
 20
96.10387542030002
 10
-44.53657348021724
 20
96.12855690100001
 10
-44.54930255341724
 20
96.15195782409999
 10
-44.56121449971725
 20
96.17379320760001
 10
-44.57253118701724
 20
96.19448019389999
 10
-44.58337083601725
 20
96.21424224489999
 10
-44.59389266071725
 20
96.2333749919
 10
-44.60425365281724
 20
96.2521669456
 10
-44.61458451101726
 20
96.2708559712
 10
-44.62507617021724
 20
96.28978614479999
 10
-44.63571833041725
 20
96.308936928
 10
-44.64657210171725
 20
96.3284186017
  0
LWPOLYLINE
  5
2972
330
211
100
AcDbEntity
  8
0
  6
Continuous
 62
     7
100
AcDbPolyline
 90
       78
 70
     0
 43
0.0
 10
-44.64657210171725
 20
96.3284186017
 10
-44.66885103161724
 20
96.36829749410001
 10
-44.68024495891725
 20
96.3886349518
 10
-44.69181995591725
 20
96.40923284760001
 10
-44.70348183001725
 20
96.42988948220001
 10
-44.71524170491725
 20
96.4505856893
 10
-44.72684490071725
 20
96.4708324347
 10
-44.73798909161724
 20
96.4900768799
 10
-44.74887631801725
 20
96.50865827570001
 10
-44.75944838591725
 20
96.526479546
 10
-44.77017210671725
 20
96.5443433875
 10
-44.78148842721725
 20
96.56297777559998
 10
-44.79339337591724
 20
96.582352441
 10
-44.80601598991725
 20
96.60264752780001
 10
-44.81941366261724
 20
96.62391613149999
 10
-44.83367386271725
 20
96.6462519993
 10
-44.84887432181724
 20
96.66972609350001
 10
-44.86510065251724
 20
96.69441361270001
 10
-44.88243559251725
 20
96.72037773520001
 10
-44.90097470931725
 20
96.74769232530001
 10
-44.92079011281725
 20
96.77638797500001
 10
-44.94196527721725
 20
96.80650340940001
 10
-44.96457742211725
 20
96.838059084
 10
-44.98871114741724
 20
96.8710765488
 10
-45.01445227911725
 20
96.90556900780002
 10
-45.04188972421725
 20
96.94154401860002
 10
-45.07112460991725
 20
96.9790153913
 10
-45.10222049051725
 20
97.0179393707
 10
-45.13540416341725
 20
97.0584623459
 10
-45.17085992411725
 20
97.10065388670001
 10
-45.20883687131725
 20
97.1446356733
 10
-45.24958056581725
 20
97.19049493889999
 10
-45.29336165281725
 20
97.2383157722
 10
-45.34049300411725
 20
97.2881917075
 10
-45.39117855131725
 20
97.34006556330001
 10
-45.44563982971725
 20
97.39387126780002
 10
-45.50420237501724
 20
97.449612444
 10
-45.56715118241725
 20
97.5072129659
 10
-45.63491287601725
 20
97.56668094690001
 10
-45.70791267201725
 20
97.62796349049999
 10
-45.78655240161725
 20
97.69092899270001
 10
-45.87149911221724
 20
97.75558520790001
 10
-45.96247735151725
 20
97.82118234309999
 10
-46.05966728481725
 20
97.88732239219999
 10
-46.16221276031725
 20
97.952939988
 10
-46.26952156381725
 20
98.01726624629999
 10
-46.38058350651725
 20
98.07941092650001
 10
-46.49461635831724
 20
98.1387594457
 10
-46.60988391961724
 20
98.1943740594
 10
-46.72471951531725
 20
98.2455915274
 10
-46.83761958091724
 20
98.2920271567
 10
-46.94642123031726
 20
98.3332272179
 10
-47.05115096411725
 20
98.3696972349
 10
-47.15110211561724
 20
98.40166615379999
 10
-47.24641255901725
 20
98.429630981
 10
-47.33702184291725
 20
98.45398192260001
 10
-47.42299311681725
 20
98.4751088908
 10
-47.50431763561724
 20
98.4933488957
 10
-47.58129007371725
 20
98.509070605
 10
-47.65415043571725
 20
98.52258623540002
 10
-47.72316590431725
 20
98.53417547200001
 10
-47.78862965271724
 20
98.5440866851
 10
-47.85078438381725
 20
98.55252906430001
 10
-47.90992952141725
 20
98.5596924632
 10
-47.96624349961724
 20
98.56572910620002
 10
-48.02002656481725
 20
98.57078404239999
 10
-48.07122096331724
 20
98.57495164959999
 10
-48.11982010721725
 20
98.5783267468
 10
-48.16607809501725
 20
98.58101587540001
 10
-48.21029347731725
 20
98.58311371420001
 10
-48.25212390301725
 20
98.5846770868
 10
-48.29090423901725
 20
98.58575614819999
 10
-48.32828920351726
 20
98.58644168209998
 10
-48.36528169351725
 20
98.58678744110001
 10
-48.40343566341726
 20
98.5869073633
 10
-48.44470052111725
 20
98.58690693900001
 10
-48.48848131511726
 20
98.5868674249
 10
-48.53478547511725
 20
98.58686457040001
  0
LWPOLYLINE
  5
2973
330
211
100
AcDbEntity
  8
0
  6
Continuous
 62
     7
100
AcDbPolyline
 90
       79
 70
     0
 43
0.0
 10
-44.66885103161724
 20
76.1030887026
 10
-44.68024495891725
 20
76.08275124489999
 10
-44.69181995591725
 20
76.0621533492
 10
-44.70348183001725
 20
76.0414967146
 10
-44.71524170491725
 20
76.0208005075
 10
-44.72684490071725
 20
76.0005537621
 10
-44.73798909161724
 20
75.9813093168
 10
-44.74887631801725
 20
75.96272792100001
 10
-44.75944838591725
 20
75.94490665079999
 10
-44.77017210671725
 20
75.9270428092
 10
-44.78148842721725
 20
75.90840842119999
 10
-44.79339337591724
 20
75.8890337558
 10
-44.80601598991725
 20
75.86873866899999
 10
-44.81941366261724
 20
75.8474700653
 10
-44.83367386271725
 20
75.8251341975
 10
-44.84887432181724
 20
75.80166010319999
 10
-44.86510065251724
 20
75.77697258409999
 10
-44.88243559251725
 20
75.75100846159999
 10
-44.90097470931725
 20
75.72369387149999
 10
-44.92079011281725
 20
75.6949982218
 10
-44.94196527721725
 20
75.6648827874
 10
-44.96457742211725
 20
75.6333271127
 10
-44.98871114741724
 20
75.60030964800001
 10
-45.01445227911725
 20
75.565817189
 10
-45.04188972421725
 20
75.52984217809999
 10
-45.07112460991725
 20
75.4923708054
 10
-45.10222049051725
 20
75.45344682609999
 10
-45.13540416341725
 20
75.4129238508
 10
-45.17085992411725
 20
75.37073231009999
 10
-45.20883687131725
 20
75.32675052350001
 10
-45.24958056581725
 20
75.28089125779999
 10
-45.29336165281725
 20
75.2330704246
 10
-45.34049300411725
 20
75.1831944892
 10
-45.39117855131725
 20
75.13132063350001
 10
-45.44563982971725
 20
75.077514929
 10
-45.50420237501724
 20
75.0217737527
 10
-45.56715118241725
 20
74.9641732309
 10
-45.63491287601725
 20
74.9047052499
 10
-45.70791267201725
 20
74.8434227063
 10
-45.78655240161725
 20
74.7804572041
 10
-45.87149911221724
 20
74.7158009889
 10
-45.96247735151725
 20
74.65020385369999
 10
-46.05966728481725
 20
74.58406380460001
 10
-46.16221276031725
 20
74.5184462087
 10
-46.26952156381725
 20
74.4541199505
 10
-46.38058350651725
 20
74.3919752703
 10
-46.49461635831724
 20
74.332626751
 10
-46.60988391961724
 20
74.27701213739999
 10
-46.72471951531725
 20
74.2257946693
 10
-46.83761958091724
 20
74.1793590401
 10
-46.94642123031726
 20
74.13815897890001
 10
-47.05115096411725
 20
74.1016889619
 10
-47.15110211561724
 20
74.069720043
 10
-47.24641255901725
 20
74.0417552158
 10
-47.33702184291725
 20
74.0174042742
 10
-47.42299311681725
 20
73.99627730600001
 10
-47.50431763561724
 20
73.9780373011
 10
-47.58129007371725
 20
73.96231559170001
 10
-47.65415043571725
 20
73.9487999614
 10
-47.72316590431725
 20
73.9372107247
 10
-47.78862965271724
 20
73.92729951159999
 10
-47.85078438381725
 20
73.91885713249999
 10
-47.90992952141725
 20
73.9116937336
 10
-47.96624349961724
 20
73.9056570906
 10
-48.02002656481725
 20
73.90060215439999
 10
-48.07122096331724
 20
73.8964345472
 10
-48.11982010721725
 20
73.89305944989999
 10
-48.16607809501725
 20
73.8903703214
 10
-48.21029347731725
 20
73.8882724826
 10
-48.25212390301725
 20
73.8867091099
 10
-48.29090423901725
 20
73.88563004859999
 10
-48.32828920351726
 20
73.88494451470001
 10
-48.36528169351725
 20
73.88459875569999
 10
-48.40343566341726
 20
73.8844788335
 10
-48.44470052111725
 20
73.88447925779999
 10
-48.48848131511726
 20
73.8845187718
 10
-48.53478547511725
 20
73.8845216264
 10
-48.58324606041725
 20
73.88450226919999
 10
-48.74072218321725
 20
73.8845123471
  0
LWPOLYLINE
  5
2974
330
211
100
AcDbEntity
  8
0
  6
Continuous
 62
     7
100
AcDbPolyline
 90
      102
 70
     0
 43
0.0
 10
-49.27593655191725
 20
86.2356930984
 10
-49.28005593021724
 20
86.6185186465
 10
-49.29240030961725
 20
87.00088995079999
 10
-49.31302842081724
 20
87.38367687200002
 10
-49.34170222091726
 20
87.76336436540001
 10
-49.37833986671726
 20
88.1407035303
 10
-49.42133829031725
 20
88.50395965969999
 10
-49.46792049341725
 20
88.8400930473
 10
-49.51743078341725
 20
89.154399625
 10
-49.56875771341725
 20
89.447122479
 10
-49.62127450181725
 20
89.72052481410001
 10
-49.67450046391725
 20
89.9765538561
 10
-49.72794854751725
 20
90.2164473908
 10
-49.78132096401726
 20
90.44173930440001
 10
-49.83429505561725
 20
90.65341808479999
 10
-49.88668937111725
 20
90.85268515370001
 10
-49.93830182721725
 20
91.0404000135
 10
-49.98904077581724
 20
91.21758135629999
 10
-50.03877783761725
 20
91.3849173686
 10
-50.08747744501725
 20
91.54324567859999
 10
-50.13504141811726
 20
91.6930744903
 10
-50.18144593061725
 20
91.8350391142
 10
-50.22663023921725
 20
91.9695727392
 10
-50.27057622461725
 20
92.0971594062
 10
-50.31327592871726
 20
92.21824571819999
 10
-50.35476622371724
 20
92.33334164110001
 10
-50.39501237631725
 20
92.44270973229999
 10
-50.43400766861726
 20
92.5466513964
 10
-50.47178278151725
 20
92.64553235340001
 10
-50.50840648351726
 20
92.739777768
 10
-50.54384572961724
 20
92.82952178069999
 10
-50.57807845951725
 20
92.914907469
 10
-50.61118726901725
 20
92.9963099212
 10
-50.64326564071725
 20
93.0741074634
 10
-50.67425680441726
 20
93.1483073849
 10
-50.70415336121725
 20
93.21902584049999
 10
-50.73295972621725
 20
93.28640936049998
 10
-50.76068296931725
 20
93.35058267389999
 10
-50.78762463781725
 20
93.41227951350001
 10
-50.81399850571725
 20
93.47204081870001
 10
-50.83918788491725
 20
93.5285554318
 10
-50.86280675911725
 20
93.58103587629999
 10
-50.88548600751725
 20
93.6311643532
 10
-50.90801619271725
 20
93.68071912389998
 10
-50.93196426501725
 20
93.7327041752
 10
-50.95844766401725
 20
93.78902390459998
 10
-50.98704043621726
 20
93.8477247902
 10
-51.01677413021725
 20
93.90607203790001
 10
-51.04809954551726
 20
93.9649509006
 10
-51.08170667681725
 20
94.0254537919
 10
-51.11821691231725
 20
94.08835719409999
 10
-51.15896867131725
 20
94.15542099499999
 10
-51.20401466611725
 20
94.22608664329999
 10
-51.25355783271725
 20
94.2999823202
 10
-51.30781339721725
 20
94.3767517012
 10
-51.36702635321725
 20
94.45609149010001
 10
-51.43173376541724
 20
94.53803144430001
 10
-51.50319654401725
 20
94.6232836819
 10
-51.57953355651724
 20
94.70887451999999
 10
-51.65898053801726
 20
94.79256762030001
 10
-51.74136048001725
 20
94.87400548850001
 10
-51.82556684361725
 20
94.9521105454
 10
-51.91175645501726
 20
95.02712811040002
 10
-51.99978192201725
 20
95.09897691530001
 10
-52.08963697521724
 20
95.16766576070001
 10
-52.18129742581725
 20
95.23320807020001
 10
-52.27452900121726
 20
95.2954805447
 10
-52.36905366981725
 20
95.3543268968
 10
-52.46501284241725
 20
95.4098740156
 10
-52.56338629541724
 20
95.4626646692
 10
-52.66154755241725
 20
95.51130712029999
 10
-52.75702077471724
 20
95.55490471049999
 10
-52.84943348271724
 20
95.59372841570001
 10
-52.93749428751725
 20
95.6277274099
 10
-53.02159026701725
 20
95.6575413504
 10
-53.10172586921725
 20
95.6835899536
 10
-53.17793655771724
 20
95.70626379990001
 10
-53.25024857581725
 20
95.72590959850002
 10
-53.31882308211724
 20
95.7428891962
 10
-53.38377938211725
 20
95.75750718950001
 10
-53.44550509521725
 20
95.77008074540001
 10
-53.50436752511726
 20
95.78087197889999
 10
-53.56051327041725
 20
95.79010977420001
 10
-53.61445874151725
 20
95.79804347860001
 10
-53.66591676941725
 20
95.80468892489999
 10
-53.71462656411726
 20
95.81010008959998
 10
-53.75985348821725
 20
95.81448611129998
 10
-53.80122412341725
 20
95.8180391442
 10
-53.84062681521725
 20
95.8208198214
 10
-53.87812231441724
 20
95.82293802379998
 10
-53.91172762071725
 20
95.82439016950001
 10
-53.94036401621725
 20
95.82508961379998
 10
-53.96534440841725
 20
95.82538180929999
 10
-53.98837185191725
 20
95.82549526420001
 10
-54.01106837631726
 20
95.82549524319999
 10
-54.03461789231725
 20
95.82546227219999
 10
-54.05856697391725
 20
95.82537536169999
 10
-54.08297998031725
 20
95.82523920319999
 10
-54.10804310821725
 20
95.82509335959999
 10
-54.13396106111726
 20
95.82497001549999
 10
-54.16098418241725
 20
95.8248618578
 10
-54.21860830721725
 20
95.82469568489999
  0
LWPOLYLINE
  5
2975
330
211
100
AcDbEntity
  8
0
  6
Continuous
 62
     7
100
AcDbPolyline
 90
      103
 70
     0
 43
0.0
 10
-98.31186897321725
 20
71.3078286985
 10
-98.30844405101725
 20
71.3077523111
 10
-98.30503173411726
 20
71.30774245149999
 10
-98.30163318071726
 20
71.3077988603
 10
-98.29824736621725
 20
71.3079210747
 10
-98.29487381421726
 20
71.3081087076
 10
-98.29151200871725
 20
71.30836153449999
 10
-98.28816141721725
 20
71.30867931880001
 10
-98.28482160541724
 20
71.3090619748
 10
-98.28149208501725
 20
71.3095094082
 10
-98.27817249941725
 20
71.3100216598
 10
-98.27486245311725
 20
71.3105987606
 10
-98.27156160621726
 20
71.3112408785
 10
-98.26826963221726
 20
71.31194816289999
 10
-98.26498614571725
 20
71.31272092509999
 10
-98.26171083961725
 20
71.3135594419
 10
-98.25844322531725
 20
71.3144641992
 10
-98.25518289701726
 20
71.31543564720001
 10
-98.25192940121725
 20
71.3164744298
 10
-98.24868221631724
 20
71.31758120479999
 10
-98.24544126961725
 20
71.3187566486
 10
-98.24220623461727
 20
71.3200015208
 10
-98.23897748501725
 20
71.3213164359
 10
-98.23575515511725
 20
71.32270209419999
 10
-98.23253975821724
 20
71.3241591047
 10
-98.22933151661725
 20
71.3256882152
 10
-98.22613155061725
 20
71.32728976109999
 10
-98.22294048341724
 20
71.3289643346
 10
-98.21976009391725
 20
71.3307118323
 10
-98.21659179001725
 20
71.33253235179999
 10
-98.21343728951724
 20
71.3344256301
 10
-98.21029821551725
 20
71.33639147220001
 10
-98.20717619671725
 20
71.3384294689
 10
-98.20407287671725
 20
71.34053921500001
 10
-98.20098974411726
 20
71.342720198
 10
-98.19792858791725
 20
71.3449716897
 10
-98.19489004871726
 20
71.3472936488
 10
-98.19187530891724
 20
71.34968563699999
 10
-98.18888451731725
 20
71.3521480059
 10
-98.18591807441727
 20
71.3546809343
 10
-98.18297649491725
 20
71.35728454619999
 10
-98.18006022171726
 20
71.3599590383
 10
-98.17716995501726
 20
71.3627043944
 10
-98.17430632391726
 20
71.3655206694
 10
-98.17147004491724
 20
71.3684078296
 10
-98.16866181931725
 20
71.37136586529999
 10
-98.16588237581726
 20
71.3743947265
 10
-98.16313245671725
 20
71.3774943579
 10
-98.16041277461726
 20
71.3806647248
 10
-98.15772406641727
 20
71.3839057778
 10
-98.15506705981725
 20
71.3872174679
 10
-98.15244248691726
 20
71.39059975710001
 10
-98.14985113411724
 20
71.3940525241
 10
-98.14729377351724
 20
71.3975756813
 10
-98.14477123511725
 20
71.4011690385
 10
-98.14228433261725
 20
71.4048324438
 10
-98.13983393271726
 20
71.4085656327
 10
-98.13742088821726
 20
71.4123683771
 10
-98.13504609101727
 20
71.41624034189999
 10
-98.13271042301726
 20
71.4201812225
 10
-98.13041479271726
 20
71.4241906155
 10
-98.12816009741725
 20
71.4282681512
 10
-98.12594726941725
 20
71.4324133324
 10
-98.12377722851726
 20
71.4366256969
 10
-98.12165091351726
 20
71.4409046706
 10
-98.11956925611726
 20
71.4452497033
 10
-98.11753319041725
 20
71.4496601556
 10
-98.11554364181725
 20
71.4541354171
 10
-98.11360155381725
 20
71.4586747427
 10
-98.11170787151725
 20
71.46327738550001
 10
-98.10986348731725
 20
71.4679426271
 10
-98.10806933101725
 20
71.4726696578
 10
-98.10632621321724
 20
71.4774578975
 10
-98.10463498951726
 20
71.48230666679999
 10
-98.10299646741725
 20
71.4872153632
 10
-98.10141147181726
 20
71.4921833627
 10
-98.09988083371726
 20
71.49720996550001
 10
-98.09840544341724
 20
71.5022942853
 10
-98.09698596971726
 20
71.5074361681
 10
-98.09562266241725
 20
71.51263726729999
 10
-98.09431779381725
 20
71.51789121749999
 10
-98.09307300081727
 20
71.5231933661
 10
-98.09188948601725
 20
71.5285398085
 10
-98.09076923161725
 20
71.5339221893
 10
-98.08971068111725
 20
71.5393488931
 10
-98.08871299631725
 20
71.5448267415
 10
-98.08777741501726
 20
71.5503524108
 10
-98.08690453021725
 20
71.5559260311
 10
-98.08609548541724
 20
71.56154397669999
 10
-98.08535120851725
 20
71.5672034345
 10
-98.08467247651726
 20
71.57290190319999
 10
-98.08406003951725
 20
71.5786366052
 10
-98.08351448771725
 20
71.584405402
 10
-98.08303640941726
 20
71.59020567359999
 10
-98.08262623191726
 20
71.59603597350001
 10
-98.08228439211724
 20
71.6018945088
 10
-98.08201128271726
 20
71.6077796228
 10
-98.08180727671725
 20
71.61368969059999
 10
-98.08167272421727
 20
71.61962275899999
 10
-98.08160794311724
 20
71.6255770135
 10
-98.08161321511725
 20
71.63155035169999
 10
-98.08168873271725
 20
71.6375402064
 10
-98.08183485421725
 20
71.64354610450001
  0
LINE
  5
2976
330
211
100
AcDbEntity
  8
0
  6
Continuous
 62
     7
100
AcDbLine
 10
-98.31186897321725
 20
70.7356930984
 30
0.0
 11
-38.31186897321725
 21
70.7356930984
 31
0.0
  0
LWPOLYLINE
  5
2977
330
211
100
AcDbEntity
  8
0
  6
Continuous
 62
     7
100
AcDbPolyline
 90
       75
 70
     0
 43
0.0
 10
-88.61227407911725
 20
73.8844706747
 10
-88.65314092421725
 20
73.8845240803
 10
-88.69195516681726
 20
73.8847747368
 10
-88.72943440991724
 20
73.8853297901
 10
-88.76730092461725
 20
73.8862385611
 10
-88.80754036681725
 20
73.88758804520001
 10
-88.84983586841725
 20
73.88942103729999
 10
-88.89434096041725
 20
73.89180129479999
 10
-88.94111497311724
 20
73.8948082983
 10
-88.99032888931726
 20
73.8985386213
 10
-89.04203126171726
 20
73.9030832271
 10
-89.09622651311726
 20
73.9085345095
 10
-89.15311779591725
 20
73.9150169264
 10
-89.21279767931725
 20
73.922658225
 10
-89.27559109351724
 20
73.9316333502
 10
-89.34174929481725
 20
73.9421335838
 10
-89.41154265541724
 20
73.95438078319999
 10
-89.48521481111725
 20
73.96862354319999
 10
-89.56302635891725
 20
73.9851481756
 10
-89.64525967241725
 20
74.00428629789999
 10
-89.73199649631725
 20
74.0263634151
 10
-89.82337813441725
 20
74.0517574278
 10
-89.91937878141724
 20
74.080838461
 10
-90.02005354451725
 20
74.1140387008
 10
-90.12514103681725
 20
74.151720665
 10
-90.23493631941725
 20
74.194489636
 10
-90.34765728291725
 20
74.2421309707
 10
-90.46228807281725
 20
74.29460295670001
 10
-90.57695652331725
 20
74.35131754130001
 10
-90.68996393131724
 20
74.4115339316
 10
-90.80020559661724
 20
74.4746197922
 10
-90.90641555451725
 20
74.5396730783
 10
-91.00787520051724
 20
74.60594780689999
 10
-91.10367418651724
 20
74.6724400887
 10
-91.19356317821724
 20
74.73849376060001
 10
-91.27686154801725
 20
74.8030624041
 10
-91.35425789921724
 20
74.8661238644
 10
-91.42604205701724
 20
74.92741054310001
 10
-91.49268477671725
 20
74.9868593388
 10
-91.55460243241725
 20
75.04442307720001
 10
-91.61213791481726
 20
75.10003983389999
 10
-91.66566523181726
 20
75.153726105
 10
-91.71541244621725
 20
75.20539411859999
 10
-91.76160636651726
 20
75.2549841902
 10
-91.80455542911724
 20
75.3025577138
 10
-91.84452420081724
 20
75.3481656013
 10
-91.88178616781724
 20
75.3919029366
 10
-91.91660586681726
 20
75.4338881384
 10
-91.94919243571725
 20
75.4742025186
 10
-91.97979143011725
 20
75.5129993349
 10
-92.00849147151727
 20
75.5502550397
 10
-92.03542513871724
 20
75.5860148566
 10
-92.06067386371726
 20
75.6202682924
 10
-92.08432422551725
 20
75.6530211411
 10
-92.10646748721726
 20
75.684295925
 10
-92.12718702631724
 20
75.7141143038
 10
-92.14656662921724
 20
75.7425084752
 10
-92.16468059371726
 20
75.7695057383
 10
-92.18162345151725
 20
75.79517226
 10
-92.19747736261725
 20
75.8195644169
 10
-92.21232947861725
 20
75.8427537726
 10
-92.22625839801725
 20
75.8648070032
 10
-92.23935300561725
 20
75.8858148546
 10
-92.25167456291725
 20
75.90583192310001
 10
-92.26334323261724
 20
75.9250190066
 10
-92.27434888341724
 20
75.94333117419999
 10
-92.28512646491724
 20
75.96148180510001
 10
-92.29612021351725
 20
75.98023055109999
 10
-92.30731727821725
 20
75.9995542571
 10
-92.31895518901726
 20
76.0198522824
 10
-92.33073494841724
 20
76.0405765653
 10
-92.34241756191726
 20
76.0612646658
 10
-92.35401070191725
 20
76.08189127930001
 10
-92.36542135261725
 20
76.102256739
 10
-92.38773632131724
 20
76.142197517
  0
LWPOLYLINE
  5
2978
330
211
100
AcDbEntity
  8
0
  6
Continuous
 62
     7
100
AcDbPolyline
 90
      134
 70
     0
 43
0.0
 10
-48.82381713711724
 20
74.5230474363
 10
-48.77952231241725
 20
74.52303651920001
 10
-48.73637950021725
 20
74.5231324494
 10
-48.69444435661725
 20
74.5233700224
 10
-48.65374756701725
 20
74.5239350864
 10
-48.61450667401725
 20
74.524835384
 10
-48.57689706561725
 20
74.5259649509
 10
-48.54088969841725
 20
74.5273470151
 10
-48.50649255361725
 20
74.5289008899
 10
-48.47354442111726
 20
74.53059694470001
 10
-48.44202180111725
 20
74.5324288743
 10
-48.41163907221726
 20
74.5344009126
 10
-48.38215777871726
 20
74.5365120733
 10
-48.35336352041725
 20
74.53877743550001
 10
-48.32503980651726
 20
74.54122684810001
 10
-48.29693336491725
 20
74.543871198
 10
-48.26882247481725
 20
74.54673785069999
 10
-48.24039903541724
 20
74.54985697239999
 10
-48.21138593451725
 20
74.55326714209999
 10
-48.18150874061725
 20
74.55702072459999
 10
-48.15049358021725
 20
74.5611784814
 10
-48.11806683141725
 20
74.56581075879999
 10
-48.08394199721725
 20
74.57100212669999
 10
-48.04789341981725
 20
74.5768397674
 10
-48.00957724421725
 20
74.58344422679999
 10
-47.96908130851725
 20
74.59087466789999
 10
-47.92635016431725
 20
74.599219839
 10
-47.88148313131725
 20
74.60854356359999
 10
-47.83464148641725
 20
74.61889660149999
 10
-47.78559842021725
 20
74.6304196151
 10
-47.73430365061725
 20
74.6432265536
 10
-47.68042172101725
 20
74.65751986689999
 10
-47.62368110971725
 20
74.67351398889999
 10
-47.56389400681725
 20
74.69142688810001
 10
-47.50081946631725
 20
74.71152244869999
 10
-47.43442551741725
 20
74.73402775550001
 10
-47.36478247501724
 20
74.75915317150001
 10
-47.29142919341724
 20
74.78733492729999
 10
-47.21409820441725
 20
74.81900020250001
 10
-47.13245456691725
 20
74.8546737872
 10
-47.04594995741724
 20
74.8950713001
 10
-46.95523238321725
 20
74.9404148215
 10
-46.86026724881725
 20
74.9912832829
 10
-46.76272803591724
 20
75.0473283725
 10
-46.66309573221726
 20
75.10876575340001
 10
-46.56472713581725
 20
75.173827926
 10
-46.47056028011725
 20
75.24048197359999
 10
-46.38124286411725
 20
75.3079226017
 10
-46.29818597671724
 20
75.3745820984
 10
-46.22131685981725
 20
75.43991289739999
 10
-46.15125485631724
 20
75.5027306799
 10
-46.08703300351725
 20
75.56324702409999
 10
-46.02816593591724
 20
75.6213521679
 10
-45.97398648931725
 20
75.67721106399999
 10
-45.92380597111724
 20
75.731122298
 10
-45.87743155091724
 20
75.78292820299999
 10
-45.83458249411726
 20
75.83260188149999
 10
-45.79493100971725
 20
75.88021571909999
 10
-45.75819480591725
 20
75.925832912
 10
-45.72406492451725
 20
75.9695907242
 10
-45.69221725341725
 20
76.01168926609999
 10
-45.66251224011725
 20
76.0521204673
 10
-45.63474130181726
 20
76.09099069439999
 10
-45.60884275561725
 20
76.12822117569999
 10
-45.58473081031725
 20
76.16377847969999
 10
-45.56228038051725
 20
76.1977040436
 10
-45.54144860511725
 20
76.229939658
 10
-45.52198349581725
 20
76.26077412069999
 10
-45.50372135681725
 20
76.2903736712
 10
-45.48643165691724
 20
76.3190063076
 10
-45.46989994661725
 20
76.3469162937
 10
-45.45391152731724
 20
76.3743889152
 10
-45.43826238441725
 20
76.4017180654
 10
-45.42274341811725
 20
76.4291697619
 10
-45.40715015921725
 20
76.4570334684
 10
-45.39130244121724
 20
76.4855591278
 10
-45.37499893061725
 20
76.51502551660001
 10
-45.35806185451725
 20
76.54573652100001
 10
-45.34031280541724
 20
76.57800278579999
 10
-45.32160084941724
 20
76.6121295648
 10
-45.30172997111725
 20
76.64854352979999
 10
-45.28078641731725
 20
76.68712650329999
 10
-45.25872688171725
 20
76.72799664760001
 10
-45.23573519821725
 20
76.7708502615
 10
-45.21199350161725
 20
76.8153696593
 10
-45.18742420951725
 20
76.8617282472
 10
-45.16205789301724
 20
76.9098980538
 10
-45.13575976481725
 20
76.96016859140001
 10
-45.10843271901725
 20
77.01276801439999
 10
-45.08001432871725
 20
77.0678671184
 10
-45.05038162751725
 20
77.12576578300001
 10
-45.01964631421725
 20
77.1863107149
 10
-44.98791474521725
 20
77.24935600790001
 10
-44.95508165761726
 20
77.3151774559
 10
-44.92113704461725
 20
77.3838682155
 10
-44.88591965381725
 20
77.4558388181
 10
-44.84923975051725
 20
77.5315788296
 10
-44.81121264191725
 20
77.61096332370001
 10
-44.77192782031725
 20
77.6939213718
 10
-44.73128780611725
 20
77.7807848911
 10
-44.68928923471724
 20
77.8717025469
 10
-44.64577870461725
 20
77.96716792479999
 10
-44.60058356531725
 20
78.0677519795
 10
-44.55382565401725
 20
78.17339654119999
 10
-44.50566225551725
 20
78.2839657294
 10
-44.45584754291725
 20
78.4002723724
 10
-44.40419167791725
 20
78.52306315279999
 10
-44.35079666181725
 20
78.65244071310001
 10
-44.29577759881725
 20
78.78849761020001
 10
-44.23898281811725
 20
78.9320302718
 10
-44.18034151461725
 20
79.08371502850001
 10
-44.11988224761725
 20
79.2440513427
 10
-44.05767371201725
 20
79.41350870339999
 10
-43.99369532071725
 20
79.5928949946
 10
-43.92802166651725
 20
79.78287376039999
 10
-43.86067385101725
 20
79.98439956680001
 10
-43.79177272521725
 20
80.19829729979999
 10
-43.72140872091725
 20
80.4256795564
 10
-43.64980907641725
 20
80.667461585
 10
-43.57712231701725
 20
80.92513567340001
 10
-43.50370040801725
 20
81.1998588239
 10
-43.42978352051725
 20
81.4936279492
 10
-43.35587525121725
 20
81.8080061805
 10
-43.28243987911725
 20
82.1455358539
 10
-43.20968105391725
 20
82.51144640959999
 10
-43.14024773051725
 20
82.899318064
 10
-43.07558986631724
 20
83.30778577290001
 10
-43.01825186281725
 20
83.7263902593
 10
-42.97009973931724
 20
84.1428827214
 10
-42.93065581481725
 20
84.5605520738
 10
-42.89999428451724
 20
84.9784999885
 10
-42.87807755011725
 20
85.3970136955
 10
-42.86491090061725
 20
85.8161696758
 10
-42.86051719311725
 20
86.23568528280001
  0
LWPOLYLINE
  5
2979
330
211
100
AcDbEntity
  8
0
  6
Continuous
 62
     7
100
AcDbPolyline
 90
        3
 70
     0
 43
0.0
 10
-88.42056878781724
 20
73.88450125760001
 10
-88.52123682951726
 20
73.88451773309999
 10
-88.61227407911725
 20
73.8844706747
  0
LINE
  5
297A
330
211
100
AcDbEntity
  8
0
  6
Continuous
 62
     7
100
AcDbLine
 10
-49.34697618441725
 20
73.88450881529999
 30
0.0
 11
-87.69340365211725
 21
73.8845087429
 31
0.0
  0
LWPOLYLINE
  5
297B
330
211
100
AcDbEntity
  8
0
  6
Continuous
 62
     7
100
AcDbPolyline
 90
        5
 70
     0
 43
0.0
 10
-87.69340365211725
 20
73.8845087429
 10
-87.85046411271725
 20
73.88450745979999
 10
-87.92445136791725
 20
73.88450743559999
 10
-87.99564612731726
 20
73.88450848399999
 10
-88.19325750411726
 20
73.88451362229999
  0
LWPOLYLINE
  5
297C
330
211
100
AcDbEntity
  8
0
  6
Continuous
 62
     7
100
AcDbPolyline
 90
        9
 70
     0
 43
0.0
 10
-48.74072218321725
 20
73.8845123471
 10
-48.79764917821725
 20
73.88451354469999
 10
-48.85715080411725
 20
73.8845131721
 10
-48.91922035781725
 20
73.8845118532
 10
-48.98397450771724
 20
73.8845098418
 10
-49.05130415081725
 20
73.8845080251
 10
-49.12105100761725
 20
73.88450733399999
 10
-49.19347514851725
 20
73.8845075708
 10
-49.34697618441725
 20
73.88450881529999
  0
LWPOLYLINE
  5
297D
330
211
100
AcDbEntity
  8
0
  6
Continuous
 62
     7
100
AcDbPolyline
 90
        7
 70
     0
 43
0.0
 10
-87.64980552441725
 20
74.52309763529999
 10
-87.50383976131725
 20
74.5230913371
 10
-87.35230319151725
 20
74.523090698
 10
-87.19489148021725
 20
74.52309353439999
 10
-87.03131449221725
 20
74.52309387959999
 10
-86.86140756001725
 20
74.52309243720001
 10
-86.68500809131726
 20
74.5230918092
  0
LINE
  5
297E
330
211
100
AcDbEntity
  8
0
  6
Continuous
 62
     7
100
AcDbLine
 10
-86.68500809131726
 20
74.5230918092
 30
0.0
 11
-50.07464623721725
 21
74.5230934816
 31
0.0
  0
LWPOLYLINE
  5
297F
330
211
100
AcDbEntity
  8
0
  6
Continuous
 62
     7
100
AcDbPolyline
 90
       11
 70
     0
 43
0.0
 10
-50.07464623721725
 20
74.5230934816
 10
-49.97803121051725
 20
74.52309315079999
 10
-49.88488071671724
 20
74.523092374
 10
-49.79531031121725
 20
74.52309124060001
 10
-49.70936157851725
 20
74.5230909317
 10
-49.62680872131724
 20
74.5230915778
 10
-49.54751377911725
 20
74.52309350270001
 10
-49.47125920341725
 20
74.52309649
 10
-49.39770736741725
 20
74.5230968666
 10
-49.32707242681726
 20
74.5230939131
 10
-49.25945289831725
 20
74.5230874829
  0
LWPOLYLINE
  5
2980
330
211
100
AcDbEntity
  8
0
  6
Continuous
 62
     7
100
AcDbPolyline
 90
        3
 70
     0
 43
0.0
 10
-88.19325750411726
 20
73.88451362229999
 10
-88.31163418411724
 20
73.8845104281
 10
-88.42056878781724
 20
73.88450125760001
  0
LWPOLYLINE
  5
2981
330
211
100
AcDbEntity
  8
0
  6
Continuous
 62
     7
100
AcDbPolyline
 90
        5
 70
     0
 43
0.0
 10
-49.25945289831725
 20
74.5230874829
 10
-49.01939082551725
 20
74.5230881425
 10
-48.96680933311725
 20
74.5231103859
 10
-48.91709574201725
 20
74.5231010785
 10
-48.82381713711724
 20
74.5230474363
  0
LWPOLYLINE
  5
2982
330
211
100
AcDbEntity
  8
0
  6
Continuous
 62
     7
100
AcDbPolyline
 90
       85
 70
     0
 43
0.0
 10
-54.10888255171725
 20
76.6462972236
 10
-54.08776866271725
 20
76.6461741466
 10
-54.06733030721725
 20
76.64605555999999
 10
-54.04740566041724
 20
76.64596412139999
 10
-54.02735380911725
 20
76.64590548779999
 10
-54.00698589671725
 20
76.64588143260001
 10
-53.98579652031725
 20
76.64592143109999
 10
-53.96277877081725
 20
76.64599080859999
 10
-53.93572889601725
 20
76.6463699207
 10
-53.90161652091725
 20
76.64745580600001
 10
-53.86237322751725
 20
76.64923401260001
 10
-53.82181033381725
 20
76.65181111439999
 10
-53.77909004231725
 20
76.65523387350001
 10
-53.73229633521725
 20
76.659488602
 10
-53.68203248951726
 20
76.6648002781
 10
-53.62879206451726
 20
76.6714091006
 10
-53.57274548681726
 20
76.67939866270001
 10
-53.51417010191725
 20
76.6888234602
 10
-53.45267844681725
 20
76.6999282679
 10
-53.38814009681725
 20
76.71295011869999
 10
-53.32031030871725
 20
76.7281458639
 10
-53.24896643001725
 20
76.74580883739999
 10
-53.17394105601725
 20
76.7662611282
 10
-53.09520249131725
 20
76.7898324497
 10
-53.01234399731725
 20
76.8169976248
 10
-52.92494301281725
 20
76.8483293748
 10
-52.83322191021724
 20
76.8842334183
 10
-52.73621469671725
 20
76.9256722418
 10
-52.63727598221725
 20
76.97174056359999
 10
-52.53936096771725
 20
77.0212374327
 10
-52.44222715391726
 20
77.0743337172
 10
-52.34654038941725
 20
77.13069471850001
 10
-52.25214252121725
 20
77.1904622143
 10
-52.15904910971725
 20
77.25368341380001
 10
-52.06756410151725
 20
77.3201794821
 10
-51.97800294541725
 20
77.38975202729999
 10
-51.89029335391726
 20
77.46249051560001
 10
-51.80436573241725
 20
77.5384804735
 10
-51.72046900161725
 20
77.61754845839999
 10
-51.63886940451725
 20
77.699506689
 10
-51.55954890991726
 20
77.784413651
 10
-51.48237275291725
 20
77.8724294303
 10
-51.40775903101725
 20
77.9631457003
 10
-51.33599704391725
 20
78.0562959808
 10
-51.26728491901725
 20
78.15162965189999
 10
-51.20185595821725
 20
78.2486797534
 10
-51.13992677761725
 20
78.3468281784
 10
-51.08178558751724
 20
78.44554007000001
 10
-51.02674793581725
 20
78.5464037858
 10
-50.97505195361725
 20
78.6486544592
 10
-50.92854282451725
 20
78.74595179319999
 10
-50.88916439181725
 20
78.83150180199999
 10
-50.85283179071725
 20
78.9125075467
 10
-50.81380827161726
 20
79.00012417890001
 10
-50.77227967271724
 20
79.0941573061
 10
-50.72989875541725
 20
79.1919608403
 10
-50.68646965931725
 20
79.2940957755
 10
-50.64136801131725
 20
79.40190839669999
 10
-50.59460355211725
 20
79.51570543169999
 10
-50.54639533011725
 20
79.6354385326
 10
-50.49669812671725
 20
79.7615696054
 10
-50.44545168241725
 20
79.89460322460001
 10
-50.39263207501725
 20
80.0350845156
 10
-50.33829314711725
 20
80.1834468232
 10
-50.28242189321725
 20
80.3403577117
 10
-50.22506857301725
 20
80.50640613049999
 10
-50.16626259191724
 20
80.68235978329999
 10
-50.10611912551725
 20
80.8688760975
 10
-50.04470337581725
 20
81.06692290839999
 10
-49.98219777501725
 20
81.2773043762
 10
-49.91873087881725
 20
81.5012311097
 10
-49.85459088871725
 20
81.7396696926
 10
-49.78999153651725
 20
81.9942289791
 10
-49.72536892541725
 20
82.2661684098
 10
-49.66109603921726
 20
82.5575674797
 10
-49.59766822431725
 20
82.87091898449999
 10
-49.53624161711726
 20
83.2063151218
 10
-49.47725941351725
 20
83.569063861
 10
-49.42413267561724
 20
83.9458404616
 10
-49.37902249711725
 20
84.32439253410001
 10
-49.34187997811725
 20
84.7059641369
 10
-49.31305215751724
 20
85.0873578212
 10
-49.29244247591725
 20
85.46951813419999
 10
-49.28006620361725
 20
85.8523915481
 10
-49.27593655121725
 20
86.2356930984
  0
LINE
  5
2983
330
211
100
AcDbEntity
  8
0
  6
Continuous
 62
     7
100
AcDbLine
 10
-54.15409209001725
 20
76.6464991043
 30
0.0
 11
-54.10888255171725
 21
76.6462972236
 31
0.0
  0
LWPOLYLINE
  5
2984
330
211
100
AcDbEntity
  8
0
  6
Continuous
 62
     7
100
AcDbPolyline
 90
       11
 70
     0
 43
0.0
 10
-76.87356799791725
 20
76.70127847149998
 10
-76.52754301881725
 20
76.700258382
 10
-76.20318318841725
 20
76.6992878283
 10
-75.89791665681724
 20
76.6983610961
 10
-75.61048003271725
 20
76.6974969046
 10
-75.34071097711725
 20
76.6966774527
 10
-75.08262107731725
 20
76.69587953709999
 10
-74.83406010191726
 20
76.69511798239999
 10
-74.58341953861725
 20
76.6943438495
 10
-74.31723816651725
 20
76.6935340382
 10
-74.03899301681724
 20
76.69270517699999
  0
LWPOLYLINE
  5
2985
330
211
100
AcDbEntity
  8
0
  6
Continuous
 62
     7
100
AcDbPolyline
 90
        7
 70
     0
 43
0.0
 10
-55.54481301631724
 20
76.650651439
 10
-55.46213090811725
 20
76.6504056796
 10
-55.38299888901725
 20
76.65016998350001
 10
-55.30741359071726
 20
76.64994439059999
 10
-55.23535472721725
 20
76.6497288438
 10
-55.16650583131725
 20
76.6495224506
 10
-55.10059647891726
 20
76.64932436329999
  0
LWPOLYLINE
  5
2986
330
211
100
AcDbEntity
  8
0
  6
Continuous
 62
     7
100
AcDbPolyline
 90
        5
 70
     0
 43
0.0
 10
-54.80995318321725
 20
76.64845072770001
 10
-54.71034998211725
 20
76.6481539895
 10
-54.66374348061725
 20
76.64801378189999
 10
-54.61905797761725
 20
76.647877941
 10
-54.38467658581725
 20
76.647141902
  0
LWPOLYLINE
  5
2987
330
211
100
AcDbEntity
  8
0
  6
Continuous
 62
     7
100
AcDbPolyline
 90
        3
 70
     0
 43
0.0
 10
-54.91878472411725
 20
76.64877683
 10
-54.86317768351725
 20
76.64860993319999
 10
-54.80995318321725
 20
76.64845072770001
  0
LINE
  5
2988
330
211
100
AcDbEntity
  8
0
  6
Continuous
 62
     7
100
AcDbLine
 10
-55.10059647891726
 20
76.64932436329999
 30
0.0
 11
-54.91878472411725
 21
76.64877683
 31
0.0
  0
LWPOLYLINE
  5
2989
330
211
100
AcDbEntity
  8
0
  6
Continuous
 62
     7
100
AcDbPolyline
 90
        4
 70
     0
 43
0.0
 10
-74.03899301681724
 20
76.69270517699999
 10
-73.44323395801726
 20
76.69095854850001
 10
-73.12436005471724
 20
76.6900441689
 10
-72.79038442311724
 20
76.68910010970001
  0
LWPOLYLINE
  5
298A
330
211
100
AcDbEntity
  8
0
  6
Continuous
 62
     7
100
AcDbPolyline
 90
        4
 70
     0
 43
0.0
 10
-78.42627438681725
 20
76.7057278246
 10
-78.03596417221726
 20
76.7046323223
 10
-77.63962805221726
 20
76.7035034233
 10
-76.87356799791725
 20
76.70127847149998
  0
LWPOLYLINE
  5
298B
330
211
100
AcDbEntity
  8
0
  6
Continuous
 62
     7
100
AcDbPolyline
 90
        9
 70
     0
 43
0.0
 10
-57.45838289121725
 20
76.65620361239999
 10
-57.27358536641725
 20
76.6556808852
 10
-57.09917543621725
 20
76.6551846635
 10
-56.93612618121726
 20
76.65471807670001
 10
-56.78280487061725
 20
76.65427736779999
 10
-56.63808808021725
 20
76.6538593831
 10
-56.50142025001724
 20
76.65346325369999
 10
-56.37201809011725
 20
76.6530866763
 10
-55.54481301631724
 20
76.650651439
  0
LWPOLYLINE
  5
298C
330
211
100
AcDbEntity
  8
0
  6
Continuous
 62
     7
100
AcDbPolyline
 90
        9
 70
     0
 43
0.0
 10
-72.79038442311724
 20
76.68910010970001
 10
-72.07381976021725
 20
76.6871267253
 10
-71.68932857561725
 20
76.68609639579999
 10
-71.28599016531724
 20
76.6850366008
 10
-70.86006242811726
 20
76.6839409671
 10
-70.41864844621724
 20
76.68283078479999
 10
-69.95932280361725
 20
76.6817024943
 10
-69.50692912371724
 20
76.6806183209
 10
-69.08868016741724
 20
76.6796393274
  0
LWPOLYLINE
  5
298D
330
211
100
AcDbEntity
  8
0
  6
Continuous
 62
     7
100
AcDbPolyline
 90
        5
 70
     0
 43
0.0
 10
-80.10767656971726
 20
76.71025372549999
 10
-79.80052954561725
 20
76.7094517389
 10
-79.47962130051725
 20
76.70860163180001
 10
-79.14413406571725
 20
76.70769997419999
 10
-78.42627438681725
 20
76.7057278246
  0
LWPOLYLINE
  5
298E
330
211
100
AcDbEntity
  8
0
  6
Continuous
 62
     7
100
AcDbPolyline
 90
        5
 70
     0
 43
0.0
 10
-58.70021492971726
 20
76.65961407320001
 10
-58.55156065821725
 20
76.6592167656
 10
-58.39355074271725
 20
76.6587908353
 10
-58.22564176331725
 20
76.6583340965
 10
-57.45838289121725
 20
76.65620361239999
  0
LINE
  5
298F
330
211
100
AcDbEntity
  8
0
  6
Continuous
 62
     7
100
AcDbLine
 10
-54.38467658581725
 20
76.647141902
 30
0.0
 11
-54.28802094151725
 21
76.6468645808
 31
0.0
  0
LWPOLYLINE
  5
2990
330
211
100
AcDbEntity
  8
0
  6
Continuous
 62
     7
100
AcDbPolyline
 90
        4
 70
     0
 43
0.0
 10
-54.28802094151725
 20
76.6468645808
 10
-54.23056182031725
 20
76.6467204992
 10
-54.20380725181725
 20
76.6466544826
 10
-54.15409209001725
 20
76.6464991043
  0
LWPOLYLINE
  5
2991
330
211
100
AcDbEntity
  8
0
  6
Continuous
 62
     7
100
AcDbPolyline
 90
        5
 70
     0
 43
0.0
 10
-81.46088672971727
 20
76.71364519019999
 10
-81.21257615541725
 20
76.71304072779999
 10
-80.95361878581725
 20
76.7124016594
 10
-80.68356031351726
 20
76.71172586469999
 10
-80.10767656971726
 20
76.71025372549999
  0
LWPOLYLINE
  5
2992
330
211
100
AcDbEntity
  8
0
  6
Continuous
 62
     7
100
AcDbPolyline
 90
        4
 70
     0
 43
0.0
 10
-59.52401390261726
 20
76.66174356239999
 10
-59.42659839381725
 20
76.66149937739999
 10
-59.32298175971725
 20
76.66123691850001
 10
-58.70021492971726
 20
76.65961407320001
  0
LWPOLYLINE
  5
2993
330
211
100
AcDbEntity
  8
0
  6
Continuous
 62
     7
100
AcDbPolyline
 90
        3
 70
     0
 43
0.0
 10
-69.08868016741724
 20
76.6796393274
 10
-68.32658491401724
 20
76.67791307749999
 10
-67.65357012231726
 20
76.6764496684
  0
LWPOLYLINE
  5
2994
330
211
100
AcDbEntity
  8
0
  6
Continuous
 62
     7
100
AcDbPolyline
 90
        3
 70
     0
 43
0.0
 10
-59.99776480031725
 20
76.66289328970001
 10
-59.93000912151725
 20
76.66273334749999
 10
-59.52401390261726
 20
76.66174356239999
  0
LWPOLYLINE
  5
2995
330
211
100
AcDbEntity
  8
0
  6
Continuous
 62
     7
100
AcDbPolyline
 90
        6
 70
     0
 43
0.0
 10
-82.75397337111725
 20
76.71665675639999
 10
-82.55972067821724
 20
76.71621924810001
 10
-82.35747064291725
 20
76.71575805100001
 10
-82.14690881861725
 20
76.7152718068
 10
-81.92757394891726
 20
76.7147587525
 10
-81.46088672971727
 20
76.71364519019999
  0
LINE
  5
2996
330
211
100
AcDbEntity
  8
0
  6
Continuous
 62
     7
100
AcDbLine
 10
-60.32909698321725
 20
76.663648237
 30
0.0
 11
-59.99776480031725
 21
76.66289328970001
 31
0.0
  0
LWPOLYLINE
  5
2997
330
211
100
AcDbEntity
  8
0
  6
Continuous
 62
     7
100
AcDbPolyline
 90
        7
 70
     0
 43
0.0
 10
-83.91693970791726
 20
76.7191622496
 10
-83.76984771781724
 20
76.718856263
 10
-83.61686912641726
 20
76.71853465739999
 10
-83.45772734211726
 20
76.7181964494
 10
-83.29217163881725
 20
76.7178406919
 10
-83.11989125541726
 20
76.71746625129999
 10
-82.75397337111725
 20
76.71665675639999
  0
LINE
  5
2998
330
211
100
AcDbEntity
  8
0
  6
Continuous
 62
     7
100
AcDbLine
 10
-67.65357012231726
 20
76.6764496684
 30
0.0
 11
-66.51453004961725
 21
76.67410146849999
 31
0.0
  0
LINE
  5
2999
330
211
100
AcDbEntity
  8
0
  6
Continuous
 62
     7
100
AcDbLine
 10
-60.59549519371725
 20
76.6642112917
 30
0.0
 11
-60.32909698321725
 21
76.663648237
 31
0.0
  0
LINE
  5
299A
330
211
100
AcDbEntity
  8
0
  6
Continuous
 62
     7
100
AcDbLine
 10
-86.94588107801726
 20
76.7247473815
 30
0.0
 11
-86.91738029931725
 21
76.72469148170001
 31
0.0
  0
LWPOLYLINE
  5
299B
330
211
100
AcDbEntity
  8
0
  6
Continuous
 62
     7
100
AcDbPolyline
 90
       10
 70
     0
 43
0.0
 10
-85.11232084771725
 20
76.7215288231
 10
-85.01257074201724
 20
76.7213396417
 10
-84.90877465621725
 20
76.72114116749999
 10
-84.80087535531724
 20
76.7209330947
 10
-84.68881642411725
 20
76.72071512319999
 10
-84.57233617511723
 20
76.7204865248
 10
-84.45120028241724
 20
76.72024661409999
 10
-84.32527027681725
 20
76.71999486029999
 10
-84.19441575941725
 20
76.7197307453
 10
-83.91693970791726
 20
76.7191622496
  0
LINE
  5
299C
330
211
100
AcDbEntity
  8
0
  6
Continuous
 62
     7
100
AcDbLine
 10
-66.51453004961725
 20
76.67410146849999
 30
0.0
 11
-65.38539819831725
 21
76.671930347
 31
0.0
  0
LINE
  5
299D
330
211
100
AcDbEntity
  8
0
  6
Continuous
 62
     7
100
AcDbLine
 10
-86.43095155941725
 20
76.7238887507
 30
0.0
 11
-86.33310136881725
 21
76.72372079439999
 31
0.0
  0
LWPOLYLINE
  5
299E
330
211
100
AcDbEntity
  8
0
  6
Continuous
 62
     7
100
AcDbPolyline
 90
       16
 70
     0
 43
0.0
 10
-86.33310136881725
 20
76.72372079439999
 10
-86.22695562781725
 20
76.72353898979999
 10
-86.17055818001725
 20
76.7234421868
 10
-86.11206362741723
 20
76.72334132649999
 10
-86.05171899091725
 20
76.7232366186
 10
-85.98914041361725
 20
76.7231273064
 10
-85.92408518561725
 20
76.7230128997
 10
-85.85637885161725
 20
76.7228930301
 10
-85.78569769421724
 20
76.7227670557
 10
-85.71224836981725
 20
76.7226352794
 10
-85.63626522731725
 20
76.7224980679
 10
-85.55734150121725
 20
76.7223546302
 10
-85.47517026461724
 20
76.7222043393
 10
-85.38968712511726
 20
76.72204695090001
 10
-85.30073944371725
 20
76.7218820464
 10
-85.11232084771725
 20
76.7215288231
  0
LINE
  5
299F
330
211
100
AcDbEntity
  8
0
  6
Continuous
 62
     7
100
AcDbLine
 10
-65.38539819831725
 20
76.671930347
 30
0.0
 11
-63.91745365701726
 21
76.66933558709999
 31
0.0
  0
LINE
  5
29A0
330
211
100
AcDbEntity
  8
0
  6
Continuous
 62
     7
100
AcDbLine
 10
-60.86319804021725
 20
76.6647115164
 30
0.0
 11
-60.59549519371725
 21
76.6642112917
 31
0.0
  0
LWPOLYLINE
  5
29A1
330
211
100
AcDbEntity
  8
0
  6
Continuous
 62
     7
100
AcDbPolyline
 90
       11
 70
     0
 43
0.0
 10
-86.91738029931725
 20
76.72469148170001
 10
-86.82543922781723
 20
76.7245264715
 10
-86.79249555171725
 20
76.72447288669999
 10
-86.75826508511725
 20
76.72441899189999
 10
-86.72267869311726
 20
76.7243642242
 10
-86.68566551001724
 20
76.7243074725
 10
-86.64712823471726
 20
76.72424765069999
 10
-86.60702908781725
 20
76.72418398239999
 10
-86.56525396541725
 20
76.72411580569999
 10
-86.52193159121726
 20
76.7240435799
 10
-86.43095155941725
 20
76.7238887507
  0
LWPOLYLINE
  5
29A2
330
211
100
AcDbEntity
  8
0
  6
Continuous
 62
     7
100
AcDbPolyline
 90
        3
 70
     0
 43
0.0
 10
-61.18293282401725
 20
76.6651655918
 10
-61.16273085551725
 20
76.6651381767
 10
-61.14328281011725
 20
76.6651113126
  0
LWPOLYLINE
  5
29A3
330
211
100
AcDbEntity
  8
0
  6
Continuous
 62
     7
100
AcDbPolyline
 90
        4
 70
     0
 43
0.0
 10
-61.38873728031725
 20
76.6654502543
 10
-61.31323682051725
 20
76.6653454873
 10
-61.29002681091725
 20
76.6653129698
 10
-61.26759006391726
 20
76.6652823128
  0
LWPOLYLINE
  5
29A4
330
211
100
AcDbEntity
  8
0
  6
Continuous
 62
     7
100
AcDbPolyline
 90
        3
 70
     0
 43
0.0
 10
-63.91745365701726
 20
76.66933558709999
 10
-62.44782289091725
 20
76.66698923830001
 10
-61.38873728031725
 20
76.6654502543
  0
LINE
  5
29A5
330
211
100
AcDbEntity
  8
0
  6
Continuous
 62
     7
100
AcDbLine
 10
-87.02464757991725
 20
76.7248798436
 30
0.0
 11
-86.94588107801726
 21
76.7247473815
 31
0.0
  0
LINE
  5
29A6
330
211
100
AcDbEntity
  8
0
  6
Continuous
 62
     7
100
AcDbLine
 10
-60.92682073731725
 20
76.66481349680001
 30
0.0
 11
-60.86319804021725
 21
76.6647115164
 31
0.0
  0
LINE
  5
29A7
330
211
100
AcDbEntity
  8
0
  6
Continuous
 62
     7
100
AcDbLine
 10
-61.14328281011725
 20
76.6651113126
 30
0.0
 11
-61.09163182111725
 21
76.6650408504
 31
0.0
  0
LINE
  5
29A8
330
211
100
AcDbEntity
  8
0
  6
Continuous
 62
     7
100
AcDbLine
 10
-61.26759006391726
 20
76.6652823128
 30
0.0
 11
-61.18293282401725
 21
76.6651655918
 31
0.0
  0
LINE
  5
29A9
330
211
100
AcDbEntity
  8
0
  6
Continuous
 62
     7
100
AcDbLine
 10
-61.09163182111725
 20
76.6650408504
 30
0.0
 11
-61.00011866581724
 21
76.66491729489999
 31
0.0
  0
LINE
  5
29AA
330
211
100
AcDbEntity
  8
0
  6
Continuous
 62
     7
100
AcDbLine
 10
-60.97531706761725
 20
76.6648834361
 30
0.0
 11
-60.92682073731725
 21
76.66481349680001
 31
0.0
  0
LINE
  5
29AB
330
211
100
AcDbEntity
  8
0
  6
Continuous
 62
     7
100
AcDbLine
 10
-61.00011866581724
 20
76.66491729489999
 30
0.0
 11
-60.97531706761725
 21
76.6648834361
 31
0.0
  0
LWPOLYLINE
  5
29AC
330
211
100
AcDbEntity
  8
0
  6
Continuous
 62
     7
100
AcDbPolyline
 90
        3
 70
     0
 43
0.0
 10
-87.13684375271725
 20
76.7249510293
 10
-87.09388904811724
 20
76.72491483569999
 10
-87.02464757991725
 20
76.7248798436
  0
LWPOLYLINE
  5
29AD
330
211
100
AcDbEntity
  8
0
  6
Continuous
 62
     7
100
AcDbPolyline
 90
       39
 70
     0
 43
0.0
 10
-93.76039149651726
 20
85.0481930984
 10
-93.76746885471725
 20
85.0491952892
 10
-93.77465322741725
 20
85.0522026584
 10
-93.78194954581726
 20
85.0572226959
 10
-93.78933924431725
 20
85.06425374779999
 10
-93.79681250871724
 20
85.07330576310002
 10
-93.80434419211725
 20
85.0843501771
 10
-93.81191094001726
 20
85.0973729266
 10
-93.81949404071724
 20
85.11233815350001
 10
-93.82706969521725
 20
85.12921057859999
 10
-93.83462677781725
 20
85.14797156569999
 10
-93.84215314651726
 20
85.1686071631
 10
-93.84962521471726
 20
85.1910653668
 10
-93.85701910071725
 20
85.2152966751
 10
-93.86432157121724
 20
85.2412761349
 10
-93.87151948941726
 20
85.26898698670001
 10
-93.87858681021725
 20
85.29835199590001
 10
-93.88549709571725
 20
85.32929608379999
 10
-93.89223802971725
 20
85.3617920143
 10
-93.89879653911725
 20
85.39581818370001
 10
-93.90514776231725
 20
85.4312793703
 10
-93.91126665661724
 20
85.46808164879999
 10
-93.91714206231725
 20
85.5061956868
 10
-93.92276196881725
 20
85.54559671559999
 10
-93.92810437651725
 20
85.5861741965
 10
-93.93314745871725
 20
85.6278192389
 10
-93.93788175271726
 20
85.67049902209999
 10
-93.94229679281725
 20
85.7141832047
 10
-93.94637540661724
 20
85.7587532312
 10
-93.95010081821725
 20
85.80409258560001
 10
-93.95346580161724
 20
85.85016292929999
 10
-93.95646216321726
 20
85.8969264347
 10
-93.95907868801726
 20
85.944263844
 10
-93.96130463771724
 20
85.99205790209998
 10
-93.96313567321724
 20
86.04026439790001
 10
-93.96456668041725
 20
86.0888379504
 10
-93.96559263371726
 20
86.13766482549999
 10
-93.96620866601725
 20
86.18660369
 10
-93.96641475101725
 20
86.2356930984
  0
LWPOLYLINE
  5
29AE
330
211
100
AcDbEntity
  8
0
  6
Continuous
 62
     7
100
AcDbPolyline
 90
       39
 70
     0
 43
0.0
 10
-93.75888703981726
 20
87.42314714809999
 10
-93.75331865431725
 20
87.4221578563
 10
-93.74639440661724
 20
87.4190541367
 10
-93.73961000431725
 20
87.4138824163
 10
-93.73298626731726
 20
87.40666462700001
 10
-93.72653757911725
 20
87.39741278549999
 10
-93.72027067021726
 20
87.3861568244
 10
-93.71419294821725
 20
87.37291384589999
 10
-93.70831330441726
 20
87.3577334433
 10
-93.70264237201725
 20
87.34065844299999
 10
-93.69717955121725
 20
87.32172446319999
 10
-93.69192570981725
 20
87.3009606415
 10
-93.68688468421725
 20
87.27842746889999
 10
-93.68206169181725
 20
87.2541854956
 10
-93.67745197491725
 20
87.228261156
 10
-93.67305145041724
 20
87.20067752850001
 10
-93.66886176961726
 20
87.1715033449
 10
-93.66488507081724
 20
87.14080757700001
 10
-93.66111551441726
 20
87.1086097449
 10
-93.65754742591725
 20
87.0749235185
 10
-93.65418161021725
 20
87.039833549
 10
-93.65101930991725
 20
87.00342204389999
 10
-93.64805461891725
 20
86.9657068254
 10
-93.64528211431725
 20
86.92669957129998
 10
-93.64270159841725
 20
86.88649899860001
 10
-93.64031361111726
 20
86.8451990764
 10
-93.63811304131726
 20
86.80282239969999
 10
-93.63609561491726
 20
86.7593857564
 10
-93.63426041791724
 20
86.7149985558
 10
-93.63260765741726
 20
86.6697620106
 10
-93.63113361751725
 20
86.62371426540001
 10
-93.62983587321725
 20
86.57688422139999
 10
-93.62871323911724
 20
86.5293987691
 10
-93.62776647441725
 20
86.48137493290001
 10
-93.62699296761725
 20
86.4328681475
 10
-93.62639215711725
 20
86.38393146979998
 10
-93.62596271811725
 20
86.33468715049998
 10
-93.62570614471726
 20
86.28529371719999
 10
-93.62561977381725
 20
86.2356930984
  0
LINE
  5
29AF
330
211
100
AcDbEntity
  8
0
  6
Continuous
 62
     7
100
AcDbLine
 10
-93.76039149651726
 20
87.4231930984
 30
0.0
 11
-93.75888703981726
 21
87.42314714809999
 31
0.0
  0
LINE
  5
29B0
330
211
100
AcDbEntity
  8
DEFAULT_1
  6
CENTER
 62
     7
100
AcDbLine
 10
-87.93686897321725
 20
86.2356930984
 30
0.0
 11
-35.73458651681725
 21
86.2356930984
 31
0.0
  0
LINE
  5
29B1
330
211
100
AcDbEntity
  8
DEFAULT_1
  6
CENTER
 62
     7
100
AcDbLine
 10
-87.93686897321725
 20
86.2356930984
 30
0.0
 11
-100.4012531835172
 21
86.2356930984
 31
0.0
  0
LINE
  5
29B2
330
211
100
AcDbEntity
  8
0
  6
Continuous
 62
     7
100
AcDbLine
 10
-93.75888724411725
 20
85.04823956699999
 30
0.0
 11
-93.76039149651726
 21
85.0481930984
 31
0.0
  0
LWPOLYLINE
  5
29B3
330
211
100
AcDbEntity
  8
0
  6
Continuous
 62
     7
100
AcDbPolyline
 90
        3
 70
     0
 43
0.0
 10
-60.96928035731725
 20
95.80651079809999
 10
-60.99094575911725
 20
95.80651602659999
 10
-61.03383560631725
 20
95.80640715340001
  0
LWPOLYLINE
  5
29B4
330
211
100
AcDbEntity
  8
0
  6
Continuous
 62
     7
100
AcDbPolyline
 90
        8
 70
     0
 43
0.0
 10
-50.17517499801726
 20
97.94829271780001
 10
-50.07464623721725
 20
97.94829271520001
 10
-49.97803121051725
 20
97.94829304590001
 10
-49.88488071671724
 20
97.94829382280001
 10
-49.79531031121725
 20
97.9482949562
 10
-49.70936157851725
 20
97.9482952651
 10
-49.62680872131724
 20
97.948294619
 10
-49.54751377911725
 20
97.94829269410001
  0
LINE
  5
29B5
330
211
100
AcDbEntity
  8
0
  6
Continuous
 62
     7
100
AcDbLine
 10
-86.86140756001725
 20
97.94829375959999
 30
0.0
 11
-50.17517499801726
 21
97.94829271780001
 31
0.0
  0
LWPOLYLINE
  5
29B6
330
211
100
AcDbEntity
  8
0
  6
Continuous
 62
     7
100
AcDbPolyline
 90
        3
 70
     0
 43
0.0
 10
-49.54751377911725
 20
97.94829269410001
 10
-49.25945289831725
 20
97.9482987139
 10
-48.96680933311725
 20
97.94827581079999
  0
LWPOLYLINE
  5
29B7
330
211
100
AcDbEntity
  8
0
  6
Continuous
 62
     7
100
AcDbPolyline
 90
      136
 70
     0
 43
0.0
 10
-48.96680933311725
 20
97.94827581079999
 10
-48.86962962031725
 20
97.94830736370002
 10
-48.82381713711724
 20
97.94833876049999
 10
-48.77952231241725
 20
97.9483496775
 10
-48.73637950021725
 20
97.9482537474
 10
-48.69444435661725
 20
97.94801617430001
 10
-48.65374756701725
 20
97.94745111040001
 10
-48.61450667401725
 20
97.94655081270001
 10
-48.57689706561725
 20
97.94542124580001
 10
-48.54088969841725
 20
97.94403918170001
 10
-48.50649255361725
 20
97.94248530690001
 10
-48.47354442111726
 20
97.9407892521
 10
-48.44202180111725
 20
97.9389573225
 10
-48.41163907221726
 20
97.93698528420001
 10
-48.38215777871726
 20
97.93487412340001
 10
-48.35336352041725
 20
97.93260876120001
 10
-48.32503980651726
 20
97.9301593487
 10
-48.29693336491725
 20
97.9275149987
 10
-48.26882247481725
 20
97.924648346
 10
-48.24039903541724
 20
97.92152922440001
 10
-48.21138593451725
 20
97.91811905459999
 10
-48.18150874061725
 20
97.91436547209999
 10
-48.15049358021725
 20
97.9102077153
 10
-48.11806683141725
 20
97.90557543799998
 10
-48.08394199721725
 20
97.90038407
 10
-48.04789341981725
 20
97.8945464294
 10
-48.00957724421725
 20
97.8879419699
 10
-47.96908130851725
 20
97.88051152889998
 10
-47.92635016431725
 20
97.87216635780001
 10
-47.88148313131725
 20
97.8628426332
 10
-47.83464148641725
 20
97.8524895952
 10
-47.78559842021725
 20
97.8409665817
 10
-47.73430365061725
 20
97.82815964320001
 10
-47.68042172101725
 20
97.81386632989999
 10
-47.62368110971725
 20
97.79787220790002
 10
-47.56389400681725
 20
97.77995930860001
 10
-47.50081946631725
 20
97.75986374809999
 10
-47.43442551741725
 20
97.73735844129999
 10
-47.36478247501724
 20
97.71223302530001
 10
-47.29142919341724
 20
97.6840512695
 10
-47.21409820441725
 20
97.65238599420001
 10
-47.13245456691725
 20
97.61671240950001
 10
-47.04594995741724
 20
97.5763148967
 10
-46.95523238321725
 20
97.53097137520001
 10
-46.86026724881725
 20
97.4801029139
 10
-46.76272803591724
 20
97.42405782430001
 10
-46.66309573221726
 20
97.36262044340001
 10
-46.56472713581725
 20
97.29755827079999
 10
-46.47056028011725
 20
97.2309042232
 10
-46.38124286411725
 20
97.1634635951
 10
-46.29818597671724
 20
97.0968040984
 10
-46.22131685981725
 20
97.03147329930001
 10
-46.15125485631724
 20
96.96865551690001
 10
-46.08703300351725
 20
96.9081391727
 10
-46.02816593591724
 20
96.85003402879999
 10
-45.97398648931725
 20
96.7941751328
 10
-45.92380597111724
 20
96.7402638987
 10
-45.87743155091724
 20
96.68845799379999
 10
-45.83458249411726
 20
96.6387843152
 10
-45.79493100971725
 20
96.59117047770001
 10
-45.75819480591725
 20
96.5455532848
 10
-45.72406492451725
 20
96.50179547260002
 10
-45.69221725341725
 20
96.45969693059999
 10
-45.66251224011725
 20
96.41926572950001
 10
-45.63474130181726
 20
96.38039550229999
 10
-45.60884275561725
 20
96.34316502110001
 10
-45.58473081031725
 20
96.30760771709999
 10
-45.56228038051725
 20
96.2736821532
 10
-45.54144860511725
 20
96.24144653870001
 10
-45.52198349581725
 20
96.21061207610001
 10
-45.50372135681725
 20
96.18101252549999
 10
-45.48643165691724
 20
96.1523798892
 10
-45.46989994661725
 20
96.12446990309999
 10
-45.45391152731724
 20
96.0969972816
 10
-45.43826238441725
 20
96.0696681313
 10
-45.42274341811725
 20
96.04221643489999
 10
-45.40715015921725
 20
96.01435272839999
 10
-45.39130244121724
 20
95.985827069
 10
-45.37499893061725
 20
95.9563606801
 10
-45.35806185451725
 20
95.92564967580001
 10
-45.34031280541724
 20
95.89338341100001
 10
-45.32160084941724
 20
95.85925663200001
 10
-45.30172997111725
 20
95.822842667
 10
-45.28078641731725
 20
95.7842596935
 10
-45.25872688171725
 20
95.74338954919999
 10
-45.23573519821725
 20
95.70053593530001
 10
-45.21199350161725
 20
95.65601653749999
 10
-45.18742420951725
 20
95.60965794959999
 10
-45.16205789301724
 20
95.561488143
 10
-45.13575976481725
 20
95.5112176053
 10
-45.10843271901725
 20
95.4586181824
 10
-45.08001432871725
 20
95.40351907829998
 10
-45.05038162751725
 20
95.34562041379999
 10
-45.01964631421725
 20
95.2850754818
 10
-44.98791474521725
 20
95.22203018879999
 10
-44.95508165761726
 20
95.1562087409
 10
-44.92113704461725
 20
95.08751798129999
 10
-44.88591965381725
 20
95.0155473787
 10
-44.84923975051725
 20
94.93980736719999
 10
-44.81121264191725
 20
94.86042287309999
 10
-44.77192782031725
 20
94.777464825
 10
-44.73128780611725
 20
94.69060130569999
 10
-44.68928923471724
 20
94.59968364979999
 10
-44.64577870461725
 20
94.50421827200001
 10
-44.60058356531725
 20
94.40363421719998
 10
-44.55382565401725
 20
94.29798965549998
 10
-44.50566225551725
 20
94.1874204674
 10
-44.45584754291725
 20
94.0711138244
 10
-44.40419167791725
 20
93.94832304399999
 10
-44.35079666181725
 20
93.8189454837
 10
-44.29577759881725
 20
93.68288858659999
 10
-44.23898281811725
 20
93.53935592499999
 10
-44.18034151461725
 20
93.38767116819999
 10
-44.11988224761725
 20
93.22733485409999
 10
-44.05767371201725
 20
93.0578774934
 10
-43.99369532071725
 20
92.87849120209999
 10
-43.92802166651725
 20
92.68851243639998
 10
-43.86067385101725
 20
92.48698663
 10
-43.79177272521725
 20
92.27308889700001
 10
-43.72140872091725
 20
92.04570664040002
 10
-43.64980907641725
 20
91.8039246118
 10
-43.57712231701725
 20
91.5462505234
 10
-43.50370040801725
 20
91.27152737290002
 10
-43.42978352051725
 20
90.97775824760001
 10
-43.35587525121725
 20
90.66338001629999
 10
-43.28243987911725
 20
90.32585034290001
 10
-43.20968105391725
 20
89.95993978719999
 10
-43.14024773051725
 20
89.5720681328
 10
-43.07558986631724
 20
89.1636004239
 10
-43.01825186281725
 20
88.7449959375
 10
-42.97009973931724
 20
88.3285034754
 10
-42.93065581481725
 20
87.91083412290001
 10
-42.89999434581725
 20
87.4928871834
 10
-42.87807755011725
 20
87.07437250129999
 10
-42.86491077781724
 20
86.65521066030001
 10
-42.86051719301725
 20
86.23568528280001
  0
LWPOLYLINE
  5
29B8
330
211
100
AcDbEntity
  8
0
  6
Continuous
 62
     7
100
AcDbPolyline
 90
       10
 70
     0
 43
0.0
 10
-61.03383560631725
 20
95.80640715340001
 10
-61.07293801471725
 20
95.806372035
 10
-61.09188322741726
 20
95.8063447159
 10
-61.11085255771725
 20
95.8063188699
 10
-61.13021211911725
 20
95.80629269419999
 10
-61.15035009911725
 20
95.8062657358
 10
-61.17150069951725
 20
95.8062362905
 10
-61.19404070791725
 20
95.80620408040001
 10
-61.21792477151725
 20
95.8061724549
 10
-61.24324433581725
 20
95.80613722709999
  0
LWPOLYLINE
  5
29B9
330
211
100
AcDbEntity
  8
0
  6
Continuous
 62
     7
100
AcDbPolyline
 90
        3
 70
     0
 43
0.0
 10
-61.24324433581725
 20
95.80613722709999
 10
-61.29814979061725
 20
95.80606213040001
 10
-61.32770827621725
 20
95.80602064729999
  0
LWPOLYLINE
  5
29BA
330
211
100
AcDbEntity
  8
0
  6
Continuous
 62
     7
100
AcDbPolyline
 90
        3
 70
     0
 43
0.0
 10
-61.32770827621725
 20
95.80602064729999
 10
-61.90240393851725
 20
95.80520518390001
 10
-62.80946299801725
 20
95.8038425256
  0
LWPOLYLINE
  5
29BB
330
211
100
AcDbEntity
  8
0
  6
Continuous
 62
     7
100
AcDbPolyline
 90
      136
 70
     0
 43
0.0
 10
-85.85205898441726
 20
95.74850093349999
 10
-85.98271356711725
 20
95.74827016
 10
-86.10759734141725
 20
95.74805230870001
 10
-86.22704982821725
 20
95.7478470376
 10
-86.34142131761725
 20
95.7476524468
 10
-86.45096047831726
 20
95.7474631884
 10
-86.55592229581726
 20
95.7472801892
 10
-86.65629901601725
 20
95.74712391799998
 10
-86.75249058461725
 20
95.74699533689999
 10
-86.84519804221725
 20
95.7468269123
 10
-86.93416424321725
 20
95.74660788340001
 10
-87.01656114291726
 20
95.746515297
 10
-87.09195845991725
 20
95.7466412658
 10
-87.17462518901724
 20
95.74630904219999
 10
-87.27667606081725
 20
95.7445070786
 10
-87.38985836821724
 20
95.73990121660001
 10
-87.50499107611725
 20
95.73112631429999
 10
-87.61904056771724
 20
95.7183323667
 10
-87.73112052001726
 20
95.70220550100001
 10
-87.84244471011724
 20
95.6825921681
 10
-87.95383007541724
 20
95.6592033707
 10
-88.06443351571724
 20
95.63219971209999
 10
-88.17374857501725
 20
95.6017474387
 10
-88.28193932581724
 20
95.56783618930001
 10
-88.38908954211724
 20
95.53043176530001
 10
-88.49506290351724
 20
95.48956139229998
 10
-88.59970341211726
 20
95.44528830950001
 10
-88.70288902771724
 20
95.39767012450001
 10
-88.80449721801724
 20
95.34675447209998
 10
-88.90448190371726
 20
95.29256531100001
 10
-89.00286062231726
 20
95.23509816489999
 10
-89.09942899371726
 20
95.17444206829999
 10
-89.19394257241725
 20
95.1107238994
 10
-89.28631463351726
 20
95.04403198620002
 10
-89.37649874341726
 20
94.974423139
 10
-89.46438791361726
 20
94.90195636280001
 10
-89.54979325471725
 20
94.82678686259999
 10
-89.63277580861726
 20
94.74889963370001
 10
-89.71342502951726
 20
94.6681907427
 10
-89.79147577531724
 20
94.58487442819999
 10
-89.86672524661726
 20
94.4991804534
 10
-89.93920838541724
 20
94.41112067430001
 10
-90.00908396351725
 20
94.3204608525
 10
-90.07568784881724
 20
94.2279559369
 10
-90.13911513891725
 20
94.1335268985
 10
-90.19751198291725
 20
94.0405879403
 10
-90.24932147301724
 20
93.95266759540001
 10
-90.29608182191726
 20
93.86747140309999
 10
-90.33746897541725
 20
93.7866773248
 10
-90.37341500821725
 20
93.71271560389999
 10
-90.40344948841726
 20
93.64795790290001
 10
-90.43056782591724
 20
93.5877010977
 10
-90.45879686491725
 20
93.5245587866
 10
-90.48847163101724
 20
93.457708019
 10
-90.51959951681725
 20
93.38677742479999
 10
-90.55193761371723
 20
93.31210652290002
 10
-90.58518255241725
 20
93.23434147669999
 10
-90.61948629311725
 20
93.1530439938
 10
-90.65505447971725
 20
93.0675882527
 10
-90.69190807521726
 20
92.97772569770001
 10
-90.72999122561725
 20
92.8833735243
 10
-90.76933045181725
 20
92.78425155589999
 10
-90.80994386611726
 20
92.680082195
 10
-90.85188461251725
 20
92.5704551943
 10
-90.89515346931724
 20
92.4550531913
 10
-90.93982180911725
 20
92.33332069040001
 10
-90.98588023701724
 20
92.20486724690001
 10
-91.03344226871724
 20
92.06888195659999
 10
-91.08312086071725
 20
91.92296329280001
 10
-91.13323411741724
 20
91.77143593709999
 10
-91.18328258751725
 20
91.6153871943
 10
-91.23085390801724
 20
91.46231664389999
 10
-91.27329458121725
 20
91.32149089610001
 10
-91.31204787141724
 20
91.1890837548
 10
-91.34752101891725
 20
91.0644264081
 10
-91.37998154721726
 20
90.94723126399999
 10
-91.40970689331725
 20
90.8370893922
 10
-91.43694157471726
 20
90.73363199559999
 10
-91.46192258021725
 20
90.63644362459999
 10
-91.48483933131725
 20
90.54522404129999
 10
-91.50587877671725
 20
90.4596257833
 10
-91.52520221491725
 20
90.37935040749999
 10
-91.54296984871725
 20
90.30405380679999
 10
-91.55930549091726
 20
90.23349897000001
 10
-91.57432940431725
 20
90.16742771030001
 10
-91.58816227811724
 20
90.1055445429
 10
-91.60092537741723
 20
90.0475086916
 10
-91.61269057621725
 20
89.99317901659999
 10
-91.62352714511724
 20
89.94240376589999
 10
-91.63353261391725
 20
89.89486274669999
 10
-91.64279235431726
 20
89.8502918934
 10
-91.65139098711724
 20
89.80837666280001
 10
-91.65942583371725
 20
89.76871348520001
 10
-91.66692994911725
 20
89.7313145759
 10
-91.67390566031725
 20
89.69615735279999
 10
-91.68044408041724
 20
89.66283708479998
 10
-91.68660437571725
 20
89.6311755842
 10
-91.69250313591724
 20
89.60051500549999
 10
-91.69822889831726
 20
89.57050067739999
 10
-91.70396998051726
 20
89.5401141237
 10
-91.70993641581725
 20
89.50821496080001
 10
-91.71612286891726
 20
89.47480755139999
 10
-91.72260081921725
 20
89.4394060707
 10
-91.72931453231726
 20
89.4023181354
 10
-91.73620679411724
 20
89.36375703100001
 10
-91.74330762611726
 20
89.3234762302
 10
-91.75063440031726
 20
89.28133987309999
 10
-91.75818825071726
 20
89.237256195
 10
-91.76596791171725
 20
89.19113505790001
 10
-91.77398104571725
 20
89.142829055
 10
-91.78222887881725
 20
89.092219705
 10
-91.79071936041726
 20
89.0391296311
 10
-91.79945581251725
 20
88.9833875373
 10
-91.80843414481726
 20
88.9248506052
 10
-91.81764159571725
 20
88.86341309509999
 10
-91.82708743271724
 20
88.79879472869999
 10
-91.83676767781724
 20
88.73077159120001
 10
-91.84667915281725
 20
88.6590689582
 10
-91.85680755711725
 20
88.58345321629998
 10
-91.86714556881725
 20
88.5035785698
 10
-91.87766706011725
 20
88.41918362680001
 10
-91.88836319051725
 20
88.32978552120001
 10
-91.89920139771725
 20
88.23499658739999
 10
-91.91015281681726
 20
88.1342710032
 10
-91.92116123521726
 20
88.0271627123
 10
-91.93217571441726
 20
87.9129829578
 10
-91.94310965701724
 20
87.7911380661
 10
-91.95386564531725
 20
87.66092173510001
 10
-91.96430137361726
 20
87.52168531049999
 10
-91.97426532631725
 20
87.37271248929999
 10
-91.98354343881725
 20
87.21327270379999
 10
-91.99191229411724
 20
87.04277852889999
 10
-91.99905692841724
 20
86.8607219168
 10
-92.00468791151726
 20
86.66610965790001
 10
-92.00845029771725
 20
86.45762272190001
 10
-92.00974721931725
 20
86.2356930984
  0
LWPOLYLINE
  5
29BC
330
211
100
AcDbEntity
  8
0
  6
Continuous
 62
     7
100
AcDbPolyline
 90
        5
 70
     0
 43
0.0
 10
-60.84932930221725
 20
95.8066980933
 10
-60.89261683801725
 20
95.80662635939999
 10
-60.91327947551725
 20
95.8065746834
 10
-60.93302756241725
 20
95.8065636343
 10
-60.96928035731725
 20
95.80651079809999
  0
LINE
  5
29BD
330
211
100
AcDbEntity
  8
0
  6
Continuous
 62
     7
100
AcDbLine
 10
-62.80946299801725
 20
95.8038425256
 30
0.0
 11
-63.52338943501725
 21
95.8027041423
 31
0.0
  0
LWPOLYLINE
  5
29BE
330
211
100
AcDbEntity
  8
0
  6
Continuous
 62
     7
100
AcDbPolyline
 90
        7
 70
     0
 43
0.0
 10
-84.74853987401726
 20
95.7505546652
 10
-84.92938461541724
 20
95.7502054817
 10
-85.10170148551726
 20
95.74987744209998
 10
-85.26604816481725
 20
95.7495687948
 10
-85.42281964281725
 20
95.74927811729999
 10
-85.57245914141725
 20
95.74900396249999
 10
-85.85205898441726
 20
95.74850093349999
  0
LINE
  5
29BF
330
211
100
AcDbEntity
  8
0
  6
Continuous
 62
     7
100
AcDbLine
 10
-60.74578408411725
 20
95.8068833273
 30
0.0
 11
-60.78598433401725
 21
95.80681012079999
 31
0.0
  0
LINE
  5
29C0
330
211
100
AcDbEntity
  8
0
  6
Continuous
 62
     7
100
AcDbLine
 10
-60.78598433401725
 20
95.80681012079999
 30
0.0
 11
-60.84932930221725
 21
95.8066980933
 31
0.0
  0
LINE
  5
29C1
330
211
100
AcDbEntity
  8
0
  6
Continuous
 62
     7
100
AcDbLine
 10
-63.52338943501725
 20
95.8027041423
 30
0.0
 11
-64.95419001861725
 21
95.8002445131
 31
0.0
  0
LWPOLYLINE
  5
29C2
330
211
100
AcDbEntity
  8
0
  6
Continuous
 62
     7
100
AcDbPolyline
 90
        5
 70
     0
 43
0.0
 10
-83.69573558871724
 20
95.75268529929999
 10
-83.92846461061726
 20
95.7522001104
 10
-84.14939384391725
 20
95.751746906
 10
-84.35919923111725
 20
95.751323273
 10
-84.74853987401726
 20
95.7505546652
  0
LWPOLYLINE
  5
29C3
330
211
100
AcDbEntity
  8
0
  6
Continuous
 62
     7
100
AcDbPolyline
 90
        4
 70
     0
 43
0.0
 10
-64.95419001861725
 20
95.8002445131
 10
-66.59968589841724
 20
95.7971147127
 10
-66.84686075331725
 20
95.7966161601
 10
-67.65559359671725
 20
95.79493222329999
  0
LWPOLYLINE
  5
29C4
330
211
100
AcDbEntity
  8
0
  6
Continuous
 62
     7
100
AcDbPolyline
 90
        4
 70
     0
 43
0.0
 10
-82.62581446581725
 20
95.7550174732
 10
-82.91641022041725
 20
95.75436771899999
 10
-83.19082931401727
 20
95.753765232
 10
-83.69573558871724
 20
95.75268529929999
  0
LINE
  5
29C5
330
211
100
AcDbEntity
  8
0
  6
Continuous
 62
     7
100
AcDbLine
 10
-60.38262737471725
 20
95.80762107540001
 30
0.0
 11
-60.74578408411725
 21
95.8068833273
 31
0.0
  0
LINE
  5
29C6
330
211
100
AcDbEntity
  8
0
  6
Continuous
 62
     7
100
AcDbLine
 10
-67.94952492501725
 20
95.7943000192
 30
0.0
 11
-68.91420411631725
 21
95.79214859870001
 31
0.0
  0
LINE
  5
29C7
330
211
100
AcDbEntity
  8
0
  6
Continuous
 62
     7
100
AcDbLine
 10
-67.65559359671725
 20
95.79493222329999
 30
0.0
 11
-67.94952492501725
 21
95.7943000192
 31
0.0
  0
LWPOLYLINE
  5
29C8
330
211
100
AcDbEntity
  8
0
  6
Continuous
 62
     7
100
AcDbPolyline
 90
        5
 70
     0
 43
0.0
 10
-59.86176757161725
 20
95.80881567229999
 10
-59.92785979161725
 20
95.8086580195
 10
-59.98993969021725
 20
95.808511298
 10
-60.04822279351725
 20
95.8083749386
 10
-60.38262737471725
 20
95.80762107540001
  0
LWPOLYLINE
  5
29C9
330
211
100
AcDbEntity
  8
0
  6
Continuous
 62
     7
100
AcDbPolyline
 90
        7
 70
     0
 43
0.0
 10
-68.91420411631725
 20
95.79214859870001
 10
-69.63451379371725
 20
95.79046475969999
 10
-70.02602892721725
 20
95.7895215111
 10
-70.42408945951724
 20
95.78854188299999
 10
-70.81746262441726
 20
95.78755349679999
 10
-71.19676307931725
 20
95.78658110440001
 10
-71.54615062721726
 20
95.7856685157
  0
LWPOLYLINE
  5
29CA
330
211
100
AcDbEntity
  8
0
  6
Continuous
 62
     7
100
AcDbPolyline
 90
        5
 70
     0
 43
0.0
 10
-59.16858972961725
 20
95.81054458629999
 10
-59.27379427071725
 20
95.81027468690001
 10
-59.37304152961726
 20
95.81002222459998
 10
-59.46678543211724
 20
95.8097857665
 10
-59.86176757161725
 20
95.80881567229999
  0
LWPOLYLINE
  5
29CB
330
211
100
AcDbEntity
  8
0
  6
Continuous
 62
     7
100
AcDbPolyline
 90
        8
 70
     0
 43
0.0
 10
-79.69186328741725
 20
95.76222090079999
 10
-80.06558456371726
 20
95.76124167939999
 10
-80.46191366161725
 20
95.7602220865
 10
-80.86373137801725
 20
95.75920842030001
 10
-81.25882404091726
 20
95.7582324216
 10
-81.63892678021724
 20
95.7573126964
 10
-81.98903739621725
 20
95.7564829926
 10
-82.62581446581725
 20
95.7550174732
  0
LWPOLYLINE
  5
29CC
330
211
100
AcDbEntity
  8
0
  6
Continuous
 62
     7
100
AcDbPolyline
 90
        6
 70
     0
 43
0.0
 10
-57.87948672351725
 20
95.81400435669999
 10
-58.06388541091725
 20
95.8134954916
 10
-58.23292805031726
 20
95.8130321317
 10
-58.39158474771725
 20
95.81260081519999
 10
-58.54080905821724
 20
95.81219830649999
 10
-59.16858972961725
 20
95.81054458629999
  0
LINE
  5
29CD
330
211
100
AcDbEntity
  8
0
  6
Continuous
 62
     7
100
AcDbLine
 10
-54.21860830721725
 20
95.82469568489999
 30
0.0
 11
-54.31486730441725
 21
95.8244481974
 31
0.0
  0
LWPOLYLINE
  5
29CE
330
211
100
AcDbEntity
  8
0
  6
Continuous
 62
     7
100
AcDbPolyline
 90
        4
 70
     0
 43
0.0
 10
-78.35261964761724
 20
95.76586389110001
 10
-78.66542613581725
 20
95.764995035
 10
-78.99241178351726
 20
95.7640982164
 10
-79.69186328741725
 20
95.76222090079999
  0
LWPOLYLINE
  5
29CF
330
211
100
AcDbEntity
  8
0
  6
Continuous
 62
     7
100
AcDbPolyline
 90
        4
 70
     0
 43
0.0
 10
-71.54615062721726
 20
95.7856685157
 10
-72.18195803421725
 20
95.78396607450001
 10
-72.47218943671725
 20
95.7831709292
 10
-72.74632838981725
 20
95.7824094128
  0
LWPOLYLINE
  5
29D0
330
211
100
AcDbEntity
  8
0
  6
Continuous
 62
     7
100
AcDbPolyline
 90
       22
 70
     0
 43
0.0
 10
-54.90089276571725
 20
95.82266313099999
 10
-55.15212232051725
 20
95.82190692459999
 10
-55.22128422261725
 20
95.8216994948
 10
-55.29344432441725
 20
95.8214835543
 10
-55.36896126231725
 20
95.82125807510001
 10
-55.44781389991725
 20
95.8210231235
 10
-55.53002056471726
 20
95.8207786936
 10
-55.61582187951725
 20
95.8205240462
 10
-55.70539450371725
 20
95.8202586472
 10
-55.79894756881724
 20
95.8199819378
 10
-55.89667579091725
 20
95.8196934597
 10
-55.99879985401725
 20
95.81939260860002
 10
-56.10547329271724
 20
95.81907914549999
 10
-56.21709255241725
 20
95.8187519816
 10
-56.33402410941725
 20
95.81841030639999
 10
-56.45651143471725
 20
95.8180534685
 10
-56.58469659861725
 20
95.8176813957
 10
-56.71924977531725
 20
95.817292138
 10
-56.86072521771725
 20
95.81688461229999
 10
-57.00961236631725
 20
95.8164574849
 10
-57.16630874901725
 20
95.81601023180001
 10
-57.87948672351725
 20
95.81400435669999
  0
LWPOLYLINE
  5
29D1
330
211
100
AcDbEntity
  8
0
  6
Continuous
 62
     7
100
AcDbPolyline
 90
        3
 70
     0
 43
0.0
 10
-54.78968989151725
 20
95.82299588620001
 10
-54.84413418711724
 20
95.82283323950001
 10
-54.90089276571725
 20
95.82266313099999
  0
LWPOLYLINE
  5
29D2
330
211
100
AcDbEntity
  8
0
  6
Continuous
 62
     7
100
AcDbPolyline
 90
        6
 70
     0
 43
0.0
 10
-72.74632838981725
 20
95.7824094128
 10
-73.25091742681725
 20
95.78098109509999
 10
-73.48360389581725
 20
95.7803108248
 10
-73.70456683481726
 20
95.779667539
 10
-73.91447837481726
 20
95.77905008110001
 10
-74.11417416761725
 20
95.7784568699
  0
LWPOLYLINE
  5
29D3
330
211
100
AcDbEntity
  8
0
  6
Continuous
 62
     7
100
AcDbPolyline
 90
        9
 70
     0
 43
0.0
 10
-76.07679832941726
 20
95.77247791069998
 10
-76.28813437691725
 20
95.77184453559999
 10
-76.50874277781724
 20
95.7711862356
 10
-76.73902202251724
 20
95.77050393309999
 10
-76.97949139031725
 20
95.7697968132
 10
-77.23062124581725
 20
95.76906384370001
 10
-77.49295912261725
 20
95.76830442790001
 10
-77.76700338131725
 20
95.767518275
 10
-78.35261964761724
 20
95.76586389110001
  0
LWPOLYLINE
  5
29D4
330
211
100
AcDbEntity
  8
0
  6
Continuous
 62
     7
100
AcDbPolyline
 90
        9
 70
     0
 43
0.0
 10
-74.11417416761725
 20
95.7784568699
 10
-74.65803665601725
 20
95.77681459049999
 10
-74.82103684341726
 20
95.7763098754
 10
-74.98158911531724
 20
95.77581846680001
 10
-75.14617879751725
 20
95.7753068234
 10
-75.31586159401726
 20
95.77478952819999
 10
-75.49414159621725
 20
95.7742499154
 10
-75.68022050061725
 20
95.77367714030001
 10
-76.07679832941726
 20
95.77247791069998
  0
LINE
  5
29D5
330
211
100
AcDbEntity
  8
0
  6
Continuous
 62
     7
100
AcDbLine
 10
-54.31486730441725
 20
95.8244481974
 30
0.0
 11
-54.78968989151725
 21
95.82299588620001
 31
0.0
  0
LWPOLYLINE
  5
29D6
330
211
100
AcDbEntity
  8
0
  6
Continuous
 62
     7
100
AcDbPolyline
 90
       75
 70
     0
 43
0.0
 10
-88.52123682951726
 20
98.58686846370002
 10
-88.61227407911725
 20
98.58691552200001
 10
-88.65314092421725
 20
98.58686211650001
 10
-88.69195516681726
 20
98.5866114599
 10
-88.72943440991724
 20
98.58605640669999
 10
-88.76730092461725
 20
98.5851476356
 10
-88.80754036681725
 20
98.58379815159999
 10
-88.84983586841725
 20
98.5819651595
 10
-88.89434096041725
 20
98.5795849019
 10
-88.94111497311724
 20
98.57657789850001
 10
-88.99032888931726
 20
98.57284757549999
 10
-89.04203126171726
 20
98.56830296970001
 10
-89.09622651311726
 20
98.5628516873
 10
-89.15311779591725
 20
98.55636927030001
 10
-89.21279767931725
 20
98.54872797170001
 10
-89.27559109351724
 20
98.5397528466
 10
-89.34174929481725
 20
98.52925261300001
 10
-89.41154265541724
 20
98.51700541360001
 10
-89.48521481111725
 20
98.50276265360001
 10
-89.56302635891725
 20
98.48623802120002
 10
-89.64525967241725
 20
98.46709989889999
 10
-89.73199649631725
 20
98.44502278170001
 10
-89.82337813441725
 20
98.419628769
 10
-89.91937878141724
 20
98.3905477358
 10
-90.02005354451725
 20
98.35734749590001
 10
-90.12514103681725
 20
98.3196655318
 10
-90.23493631941725
 20
98.27689656069999
 10
-90.34765728291725
 20
98.22925522600002
 10
-90.46228807281725
 20
98.17678324
 10
-90.57695652331725
 20
98.12006865549999
 10
-90.68996393131724
 20
98.05985226510001
 10
-90.80020559661724
 20
97.99676640459999
 10
-90.90641555451725
 20
97.9317131184
 10
-91.00787520051724
 20
97.86543838989999
 10
-91.10367418651724
 20
97.7989461081
 10
-91.19356317821724
 20
97.7328924362
 10
-91.27686154801725
 20
97.66832379270001
 10
-91.35425789921724
 20
97.6052623324
 10
-91.42604205701724
 20
97.5439756537
 10
-91.49268477671725
 20
97.484526858
 10
-91.55460243241725
 20
97.42696311959999
 10
-91.61213791481726
 20
97.37134636280002
 10
-91.66566523181726
 20
97.31766009180001
 10
-91.71541244621725
 20
97.2659920781
 10
-91.76160636651726
 20
97.21640200659999
 10
-91.80455542911724
 20
97.16882848290001
 10
-91.84452420081724
 20
97.12322059540001
 10
-91.88178616781724
 20
97.07948326020002
 10
-91.91660586681726
 20
97.03749805840001
 10
-91.94919243571725
 20
96.9971836782
 10
-91.97979143011725
 20
96.9583868619
 10
-92.00849147151727
 20
96.9211311571
 10
-92.03542513871724
 20
96.88537134020002
 10
-92.06067386371726
 20
96.8511179044
 10
-92.08432422551725
 20
96.8183650557
 10
-92.10646748721726
 20
96.7870902718
 10
-92.12718702631724
 20
96.75727189299999
 10
-92.14656662921724
 20
96.72887772160001
 10
-92.16468059371726
 20
96.7018804585
 10
-92.18162345151725
 20
96.67621393680001
 10
-92.19747736261725
 20
96.65182177990001
 10
-92.21232947861725
 20
96.62863242420002
 10
-92.22625839801725
 20
96.60657919360001
 10
-92.23935300561725
 20
96.5855713422
 10
-92.25167456291725
 20
96.56555427370001
 10
-92.26334323261724
 20
96.5463671902
 10
-92.27434888341724
 20
96.52805502260001
 10
-92.28512646491724
 20
96.50990439170001
 10
-92.29612021351725
 20
96.49115564569999
 10
-92.30731727821725
 20
96.47183193970001
 10
-92.31895518901726
 20
96.4515339144
 10
-92.33073494841724
 20
96.4308096315
 10
-92.34241756191726
 20
96.410121531
 10
-92.35401070191725
 20
96.3894949175
 10
-92.36542135261725
 20
96.36912945780002
  0
LWPOLYLINE
  5
29D7
330
211
100
AcDbEntity
  8
0
  6
Continuous
 62
     7
100
AcDbPolyline
 90
        3
 70
     0
 43
0.0
 10
-49.19347514851725
 20
98.586878626
 10
-49.34697618441725
 20
98.5868773814
 10
-49.42808988451725
 20
98.58687710860001
  0
LWPOLYLINE
  5
29D8
330
211
100
AcDbEntity
  8
0
  6
Continuous
 62
     7
100
AcDbPolyline
 90
        3
 70
     0
 43
0.0
 10
-87.61014207201725
 20
98.58687711420001
 10
-87.69340365211725
 20
98.5868774539
 10
-87.85046411271725
 20
98.586878737
  0
LWPOLYLINE
  5
29D9
330
211
100
AcDbEntity
  8
0
  6
Continuous
 62
     7
100
AcDbPolyline
 90
        3
 70
     0
 43
0.0
 10
-87.85046411271725
 20
98.586878737
 10
-87.92445136791725
 20
98.58687876110002
 10
-87.99564612731726
 20
98.58687771280001
  0
LINE
  5
29DA
330
211
100
AcDbEntity
  8
0
  6
Continuous
 62
     7
100
AcDbLine
 10
-49.42808988451725
 20
98.58687710860001
 30
0.0
 11
-87.61014207201725
 21
98.58687711420001
 31
0.0
  0
LWPOLYLINE
  5
29DB
330
211
100
AcDbEntity
  8
0
  6
Continuous
 62
     7
100
AcDbPolyline
 90
        4
 70
     0
 43
0.0
 10
-48.98397450771724
 20
98.58687635489999
 10
-49.05130415081725
 20
98.5868781717
 10
-49.12105100761725
 20
98.58687886280002
 10
-49.19347514851725
 20
98.586878626
  0
LWPOLYLINE
  5
29DC
330
211
100
AcDbEntity
  8
0
  6
Continuous
 62
     7
100
AcDbPolyline
 90
        4
 70
     0
 43
0.0
 10
-87.99564612731726
 20
98.58687771280001
 10
-88.19325750411726
 20
98.5868725745
 10
-88.25370438921725
 20
98.58687169180001
 10
-88.36722357531725
 20
98.58688497500001
  0
LWPOLYLINE
  5
29DD
330
211
100
AcDbEntity
  8
0
  6
Continuous
 62
     7
100
AcDbPolyline
 90
        4
 70
     0
 43
0.0
 10
-48.53478547511725
 20
98.58686457040001
 10
-48.63363884491725
 20
98.5868874482
 10
-48.68613385761725
 20
98.5868791632
 10
-48.98397450771724
 20
98.58687635489999
  0
LINE
  5
29DE
330
211
100
AcDbEntity
  8
0
  6
Continuous
 62
     7
100
AcDbLine
 10
-88.36722357531725
 20
98.58688497500001
 30
0.0
 11
-88.52123682951726
 21
98.58686846370002
 31
0.0
  0
LINE
  5
29DF
330
211
100
AcDbEntity
  8
0
  6
Continuous
 62
     7
100
AcDbLine
 10
-97.81186897321724
 20
101.5056589794
 30
0.0
 11
-38.81186897321725
 21
101.5056589794
 31
0.0
  0
LINE
  5
29E0
330
211
100
AcDbEntity
  8
0
  6
Continuous
 62
     7
100
AcDbLine
 10
-38.31186897321725
 20
101.7356930984
 30
0.0
 11
-98.31186897321725
 21
101.7356930984
 31
0.0
  0
LWPOLYLINE
  5
29E1
330
211
100
AcDbEntity
  8
0
  6
Continuous
 62
     7
100
AcDbPolyline
 90
       87
 70
     0
 43
0.0
 10
-86.13260769821724
 20
86.2356930984
 10
-86.13390779381726
 20
86.1671982338
 10
-86.13780619631725
 20
86.09880201500001
 10
-86.14429728451725
 20
86.0306030543
 10
-86.15337174871724
 20
85.9626991957
 10
-86.16501665571725
 20
85.89518767760001
 10
-86.17921517641725
 20
85.82816641289999
 10
-86.19594563561724
 20
85.7617365087
 10
-86.21518725451725
 20
85.69598132600001
 10
-86.23694531621724
 20
85.6309057696
 10
-86.26110553771725
 20
85.5668428275
 10
-86.28746999971724
 20
85.50421474609999
 10
-86.31613438051726
 20
85.44269329189999
 10
-86.34722773171725
 20
85.3820214469
 10
-86.38063008771725
 20
85.3224785863
 10
-86.41624893901726
 20
85.26423159850001
 10
-86.45406312381725
 20
85.2073275278
 10
-86.49404437781724
 20
85.15182428930001
 10
-86.53610896141726
 20
85.09785274939998
 10
-86.58016677461725
 20
85.04553374290001
 10
-86.62616346321724
 20
84.99492553499999
 10
-86.67403333291725
 20
84.94609819609999
 10
-86.72370456231725
 20
84.899122119
 10
-86.77510303681726
 20
84.85406443989999
 10
-86.82815416141727
 20
84.8109871982
 10
-86.88278186841726
 20
84.76994918930001
 10
-86.93890314931726
 20
84.73100926169999
 10
-86.99643247891726
 20
84.6942228702
 10
-87.05528822611725
 20
84.6596378165
 10
-87.11538726041725
 20
84.62729914479998
 10
-87.17663911711724
 20
84.59725121439999
 10
-87.23894954671726
 20
84.5695355358
 10
-87.30223783151727
 20
84.54418311579999
 10
-87.36641688201725
 20
84.5212249753
 10
-87.43140734691726
 20
84.50068634069999
 10
-87.49711222881726
 20
84.48259517370001
 10
-87.56349512471725
 20
84.46696198899999
 10
-87.63059873691725
 20
84.45378809270001
 10
-87.69809203711725
 20
84.44314499029999
 10
-87.76548446641724
 20
84.435080563
 10
-87.83327341871725
 20
84.42951321189999
 10
-87.90185454181726
 20
84.42644936399998
 10
-87.97106945561726
 20
84.42596633799999
 10
-88.04109090631724
 20
84.42813964189999
 10
-88.11129312741725
 20
84.4330293298
 10
-88.18119123201723
 20
84.44061989720001
 10
-88.25052469281725
 20
84.45088939260001
 10
-88.31887334111724
 20
84.4637471799
 10
-88.38625295301724
 20
84.47916358449999
 10
-88.45252239861727
 20
84.49707971069999
 10
-88.51773847981725
 20
84.5174761075
 10
-88.58211342851726
 20
84.54042498819999
 10
-88.64502338261726
 20
84.5656625862
 10
-88.70596284451725
 20
84.59289669470001
 10
-88.76493285361725
 20
84.62198585219999
 10
-88.82131291141725
 20
84.65244908009999
 10
-88.87655318291725
 20
84.6849586439
 10
-88.93204939721725
 20
84.72043267149999
 10
-88.98689730181725
 20
84.75845428680001
 10
-89.04100838661724
 20
84.79907385050001
 10
-89.09342308591725
 20
84.84160928660001
 10
-89.14343921231726
 20
84.88539267909999
 10
-89.19066201541724
 20
84.9298717747
 10
-89.23402727631724
 20
84.97368967559999
 10
-89.27527668791725
 20
85.0182434515
 10
-89.31638601381726
 20
85.0656903674
 10
-89.35485252301726
 20
85.11317588949999
 10
-89.38883648291726
 20
85.15787464970001
 10
-89.41962513371725
 20
85.20086994459999
 10
-89.44756371721725
 20
85.24218809750001
 10
-89.47335751941725
 20
85.28250288550001
 10
-89.49724480621725
 20
85.32190171640001
 10
-89.52052801071724
 20
85.3625206357
 10
-89.54434891221726
 20
85.40675727760001
 10
-89.56834402561725
 20
85.4545157521
 10
-89.59250920331724
 20
85.5065184454
 10
-89.61646759151724
 20
85.562823775
 10
-89.64014815281725
 20
85.62438651649999
 10
-89.66234805801725
 20
85.6892008926
 10
-89.68224857461725
 20
85.75544681550001
 10
-89.69972463161724
 20
85.8229853419
 10
-89.71453203321726
 20
85.8910043522
 10
-89.72667974201725
 20
85.9595307826
 10
-89.73612741481726
 20
86.02832730440001
 10
-89.74287900271725
 20
86.09734884049998
 10
-89.74692771651726
 20
86.16650898649998
 10
-89.74827843391725
 20
86.2356930984
  0
LINE
  5
29E2
330
211
100
AcDbEntity
  8
DEFAULT_1
  6
CENTER
 62
     7
100
AcDbLine
 10
-87.93686897321725
 20
86.2356930984
 30
0.0
 11
-87.93686897321725
 21
82.77130888810001
 31
0.0
  0
LINE
  5
29E3
330
211
100
AcDbEntity
  8
DEFAULT_1
  6
CENTER
 62
     7
100
AcDbLine
 10
-87.93686897321725
 20
86.2356930984
 30
0.0
 11
-87.93686897321725
 21
89.70007730869999
 31
0.0
  0
LWPOLYLINE
  5
29E4
330
211
100
AcDbEntity
  8
0
  6
Continuous
 62
     7
100
AcDbPolyline
 90
       87
 70
     0
 43
0.0
 10
-89.74827843391725
 20
86.2356930984
 10
-89.74694132721726
 20
86.3045281661
 10
-89.74293372551725
 20
86.37333540690001
 10
-89.73625144001726
 20
86.44200097569999
 10
-89.72690127351725
 20
86.51044279899998
 10
-89.71487919771725
 20
86.5786186897
 10
-89.70022444361726
 20
86.64629632299998
 10
-89.68296870031725
 20
86.71335629639999
 10
-89.66322734881725
 20
86.77944241870001
 10
-89.64091386871725
 20
86.84489091409998
 10
-89.61686469731725
 20
86.90758283479999
 10
-89.59222270001724
 20
86.9655104961
 10
-89.56719962041725
 20
87.019230379
 10
-89.54242584741725
 20
87.06830750020001
 10
-89.51774141281724
 20
87.1138540669
 10
-89.49344248061725
 20
87.1559046577
 10
-89.46822512271726
 20
87.19708290659999
 10
-89.44035970981726
 20
87.2400773192
 10
-89.41015942321724
 20
87.28400488149999
 10
-89.37746162761724
 20
87.32878010389999
 10
-89.34187876191726
 20
87.3745740286
 10
-89.30223379211724
 20
87.4223993648
 10
-89.26054216901725
 20
87.4693976408
 10
-89.21986449731726
 20
87.512330625
 10
-89.17726369961725
 20
87.554462104
 10
-89.12977617331724
 20
87.59828101990001
 10
-89.07927868341726
 20
87.6415803321
 10
-89.02674101061725
 20
87.6833357822
 10
-88.97262231901725
 20
87.72312330590001
 10
-88.91782331251725
 20
87.7603260617
 10
-88.86240432651725
 20
87.7950131793
 10
-88.80726226231725
 20
87.82678009260001
 10
-88.75085687571724
 20
87.8565962877
 10
-88.69144054781726
 20
87.88523405780001
 10
-88.63005509881725
 20
87.9119887318
 10
-88.56716133991724
 20
87.93654622940001
 10
-88.50294674291724
 20
87.95878358780001
 10
-88.43782717081724
 20
87.97851986519999
 10
-88.37166671521726
 20
87.9957955899
 10
-88.30441107561725
 20
88.0105903753
 10
-88.23621705391726
 20
88.0228420032
 10
-88.16707682941725
 20
88.03252077370002
 10
-88.09743826501724
 20
88.0395374947
 10
-88.02760933921724
 20
88.04387414899998
 10
-87.95802294201726
 20
88.0455286719
 10
-87.88931916241725
 20
88.0445691975
 10
-87.82116948651724
 20
88.04106482669999
 10
-87.75346984451724
 20
88.0350535051
 10
-87.68616887371726
 20
88.02654889000001
 10
-87.61910430751724
 20
88.01552641
 10
-87.55251467531724
 20
88.0020186189
 10
-87.48657182301725
 20
87.98606622020001
 10
-87.42130225181725
 20
87.96768132910001
 10
-87.35676083881726
 20
87.94687954030001
 10
-87.29303528161725
 20
87.9236868491
 10
-87.23020130591725
 20
87.8981274518
 10
-87.16834777251724
 20
87.87023350540001
 10
-87.10755732721725
 20
87.84003771100001
 10
-87.04791941501724
 20
87.8075801215
 10
-86.98952027751724
 20
87.77290328339999
 10
-86.93244395571724
 20
87.7360531821
 10
-86.87677244781724
 20
87.69707858629999
 10
-86.82258819231725
 20
87.65603356840001
 10
-86.76997149731725
 20
87.61297546219999
 10
-86.71899821141726
 20
87.56796335649999
 10
-86.66974258211725
 20
87.52105967940002
 10
-86.62227617441725
 20
87.47232982920001
 10
-86.57666612951725
 20
87.4218395265
 10
-86.53298493071725
 20
87.36966710629998
 10
-86.49129455071724
 20
87.315883051
 10
-86.45167258541725
 20
87.2605956491
 10
-86.41419868431725
 20
87.2039319337
 10
-86.37888953371724
 20
87.1459307327
 10
-86.34579330901726
 20
87.08668554129998
 10
-86.31489607341725
 20
87.02615546030001
 10
-86.28616438201724
 20
86.9642189838
 10
-86.25976964561726
 20
86.9011851395
 10
-86.23583575651727
 20
86.8373512658
 10
-86.21434067551724
 20
86.7726956811
 10
-86.19529621471725
 20
86.7072567824
 10
-86.17873579161724
 20
86.64114580520001
 10
-86.16468300131726
 20
86.57445700149999
 10
-86.15315786941726
 20
86.50728546899999
 10
-86.14417682581725
 20
86.4397271146
 10
-86.13775261511724
 20
86.37187789379998
 10
-86.13389439411724
 20
86.30383419799999
 10
-86.13260769821724
 20
86.2356930984
  0
LWPOLYLINE
  5
29E5
330
211
100
AcDbEntity
  8
0
  6
Continuous
 62
     7
100
AcDbPolyline
 90
      145
 70
     0
 43
0.0
 10
-92.00974721961726
 20
86.2356930984
 10
-92.00834124271725
 20
86.0045229327
 10
-92.00425871661725
 20
85.78741731239999
 10
-91.99815068241724
 20
85.58478162410001
 10
-91.99040886541725
 20
85.39537780859999
 10
-91.98135730601725
 20
85.21830430479999
 10
-91.97134421031725
 20
85.05300475850001
 10
-91.96062093551725
 20
84.89892292430001
 10
-91.94941702731725
 20
84.75518116459999
 10
-91.93789298591724
 20
84.62094573199999
 10
-91.92619979571725
 20
84.4955007877
 10
-91.91443671661724
 20
84.3780419548
 10
-91.90269395001726
 20
84.2679372563
 10
-91.89102123001724
 20
84.16443372569998
 10
-91.87947853201725
 20
84.06707575330001
 10
-91.86809486681726
 20
83.97528808930001
 10
-91.85690564391725
 20
83.88867815119999
 10
-91.84592123021726
 20
83.8067557083
 10
-91.83516680641725
 20
83.72923392629999
 10
-91.82464805941725
 20
83.65574212050001
 10
-91.81437957991724
 20
83.5860380481
 10
-91.80436269101726
 20
83.5198282298
 10
-91.79460338341725
 20
83.4568948232
 10
-91.78509404271725
 20
83.3969663365
 10
-91.77584394061724
 20
83.339907356
 10
-91.76685243781724
 20
83.28554482140001
 10
-91.75811943161724
 20
83.23372529990001
 10
-91.74963903461724
 20
83.1842807651
 10
-91.74140878531725
 20
83.13708814639999
 10
-91.73341757911725
 20
83.0919669852
 10
-91.72567850581724
 20
83.04891533459999
 10
-91.71818747481726
 20
83.007835338
 10
-91.71098920721725
 20
82.96882424160001
 10
-91.70417546521726
 20
82.932377472
 10
-91.69753920741724
 20
82.8972573605
 10
-91.69084878501726
 20
82.8621955154
 10
-91.68419847941725
 20
82.82782522229998
 10
-91.67764226411724
 20
82.79423580920001
 10
-91.67121692341725
 20
82.76164332409999
 10
-91.66499034701725
 20
82.73038490800001
 10
-91.65892937171724
 20
82.70017724659998
 10
-91.65311705441725
 20
82.6714807077
 10
-91.64719306131726
 20
82.6424847396
 10
-91.64079113511725
 20
82.6114163467
 10
-91.63397144611726
 20
82.57862316109999
 10
-91.62668112431726
 20
82.5439000647
 10
-91.61888264711725
 20
82.50713401909999
 10
-91.61053695321724
 20
82.46820060620001
 10
-91.60158990041725
 20
82.4269239702
 10
-91.59198993671726
 20
82.38315058739999
 10
-91.58167520611725
 20
82.3366917807
 10
-91.57058335971724
 20
82.2873745088
 10
-91.55864457071725
 20
82.2350071435
 10
-91.54578514561725
 20
82.17939960770001
 10
-91.53193118491724
 20
82.1203805216
 10
-91.51700986541724
 20
82.0578021066
 10
-91.50091803591726
 20
81.99141211209999
 10
-91.48355749431726
 20
81.92100534079999
 10
-91.46480492341725
 20
81.8463045304
 10
-91.44453557171726
 20
81.76705946650001
 10
-91.42261071551725
 20
81.6830012039
 10
-91.39888838011726
 20
81.5938857521
 10
-91.37319725471725
 20
81.49940234289999
 10
-91.34536132901725
 20
81.3992707036
 10
-91.31518087661724
 20
81.293175155
 10
-91.28245182821725
 20
81.18084284930001
 10
-91.24692607891725
 20
81.06190854579999
 10
-91.20834993701725
 20
80.9360522372
 10
-91.16643338531725
 20
80.80290969329999
 10
-91.12015897861725
 20
80.65997764749999
 10
-91.07132716701725
 20
80.5134064617
 10
-91.02107071351724
 20
80.3667956476
 10
-90.97113256331725
 20
80.2250538872
 10
-90.92427690181725
 20
80.0953914711
 10
-90.87945606051725
 20
79.97418825549999
 10
-90.83648575011725
 20
79.86043205520001
 10
-90.79531682881725
 20
79.7535671197
 10
-90.75580070651724
 20
79.6528490778
 10
-90.71787316901724
 20
79.55782176479999
 10
-90.68141186831725
 20
79.4679269122
 10
-90.64640994591725
 20
79.382915933
 10
-90.61281232541725
 20
79.30244082939999
 10
-90.58058131901725
 20
79.22622308369999
 10
-90.54958803381724
 20
79.15381548270001
 10
-90.51956559861727
 20
79.0845399657
 10
-90.49041751201725
 20
79.01811447819999
 10
-90.46283065911724
 20
78.95588887249999
 10
-90.43709573001725
 20
78.8982059493
 10
-90.41182932651725
 20
78.84203617139999
 10
-90.38593851951725
 20
78.7853203951
 10
-90.35659407161725
 20
78.72333527409999
 10
-90.32134878191724
 20
78.65267056479999
 10
-90.28132797501724
 20
78.57653245689999
 10
-90.23759897581724
 20
78.49830493350001
 10
-90.18934006441725
 20
78.4173853109
 10
-90.13411711811725
 20
78.33018592409999
 10
-90.07298439881726
 20
78.2395518209
 10
-90.00667706731725
 20
78.14769025770001
 10
-89.93631681191725
 20
78.05663956229999
 10
-89.86371103831725
 20
77.96866856220001
 10
-89.78830456911724
 20
77.8830210095
 10
-89.71010194531725
 20
77.79976408669999
 10
-89.62923618461726
 20
77.7190601578
 10
-89.54585336021725
 20
77.6410247
 10
-89.46000078481725
 20
77.5656990398
 10
-89.37174776321723
 20
77.49317815020001
 10
-89.28123736171725
 20
77.423570153
 10
-89.18857875271724
 20
77.35692779
 10
-89.09381430881726
 20
77.29329698889999
 10
-88.99680017731725
 20
77.2326227946
 10
-88.89845058141725
 20
77.17543425689999
 10
-88.79913394831724
 20
77.1218413243
 10
-88.70028787631724
 20
77.0724655495
 10
-88.60306657531724
 20
77.02758431460001
 10
-88.50920609111724
 20
76.9875769359
 10
-88.42131948601725
 20
76.9529738799
 10
-88.33821238821725
 20
76.922715529
 10
-88.25942335761725
 20
76.89617574319999
 10
-88.18486164151726
 20
76.8729407285
 10
-88.11435241691725
 20
76.85262113729999
 10
-88.04757947251726
 20
76.8348275245
 10
-87.98419738001724
 20
76.8192268329
 10
-87.92403543801725
 20
76.80556442149999
 10
-87.86684906851725
 20
76.7936004985
 10
-87.81243021921724
 20
76.78313214390001
 10
-87.76049159551725
 20
76.77396577979999
 10
-87.71091580921725
 20
76.7659630504
 10
-87.66345322071725
 20
76.75898024430001
 10
-87.61819360861727
 20
76.7529368063
 10
-87.57519568521725
 20
76.7477497343
 10
-87.53428695061726
 20
76.74331237389999
 10
-87.49533210121724
 20
76.7395357597
 10
-87.45817723021726
 20
76.73634490729999
 10
-87.42267361031725
 20
76.73367125189999
 10
-87.38902923171725
 20
76.73146821839999
 10
-87.35731317561725
 20
76.72968893310001
 10
-87.32685253571725
 20
76.7282493113
 10
-87.29721788821725
 20
76.7270833389
 10
-87.26875131611725
 20
76.72622088869999
 10
-87.24227414911725
 20
76.7256707696
 10
-87.21834680101725
 20
76.72533914029999
 10
-87.19730556411724
 20
76.72516395399999
 10
-87.17767583501725
 20
76.7250693687
 10
-87.15758383401725
 20
76.72499812409999
 10
-87.13684375271725
 20
76.7249510293
  0
LWPOLYLINE
  5
29E6
330
211
100
AcDbEntity
  8
0
  6
Continuous
 62
     7
100
AcDbPolyline
 90
       30
 70
     0
 43
0.0
 10
-93.82553673761725
 20
87.34558934350001
 10
-93.82083052961725
 20
87.3292096125
 10
-93.81559205241725
 20
87.30841970590001
 10
-93.81056456311725
 20
87.2858535115
 10
-93.80575549051725
 20
87.26157970950001
 10
-93.80115843891726
 20
87.2356152891
 10
-93.79676797091724
 20
87.2079746098
 10
-93.79258692221725
 20
87.17873256009999
 10
-93.78861848791725
 20
87.1479646543
 10
-93.78485592051724
 20
87.11568044059999
 10
-93.78129263441726
 20
87.08188404399999
 10
-93.77793023661725
 20
87.04666558819999
 10
-93.77477060611726
 20
87.0101124582
 10
-93.77180745331726
 20
86.9722337363
 10
-93.76903491741725
 20
86.933032619
 10
-93.76645330661725
 20
86.8926123758
 10
-93.76406354341725
 20
86.8510707611
 10
-93.76186045931724
 20
86.8084241056
 10
-93.75983960771725
 20
86.76468036850002
 10
-93.75800055431724
 20
86.71996050290001
 10
-93.75634410891725
 20
86.6743770451
 10
-93.75486633381724
 20
86.6279597291
 10
-93.75356466201726
 20
86.580733309
 10
-93.75243804541725
 20
86.5328232591
 10
-93.75148719471726
 20
86.48434915790002
 10
-93.75070977131725
 20
86.43535037209998
 10
-93.75010503931724
 20
86.38586040819999
 10
-93.74967225181725
 20
86.33601467610001
 10
-93.74941377641725
 20
86.2859790777
 10
-93.74932619721725
 20
86.2356930984
  0
LWPOLYLINE
  5
29E7
330
211
100
AcDbEntity
  8
0
  6
Continuous
 62
     7
100
AcDbPolyline
 90
      111
 70
     0
 43
0.0
 10
-94.36672646791725
 20
86.2356936527
 10
-94.36233084981726
 20
86.65544956739999
 10
-94.34915919391725
 20
87.0748220361
 10
-94.32723604001726
 20
87.49352207200001
 10
-94.29656661621725
 20
87.91164653820001
 10
-94.25712546441726
 20
88.3293720648
 10
-94.20894539711724
 20
88.74618607930001
 10
-94.15170664601726
 20
89.1641905368
 10
-94.08655775281724
 20
89.5757277581
 10
-94.01459618091726
 20
89.97676602469999
 10
-93.93814002061725
 20
90.35896832659998
 10
-93.86087659501724
 20
90.7108298017
 10
-93.78289122431725
 20
91.03866661389998
 10
-93.70492017271725
 20
91.3442893676
 10
-93.62745857971725
 20
91.62968329939999
 10
-93.55079031091724
 20
91.89695772829999
 10
-93.47527475371725
 20
92.14746107899999
 10
-93.40104220631726
 20
92.38289394719998
 10
-93.32834276081724
 20
92.60421322010001
 10
-93.25725864321723
 20
92.812645358
 10
-93.18794509931725
 20
93.0089995374
 10
-93.12045032351724
 20
93.19422521760001
 10
-93.05484172471725
 20
93.3690649713
 10
-92.99109842621724
 20
93.53436965270001
 10
-92.92926733481726
 20
93.69070446269999
 10
-92.86931719871725
 20
93.838744566
 10
-92.81126812791724
 20
93.9789597717
 10
-92.75509562851725
 20
94.1118663311
 10
-92.70075930621725
 20
94.2379608527
 10
-92.64815727341725
 20
94.3578273093
 10
-92.59732897231726
 20
94.47168182639998
 10
-92.54828181931726
 20
94.5797857272
 10
-92.50093563051725
 20
94.68256393649999
 10
-92.45520378301725
 20
94.78042136879999
 10
-92.41103754771726
 20
94.8736528398
 10
-92.36830712251725
 20
94.96269850870001
 10
-92.32711013141726
 20
95.0475057318
 10
-92.28758010271725
 20
95.1279454005
 10
-92.24945517831725
 20
95.20467911389999
 10
-92.21245760551726
 20
95.27836803920001
 10
-92.17671256581725
 20
95.3488545959
 10
-92.14224089691725
 20
95.41619003790001
 10
-92.10906930131725
 20
95.48041111229998
 10
-92.07729247161726
 20
95.54141777039999
 10
-92.04670610311726
 20
95.5996696711
 10
-92.01715352741725
 20
95.6555154605
 10
-91.98854140281724
 20
95.7091782508
 10
-91.96061627441727
 20
95.76116276379998
 10
-91.93369916221724
 20
95.81089745419999
 10
-91.90810040861725
 20
95.8578895724
 10
-91.88368085481725
 20
95.9024989583
 10
-91.86042203031725
 20
95.9448198814
 10
-91.83806312451725
 20
95.9852843007
 10
-91.81638100871724
 20
96.02418698610001
 10
-91.79518346811725
 20
96.0617907433
 10
-91.77430019921725
 20
96.09832549730001
 10
-91.75347754841725
 20
96.134063354
 10
-91.73255210261725
 20
96.1691455006
 10
-91.71110772901725
 20
96.20419870090001
 10
-91.68876574031726
 20
96.2397528009
 10
-91.66520726971725
 20
96.27626420600002
 10
-91.63998820571725
 20
96.31435386280001
 10
-91.61296831121724
 20
96.35408091530001
 10
-91.58390077141724
 20
96.39561855469999
 10
-91.55254211991724
 20
96.43911553870001
 10
-91.51861425411725
 20
96.48472439270001
 10
-91.48188502171725
 20
96.53249650479999
 10
-91.44200618761725
 20
96.5825932591
 10
-91.39896105611725
 20
96.634729631
 10
-91.35283767811726
 20
96.6885094178
 10
-91.30297376431725
 20
96.74438274439999
 10
-91.24889245571726
 20
96.8024938819
 10
-91.18991624561726
 20
96.8631125559
 10
-91.12506240191725
 20
96.9266819413
 10
-91.05449153001725
 20
96.9924271077
 10
-90.97808214211724
 20
97.0598605232
 10
-90.89577704121724
 20
97.12844491550001
 10
-90.80695730121725
 20
97.1980776438
 10
-90.71332087991725
 20
97.2668998325
 10
-90.61646567681725
 20
97.3334600503
 10
-90.51687989221724
 20
97.39730301870002
 10
-90.41585003001726
 20
97.4575953291
 10
-90.31299667591724
 20
97.5146010313
 10
-90.20831233901725
 20
97.56832124299998
 10
-90.10194504411725
 20
97.61867492120002
 10
-89.99401141551725
 20
97.6656048933
 10
-89.88461766931726
 20
97.70906699850002
 10
-89.77387329181725
 20
97.74901737770001
 10
-89.66188079021724
 20
97.7854151856
 10
-89.54872012911724
 20
97.818227734
 10
-89.43458693281725
 20
97.847404196
 10
-89.31974086601725
 20
97.87289016549999
 10
-89.20406132721725
 20
97.89469599889999
 10
-89.08707330201725
 20
97.9128677427
 10
-88.97015827171726
 20
97.9272697588
 10
-88.85432095931724
 20
97.9378820278
 10
-88.74000316171725
 20
97.94456459850001
 10
-88.62906048801724
 20
97.94754001930002
 10
-88.51938175671724
 20
97.9483539521
 10
-88.41009931101725
 20
97.94840930820001
 10
-88.29816871661725
 20
97.9482844856
 10
-88.17956778351726
 20
97.9482594981
 10
-88.05531790281724
 20
97.9483007429
 10
-87.92548647861726
 20
97.9483078267
 10
-87.79026409161724
 20
97.9482909977
 10
-87.64980552441725
 20
97.9482885614
 10
-87.50383976131725
 20
97.9482948597
 10
-87.35230319151725
 20
97.94829549879999
 10
-87.19489148021725
 20
97.9482926624
 10
-87.03131449221725
 20
97.94829231709998
 10
-86.86140756001725
 20
97.94829375959999
  0
LWPOLYLINE
  5
29E8
330
211
100
AcDbEntity
  8
0
  6
Continuous
 62
     7
100
AcDbPolyline
 90
       39
 70
     0
 43
0.0
 10
-93.96641475101725
 20
86.2356930984
 10
-93.96620867731725
 20
86.2847796019
 10
-93.96559275541724
 20
86.333714128
 10
-93.96456706531724
 20
86.38253392370002
 10
-93.96313635521726
 20
86.43110157229999
 10
-93.96130544191725
 20
86.47930866139999
 10
-93.95907960581725
 20
86.52710432280001
 10
-93.95646339831726
 20
86.5744393257
 10
-93.95346737601725
 20
86.62120029879998
 10
-93.95010255031726
 20
86.66727111700001
 10
-93.94637729631725
 20
86.7126111968
 10
-93.94229903441726
 20
86.7571798093
 10
-93.93788437061726
 20
86.80086247069999
 10
-93.93315031071725
 20
86.8435423062
 10
-93.92810745411726
 20
86.88518763709998
 10
-93.92276538171726
 20
86.92576461459998
 10
-93.91714583081725
 20
86.96516510469999
 10
-93.91127073831725
 20
87.0032790551
 10
-93.90515213751724
 20
87.04008147450002
 10
-93.89880117551724
 20
87.0755430448
 10
-93.89224294271725
 20
87.1095696144
 10
-93.88550238461725
 20
87.14206556709999
 10
-93.87859246101724
 20
87.17300982120001
 10
-93.87152534651725
 20
87.20237574349999
 10
-93.86432763621725
 20
87.2300876101
 10
-93.85702557441724
 20
87.25606746229999
 10
-93.84963204151725
 20
87.28029938989999
 10
-93.84215996541724
 20
87.30275937729999
 10
-93.83463356021726
 20
87.32339691920001
 10
-93.82707679231726
 20
87.34215899330001
 10
-93.81950137041725
 20
87.35903264740001
 10
-93.81191802601724
 20
87.3740001468
 10
-93.80435081131725
 20
87.38702546809999
 10
-93.79681852021725
 20
87.39807234030001
 10
-93.78934463331725
 20
87.40712661999999
 10
-93.78195472871725
 20
87.4141594598
 10
-93.77465778801726
 20
87.41918101180001
 10
-93.76747160121725
 20
87.42218974149999
 10
-93.76039149651726
 20
87.4231930984
  0
LWPOLYLINE
  5
29E9
330
211
100
AcDbEntity
  8
0
  6
Continuous
 62
     7
100
AcDbPolyline
 90
       39
 70
     0
 43
0.0
 10
-93.62561977381725
 20
86.2356930984
 10
-93.62570610101725
 20
86.186061206
 10
-93.62596326571724
 20
86.1366202964
 10
-93.62639368631725
 20
86.0873109167
 10
-93.62699610741724
 20
86.0382955174
 10
-93.62777216481726
 20
85.98969615919999
 10
-93.62872213521725
 20
85.9415768702
 10
-93.62984866541726
 20
85.89400442810001
 10
-93.63115085421725
 20
85.8470947374
 10
-93.63262987591724
 20
85.80097658120001
 10
-93.63428791941727
 20
85.7556812414
 10
-93.63612848081725
 20
85.7112512537
 10
-93.63815141021726
 20
85.66778378850001
 10
-93.64035763421725
 20
85.6253850406
 10
-93.64275121651726
 20
85.58407368080001
 10
-93.64533710261724
 20
85.54387352739999
 10
-93.64811464141725
 20
85.50487735909999
 10
-93.65108388441726
 20
85.4671834314
 10
-93.65425013881724
 20
85.4308024672
 10
-93.65761915881725
 20
85.39575161690001
 10
-93.66118960051725
 20
85.36211177140001
 10
-93.66496050251724
 20
85.3299665109
 10
-93.66893748011724
 20
85.2993280741
 10
-93.67312642031725
 20
85.27021387679999
 10
-93.67752463941725
 20
85.24269380200001
 10
-93.68212984221726
 20
85.21683820019999
 10
-93.68694644461724
 20
85.19266594479999
 10
-93.69197901441726
 20
85.17020093220001
 10
-93.69722316361725
 20
85.149500231
 10
-93.70267539581725
 20
85.1306203492
 10
-93.70833604161724
 20
85.11358925180001
 10
-93.71420708971724
 20
85.0984387463
 10
-93.72027766311726
 20
85.08521549380001
 10
-93.72653921831725
 20
85.07397093199999
 10
-93.73298403491725
 20
85.06472438320001
 10
-93.73960490081726
 20
85.057508292
 10
-93.74638834051726
 20
85.05233571959999
 10
-93.75331438401726
 20
85.04923073529999
 10
-93.75888724411725
 20
85.04823956699999
  0
LWPOLYLINE
  5
29EA
330
211
100
AcDbEntity
  8
0
  6
Continuous
 62
     7
100
AcDbPolyline
 90
       30
 70
     0
 43
0.0
 10
-93.74932619721725
 20
86.2356930984
 10
-93.74941369461724
 20
86.18537992010001
 10
-93.74967275831725
 20
86.13529833420001
 10
-93.75010654991724
 20
86.08538525959998
 10
-93.75071288651724
 20
86.03581404939999
 10
-93.75149278581725
 20
85.9867246399
 10
-93.75244679781724
 20
85.9381568112
 10
-93.75357735611727
 20
85.8901570249
 10
-93.75488354441726
 20
85.84284705239999
 10
-93.75636636611726
 20
85.7963566841
 10
-93.75802820691726
 20
85.7507115085
 10
-93.75987285271724
 20
85.70594424380001
 10
-93.76189944711724
 20
85.66216537189999
 10
-93.76410836041726
 20
85.6194945922
 10
-93.76650387851725
 20
85.5779404569
 10
-93.76909104221725
 20
85.53751963339999
 10
-93.77186875121726
 20
85.4983294256
 10
-93.77483649871726
 20
85.4604732536
 10
-93.77800004111724
 20
85.4239528681
 10
-93.78136548481725
 20
85.3887765968
 10
-93.78493091211725
 20
85.3550298897
 10
-93.78869464301725
 20
85.32280087590001
 10
-93.79266308741724
 20
85.2920930642
 10
-93.79684291011725
 20
85.26291475129999
 10
-93.80123050971725
 20
85.23534134260001
 10
-93.80582251161724
 20
85.20944847359999
 10
-93.81062463791725
 20
85.1852466835
 10
-93.81564298671724
 20
85.1627507935
 10
-93.82087124581724
 20
85.1420251777
 10
-93.82553756781724
 20
85.1257982389
  0
LWPOLYLINE
  5
29EB
330
211
100
AcDbEntity
  8
0
  6
Continuous
 62
     7
100
AcDbPolyline
 90
      105
 70
     0
 43
0.0
 10
-94.36672646791725
 20
86.2356936527
 10
-94.36233085851725
 20
85.81593704499999
 10
-94.34915919391725
 20
85.39656416060001
 10
-94.32723603561726
 20
84.97786405560001
 10
-94.29656661621725
 20
84.5597396586
 10
-94.25712546441726
 20
84.14201413189999
 10
-94.20894539711724
 20
83.72520011749999
 10
-94.15170664601726
 20
83.30719566
 10
-94.08655775281724
 20
82.89565843869999
 10
-94.01459618091726
 20
82.49462017209999
 10
-93.93814002061725
 20
82.1124178702
 10
-93.86087659501724
 20
81.7605563951
 10
-93.78289122431725
 20
81.4327195829
 10
-93.70492017271725
 20
81.1270968292
 10
-93.62745857971725
 20
80.84170289739999
 10
-93.55079031091724
 20
80.57442846849999
 10
-93.47527475371725
 20
80.32392511780001
 10
-93.40104220631726
 20
80.0884922496
 10
-93.32834276081724
 20
79.86717297670001
 10
-93.25725864321723
 20
79.6587408387
 10
-93.18794509931725
 20
79.4623866594
 10
-93.12045032351724
 20
79.27716097920001
 10
-93.05484172471725
 20
79.1023212255
 10
-92.99109842621724
 20
78.9370165441
 10
-92.92926733481726
 20
78.78068173409999
 10
-92.86931719871725
 20
78.63264163069999
 10
-92.81126812791724
 20
78.49242642500001
 10
-92.75509562851725
 20
78.35951986569999
 10
-92.70075930621725
 20
78.233425344
 10
-92.64815727341725
 20
78.1135588875
 10
-92.59732897231726
 20
77.99970437039999
 10
-92.54828181931726
 20
77.89160046960001
 10
-92.50093563051725
 20
77.78882226029999
 10
-92.45520378301725
 20
77.69096482800001
 10
-92.41103754771726
 20
77.597733357
 10
-92.36830712251725
 20
77.50868768810001
 10
-92.32711013141726
 20
77.42388046489999
 10
-92.28758010271725
 20
77.3434407963
 10
-92.24945517831725
 20
77.2667070828
 10
-92.21245760551726
 20
77.19301815760001
 10
-92.17671256581725
 20
77.1225316009
 10
-92.14224089691725
 20
77.05519615890001
 10
-92.10906930131725
 20
76.99097508449999
 10
-92.07729247161726
 20
76.92996842640001
 10
-92.04670610311726
 20
76.8717165257
 10
-92.01715352741725
 20
76.8158707362
 10
-91.98854140281724
 20
76.7622079459
 10
-91.96061627441727
 20
76.71022343299999
 10
-91.93369916221724
 20
76.66048874260001
 10
-91.90810040861725
 20
76.6134966244
 10
-91.88368085481725
 20
76.56888723849999
 10
-91.86042203031725
 20
76.52656631540001
 10
-91.83806312451725
 20
76.48610189600001
 10
-91.81638100871724
 20
76.44719921069999
 10
-91.79518346811725
 20
76.4095954535
 10
-91.77430019921725
 20
76.3730606995
 10
-91.75347754841725
 20
76.3373228427
 10
-91.73255210261725
 20
76.3022406962
 10
-91.71110772901725
 20
76.26718749590001
 10
-91.68876574031726
 20
76.2316333959
 10
-91.66520726971725
 20
76.1951219908
 10
-91.63998820571725
 20
76.15703233399999
 10
-91.61296831121724
 20
76.1173052814
 10
-91.58390077141724
 20
76.0757676421
 10
-91.55254211991724
 20
76.0322706581
 10
-91.51861425411725
 20
75.98666180409999
 10
-91.48188502171725
 20
75.938889692
 10
-91.44200618761725
 20
75.8887929376
 10
-91.39896105611725
 20
75.8366565658
 10
-91.35283767811726
 20
75.78287677899999
 10
-91.30297376431725
 20
75.7270034524
 10
-91.24889245571726
 20
75.66889231489999
 10
-91.18991624561726
 20
75.60827364089999
 10
-91.12506240191725
 20
75.5447042554
 10
-91.05449153001725
 20
75.478959089
 10
-90.97808214211724
 20
75.4115256736
 10
-90.89577704121724
 20
75.34294128129999
 10
-90.80695730121725
 20
75.273308553
 10
-90.71332087991725
 20
75.20448636430001
 10
-90.61646567681725
 20
75.13792614649999
 10
-90.51687989221724
 20
75.07408317810001
 10
-90.41585003001726
 20
75.0137908677
 10
-90.31299667591724
 20
74.9567851654
 10
-90.20831233901725
 20
74.90306495369999
 10
-90.10194504411725
 20
74.8527112756
 10
-89.99401141551725
 20
74.8057813035
 10
-89.88461766931726
 20
74.7623191983
 10
-89.77387329181725
 20
74.72236881909999
 10
-89.66188079021724
 20
74.6859710112
 10
-89.54872012911724
 20
74.65315846279999
 10
-89.43458693281725
 20
74.62398200079999
 10
-89.31974086601725
 20
74.5984960312
 10
-89.20406132721725
 20
74.57669019779999
 10
-89.08707330201725
 20
74.55851845409999
 10
-88.97015827171726
 20
74.5441164379
 10
-88.85432095931724
 20
74.533504169
 10
-88.74000316171725
 20
74.5268215982
 10
-88.62906048801724
 20
74.5238461775
 10
-88.51938175671724
 20
74.5230322447
 10
-88.41009931101725
 20
74.52297688849999
 10
-88.29816871661725
 20
74.52310171109999
 10
-88.17956778351726
 20
74.52312669859999
 10
-88.05531790281724
 20
74.52308545380001
 10
-87.92548647861726
 20
74.52307837010001
 10
-87.64980552441725
 20
74.52309763529999
  0
LWPOLYLINE
  5
29EC
330
211
100
AcDbEntity
  8
0
  6
Continuous
 62
     7
100
AcDbPolyline
 90
       76
 70
     0
 43
0.0
 10
-92.38773632131724
 20
76.142197517
 10
-92.39861101141725
 20
76.16171496399999
 10
-92.40927743181726
 20
76.1809075526
 10
-92.41979327461725
 20
76.19987957010001
 10
-92.43014630411725
 20
76.21860705759999
 10
-92.44052574731725
 20
76.23743093659999
 10
-92.45105973551725
 20
76.2565843216
 10
-92.46190560351726
 20
76.2763562475
 10
-92.47322116491725
 20
76.29703968529999
 10
-92.48512742621725
 20
76.3188630766
 10
-92.49784640841724
 20
76.342243725
 10
-92.51122259921725
 20
76.3669083641
 10
-92.52521945971725
 20
76.3928017965
 10
-92.53970263931725
 20
76.4196869404
 10
-92.55449662841725
 20
76.4472470792
 10
-92.56969573331724
 20
76.4756665228
 10
-92.58531600681726
 20
76.5049853318
 10
-92.60141436271725
 20
76.53532109459999
 10
-92.61803655751725
 20
76.56677229829999
 10
-92.63522733381725
 20
76.5994375736
 10
-92.65303037101725
 20
76.6334157272
 10
-92.67148861951724
 20
76.66880665020001
 10
-92.69064379751725
 20
76.70571044819999
 10
-92.71053692201725
 20
76.744228644
 10
-92.73120787651725
 20
76.7844635256
 10
-92.75269459471726
 20
76.8265167289
 10
-92.77503538751725
 20
76.87049403589999
 10
-92.79826060531725
 20
76.91648914409999
 10
-92.82240147121724
 20
76.9646011772
 10
-92.84748449741725
 20
77.0149238143
 10
-92.87353531291726
 20
77.06755311939999
 10
-92.90057745921725
 20
77.1225854269
 10
-92.92863164881724
 20
77.18011606320001
 10
-92.95772030451725
 20
77.24024898649999
 10
-92.98785155611724
 20
77.3030638962
 10
-93.01907554971725
 20
77.36873436669999
 10
-93.05142117481725
 20
77.4373975905
 10
-93.08494110691725
 20
77.5092501549
 10
-93.11967628311725
 20
77.58447429170001
 10
-93.15566597371725
 20
77.6632599655
 10
-93.19293660951725
 20
77.7457811464
 10
-93.23153870411724
 20
77.832278836
 10
-93.27150420101725
 20
77.92296870449999
 10
-93.31287830321725
 20
78.0181140584
 10
-93.35568745431725
 20
78.11795516300001
 10
-93.39997430841725
 20
78.22279227109999
 10
-93.44575450731726
 20
78.3328869996
 10
-93.49307875441725
 20
78.4486138148
 10
-93.54196537841724
 20
78.57030253169999
 10
-93.59245313811724
 20
78.6983714593
 10
-93.64454372081725
 20
78.83318878309999
 10
-93.69827307121724
 20
78.97526109659999
 10
-93.75362899301725
 20
79.12502719859999
 10
-93.81063560821726
 20
79.2830907207
 10
-93.86925839411725
 20
79.4499733266
 10
-93.92950132281724
 20
79.6263978993
 10
-93.99129433401725
 20
79.812981638
 10
-94.05461359571724
 20
80.01060819930001
 10
-94.11934015981726
 20
80.2200217074
 10
-94.18540516881725
 20
80.44231068329999
 10
-94.25261708031724
 20
80.67838004089999
 10
-94.32083604321723
 20
80.92958530529999
 10
-94.38975977681726
 20
81.19702640209998
 10
-94.45914573381726
 20
81.48244151810001
 10
-94.52853711381726
 20
81.78722979859999
 10
-94.59750470891725
 20
82.11357562619999
 10
-94.66547509251725
 20
82.46395939119999
 10
-94.73131688161725
 20
82.8389447764
 10
-94.79461158471726
 20
83.24476406210001
 10
-94.85173488501725
 20
83.6667812437
 10
-94.90039682831726
 20
84.0920217971
 10
-94.94049265751725
 20
84.52088790560001
 10
-94.97157255611725
 20
84.9489667445
 10
-94.99377996891725
 20
85.37755350340001
 10
-95.00710912141725
 20
85.80653890189999
 10
-95.01155333931725
 20
86.23569457190001
  0
LWPOLYLINE
  5
29ED
330
211
100
AcDbEntity
  8
0
  6
Continuous
 62
     7
100
AcDbPolyline
 90
       77
 70
     0
 43
0.0
 10
-92.36542135261725
 20
96.36912945780002
 10
-92.38773632131724
 20
96.3291886798
 10
-92.39861101141725
 20
96.3096712327
 10
-92.40927743181726
 20
96.29047864420002
 10
-92.41979327461725
 20
96.2715066267
 10
-92.43014630411725
 20
96.25277913920001
 10
-92.44052574731725
 20
96.2339552601
 10
-92.45105973551725
 20
96.21480187510002
 10
-92.46190560351726
 20
96.19502994920001
 10
-92.47322116491725
 20
96.17434651139999
 10
-92.48512742621725
 20
96.15252312009999
 10
-92.49784640841724
 20
96.1291424718
 10
-92.51122259921725
 20
96.1044778327
 10
-92.52521945971725
 20
96.07858440020001
 10
-92.53970263931725
 20
96.0516992564
 10
-92.55449662841725
 20
96.02413911760001
 10
-92.56969573331724
 20
95.99571967400001
 10
-92.58531600681726
 20
95.966400865
 10
-92.60141436271725
 20
95.93606510219998
 10
-92.61803655751725
 20
95.9046138985
 10
-92.63522733381725
 20
95.8719486232
 10
-92.65303037101725
 20
95.83797046959999
 10
-92.67148861951724
 20
95.8025795466
 10
-92.69064379751725
 20
95.7656757486
 10
-92.71053692201725
 20
95.7271575528
 10
-92.73120787651725
 20
95.68692267120001
 10
-92.75269459471726
 20
95.6448694678
 10
-92.77503538751725
 20
95.6008921609
 10
-92.79826060531725
 20
95.5548970527
 10
-92.82240147121724
 20
95.50678501950001
 10
-92.84748449741725
 20
95.4564623825
 10
-92.87353531291726
 20
95.40383307729999
 10
-92.90057745921725
 20
95.34880076989999
 10
-92.92863164881724
 20
95.29127013360001
 10
-92.95772030451725
 20
95.2311372103
 10
-92.98785155611724
 20
95.16832230049999
 10
-93.01907554971725
 20
95.1026518301
 10
-93.05142117481725
 20
95.03398860629998
 10
-93.08494110691725
 20
94.96213604190002
 10
-93.11967628311725
 20
94.88691190510001
 10
-93.15566597371725
 20
94.80812623129999
 10
-93.19293660951725
 20
94.7256050504
 10
-93.23153870411724
 20
94.6391073608
 10
-93.27150420101725
 20
94.54841749229998
 10
-93.31287830321725
 20
94.4532721384
 10
-93.35568745431725
 20
94.3534310337
 10
-93.39997430841725
 20
94.24859392569999
 10
-93.44575450731726
 20
94.13849919719998
 10
-93.49307875441725
 20
94.02277238200001
 10
-93.54196537841724
 20
93.9010836651
 10
-93.59245313811724
 20
93.77301473740001
 10
-93.64454372081725
 20
93.63819741370001
 10
-93.69827307121724
 20
93.4961251002
 10
-93.75362899301725
 20
93.3463589982
 10
-93.81063560821726
 20
93.1882954761
 10
-93.86925839411725
 20
93.0214128701
 10
-93.92950132281724
 20
92.8449882974
 10
-93.99129433401725
 20
92.65840455870002
 10
-94.05461359571724
 20
92.4607779975
 10
-94.11934015981726
 20
92.25136448929999
 10
-94.18540516881725
 20
92.0290755134
 10
-94.25261708031724
 20
91.7930061558
 10
-94.32083604321723
 20
91.54180089150001
 10
-94.38975977681726
 20
91.27435979469998
 10
-94.45914573381726
 20
90.98894467870001
 10
-94.52853711381726
 20
90.68415639820001
 10
-94.59750470891725
 20
90.3578105705
 10
-94.66547509251725
 20
90.00742680549999
 10
-94.73131688161725
 20
89.63244142040002
 10
-94.79461158471726
 20
89.22662213459998
 10
-94.85173488501725
 20
88.8046049531
 10
-94.90039682831726
 20
88.37936439969999
 10
-94.94049265751725
 20
87.95049829120001
 10
-94.97157256751725
 20
87.5224192684
 10
-94.99377996891725
 20
87.09383269339999
 10
-95.00710909861725
 20
86.66484839989999
 10
-95.01155333921724
 20
86.23569457190001
  0
LINE
  5
29EE
330
211
100
AcDbEntity
  8
0
  6
Continuous
 62
     7
100
AcDbLine
 10
-98.08183485421725
 20
71.64354610450001
 30
0.0
 11
-98.08183485421725
 21
101.2356930984
 31
0.0
  0
LINE
  5
29EF
330
211
100
AcDbEntity
  8
0
  6
Continuous
 62
     7
100
AcDbLine
 10
-98.31186897321725
 20
70.7356930984
 30
0.0
 11
-98.31186897321725
 21
101.7356930984
 31
0.0
  0
CIRCLE
  5
32A6
330
211
100
AcDbEntity
  8
0
  6
Continuous
 62
     7
100
AcDbCircle
 10
-87.93686897321725
 20
86.2356930984
 30
0.0
 40
1.448223303199999
  0
ARC
  5
32A7
330
211
100
AcDbEntity
  8
0
  6
Continuous
 62
     7
100
AcDbCircle
 10
-38.81186897321725
 20
101.2356930984
 30
0.0
 40
0.269965881
100
AcDbArc
 50
0.000000000000007
 51
90.0
  0
ARC
  5
32A8
330
211
100
AcDbEntity
  8
0
  6
Continuous
 62
     7
100
AcDbCircle
 10
-97.81186897321724
 20
101.2356930984
 30
0.0
 40
0.269965881
100
AcDbArc
 50
90.0
 51
180.0
  0
ARC
  5
32A9
330
211
100
AcDbEntity
  8
0
  6
Continuous
 62
     7
100
AcDbCircle
 10
-38.81186897321725
 20
101.2356930984
 30
0.0
 40
0.0209172065
100
AcDbArc
 50
0.000000000000007
 51
90.0
  0
ENDSEC
  0
SECTION
  2
OBJECTS
  0
DICTIONARY
  5
C
330
0
100
AcDbDictionary
281
     1
  3
ACAD_COLOR
350
1F5F
  3
ACAD_GROUP
350
D
  3
ACAD_LAYOUT
350
1A
  3
ACAD_MATERIAL
350
1F32
  3
ACAD_MLEADERSTYLE
350
1F84
  3
ACAD_MLINESTYLE
350
17
  3
ACAD_PLOTSETTINGS
350
19
  3
ACAD_PLOTSTYLENAME
350
E
  3
ACAD_SCALELIST
350
1F62
  3
ACAD_TABLESTYLE
350
1F60
  3
ACAD_VISUALSTYLE
350
1F4B
  3
ACDB_RECOMPOSE_DATA
350
1F8A
  3
AcDbVariableDictionary
350
1FBC
  3
DWGPROPS
350
32DE
  0
DICTIONARY
  5
1F8B
330
8
100
AcDbDictionary
280
     1
281
     1
  0
DICTIONARY
  5
32B2
330
10
100
AcDbDictionary
280
     1
281
     1
  3
ADSK_XREC_LAYER_RECONCILED
360
32B3
  0
DICTIONARY
  5
32B4
330
1FA
100
AcDbDictionary
280
     1
281
     1
  3
ADSK_XREC_LAYER_RECONCILED
360
32B5
  0
DICTIONARY
  5
32B6
330
1FB
100
AcDbDictionary
280
     1
281
     1
  3
ADSK_XREC_LAYER_RECONCILED
360
32B7
  0
DICTIONARY
  5
32B8
330
1FC
100
AcDbDictionary
280
     1
281
     1
  3
ADSK_XREC_LAYER_RECONCILED
360
32B9
  0
DICTIONARY
  5
32BA
330
1FD
100
AcDbDictionary
280
     1
281
     1
  3
ADSK_XREC_LAYER_RECONCILED
360
32BB
  0
DICTIONARY
  5
32BC
330
1FE
100
AcDbDictionary
280
     1
281
     1
  3
ADSK_XREC_LAYER_RECONCILED
360
32BD
  0
DICTIONARY
  5
32BE
330
1FF
100
AcDbDictionary
280
     1
281
     1
  3
ADSK_XREC_LAYER_RECONCILED
360
32BF
  0
DICTIONARY
  5
32C0
330
200
100
AcDbDictionary
280
     1
281
     1
  3
ADSK_XREC_LAYER_RECONCILED
360
32C1
  0
DICTIONARY
  5
32C2
330
201
100
AcDbDictionary
280
     1
281
     1
  3
ADSK_XREC_LAYER_RECONCILED
360
32C3
  0
DICTIONARY
  5
32C4
330
202
100
AcDbDictionary
280
     1
281
     1
  3
ADSK_XREC_LAYER_RECONCILED
360
32C5
  0
DICTIONARY
  5
32C6
330
203
100
AcDbDictionary
280
     1
281
     1
  3
ADSK_XREC_LAYER_RECONCILED
360
32C7
  0
DICTIONARY
  5
32C8
330
204
100
AcDbDictionary
280
     1
281
     1
  3
ADSK_XREC_LAYER_RECONCILED
360
32C9
  0
DICTIONARY
  5
32CA
330
205
100
AcDbDictionary
280
     1
281
     1
  3
ADSK_XREC_LAYER_RECONCILED
360
32CB
  0
DICTIONARY
  5
32CC
330
206
100
AcDbDictionary
280
     1
281
     1
  3
ADSK_XREC_LAYER_RECONCILED
360
32CD
  0
DICTIONARY
  5
32CE
330
207
100
AcDbDictionary
280
     1
281
     1
  3
ADSK_XREC_LAYER_RECONCILED
360
32CF
  0
DICTIONARY
  5
32D0
330
208
100
AcDbDictionary
280
     1
281
     1
  3
ADSK_XREC_LAYER_RECONCILED
360
32D1
  0
DICTIONARY
  5
1F5F
102
{ACAD_REACTORS
330
C
102
}
330
C
100
AcDbDictionary
281
     1
  0
DICTIONARY
  5
D
102
{ACAD_REACTORS
330
C
102
}
330
C
100
AcDbDictionary
281
     1
  0
DICTIONARY
  5
1A
102
{ACAD_REACTORS
330
C
102
}
330
C
100
AcDbDictionary
281
     1
  3
Layout1
350
1F2E
  3
Model
350
1F2D
  0
DICTIONARY
  5
1F32
102
{ACAD_REACTORS
330
C
102
}
330
C
100
AcDbDictionary
281
     1
  3
ByBlock
350
1F3B
  3
ByLayer
350
1F33
  3
Global
350
1F43
  0
DICTIONARY
  5
1F84
102
{ACAD_REACTORS
330
C
102
}
330
C
100
AcDbDictionary
281
     1
  3
Standard
350
1F85
  0
DICTIONARY
  5
17
102
{ACAD_REACTORS
330
C
102
}
330
C
100
AcDbDictionary
281
     1
  3
Standard
350
18
  0
DICTIONARY
  5
19
102
{ACAD_REACTORS
330
C
102
}
330
C
100
AcDbDictionary
281
     1
  0
ACDBDICTIONARYWDFLT
  5
E
102
{ACAD_REACTORS
330
C
102
}
330
C
100
AcDbDictionary
281
     1
  3
Normal
350
F
100
AcDbDictionaryWithDefault
340
F
  0
DICTIONARY
  5
1F62
102
{ACAD_REACTORS
330
C
102
}
330
C
100
AcDbDictionary
281
     1
  3
A0
350
1F63
  3
A1
350
1F64
  3
A2
350
1F65
  3
A3
350
1F66
  3
A4
350
1F67
  3
A5
350
1F68
  3
A6
350
1F69
  3
A7
350
1F6A
  3
A8
350
1F6B
  3
A9
350
1F6C
  3
B0
350
1F6D
  3
B1
350
1F6E
  3
B2
350
1F6F
  3
B3
350
1F70
  3
B4
350
1F71
  3
B5
350
1F72
  3
B6
350
1F73
  3
B7
350
1F74
  3
B8
350
1F75
  3
B9
350
1F76
  3
C0
350
1F77
  3
C1
350
1F78
  3
C2
350
1F79
  3
C3
350
1F7A
  3
C4
350
1F7B
  3
C5
350
1F7C
  3
C6
350
1F7D
  3
C7
350
1F7E
  3
C8
350
1F7F
  3
C9
350
1F80
  3
D0
350
1F81
  3
D1
350
1F82
  3
D2
350
1F83
  0
DICTIONARY
  5
1F60
102
{ACAD_REACTORS
330
C
102
}
330
C
100
AcDbDictionary
281
     1
  3
Standard
350
1F61
  0
DICTIONARY
  5
1F4B
102
{ACAD_REACTORS
330
C
102
}
330
C
100
AcDbDictionary
281
     1
  3
2dWireframe
350
1F51
  3
3D Hidden
350
1F53
  3
3dWireframe
350
1F52
  3
Basic
350
1F50
  3
Brighten
350
1F57
  3
ColorChange
350
1F5B
  3
Conceptual
350
1F54
  3
Dim
350
1F56
  3
EdgeColorOff
350
1F5E
  3
Facepattern
350
1F5A
  3
Flat
350
1F4C
  3
FlatWithEdges
350
1F4D
  3
Gouraud
350
1F4E
  3
GouraudWithEdges
350
1F4F
  3
JitterOff
350
1F5C
  3
Linepattern
350
1F59
  3
OverhangOff
350
1F5D
  3
Realistic
350
1F55
  3
Thicken
350
1F58
  0
XRECORD
  5
1F8A
102
{ACAD_REACTORS
330
C
102
}
330
C
100
AcDbXrecord
280
     1
 90
        1
330
1F61
  0
DICTIONARY
  5
1FBC
102
{ACAD_REACTORS
330
C
102
}
330
C
100
AcDbDictionary
281
     1
  3
CANNOSCALE
350
1FBF
  3
CMLEADERSTYLE
350
1FBE
  3
CTABLESTYLE
350
1FBD
  3
DIMASSOC
350
1FC2
  3
INDEXCTL
350
1FC1
  3
LAYEREVAL
350
32D5
  3
LAYERNOTIFY
350
32D6
  3
LIGHTINGUNITS
350
32D4
  3
MSLTSCALE
350
32D3
  3
SORTENTS
350
1FC0
  3
XCLIPFRAME
350
1FC3
  0
XRECORD
  5
32DE
102
{ACAD_REACTORS
330
C
102
}
330
C
100
AcDbXrecord
280
     1
  1
DWGPROPS COOKIE
  2

  3

  4

  6

  7

  8
francoisbu
  9

300
=
301
=
302
=
303
=
304
=
305
=
306
=
307
=
308
=
309
=
 40
0.0048925
 41
2456090.309306274
 42
2456090.325262767
  1

 90
        0
  0
XRECORD
  5
32B3
102
{ACAD_REACTORS
330
32B2
102
}
330
32B2
100
AcDbXrecord
280
     1
290
     1
  0
XRECORD
  5
32B5
102
{ACAD_REACTORS
330
32B4
102
}
330
32B4
100
AcDbXrecord
280
     1
290
     1
  0
XRECORD
  5
32B7
102
{ACAD_REACTORS
330
32B6
102
}
330
32B6
100
AcDbXrecord
280
     1
290
     1
  0
XRECORD
  5
32B9
102
{ACAD_REACTORS
330
32B8
102
}
330
32B8
100
AcDbXrecord
280
     1
290
     1
  0
XRECORD
  5
32BB
102
{ACAD_REACTORS
330
32BA
102
}
330
32BA
100
AcDbXrecord
280
     1
290
     1
  0
XRECORD
  5
32BD
102
{ACAD_REACTORS
330
32BC
102
}
330
32BC
100
AcDbXrecord
280
     1
290
     1
  0
XRECORD
  5
32BF
102
{ACAD_REACTORS
330
32BE
102
}
330
32BE
100
AcDbXrecord
280
     1
290
     1
  0
XRECORD
  5
32C1
102
{ACAD_REACTORS
330
32C0
102
}
330
32C0
100
AcDbXrecord
280
     1
290
     1
  0
XRECORD
  5
32C3
102
{ACAD_REACTORS
330
32C2
102
}
330
32C2
100
AcDbXrecord
280
     1
290
     1
  0
XRECORD
  5
32C5
102
{ACAD_REACTORS
330
32C4
102
}
330
32C4
100
AcDbXrecord
280
     1
290
     1
  0
XRECORD
  5
32C7
102
{ACAD_REACTORS
330
32C6
102
}
330
32C6
100
AcDbXrecord
280
     1
290
     1
  0
XRECORD
  5
32C9
102
{ACAD_REACTORS
330
32C8
102
}
330
32C8
100
AcDbXrecord
280
     1
290
     1
  0
XRECORD
  5
32CB
102
{ACAD_REACTORS
330
32CA
102
}
330
32CA
100
AcDbXrecord
280
     1
290
     1
  0
XRECORD
  5
32CD
102
{ACAD_REACTORS
330
32CC
102
}
330
32CC
100
AcDbXrecord
280
     1
290
     1
  0
XRECORD
  5
32CF
102
{ACAD_REACTORS
330
32CE
102
}
330
32CE
100
AcDbXrecord
280
     1
290
     1
  0
XRECORD
  5
32D1
102
{ACAD_REACTORS
330
32D0
102
}
330
32D0
100
AcDbXrecord
280
     1
290
     1
  0
LAYOUT
  5
1F2E
102
{ACAD_XDICTIONARY
360
32E1
102
}
102
{ACAD_REACTORS
330
1A
102
}
330
1A
100
AcDbPlotSettings
  1

  2
none_device
  4
ANSI_B_(17.00_x_11.00_Inches)
  6

 40
0.0
 41
0.0
 42
0.0
 43
0.0
 44
431.8
 45
279.4
 46
0.0
 47
0.0
 48
0.0
 49
0.0
140
0.0
141
0.0
142
1.0
143
1.0
 70
     0
 72
     0
 73
     0
 74
     0
  7

 75
     0
147
1.0
148
0.0
149
0.0
100
AcDbLayout
  1
Layout1
 70
     1
 71
     1
 10
0.0
 20
0.0
 11
12.0
 21
9.0
 12
0.0
 22
0.0
 32
0.0
 14
1.000000000000000E+20
 24
1.000000000000000E+20
 34
1.000000000000000E+20
 15
-1.000000000000000E+20
 25
-1.000000000000000E+20
 35
-1.000000000000000E+20
146
0.0
 13
0.0
 23
0.0
 33
0.0
 16
1.0
 26
0.0
 36
0.0
 17
0.0
 27
1.0
 37
0.0
 76
     0
330
212
  0
LAYOUT
  5
1F2D
102
{ACAD_XDICTIONARY
360
32DF
102
}
102
{ACAD_REACTORS
330
1A
102
}
330
1A
100
AcDbPlotSettings
  1

  2
none_device
  4
ANSI_B_(17.00_x_11.00_Inches)
  6

 40
0.0
 41
0.0
 42
0.0
 43
0.0
 44
431.8
 45
279.4
 46
0.0
 47
0.0
 48
0.0
 49
0.0
140
0.0
141
0.0
142
1.0
143
1.0
 70
  1024
 72
     0
 73
     0
 74
     0
  7

 75
     0
147
1.0
148
0.0
149
0.0
100
AcDbLayout
  1
Model
 70
     0
 71
     0
 10
0.0
 20
0.0
 11
17.0
 21
11.0
 12
0.0
 22
0.0
 32
0.0
 14
0.0
 24
0.0
 34
0.0
 15
0.0
 25
0.0
 35
0.0
146
0.0
 13
0.0
 23
0.0
 33
0.0
 16
1.0
 26
0.0
 36
0.0
 17
0.0
 27
1.0
 37
0.0
 76
     0
330
211
331
1F4
  0
MATERIAL
  5
1F3B
102
{ACAD_XDICTIONARY
360
1F3C
102
}
102
{ACAD_REACTORS
330
1F32
102
}
330
1F32
100
AcDbMaterial
  1
ByBlock
 72
     0
 43
0.0208333333333333
 43
0.0
 43
0.0
 43
0.0
 43
0.0
 43
0.0208333333333333
 43
0.0
 43
0.0
 43
0.0
 43
0.0
 43
1.0
 43
0.0
 43
0.0
 43
0.0
 43
0.0
 43
1.0
 77
     0
 47
0.0208333333333333
 47
0.0
 47
0.0
 47
0.0
 47
0.0
 47
0.0208333333333333
 47
0.0
 47
0.0
 47
0.0
 47
0.0
 47
1.0
 47
0.0
 47
0.0
 47
0.0
 47
0.0
 47
1.0
171
     0
 49
0.0208333333333333
 49
0.0
 49
0.0
 49
0.0
 49
0.0
 49
0.0208333333333333
 49
0.0
 49
0.0
 49
0.0
 49
0.0
 49
1.0
 49
0.0
 49
0.0
 49
0.0
 49
0.0
 49
1.0
175
     0
142
0.0208333333333333
142
0.0
142
0.0
142
0.0
142
0.0
142
0.0208333333333333
142
0.0
142
0.0
142
0.0
142
0.0
142
1.0
142
0.0
142
0.0
142
0.0
142
0.0
142
1.0
179
     0
144
0.0208333333333333
144
0.0
144
0.0
144
0.0
144
0.0
144
0.0208333333333333
144
0.0
144
0.0
144
0.0
144
0.0
144
1.0
144
0.0
144
0.0
144
0.0
144
0.0
144
1.0
147
0.0208333333333333
147
0.0
147
0.0
147
0.0
147
0.0
147
0.0208333333333333
147
0.0
147
0.0
147
0.0
147
0.0
147
1.0
147
0.0
147
0.0
147
0.0
147
0.0
147
1.0
  0
MATERIAL
  5
1F33
102
{ACAD_XDICTIONARY
360
1F34
102
}
102
{ACAD_REACTORS
330
1F32
102
}
330
1F32
100
AcDbMaterial
  1
ByLayer
 72
     0
 43
0.0208333333333333
 43
0.0
 43
0.0
 43
0.0
 43
0.0
 43
0.0208333333333333
 43
0.0
 43
0.0
 43
0.0
 43
0.0
 43
1.0
 43
0.0
 43
0.0
 43
0.0
 43
0.0
 43
1.0
 77
     0
 47
0.0208333333333333
 47
0.0
 47
0.0
 47
0.0
 47
0.0
 47
0.0208333333333333
 47
0.0
 47
0.0
 47
0.0
 47
0.0
 47
1.0
 47
0.0
 47
0.0
 47
0.0
 47
0.0
 47
1.0
171
     0
 49
0.0208333333333333
 49
0.0
 49
0.0
 49
0.0
 49
0.0
 49
0.0208333333333333
 49
0.0
 49
0.0
 49
0.0
 49
0.0
 49
1.0
 49
0.0
 49
0.0
 49
0.0
 49
0.0
 49
1.0
175
     0
142
0.0208333333333333
142
0.0
142
0.0
142
0.0
142
0.0
142
0.0208333333333333
142
0.0
142
0.0
142
0.0
142
0.0
142
1.0
142
0.0
142
0.0
142
0.0
142
0.0
142
1.0
179
     0
144
0.0208333333333333
144
0.0
144
0.0
144
0.0
144
0.0
144
0.0208333333333333
144
0.0
144
0.0
144
0.0
144
0.0
144
1.0
144
0.0
144
0.0
144
0.0
144
0.0
144
1.0
147
0.0208333333333333
147
0.0
147
0.0
147
0.0
147
0.0
147
0.0208333333333333
147
0.0
147
0.0
147
0.0
147
0.0
147
1.0
147
0.0
147
0.0
147
0.0
147
0.0
147
1.0
  0
MATERIAL
  5
1F43
102
{ACAD_XDICTIONARY
360
1F44
102
}
102
{ACAD_REACTORS
330
1F32
102
}
330
1F32
100
AcDbMaterial
  1
Global
 72
     0
 43
0.0208333333333333
 43
0.0
 43
0.0
 43
0.0
 43
0.0
 43
0.0208333333333333
 43
0.0
 43
0.0
 43
0.0
 43
0.0
 43
1.0
 43
0.0
 43
0.0
 43
0.0
 43
0.0
 43
1.0
 77
     0
 47
0.0208333333333333
 47
0.0
 47
0.0
 47
0.0
 47
0.0
 47
0.0208333333333333
 47
0.0
 47
0.0
 47
0.0
 47
0.0
 47
1.0
 47
0.0
 47
0.0
 47
0.0
 47
0.0
 47
1.0
171
     0
 49
0.0208333333333333
 49
0.0
 49
0.0
 49
0.0
 49
0.0
 49
0.0208333333333333
 49
0.0
 49
0.0
 49
0.0
 49
0.0
 49
1.0
 49
0.0
 49
0.0
 49
0.0
 49
0.0
 49
1.0
175
     0
142
0.0208333333333333
142
0.0
142
0.0
142
0.0
142
0.0
142
0.0208333333333333
142
0.0
142
0.0
142
0.0
142
0.0
142
1.0
142
0.0
142
0.0
142
0.0
142
0.0
142
1.0
179
     0
144
0.0208333333333333
144
0.0
144
0.0
144
0.0
144
0.0
144
0.0208333333333333
144
0.0
144
0.0
144
0.0
144
0.0
144
1.0
144
0.0
144
0.0
144
0.0
144
0.0
144
1.0
147
0.0208333333333333
147
0.0
147
0.0
147
0.0
147
0.0
147
0.0208333333333333
147
0.0
147
0.0
147
0.0
147
0.0
147
1.0
147
0.0
147
0.0
147
0.0
147
0.0
147
1.0
  0
MLEADERSTYLE
  5
1F85
102
{ACAD_REACTORS
330
1F84
102
}
330
1F84
100
AcDbMLeaderStyle
170
     2
171
     1
172
     0
 90
        2
 40
0.0
 41
0.0
173
     1
 91
-1056964608
340
14
 92
       -2
290
     1
 42
0.09
291
     1
 43
0.36
  3
Standard
 44
0.18
300

342
11
174
     1
178
     6
175
     1
176
     0
 93
-1056964608
 45
0.18
292
     0
297
     0
 46
0.18
 94
-1056964608
 47
1.0
 49
1.0
140
1.0
293
     1
141
0.0
294
     1
177
     0
142
1.0
295
     0
296
     0
143
0.125
1001
ACAD_MLEADERVER
1070
     2
  0
MLINESTYLE
  5
18
102
{ACAD_REACTORS
330
17
102
}
330
17
100
AcDbMlineStyle
  2
STANDARD
 70
     0
  3

 62
   256
 51
90.0
 52
90.0
 71
     2
 49
0.5
 62
   256
  6
BYLAYER
 49
-0.5
 62
   256
  6
BYLAYER
  0
ACDBPLACEHOLDER
  5
F
102
{ACAD_REACTORS
330
E
102
}
330
E
  0
SCALE
  5
1F63
102
{ACAD_REACTORS
330
1F62
102
}
330
1F62
100
AcDbScale
 70
     0
300
1:1
140
1.0
141
1.0
290
     1
  0
SCALE
  5
1F64
102
{ACAD_REACTORS
330
1F62
102
}
330
1F62
100
AcDbScale
 70
     0
300
1:2
140
1.0
141
2.0
290
     0
  0
SCALE
  5
1F65
102
{ACAD_REACTORS
330
1F62
102
}
330
1F62
100
AcDbScale
 70
     0
300
1:4
140
1.0
141
4.0
290
     0
  0
SCALE
  5
1F66
102
{ACAD_REACTORS
330
1F62
102
}
330
1F62
100
AcDbScale
 70
     0
300
1:5
140
1.0
141
5.0
290
     0
  0
SCALE
  5
1F67
102
{ACAD_REACTORS
330
1F62
102
}
330
1F62
100
AcDbScale
 70
     0
300
1:8
140
1.0
141
8.0
290
     0
  0
SCALE
  5
1F68
102
{ACAD_REACTORS
330
1F62
102
}
330
1F62
100
AcDbScale
 70
     0
300
1:10
140
1.0
141
10.0
290
     0
  0
SCALE
  5
1F69
102
{ACAD_REACTORS
330
1F62
102
}
330
1F62
100
AcDbScale
 70
     0
300
1:16
140
1.0
141
16.0
290
     0
  0
SCALE
  5
1F6A
102
{ACAD_REACTORS
330
1F62
102
}
330
1F62
100
AcDbScale
 70
     0
300
1:20
140
1.0
141
20.0
290
     0
  0
SCALE
  5
1F6B
102
{ACAD_REACTORS
330
1F62
102
}
330
1F62
100
AcDbScale
 70
     0
300
1:30
140
1.0
141
30.0
290
     0
  0
SCALE
  5
1F6C
102
{ACAD_REACTORS
330
1F62
102
}
330
1F62
100
AcDbScale
 70
     0
300
1:40
140
1.0
141
40.0
290
     0
  0
SCALE
  5
1F6D
102
{ACAD_REACTORS
330
1F62
102
}
330
1F62
100
AcDbScale
 70
     0
300
1:50
140
1.0
141
50.0
290
     0
  0
SCALE
  5
1F6E
102
{ACAD_REACTORS
330
1F62
102
}
330
1F62
100
AcDbScale
 70
     0
300
1:100
140
1.0
141
100.0
290
     0
  0
SCALE
  5
1F6F
102
{ACAD_REACTORS
330
1F62
102
}
330
1F62
100
AcDbScale
 70
     0
300
2:1
140
2.0
141
1.0
290
     0
  0
SCALE
  5
1F70
102
{ACAD_REACTORS
330
1F62
102
}
330
1F62
100
AcDbScale
 70
     0
300
4:1
140
4.0
141
1.0
290
     0
  0
SCALE
  5
1F71
102
{ACAD_REACTORS
330
1F62
102
}
330
1F62
100
AcDbScale
 70
     0
300
8:1
140
8.0
141
1.0
290
     0
  0
SCALE
  5
1F72
102
{ACAD_REACTORS
330
1F62
102
}
330
1F62
100
AcDbScale
 70
     0
300
10:1
140
10.0
141
1.0
290
     0
  0
SCALE
  5
1F73
102
{ACAD_REACTORS
330
1F62
102
}
330
1F62
100
AcDbScale
 70
     0
300
100:1
140
100.0
141
1.0
290
     0
  0
SCALE
  5
1F74
102
{ACAD_REACTORS
330
1F62
102
}
330
1F62
100
AcDbScale
 70
     0
300
1/128" = 1'-0"
140
0.0078125
141
12.0
290
     0
  0
SCALE
  5
1F75
102
{ACAD_REACTORS
330
1F62
102
}
330
1F62
100
AcDbScale
 70
     0
300
1/64" = 1'-0"
140
0.015625
141
12.0
290
     0
  0
SCALE
  5
1F76
102
{ACAD_REACTORS
330
1F62
102
}
330
1F62
100
AcDbScale
 70
     0
300
1/32" = 1'-0"
140
0.03125
141
12.0
290
     0
  0
SCALE
  5
1F77
102
{ACAD_REACTORS
330
1F62
102
}
330
1F62
100
AcDbScale
 70
     0
300
1/16" = 1'-0"
140
0.0625
141
12.0
290
     0
  0
SCALE
  5
1F78
102
{ACAD_REACTORS
330
1F62
102
}
330
1F62
100
AcDbScale
 70
     0
300
3/32" = 1'-0"
140
0.09375
141
12.0
290
     0
  0
SCALE
  5
1F79
102
{ACAD_REACTORS
330
1F62
102
}
330
1F62
100
AcDbScale
 70
     0
300
1/8" = 1'-0"
140
0.125
141
12.0
290
     0
  0
SCALE
  5
1F7A
102
{ACAD_REACTORS
330
1F62
102
}
330
1F62
100
AcDbScale
 70
     0
300
3/16" = 1'-0"
140
0.1875
141
12.0
290
     0
  0
SCALE
  5
1F7B
102
{ACAD_REACTORS
330
1F62
102
}
330
1F62
100
AcDbScale
 70
     0
300
1/4" = 1'-0"
140
0.25
141
12.0
290
     0
  0
SCALE
  5
1F7C
102
{ACAD_REACTORS
330
1F62
102
}
330
1F62
100
AcDbScale
 70
     0
300
3/8" = 1'-0"
140
0.375
141
12.0
290
     0
  0
SCALE
  5
1F7D
102
{ACAD_REACTORS
330
1F62
102
}
330
1F62
100
AcDbScale
 70
     0
300
1/2" = 1'-0"
140
0.5
141
12.0
290
     0
  0
SCALE
  5
1F7E
102
{ACAD_REACTORS
330
1F62
102
}
330
1F62
100
AcDbScale
 70
     0
300
3/4" = 1'-0"
140
0.75
141
12.0
290
     0
  0
SCALE
  5
1F7F
102
{ACAD_REACTORS
330
1F62
102
}
330
1F62
100
AcDbScale
 70
     0
300
1" = 1'-0"
140
1.0
141
12.0
290
     0
  0
SCALE
  5
1F80
102
{ACAD_REACTORS
330
1F62
102
}
330
1F62
100
AcDbScale
 70
     0
300
1-1/2" = 1'-0"
140
1.5
141
12.0
290
     0
  0
SCALE
  5
1F81
102
{ACAD_REACTORS
330
1F62
102
}
330
1F62
100
AcDbScale
 70
     0
300
3" = 1'-0"
140
3.0
141
12.0
290
     0
  0
SCALE
  5
1F82
102
{ACAD_REACTORS
330
1F62
102
}
330
1F62
100
AcDbScale
 70
     0
300
6" = 1'-0"
140
6.0
141
12.0
290
     0
  0
SCALE
  5
1F83
102
{ACAD_REACTORS
330
1F62
102
}
330
1F62
100
AcDbScale
 70
     0
300
1'-0" = 1'-0"
140
12.0
141
12.0
290
     0
  0
TABLESTYLE
  5
1F61
102
{ACAD_XDICTIONARY
360
1F88
102
}
102
{ACAD_REACTORS
330
1F60
102
}
330
1F60
100
AcDbTableStyle
  3
Standard
 70
     0
 71
     0
 40
0.06
 41
0.06
280
     0
281
     0
  7
STANDARD
140
0.18
170
     2
 62
     0
 63
     7
283
     0
274
    -2
284
     1
 64
     0
275
    -2
285
     1
 65
     0
276
    -2
286
     1
 66
     0
277
    -2
287
     1
 67
     0
278
    -2
288
     1
 68
     0
279
    -2
289
     1
 69
     0
  7
STANDARD
140
0.25
170
     5
 62
     0
 63
     7
283
     0
274
    -2
284
     1
 64
     0
275
    -2
285
     1
 65
     0
276
    -2
286
     1
 66
     0
277
    -2
287
     1
 67
     0
278
    -2
288
     1
 68
     0
279
    -2
289
     1
 69
     0
  7
STANDARD
140
0.18
170
     5
 62
     0
 63
     7
283
     0
274
    -2
284
     1
 64
     0
275
    -2
285
     1
 65
     0
276
    -2
286
     1
 66
     0
277
    -2
287
     1
 67
     0
278
    -2
288
     1
 68
     0
279
    -2
289
     1
 69
     0
  0
VISUALSTYLE
  5
1F51
102
{ACAD_XDICTIONARY
360
1F9E
102
}
102
{ACAD_REACTORS
330
1F4B
102
}
330
1F4B
100
AcDbVisualStyle
  2
2dWireframe
 70
     4
 71
     0
 72
     2
 73
     0
 90
        0
 40
-0.6
 41
-30.0
 62
     5
 63
     7
 74
     1
 91
        4
 64
     7
 65
   257
 75
     1
175
     1
 42
1.0
 92
        0
 66
   257
 43
1.0
 76
     1
 77
     6
 78
     2
 67
     7
 79
     5
170
     0
171
     0
290
     0
174
     0
 93
        1
 44
0.0
173
     0
291
     0
 45
0.0
1001
ACAD
1000
AcDbSavedByObjectVersion
1070
     0
  0
VISUALSTYLE
  5
1F53
102
{ACAD_XDICTIONARY
360
1FA2
102
}
102
{ACAD_REACTORS
330
1F4B
102
}
330
1F4B
100
AcDbVisualStyle
  2
3D Hidden
 70
     6
 71
     1
 72
     2
 73
     2
 90
        0
 40
-0.6
 41
-30.0
 62
     5
 63
     7
 74
     2
 91
        2
 64
     7
 65
   257
 75
     2
175
     1
 42
179.0
 92
        0
 66
   257
 43
1.0
 76
     1
 77
     6
 78
     2
 67
     7
 79
     3
170
     0
171
     0
290
     0
174
     0
 93
        1
 44
0.0
173
     0
291
     0
 45
0.0
1001
ACAD
1000
AcDbSavedByObjectVersion
1070
     0
  0
VISUALSTYLE
  5
1F52
102
{ACAD_XDICTIONARY
360
1FA0
102
}
102
{ACAD_REACTORS
330
1F4B
102
}
330
1F4B
100
AcDbVisualStyle
  2
3dWireframe
 70
     5
 71
     0
 72
     2
 73
     0
 90
        0
 40
-0.6
 41
-30.0
 62
     5
 63
     7
 74
     1
 91
        4
 64
     7
 65
   257
 75
     1
175
     1
 42
1.0
 92
        0
 66
   257
 43
1.0
 76
     1
 77
     6
 78
     2
 67
     7
 79
     5
170
     0
171
     0
290
     0
174
     0
 93
        1
 44
0.0
173
     0
291
     0
 45
0.0
1001
ACAD
1000
AcDbSavedByObjectVersion
1070
     0
  0
VISUALSTYLE
  5
1F50
102
{ACAD_XDICTIONARY
360
1F9C
102
}
102
{ACAD_REACTORS
330
1F4B
102
}
330
1F4B
100
AcDbVisualStyle
  2
Basic
 70
     7
 71
     1
 72
     0
 73
     1
 90
        0
 40
-0.6
 41
-30.0
 62
     5
 63
     7
 74
     0
 91
        4
 64
     7
 65
   257
 75
     1
175
     1
 42
1.0
 92
        8
 66
     7
 43
1.0
 76
     1
 77
     6
 78
     2
 67
     7
 79
     5
170
     0
171
     0
290
     0
174
     0
 93
        1
 44
0.0
173
     0
291
     1
 45
0.0
1001
ACAD
1000
AcDbSavedByObjectVersion
1070
     0
  0
VISUALSTYLE
  5
1F57
102
{ACAD_XDICTIONARY
360
1FAA
102
}
102
{ACAD_REACTORS
330
1F4B
102
}
330
1F4B
100
AcDbVisualStyle
  2
Brighten
 70
    12
 71
     2
 72
     2
 73
     0
 90
        0
 40
-0.6
 41
-30.0
 62
     5
 63
     7
 74
     1
 91
        4
 64
     7
 65
   257
 75
     1
175
     1
 42
1.0
 92
        8
 66
     7
 43
1.0
 76
     1
 77
     6
 78
     2
 67
     7
 79
     5
170
     0
171
     0
290
     0
174
     0
 93
        1
 44
50.0
173
     0
291
     1
 45
0.0
1001
ACAD
1000
AcDbSavedByObjectVersion
1070
     0
  0
VISUALSTYLE
  5
1F5B
102
{ACAD_XDICTIONARY
360
1FB2
102
}
102
{ACAD_REACTORS
330
1F4B
102
}
330
1F4B
100
AcDbVisualStyle
  2
ColorChange
 70
    16
 71
     2
 72
     2
 73
     3
 90
        0
 40
-0.6
 41
-30.0
 62
     5
 63
     8
 74
     1
 91
        4
 64
     7
 65
   257
 75
     1
175
     1
 42
1.0
 92
        8
 66
     8
 43
1.0
 76
     1
 77
     6
 78
     2
 67
     7
 79
     5
170
     0
171
     0
290
     0
174
     0
 93
        1
 44
0.0
173
     0
291
     1
 45
0.0
1001
ACAD
1000
AcDbSavedByObjectVersion
1070
     0
  0
VISUALSTYLE
  5
1F54
102
{ACAD_XDICTIONARY
360
1FA4
102
}
102
{ACAD_REACTORS
330
1F4B
102
}
330
1F4B
100
AcDbVisualStyle
  2
Conceptual
 70
     9
 71
     3
 72
     2
 73
     0
 90
        0
 40
-0.6
 41
-30.0
 62
     5
 63
     7
 74
     2
 91
        2
 64
     7
 65
   257
 75
     1
175
     1
 42
179.0
 92
        8
 66
     7
 43
1.0
 76
     1
 77
     6
 78
     2
 67
     7
 79
     3
170
     0
171
     0
290
     0
174
     0
 93
        1
 44
0.0
173
     0
291
     0
 45
0.0
1001
ACAD
1000
AcDbSavedByObjectVersion
1070
     0
  0
VISUALSTYLE
  5
1F56
102
{ACAD_XDICTIONARY
360
1FA8
102
}
102
{ACAD_REACTORS
330
1F4B
102
}
330
1F4B
100
AcDbVisualStyle
  2
Dim
 70
    11
 71
     2
 72
     2
 73
     0
 90
        0
 40
-0.6
 41
-30.0
 62
     5
 63
     7
 74
     1
 91
        4
 64
     7
 65
   257
 75
     1
175
     1
 42
1.0
 92
        8
 66
     7
 43
1.0
 76
     1
 77
     6
 78
     2
 67
     7
 79
     5
170
     0
171
     0
290
     0
174
     0
 93
        1
 44
-50.0
173
     0
291
     1
 45
0.0
1001
ACAD
1000
AcDbSavedByObjectVersion
1070
     0
  0
VISUALSTYLE
  5
1F5E
102
{ACAD_XDICTIONARY
360
1FB8
102
}
102
{ACAD_REACTORS
330
1F4B
102
}
330
1F4B
100
AcDbVisualStyle
  2
EdgeColorOff
 70
    22
 71
     2
 72
     2
 73
     0
 90
        0
 40
-0.6
 41
-30.0
 62
     5
 63
     7
 74
     1
 91
        4
 64
     7
 65
   257
 75
     1
175
     1
 42
1.0
 92
        8
 66
     7
 43
1.0
 76
     1
 77
     6
 78
     2
 67
     7
 79
     5
170
     0
171
     0
290
     0
174
     0
 93
        1
 44
0.0
173
     0
291
     1
 45
0.0
1001
ACAD
1000
AcDbSavedByObjectVersion
1070
     0
  0
VISUALSTYLE
  5
1F5A
102
{ACAD_XDICTIONARY
360
1FB0
102
}
102
{ACAD_REACTORS
330
1F4B
102
}
330
1F4B
100
AcDbVisualStyle
  2
Facepattern
 70
    15
 71
     2
 72
     2
 73
     0
 90
        0
 40
-0.6
 41
-30.0
 62
     5
 63
     7
 74
     1
 91
        4
 64
     7
 65
   257
 75
     1
175
     1
 42
1.0
 92
        8
 66
     7
 43
1.0
 76
     1
 77
     6
 78
     2
 67
     7
 79
     5
170
     0
171
     0
290
     0
174
     0
 93
        1
 44
0.0
173
     0
291
     1
 45
0.0
1001
ACAD
1000
AcDbSavedByObjectVersion
1070
     0
  0
VISUALSTYLE
  5
1F4C
102
{ACAD_XDICTIONARY
360
1F94
102
}
102
{ACAD_REACTORS
330
1F4B
102
}
330
1F4B
100
AcDbVisualStyle
  2
Flat
 70
     0
 71
     2
 72
     1
 73
     1
 90
        2
 40
-0.6
 41
30.0
 62
     5
 63
     7
 74
     0
 91
        4
 64
     7
 65
   257
 75
     1
175
     1
 42
1.0
 92
        8
 66
     7
 43
1.0
 76
     1
 77
     6
 78
     2
 67
     7
 79
     5
170
     0
171
     0
290
     0
174
     0
 93
       13
 44
0.0
173
     0
291
     1
 45
0.0
1001
ACAD
1000
AcDbSavedByObjectVersion
1070
     0
  0
VISUALSTYLE
  5
1F4D
102
{ACAD_XDICTIONARY
360
1F96
102
}
102
{ACAD_REACTORS
330
1F4B
102
}
330
1F4B
100
AcDbVisualStyle
  2
FlatWithEdges
 70
     1
 71
     2
 72
     1
 73
     1
 90
        2
 40
-0.6
 41
30.0
 62
     5
 63
     7
 74
     1
 91
        4
 64
     7
 65
   257
 75
     1
175
     1
 42
1.0
 92
        0
 66
   257
 43
1.0
 76
     1
 77
     6
 78
     2
 67
     7
 79
     5
170
     0
171
     0
290
     0
174
     0
 93
       13
 44
0.0
173
     0
291
     1
 45
0.0
1001
ACAD
1000
AcDbSavedByObjectVersion
1070
     0
  0
VISUALSTYLE
  5
1F4E
102
{ACAD_XDICTIONARY
360
1F98
102
}
102
{ACAD_REACTORS
330
1F4B
102
}
330
1F4B
100
AcDbVisualStyle
  2
Gouraud
 70
     2
 71
     2
 72
     2
 73
     1
 90
        2
 40
-0.6
 41
30.0
 62
     5
 63
     7
 74
     0
 91
        4
 64
     7
 65
   257
 75
     1
175
     1
 42
1.0
 92
        0
 66
     7
 43
1.0
 76
     1
 77
     6
 78
     2
 67
     7
 79
     5
170
     0
171
     0
290
     0
174
     0
 93
       13
 44
0.0
173
     0
291
     1
 45
0.0
1001
ACAD
1000
AcDbSavedByObjectVersion
1070
     0
  0
VISUALSTYLE
  5
1F4F
102
{ACAD_XDICTIONARY
360
1F9A
102
}
102
{ACAD_REACTORS
330
1F4B
102
}
330
1F4B
100
AcDbVisualStyle
  2
GouraudWithEdges
 70
     3
 71
     2
 72
     2
 73
     1
 90
        2
 40
-0.6
 41
30.0
 62
     5
 63
     7
 74
     1
 91
        4
 64
     7
 65
   257
 75
     1
175
     1
 42
1.0
 92
        0
 66
   257
 43
1.0
 76
     1
 77
     6
 78
     2
 67
     7
 79
     5
170
     0
171
     0
290
     0
174
     0
 93
       13
 44
0.0
173
     0
291
     1
 45
0.0
1001
ACAD
1000
AcDbSavedByObjectVersion
1070
     0
  0
VISUALSTYLE
  5
1F5C
102
{ACAD_XDICTIONARY
360
1FB4
102
}
102
{ACAD_REACTORS
330
1F4B
102
}
330
1F4B
100
AcDbVisualStyle
  2
JitterOff
 70
    20
 71
     2
 72
     2
 73
     0
 90
        0
 40
-0.6
 41
-30.0
 62
     5
 63
     7
 74
     1
 91
        4
 64
     7
 65
   257
 75
     1
175
     1
 42
1.0
 92
       10
 66
     7
 43
1.0
 76
     1
 77
     6
 78
     2
 67
     7
 79
     5
170
     0
171
     0
290
     0
174
     0
 93
        1
 44
0.0
173
     0
291
     1
 45
0.0
1001
ACAD
1000
AcDbSavedByObjectVersion
1070
     0
  0
VISUALSTYLE
  5
1F59
102
{ACAD_XDICTIONARY
360
1FAE
102
}
102
{ACAD_REACTORS
330
1F4B
102
}
330
1F4B
100
AcDbVisualStyle
  2
Linepattern
 70
    14
 71
     2
 72
     2
 73
     0
 90
        0
 40
-0.6
 41
-30.0
 62
     5
 63
     7
 74
     1
 91
        4
 64
     7
 65
   257
 75
     7
175
     7
 42
1.0
 92
        8
 66
     7
 43
1.0
 76
     1
 77
     6
 78
     2
 67
     7
 79
     5
170
     0
171
     0
290
     0
174
     0
 93
        1
 44
0.0
173
     0
291
     1
 45
0.0
1001
ACAD
1000
AcDbSavedByObjectVersion
1070
     0
  0
VISUALSTYLE
  5
1F5D
102
{ACAD_XDICTIONARY
360
1FB6
102
}
102
{ACAD_REACTORS
330
1F4B
102
}
330
1F4B
100
AcDbVisualStyle
  2
OverhangOff
 70
    21
 71
     2
 72
     2
 73
     0
 90
        0
 40
-0.6
 41
-30.0
 62
     5
 63
     7
 74
     1
 91
        4
 64
     7
 65
   257
 75
     1
175
     1
 42
1.0
 92
        9
 66
     7
 43
1.0
 76
     1
 77
     6
 78
     2
 67
     7
 79
     5
170
     0
171
     0
290
     0
174
     0
 93
        1
 44
0.0
173
     0
291
     1
 45
0.0
1001
ACAD
1000
AcDbSavedByObjectVersion
1070
     0
  0
VISUALSTYLE
  5
1F55
102
{ACAD_XDICTIONARY
360
1FA6
102
}
102
{ACAD_REACTORS
330
1F4B
102
}
330
1F4B
100
AcDbVisualStyle
  2
Realistic
 70
     8
 71
     2
 72
     2
 73
     0
 90
        0
 40
-0.6
 41
-30.0
 62
     5
 63
     7
 74
     1
 91
        0
 64
     7
 65
   257
 75
     1
175
     1
 42
1.0
 92
        8
 66
     8
 43
1.0
 76
     1
 77
     6
 78
     2
 67
     7
 79
     5
170
     0
171
     0
290
     0
174
     0
 93
       13
 44
0.0
173
     0
291
     0
 45
0.0
1001
ACAD
1000
AcDbSavedByObjectVersion
1070
     0
  0
VISUALSTYLE
  5
1F58
102
{ACAD_XDICTIONARY
360
1FAC
102
}
102
{ACAD_REACTORS
330
1F4B
102
}
330
1F4B
100
AcDbVisualStyle
  2
Thicken
 70
    13
 71
     2
 72
     2
 73
     0
 90
        0
 40
-0.6
 41
-30.0
 62
     5
 63
     7
 74
     1
 91
        4
 64
     7
 65
   257
 75
     1
175
     1
 42
1.0
 92
       12
 66
     7
 43
1.0
 76
     1
 77
     6
 78
     2
 67
     7
 79
     5
170
     0
171
     0
290
     0
174
     0
 93
        1
 44
0.0
173
     0
291
     1
 45
0.0
1001
ACAD
1000
AcDbSavedByObjectVersion
1070
     0
  0
DICTIONARYVAR
  5
1FBF
102
{ACAD_REACTORS
330
1FBC
102
}
330
1FBC
100
DictionaryVariables
280
     0
  1
1:1
  0
DICTIONARYVAR
  5
1FBE
102
{ACAD_REACTORS
330
1FBC
102
}
330
1FBC
100
DictionaryVariables
280
     0
  1
STANDARD
  0
DICTIONARYVAR
  5
1FBD
102
{ACAD_REACTORS
330
1FBC
102
}
330
1FBC
100
DictionaryVariables
280
     0
  1
STANDARD
  0
DICTIONARYVAR
  5
1FC2
102
{ACAD_REACTORS
330
1FBC
102
}
330
1FBC
100
DictionaryVariables
280
     0
  1
1
  0
DICTIONARYVAR
  5
1FC1
102
{ACAD_REACTORS
330
1FBC
102
}
330
1FBC
100
DictionaryVariables
280
     0
  1
0
  0
DICTIONARYVAR
  5
32D5
102
{ACAD_REACTORS
330
1FBC
102
}
330
1FBC
100
DictionaryVariables
280
     0
  1
1
  0
DICTIONARYVAR
  5
32D6
102
{ACAD_REACTORS
330
1FBC
102
}
330
1FBC
100
DictionaryVariables
280
     0
  1
15
  0
DICTIONARYVAR
  5
32D4
102
{ACAD_REACTORS
330
1FBC
102
}
330
1FBC
100
DictionaryVariables
280
     0
  1
0
  0
DICTIONARYVAR
  5
32D3
102
{ACAD_REACTORS
330
1FBC
102
}
330
1FBC
100
DictionaryVariables
280
     0
  1
0
  0
DICTIONARYVAR
  5
1FC0
102
{ACAD_REACTORS
330
1FBC
102
}
330
1FBC
100
DictionaryVariables
280
     0
  1
127
  0
DICTIONARYVAR
  5
1FC3
102
{ACAD_REACTORS
330
1FBC
102
}
330
1FBC
100
DictionaryVariables
280
     0
  1
0
  0
DICTIONARY
  5
32E1
330
1F2E
100
AcDbDictionary
280
     1
281
     1
  3
ACAD_XREC_ROUNDTRIP
360
32E2
  0
DICTIONARY
  5
32DF
330
1F2D
100
AcDbDictionary
280
     1
281
     1
  3
ACAD_XREC_ROUNDTRIP
360
32E0
  0
DICTIONARY
  5
1F3C
330
1F3B
100
AcDbDictionary
280
     1
281
     1
  3
ACAD_XREC_ROUNDTRIP
360
32E4
  3
BUMPTILE
360
1F3E
  3
DIFFUSETILE
360
1F3D
  3
OPACITYTILE
360
1F41
  3
REFLECTIONTILE
360
1F40
  3
REFRACTIONTILE
360
1F42
  3
SPECULARTILE
360
1F3F
  0
DICTIONARY
  5
1F34
330
1F33
100
AcDbDictionary
280
     1
281
     1
  3
ACAD_XREC_ROUNDTRIP
360
32E3
  3
BUMPTILE
360
1F36
  3
DIFFUSETILE
360
1F35
  3
OPACITYTILE
360
1F39
  3
REFLECTIONTILE
360
1F38
  3
REFRACTIONTILE
360
1F3A
  3
SPECULARTILE
360
1F37
  0
DICTIONARY
  5
1F44
330
1F43
100
AcDbDictionary
280
     1
281
     1
  3
ACAD_XREC_ROUNDTRIP
360
32E5
  3
BUMPTILE
360
1F46
  3
DIFFUSETILE
360
1F45
  3
OPACITYTILE
360
1F49
  3
REFLECTIONTILE
360
1F48
  3
REFRACTIONTILE
360
1F4A
  3
SPECULARTILE
360
1F47
  0
DICTIONARY
  5
1F88
330
1F61
100
AcDbDictionary
280
     1
281
     1
  3
ACAD_ROUNDTRIP_2008_TABLESTYLE_CELLSTYLEMAP
360
32DD
  3
ACAD_XREC_ROUNDTRIP
360
32E6
  0
DICTIONARY
  5
1F9E
330
1F51
100
AcDbDictionary
280
     1
281
     1
  3
ACAD_XREC_ROUNDTRIP
360
1F9F
  0
DICTIONARY
  5
1FA2
330
1F53
100
AcDbDictionary
280
     1
281
     1
  3
ACAD_XREC_ROUNDTRIP
360
1FA3
  0
DICTIONARY
  5
1FA0
330
1F52
100
AcDbDictionary
280
     1
281
     1
  3
ACAD_XREC_ROUNDTRIP
360
1FA1
  0
DICTIONARY
  5
1F9C
330
1F50
100
AcDbDictionary
280
     1
281
     1
  3
ACAD_XREC_ROUNDTRIP
360
1F9D
  0
DICTIONARY
  5
1FAA
330
1F57
100
AcDbDictionary
280
     1
281
     1
  3
ACAD_XREC_ROUNDTRIP
360
1FAB
  0
DICTIONARY
  5
1FB2
330
1F5B
100
AcDbDictionary
280
     1
281
     1
  3
ACAD_XREC_ROUNDTRIP
360
1FB3
  0
DICTIONARY
  5
1FA4
330
1F54
100
AcDbDictionary
280
     1
281
     1
  3
ACAD_XREC_ROUNDTRIP
360
1FA5
  0
DICTIONARY
  5
1FA8
330
1F56
100
AcDbDictionary
280
     1
281
     1
  3
ACAD_XREC_ROUNDTRIP
360
1FA9
  0
DICTIONARY
  5
1FB8
330
1F5E
100
AcDbDictionary
280
     1
281
     1
  3
ACAD_XREC_ROUNDTRIP
360
1FB9
  0
DICTIONARY
  5
1FB0
330
1F5A
100
AcDbDictionary
280
     1
281
     1
  3
ACAD_XREC_ROUNDTRIP
360
1FB1
  0
DICTIONARY
  5
1F94
330
1F4C
100
AcDbDictionary
280
     1
281
     1
  3
ACAD_XREC_ROUNDTRIP
360
1F95
  0
DICTIONARY
  5
1F96
330
1F4D
100
AcDbDictionary
280
     1
281
     1
  3
ACAD_XREC_ROUNDTRIP
360
1F97
  0
DICTIONARY
  5
1F98
330
1F4E
100
AcDbDictionary
280
     1
281
     1
  3
ACAD_XREC_ROUNDTRIP
360
1F99
  0
DICTIONARY
  5
1F9A
330
1F4F
100
AcDbDictionary
280
     1
281
     1
  3
ACAD_XREC_ROUNDTRIP
360
1F9B
  0
DICTIONARY
  5
1FB4
330
1F5C
100
AcDbDictionary
280
     1
281
     1
  3
ACAD_XREC_ROUNDTRIP
360
1FB5
  0
DICTIONARY
  5
1FAE
330
1F59
100
AcDbDictionary
280
     1
281
     1
  3
ACAD_XREC_ROUNDTRIP
360
1FAF
  0
DICTIONARY
  5
1FB6
330
1F5D
100
AcDbDictionary
280
     1
281
     1
  3
ACAD_XREC_ROUNDTRIP
360
1FB7
  0
DICTIONARY
  5
1FA6
330
1F55
100
AcDbDictionary
280
     1
281
     1
  3
ACAD_XREC_ROUNDTRIP
360
1FA7
  0
DICTIONARY
  5
1FAC
330
1F58
100
AcDbDictionary
280
     1
281
     1
  3
ACAD_XREC_ROUNDTRIP
360
1FAD
  0
XRECORD
  5
32E2
102
{ACAD_REACTORS
330
32E1
102
}
330
32E1
100
AcDbXrecord
280
     1
102
SHADEPLOT
 70
     0
102
SHADEPLOTRESLEVEL
 70
     2
102
SHADEPLOTCUSTOMDPI
 70
   300
  0
XRECORD
  5
32E0
102
{ACAD_REACTORS
330
32DF
102
}
330
32DF
100
AcDbXrecord
280
     1
102
SHADEPLOT
 70
     0
102
SHADEPLOTRESLEVEL
 70
     2
102
SHADEPLOTCUSTOMDPI
 70
   300
  0
XRECORD
  5
32E4
102
{ACAD_REACTORS
330
1F3C
102
}
330
1F3C
100
AcDbXrecord
280
     1
102
MATERIAL
148
0.0
149
0.0
149
0.0
 93
        0
 94
      127
282
     0
 72
     0
 77
     0
171
     0
175
     0
179
     0
273
     0
  0
XRECORD
  5
1F3E
102
{ACAD_REACTORS
330
1F3C
102
}
330
1F3C
100
AcDbXrecord
280
     1
270
     1
271
     1
  0
XRECORD
  5
1F3D
102
{ACAD_REACTORS
330
1F3C
102
}
330
1F3C
100
AcDbXrecord
280
     1
270
     1
271
     1
  0
XRECORD
  5
1F41
102
{ACAD_REACTORS
330
1F3C
102
}
330
1F3C
100
AcDbXrecord
280
     1
270
     1
271
     1
  0
XRECORD
  5
1F40
102
{ACAD_REACTORS
330
1F3C
102
}
330
1F3C
100
AcDbXrecord
280
     1
270
     1
271
     1
  0
XRECORD
  5
1F42
102
{ACAD_REACTORS
330
1F3C
102
}
330
1F3C
100
AcDbXrecord
280
     1
270
     1
271
     1
  0
XRECORD
  5
1F3F
102
{ACAD_REACTORS
330
1F3C
102
}
330
1F3C
100
AcDbXrecord
280
     1
270
     1
271
     1
  0
XRECORD
  5
32E3
102
{ACAD_REACTORS
330
1F34
102
}
330
1F34
100
AcDbXrecord
280
     1
102
MATERIAL
148
0.0
149
0.0
149
0.0
 93
        0
 94
      127
282
     0
 72
     0
 77
     0
171
     0
175
     0
179
     0
273
     0
  0
XRECORD
  5
1F36
102
{ACAD_REACTORS
330
1F34
102
}
330
1F34
100
AcDbXrecord
280
     1
270
     1
271
     1
  0
XRECORD
  5
1F35
102
{ACAD_REACTORS
330
1F34
102
}
330
1F34
100
AcDbXrecord
280
     1
270
     1
271
     1
  0
XRECORD
  5
1F39
102
{ACAD_REACTORS
330
1F34
102
}
330
1F34
100
AcDbXrecord
280
     1
270
     1
271
     1
  0
XRECORD
  5
1F38
102
{ACAD_REACTORS
330
1F34
102
}
330
1F34
100
AcDbXrecord
280
     1
270
     1
271
     1
  0
XRECORD
  5
1F3A
102
{ACAD_REACTORS
330
1F34
102
}
330
1F34
100
AcDbXrecord
280
     1
270
     1
271
     1
  0
XRECORD
  5
1F37
102
{ACAD_REACTORS
330
1F34
102
}
330
1F34
100
AcDbXrecord
280
     1
270
     1
271
     1
  0
XRECORD
  5
32E5
102
{ACAD_REACTORS
330
1F44
102
}
330
1F44
100
AcDbXrecord
280
     1
102
MATERIAL
148
0.0
149
0.0
149
0.0
 93
        0
 94
      127
282
     0
 72
     0
 77
     0
171
     0
175
     0
179
     0
273
     0
  0
XRECORD
  5
1F46
102
{ACAD_REACTORS
330
1F44
102
}
330
1F44
100
AcDbXrecord
280
     1
270
     1
271
     1
  0
XRECORD
  5
1F45
102
{ACAD_REACTORS
330
1F44
102
}
330
1F44
100
AcDbXrecord
280
     1
270
     1
271
     1
  0
XRECORD
  5
1F49
102
{ACAD_REACTORS
330
1F44
102
}
330
1F44
100
AcDbXrecord
280
     1
270
     1
271
     1
  0
XRECORD
  5
1F48
102
{ACAD_REACTORS
330
1F44
102
}
330
1F44
100
AcDbXrecord
280
     1
270
     1
271
     1
  0
XRECORD
  5
1F4A
102
{ACAD_REACTORS
330
1F44
102
}
330
1F44
100
AcDbXrecord
280
     1
270
     1
271
     1
  0
XRECORD
  5
1F47
102
{ACAD_REACTORS
330
1F44
102
}
330
1F44
100
AcDbXrecord
280
     1
270
     1
271
     1
  0
CELLSTYLEMAP
  5
32DD
102
{ACAD_REACTORS
330
1F88
102
}
330
1F88
100
AcDbCellStyleMap
 90
        3
300
CELLSTYLE
  1
TABLEFORMAT_BEGIN
 90
        5
170
     1
 91
        0
 92
    32768
 62
   257
 93
        1
300
CONTENTFORMAT
  1
CONTENTFORMAT_BEGIN
 90
        0
 91
        0
 92
      512
 93
        0
300

 40
0.0
140
1.0
 94
        5
 62
     0
340
11
144
0.25
309
CONTENTFORMAT_END
171
     0
 94
        0
309
TABLEFORMAT_END
  1
CELLSTYLE_BEGIN
 90
        1
 91
        1
300
_TITLE
309
CELLSTYLE_END
300
CELLSTYLE
  1
TABLEFORMAT_BEGIN
 90
        5
170
     1
 91
        0
 92
        0
 62
   257
 93
        1
300
CONTENTFORMAT
  1
CONTENTFORMAT_BEGIN
 90
        0
 91
        0
 92
      512
 93
        0
300

 40
0.0
140
1.0
 94
        5
 62
     0
340
11
144
0.18
309
CONTENTFORMAT_END
171
     0
 94
        0
309
TABLEFORMAT_END
  1
CELLSTYLE_BEGIN
 90
        2
 91
        1
300
_HEADER
309
CELLSTYLE_END
300
CELLSTYLE
  1
TABLEFORMAT_BEGIN
 90
        5
170
     1
 91
        0
 92
        0
 62
   257
 93
        1
300
CONTENTFORMAT
  1
CONTENTFORMAT_BEGIN
 90
        0
 91
        0
 92
      512
 93
        0
300

 40
0.0
140
1.0
 94
        2
 62
     0
340
11
144
0.18
309
CONTENTFORMAT_END
171
     0
 94
        0
309
TABLEFORMAT_END
  1
CELLSTYLE_BEGIN
 90
        3
 91
        2
300
_DATA
309
CELLSTYLE_END
  0
XRECORD
  5
32E6
102
{ACAD_REACTORS
330
1F88
102
}
330
1F88
100
AcDbXrecord
280
     1
102
ACAD_ROUNDTRIP_PRE2007_TABLESTYLE
 90
      512
 91
        0
  1

 92
      512
 93
        0
  2

 94
      512
 95
        0
  3

  0
XRECORD
  5
1F9F
102
{ACAD_REACTORS
330
1F9E
102
}
330
1F9E
100
AcDbXrecord
280
     1
102
RTVSPropertyOp0
 70
     1
102
RTVSPropertyOp1
 70
     1
102
RTVSPropertyOp2
 70
     1
102
RTVSPropertyOp3
 70
     1
102
RTVSPropertyOp4
 70
     1
102
RTVSPropertyOp5
 70
     1
102
RTVSPropertyOp6
 70
     1
102
RTVSPropertyOp7
 70
     1
102
RTVSPropertyOp8
 70
     1
102
RTVSPropertyOp9
 70
     1
102
RTVSPropertyOp10
 70
     1
102
RTVSPropertyOp11
 70
     1
102
RTVSPropertyOp12
 70
     1
102
RTVSPropertyOp13
 70
     1
102
RTVSPropertyOp14
 70
     1
102
RTVSPropertyOp15
 70
     1
102
RTVSPropertyOp16
 70
     1
102
RTVSPropertyOp17
 70
     1
102
RTVSPropertyOp18
 70
     1
102
RTVSPropertyOp19
 70
     1
102
RTVSPropertyOp20
 70
     1
102
RTVSPropertyOp21
 70
     1
102
RTVSPropertyOp22
 70
     1
102
RTVSPropertyOp23
 70
     1
102
RTVSPropertyOp24
 70
     1
102
RTVSPropertyOp25
 70
     1
102
RTVSPropertyOp26
 70
     1
102
RTVSPropertyOp27
 70
     1
  0
XRECORD
  5
1FA3
102
{ACAD_REACTORS
330
1FA2
102
}
330
1FA2
100
AcDbXrecord
280
     1
102
RTVSPropertyOp0
 70
     1
102
RTVSPropertyOp1
 70
     1
102
RTVSPropertyOp2
 70
     1
102
RTVSPropertyOp3
 70
     1
102
RTVSPropertyOp4
 70
     1
102
RTVSPropertyOp5
 70
     1
102
RTVSPropertyOp6
 70
     1
102
RTVSPropertyOp7
 70
     1
102
RTVSPropertyOp8
 70
     1
102
RTVSPropertyOp9
 70
     1
102
RTVSPropertyOp10
 70
     1
102
RTVSPropertyOp11
 70
     1
102
RTVSPropertyOp12
 70
     1
102
RTVSPropertyOp13
 70
     1
102
RTVSPropertyOp14
 70
     1
102
RTVSPropertyOp15
 70
     1
102
RTVSPropertyOp16
 70
     1
102
RTVSPropertyOp17
 70
     1
102
RTVSPropertyOp18
 70
     1
102
RTVSPropertyOp19
 70
     1
102
RTVSPropertyOp20
 70
     1
102
RTVSPropertyOp21
 70
     1
102
RTVSPropertyOp22
 70
     1
102
RTVSPropertyOp23
 70
     1
102
RTVSPropertyOp24
 70
     1
102
RTVSPropertyOp25
 70
     1
102
RTVSPropertyOp26
 70
     1
102
RTVSPropertyOp27
 70
     1
  0
XRECORD
  5
1FA1
102
{ACAD_REACTORS
330
1FA0
102
}
330
1FA0
100
AcDbXrecord
280
     1
102
RTVSPropertyOp0
 70
     1
102
RTVSPropertyOp1
 70
     1
102
RTVSPropertyOp2
 70
     1
102
RTVSPropertyOp3
 70
     1
102
RTVSPropertyOp4
 70
     1
102
RTVSPropertyOp5
 70
     1
102
RTVSPropertyOp6
 70
     1
102
RTVSPropertyOp7
 70
     1
102
RTVSPropertyOp8
 70
     1
102
RTVSPropertyOp9
 70
     1
102
RTVSPropertyOp10
 70
     1
102
RTVSPropertyOp11
 70
     1
102
RTVSPropertyOp12
 70
     1
102
RTVSPropertyOp13
 70
     1
102
RTVSPropertyOp14
 70
     1
102
RTVSPropertyOp15
 70
     1
102
RTVSPropertyOp16
 70
     1
102
RTVSPropertyOp17
 70
     1
102
RTVSPropertyOp18
 70
     1
102
RTVSPropertyOp19
 70
     1
102
RTVSPropertyOp20
 70
     1
102
RTVSPropertyOp21
 70
     1
102
RTVSPropertyOp22
 70
     1
102
RTVSPropertyOp23
 70
     1
102
RTVSPropertyOp24
 70
     1
102
RTVSPropertyOp25
 70
     1
102
RTVSPropertyOp26
 70
     1
102
RTVSPropertyOp27
 70
     1
  0
XRECORD
  5
1F9D
102
{ACAD_REACTORS
330
1F9C
102
}
330
1F9C
100
AcDbXrecord
280
     1
102
RTVSPropertyOp0
 70
     1
102
RTVSPropertyOp1
 70
     1
102
RTVSPropertyOp2
 70
     1
102
RTVSPropertyOp3
 70
     1
102
RTVSPropertyOp4
 70
     1
102
RTVSPropertyOp5
 70
     1
102
RTVSPropertyOp6
 70
     1
102
RTVSPropertyOp7
 70
     1
102
RTVSPropertyOp8
 70
     1
102
RTVSPropertyOp9
 70
     1
102
RTVSPropertyOp10
 70
     1
102
RTVSPropertyOp11
 70
     1
102
RTVSPropertyOp12
 70
     1
102
RTVSPropertyOp13
 70
     1
102
RTVSPropertyOp14
 70
     1
102
RTVSPropertyOp15
 70
     1
102
RTVSPropertyOp16
 70
     1
102
RTVSPropertyOp17
 70
     1
102
RTVSPropertyOp18
 70
     1
102
RTVSPropertyOp19
 70
     1
102
RTVSPropertyOp20
 70
     1
102
RTVSPropertyOp21
 70
     1
102
RTVSPropertyOp22
 70
     1
102
RTVSPropertyOp23
 70
     1
102
RTVSPropertyOp24
 70
     1
102
RTVSPropertyOp25
 70
     1
102
RTVSPropertyOp26
 70
     1
102
RTVSPropertyOp27
 70
     1
  0
XRECORD
  5
1FAB
102
{ACAD_REACTORS
330
1FAA
102
}
330
1FAA
100
AcDbXrecord
280
     1
102
RTVSPropertyOp0
 70
     1
102
RTVSPropertyOp1
 70
     1
102
RTVSPropertyOp2
 70
     1
102
RTVSPropertyOp3
 70
     1
102
RTVSPropertyOp4
 70
     1
102
RTVSPropertyOp5
 70
     1
102
RTVSPropertyOp6
 70
     1
102
RTVSPropertyOp7
 70
     1
102
RTVSPropertyOp8
 70
     1
102
RTVSPropertyOp9
 70
     1
102
RTVSPropertyOp10
 70
     1
102
RTVSPropertyOp11
 70
     1
102
RTVSPropertyOp12
 70
     1
102
RTVSPropertyOp13
 70
     1
102
RTVSPropertyOp14
 70
     1
102
RTVSPropertyOp15
 70
     1
102
RTVSPropertyOp16
 70
     1
102
RTVSPropertyOp17
 70
     1
102
RTVSPropertyOp18
 70
     1
102
RTVSPropertyOp19
 70
     1
102
RTVSPropertyOp20
 70
     1
102
RTVSPropertyOp21
 70
     1
102
RTVSPropertyOp22
 70
     1
102
RTVSPropertyOp23
 70
     1
102
RTVSPropertyOp24
 70
     1
102
RTVSPropertyOp25
 70
     1
102
RTVSPropertyOp26
 70
     1
102
RTVSPropertyOp27
 70
     1
  0
XRECORD
  5
1FB3
102
{ACAD_REACTORS
330
1FB2
102
}
330
1FB2
100
AcDbXrecord
280
     1
102
RTVSPropertyOp0
 70
     1
102
RTVSPropertyOp1
 70
     1
102
RTVSPropertyOp2
 70
     1
102
RTVSPropertyOp3
 70
     1
102
RTVSPropertyOp4
 70
     1
102
RTVSPropertyOp5
 70
     1
102
RTVSPropertyOp6
 70
     1
102
RTVSPropertyOp7
 70
     1
102
RTVSPropertyOp8
 70
     1
102
RTVSPropertyOp9
 70
     1
102
RTVSPropertyOp10
 70
     1
102
RTVSPropertyOp11
 70
     1
102
RTVSPropertyOp12
 70
     1
102
RTVSPropertyOp13
 70
     1
102
RTVSPropertyOp14
 70
     1
102
RTVSPropertyOp15
 70
     1
102
RTVSPropertyOp16
 70
     1
102
RTVSPropertyOp17
 70
     1
102
RTVSPropertyOp18
 70
     1
102
RTVSPropertyOp19
 70
     1
102
RTVSPropertyOp20
 70
     1
102
RTVSPropertyOp21
 70
     1
102
RTVSPropertyOp22
 70
     1
102
RTVSPropertyOp23
 70
     1
102
RTVSPropertyOp24
 70
     1
102
RTVSPropertyOp25
 70
     1
102
RTVSPropertyOp26
 70
     1
102
RTVSPropertyOp27
 70
     1
  0
XRECORD
  5
1FA5
102
{ACAD_REACTORS
330
1FA4
102
}
330
1FA4
100
AcDbXrecord
280
     1
102
RTVSPropertyOp0
 70
     1
102
RTVSPropertyOp1
 70
     1
102
RTVSPropertyOp2
 70
     1
102
RTVSPropertyOp3
 70
     1
102
RTVSPropertyOp4
 70
     1
102
RTVSPropertyOp5
 70
     1
102
RTVSPropertyOp6
 70
     1
102
RTVSPropertyOp7
 70
     1
102
RTVSPropertyOp8
 70
     1
102
RTVSPropertyOp9
 70
     1
102
RTVSPropertyOp10
 70
     1
102
RTVSPropertyOp11
 70
     1
102
RTVSPropertyOp12
 70
     1
102
RTVSPropertyOp13
 70
     1
102
RTVSPropertyOp14
 70
     1
102
RTVSPropertyOp15
 70
     1
102
RTVSPropertyOp16
 70
     1
102
RTVSPropertyOp17
 70
     1
102
RTVSPropertyOp18
 70
     1
102
RTVSPropertyOp19
 70
     1
102
RTVSPropertyOp20
 70
     1
102
RTVSPropertyOp21
 70
     1
102
RTVSPropertyOp22
 70
     1
102
RTVSPropertyOp23
 70
     1
102
RTVSPropertyOp24
 70
     1
102
RTVSPropertyOp25
 70
     1
102
RTVSPropertyOp26
 70
     1
102
RTVSPropertyOp27
 70
     1
  0
XRECORD
  5
1FA9
102
{ACAD_REACTORS
330
1FA8
102
}
330
1FA8
100
AcDbXrecord
280
     1
102
RTVSPropertyOp0
 70
     1
102
RTVSPropertyOp1
 70
     1
102
RTVSPropertyOp2
 70
     1
102
RTVSPropertyOp3
 70
     1
102
RTVSPropertyOp4
 70
     1
102
RTVSPropertyOp5
 70
     1
102
RTVSPropertyOp6
 70
     1
102
RTVSPropertyOp7
 70
     1
102
RTVSPropertyOp8
 70
     1
102
RTVSPropertyOp9
 70
     1
102
RTVSPropertyOp10
 70
     1
102
RTVSPropertyOp11
 70
     1
102
RTVSPropertyOp12
 70
     1
102
RTVSPropertyOp13
 70
     1
102
RTVSPropertyOp14
 70
     1
102
RTVSPropertyOp15
 70
     1
102
RTVSPropertyOp16
 70
     1
102
RTVSPropertyOp17
 70
     1
102
RTVSPropertyOp18
 70
     1
102
RTVSPropertyOp19
 70
     1
102
RTVSPropertyOp20
 70
     1
102
RTVSPropertyOp21
 70
     1
102
RTVSPropertyOp22
 70
     1
102
RTVSPropertyOp23
 70
     1
102
RTVSPropertyOp24
 70
     1
102
RTVSPropertyOp25
 70
     1
102
RTVSPropertyOp26
 70
     1
102
RTVSPropertyOp27
 70
     1
  0
XRECORD
  5
1FB9
102
{ACAD_REACTORS
330
1FB8
102
}
330
1FB8
100
AcDbXrecord
280
     1
102
RTVSPropertyOp0
 70
     0
102
RTVSPropertyOp1
 70
     0
102
RTVSPropertyOp2
 70
     0
102
RTVSPropertyOp3
 70
     0
102
RTVSPropertyOp4
 70
     0
102
RTVSPropertyOp5
 70
     0
102
RTVSPropertyOp6
 70
     0
102
RTVSPropertyOp7
 70
     0
102
RTVSPropertyOp8
 70
     0
102
RTVSPropertyOp9
 70
     0
102
RTVSPropertyOp10
 70
     0
102
RTVSPropertyOp11
 70
     0
102
RTVSPropertyOp12
 70
     0
102
RTVSPropertyOp13
 70
     0
102
RTVSPropertyOp14
 70
     2
102
RTVSPropertyOp15
 70
     0
102
RTVSPropertyOp16
 70
     0
102
RTVSPropertyOp17
 70
     0
102
RTVSPropertyOp18
 70
     0
102
RTVSPropertyOp19
 70
     0
102
RTVSPropertyOp20
 70
     0
102
RTVSPropertyOp21
 70
     0
102
RTVSPropertyOp22
 70
     0
102
RTVSPropertyOp23
 70
     0
102
RTVSPropertyOp24
 70
     0
102
RTVSPropertyOp25
 70
     0
102
RTVSPropertyOp26
 70
     0
102
RTVSPropertyOp27
 70
     0
  0
XRECORD
  5
1FB1
102
{ACAD_REACTORS
330
1FB0
102
}
330
1FB0
100
AcDbXrecord
280
     1
102
RTVSPropertyOp0
 70
     1
102
RTVSPropertyOp1
 70
     1
102
RTVSPropertyOp2
 70
     1
102
RTVSPropertyOp3
 70
     1
102
RTVSPropertyOp4
 70
     1
102
RTVSPropertyOp5
 70
     1
102
RTVSPropertyOp6
 70
     1
102
RTVSPropertyOp7
 70
     1
102
RTVSPropertyOp8
 70
     1
102
RTVSPropertyOp9
 70
     1
102
RTVSPropertyOp10
 70
     1
102
RTVSPropertyOp11
 70
     1
102
RTVSPropertyOp12
 70
     1
102
RTVSPropertyOp13
 70
     1
102
RTVSPropertyOp14
 70
     1
102
RTVSPropertyOp15
 70
     1
102
RTVSPropertyOp16
 70
     1
102
RTVSPropertyOp17
 70
     1
102
RTVSPropertyOp18
 70
     1
102
RTVSPropertyOp19
 70
     1
102
RTVSPropertyOp20
 70
     1
102
RTVSPropertyOp21
 70
     1
102
RTVSPropertyOp22
 70
     1
102
RTVSPropertyOp23
 70
     1
102
RTVSPropertyOp24
 70
     1
102
RTVSPropertyOp25
 70
     1
102
RTVSPropertyOp26
 70
     1
102
RTVSPropertyOp27
 70
     1
  0
XRECORD
  5
1F95
102
{ACAD_REACTORS
330
1F94
102
}
330
1F94
100
AcDbXrecord
280
     1
102
RTVSPropertyOp0
 70
     1
102
RTVSPropertyOp1
 70
     1
102
RTVSPropertyOp2
 70
     1
102
RTVSPropertyOp3
 70
     1
102
RTVSPropertyOp4
 70
     1
102
RTVSPropertyOp5
 70
     1
102
RTVSPropertyOp6
 70
     1
102
RTVSPropertyOp7
 70
     1
102
RTVSPropertyOp8
 70
     1
102
RTVSPropertyOp9
 70
     1
102
RTVSPropertyOp10
 70
     1
102
RTVSPropertyOp11
 70
     1
102
RTVSPropertyOp12
 70
     1
102
RTVSPropertyOp13
 70
     1
102
RTVSPropertyOp14
 70
     1
102
RTVSPropertyOp15
 70
     1
102
RTVSPropertyOp16
 70
     1
102
RTVSPropertyOp17
 70
     1
102
RTVSPropertyOp18
 70
     1
102
RTVSPropertyOp19
 70
     1
102
RTVSPropertyOp20
 70
     1
102
RTVSPropertyOp21
 70
     1
102
RTVSPropertyOp22
 70
     1
102
RTVSPropertyOp23
 70
     1
102
RTVSPropertyOp24
 70
     1
102
RTVSPropertyOp25
 70
     1
102
RTVSPropertyOp26
 70
     1
102
RTVSPropertyOp27
 70
     1
  0
XRECORD
  5
1F97
102
{ACAD_REACTORS
330
1F96
102
}
330
1F96
100
AcDbXrecord
280
     1
102
RTVSPropertyOp0
 70
     1
102
RTVSPropertyOp1
 70
     1
102
RTVSPropertyOp2
 70
     1
102
RTVSPropertyOp3
 70
     1
102
RTVSPropertyOp4
 70
     1
102
RTVSPropertyOp5
 70
     1
102
RTVSPropertyOp6
 70
     1
102
RTVSPropertyOp7
 70
     1
102
RTVSPropertyOp8
 70
     1
102
RTVSPropertyOp9
 70
     1
102
RTVSPropertyOp10
 70
     1
102
RTVSPropertyOp11
 70
     1
102
RTVSPropertyOp12
 70
     1
102
RTVSPropertyOp13
 70
     1
102
RTVSPropertyOp14
 70
     1
102
RTVSPropertyOp15
 70
     1
102
RTVSPropertyOp16
 70
     1
102
RTVSPropertyOp17
 70
     1
102
RTVSPropertyOp18
 70
     1
102
RTVSPropertyOp19
 70
     1
102
RTVSPropertyOp20
 70
     1
102
RTVSPropertyOp21
 70
     1
102
RTVSPropertyOp22
 70
     1
102
RTVSPropertyOp23
 70
     1
102
RTVSPropertyOp24
 70
     1
102
RTVSPropertyOp25
 70
     1
102
RTVSPropertyOp26
 70
     1
102
RTVSPropertyOp27
 70
     1
  0
XRECORD
  5
1F99
102
{ACAD_REACTORS
330
1F98
102
}
330
1F98
100
AcDbXrecord
280
     1
102
RTVSPropertyOp0
 70
     1
102
RTVSPropertyOp1
 70
     1
102
RTVSPropertyOp2
 70
     1
102
RTVSPropertyOp3
 70
     1
102
RTVSPropertyOp4
 70
     1
102
RTVSPropertyOp5
 70
     1
102
RTVSPropertyOp6
 70
     1
102
RTVSPropertyOp7
 70
     1
102
RTVSPropertyOp8
 70
     1
102
RTVSPropertyOp9
 70
     1
102
RTVSPropertyOp10
 70
     1
102
RTVSPropertyOp11
 70
     1
102
RTVSPropertyOp12
 70
     1
102
RTVSPropertyOp13
 70
     1
102
RTVSPropertyOp14
 70
     1
102
RTVSPropertyOp15
 70
     1
102
RTVSPropertyOp16
 70
     1
102
RTVSPropertyOp17
 70
     1
102
RTVSPropertyOp18
 70
     1
102
RTVSPropertyOp19
 70
     1
102
RTVSPropertyOp20
 70
     1
102
RTVSPropertyOp21
 70
     1
102
RTVSPropertyOp22
 70
     1
102
RTVSPropertyOp23
 70
     1
102
RTVSPropertyOp24
 70
     1
102
RTVSPropertyOp25
 70
     1
102
RTVSPropertyOp26
 70
     1
102
RTVSPropertyOp27
 70
     1
  0
XRECORD
  5
1F9B
102
{ACAD_REACTORS
330
1F9A
102
}
330
1F9A
100
AcDbXrecord
280
     1
102
RTVSPropertyOp0
 70
     1
102
RTVSPropertyOp1
 70
     1
102
RTVSPropertyOp2
 70
     1
102
RTVSPropertyOp3
 70
     1
102
RTVSPropertyOp4
 70
     1
102
RTVSPropertyOp5
 70
     1
102
RTVSPropertyOp6
 70
     1
102
RTVSPropertyOp7
 70
     1
102
RTVSPropertyOp8
 70
     1
102
RTVSPropertyOp9
 70
     1
102
RTVSPropertyOp10
 70
     1
102
RTVSPropertyOp11
 70
     1
102
RTVSPropertyOp12
 70
     1
102
RTVSPropertyOp13
 70
     1
102
RTVSPropertyOp14
 70
     1
102
RTVSPropertyOp15
 70
     1
102
RTVSPropertyOp16
 70
     1
102
RTVSPropertyOp17
 70
     1
102
RTVSPropertyOp18
 70
     1
102
RTVSPropertyOp19
 70
     1
102
RTVSPropertyOp20
 70
     1
102
RTVSPropertyOp21
 70
     1
102
RTVSPropertyOp22
 70
     1
102
RTVSPropertyOp23
 70
     1
102
RTVSPropertyOp24
 70
     1
102
RTVSPropertyOp25
 70
     1
102
RTVSPropertyOp26
 70
     1
102
RTVSPropertyOp27
 70
     1
  0
XRECORD
  5
1FB5
102
{ACAD_REACTORS
330
1FB4
102
}
330
1FB4
100
AcDbXrecord
280
     1
102
RTVSPropertyOp0
 70
     0
102
RTVSPropertyOp1
 70
     0
102
RTVSPropertyOp2
 70
     0
102
RTVSPropertyOp3
 70
     0
102
RTVSPropertyOp4
 70
     0
102
RTVSPropertyOp5
 70
     0
102
RTVSPropertyOp6
 70
     0
102
RTVSPropertyOp7
 70
     0
102
RTVSPropertyOp8
 70
     0
102
RTVSPropertyOp9
 70
     0
102
RTVSPropertyOp10
 70
     0
102
RTVSPropertyOp11
 70
     0
102
RTVSPropertyOp12
 70
     0
102
RTVSPropertyOp13
 70
     0
102
RTVSPropertyOp14
 70
     2
102
RTVSPropertyOp15
 70
     0
102
RTVSPropertyOp16
 70
     0
102
RTVSPropertyOp17
 70
     0
102
RTVSPropertyOp18
 70
     0
102
RTVSPropertyOp19
 70
     0
102
RTVSPropertyOp20
 70
     0
102
RTVSPropertyOp21
 70
     0
102
RTVSPropertyOp22
 70
     0
102
RTVSPropertyOp23
 70
     0
102
RTVSPropertyOp24
 70
     0
102
RTVSPropertyOp25
 70
     0
102
RTVSPropertyOp26
 70
     0
102
RTVSPropertyOp27
 70
     0
  0
XRECORD
  5
1FAF
102
{ACAD_REACTORS
330
1FAE
102
}
330
1FAE
100
AcDbXrecord
280
     1
102
RTVSPropertyOp0
 70
     1
102
RTVSPropertyOp1
 70
     1
102
RTVSPropertyOp2
 70
     1
102
RTVSPropertyOp3
 70
     1
102
RTVSPropertyOp4
 70
     1
102
RTVSPropertyOp5
 70
     1
102
RTVSPropertyOp6
 70
     1
102
RTVSPropertyOp7
 70
     1
102
RTVSPropertyOp8
 70
     1
102
RTVSPropertyOp9
 70
     1
102
RTVSPropertyOp10
 70
     1
102
RTVSPropertyOp11
 70
     1
102
RTVSPropertyOp12
 70
     1
102
RTVSPropertyOp13
 70
     1
102
RTVSPropertyOp14
 70
     1
102
RTVSPropertyOp15
 70
     1
102
RTVSPropertyOp16
 70
     1
102
RTVSPropertyOp17
 70
     1
102
RTVSPropertyOp18
 70
     1
102
RTVSPropertyOp19
 70
     1
102
RTVSPropertyOp20
 70
     1
102
RTVSPropertyOp21
 70
     1
102
RTVSPropertyOp22
 70
     1
102
RTVSPropertyOp23
 70
     1
102
RTVSPropertyOp24
 70
     1
102
RTVSPropertyOp25
 70
     1
102
RTVSPropertyOp26
 70
     1
102
RTVSPropertyOp27
 70
     1
  0
XRECORD
  5
1FB7
102
{ACAD_REACTORS
330
1FB6
102
}
330
1FB6
100
AcDbXrecord
280
     1
102
RTVSPropertyOp0
 70
     0
102
RTVSPropertyOp1
 70
     0
102
RTVSPropertyOp2
 70
     0
102
RTVSPropertyOp3
 70
     0
102
RTVSPropertyOp4
 70
     0
102
RTVSPropertyOp5
 70
     0
102
RTVSPropertyOp6
 70
     0
102
RTVSPropertyOp7
 70
     0
102
RTVSPropertyOp8
 70
     0
102
RTVSPropertyOp9
 70
     0
102
RTVSPropertyOp10
 70
     0
102
RTVSPropertyOp11
 70
     0
102
RTVSPropertyOp12
 70
     0
102
RTVSPropertyOp13
 70
     0
102
RTVSPropertyOp14
 70
     2
102
RTVSPropertyOp15
 70
     0
102
RTVSPropertyOp16
 70
     0
102
RTVSPropertyOp17
 70
     0
102
RTVSPropertyOp18
 70
     0
102
RTVSPropertyOp19
 70
     0
102
RTVSPropertyOp20
 70
     0
102
RTVSPropertyOp21
 70
     0
102
RTVSPropertyOp22
 70
     0
102
RTVSPropertyOp23
 70
     0
102
RTVSPropertyOp24
 70
     0
102
RTVSPropertyOp25
 70
     0
102
RTVSPropertyOp26
 70
     0
102
RTVSPropertyOp27
 70
     0
  0
XRECORD
  5
1FA7
102
{ACAD_REACTORS
330
1FA6
102
}
330
1FA6
100
AcDbXrecord
280
     1
102
RTVSPropertyOp0
 70
     1
102
RTVSPropertyOp1
 70
     1
102
RTVSPropertyOp2
 70
     1
102
RTVSPropertyOp3
 70
     1
102
RTVSPropertyOp4
 70
     1
102
RTVSPropertyOp5
 70
     1
102
RTVSPropertyOp6
 70
     1
102
RTVSPropertyOp7
 70
     1
102
RTVSPropertyOp8
 70
     1
102
RTVSPropertyOp9
 70
     1
102
RTVSPropertyOp10
 70
     1
102
RTVSPropertyOp11
 70
     1
102
RTVSPropertyOp12
 70
     1
102
RTVSPropertyOp13
 70
     1
102
RTVSPropertyOp14
 70
     1
102
RTVSPropertyOp15
 70
     1
102
RTVSPropertyOp16
 70
     1
102
RTVSPropertyOp17
 70
     1
102
RTVSPropertyOp18
 70
     1
102
RTVSPropertyOp19
 70
     1
102
RTVSPropertyOp20
 70
     1
102
RTVSPropertyOp21
 70
     1
102
RTVSPropertyOp22
 70
     1
102
RTVSPropertyOp23
 70
     1
102
RTVSPropertyOp24
 70
     1
102
RTVSPropertyOp25
 70
     1
102
RTVSPropertyOp26
 70
     1
102
RTVSPropertyOp27
 70
     1
  0
XRECORD
  5
1FAD
102
{ACAD_REACTORS
330
1FAC
102
}
330
1FAC
100
AcDbXrecord
280
     1
102
RTVSPropertyOp0
 70
     1
102
RTVSPropertyOp1
 70
     1
102
RTVSPropertyOp2
 70
     1
102
RTVSPropertyOp3
 70
     1
102
RTVSPropertyOp4
 70
     1
102
RTVSPropertyOp5
 70
     1
102
RTVSPropertyOp6
 70
     1
102
RTVSPropertyOp7
 70
     1
102
RTVSPropertyOp8
 70
     1
102
RTVSPropertyOp9
 70
     1
102
RTVSPropertyOp10
 70
     1
102
RTVSPropertyOp11
 70
     1
102
RTVSPropertyOp12
 70
     1
102
RTVSPropertyOp13
 70
     1
102
RTVSPropertyOp14
 70
     1
102
RTVSPropertyOp15
 70
     1
102
RTVSPropertyOp16
 70
     1
102
RTVSPropertyOp17
 70
     1
102
RTVSPropertyOp18
 70
     1
102
RTVSPropertyOp19
 70
     1
102
RTVSPropertyOp20
 70
     1
102
RTVSPropertyOp21
 70
     1
102
RTVSPropertyOp22
 70
     1
102
RTVSPropertyOp23
 70
     1
102
RTVSPropertyOp24
 70
     1
102
RTVSPropertyOp25
 70
     1
102
RTVSPropertyOp26
 70
     1
102
RTVSPropertyOp27
 70
     1
  0
ENDSEC
  0
EOF
