  0
SECTION
  2
HEADER
  9
$ACADVER
  1
AC1021
  9
$ACADMAINTVER
 70
    50
  9
$DWGCODEPAGE
  3
ANSI_1252
  9
$LASTSAVEDBY
  1
francoisbu
  9
$INSBASE
 10
0.0
 20
0.0
 30
0.0
  9
$EXTMIN
 10
16.90158126436705
 20
25.51806670913766
 30
-0.0015258207003583
  9
$EXTMAX
 10
76.92309601052596
 20
46.5190431594861
 30
0.0000000349246037
  9
$LIMMIN
 10
0.0
 20
0.0
  9
$LIMMAX
 10
181.3333333333
 20
117.3333333333
  9
$ORTHOMODE
 70
     0
  9
$REGENMODE
 70
     1
  9
$FILLMODE
 70
     1
  9
$QTEXTMODE
 70
     0
  9
$MIRRTEXT
 70
     0
  9
$LTSCALE
 40
9.973333333300001
  9
$ATTMODE
 70
     1
  9
$TEXTSIZE
 40
0.2
  9
$TRACEWID
 40
0.05
  9
$TEXTSTYLE
  7
STANDARD
  9
$CLAYER
  8
0
  9
$CELTYPE
  6
BYLAYER
  9
$CECOLOR
 62
   256
  9
$CELTSCALE
 40
1.0
  9
$DISPSILH
 70
     0
  9
$DIMSCALE
 40
1.0
  9
$DIMASZ
 40
2.0
  9
$DIMEXO
 40
0.0625
  9
$DIMDLI
 40
6.890666666699999
  9
$DIMRND
 40
0.0
  9
$DIMDLE
 40
0.0
  9
$DIMEXE
 40
0.125
  9
$DIMTP
 40
0.00001
  9
$DIMTM
 40
0.00001
  9
$DIMTXT
 40
1.333333333299999
  9
$DIMCEN
 40
1.631999999999999
  9
$DIMTSZ
 40
0.0
  9
$DIMTOL
 70
     1
  9
$DIMLIM
 70
     0
  9
$DIMTIH
 70
     1
  9
$DIMTOH
 70
     1
  9
$DIMSE1
 70
     0
  9
$DIMSE2
 70
     0
  9
$DIMTAD
 70
     0
  9
$DIMZIN
 70
     0
  9
$DIMBLK
  1
_FILLED
  9
$DIMASO
 70
     1
  9
$DIMSHO
 70
     1
  9
$DIMPOST
  1

  9
$DIMAPOST
  1

  9
$DIMALT
 70
     0
  9
$DIMALTD
 70
     2
  9
$DIMALTF
 40
25.4
  9
$DIMLFAC
 40
1.0
  9
$DIMTOFL
 70
     0
  9
$DIMTVP
 40
0.0
  9
$DIMTIX
 70
     0
  9
$DIMSOXD
 70
     0
  9
$DIMSAH
 70
     0
  9
$DIMBLK1
  1

  9
$DIMBLK2
  1

  9
$DIMSTYLE
  2
STANDARD
  9
$DIMCLRD
 70
     0
  9
$DIMCLRE
 70
     0
  9
$DIMCLRT
 70
     0
  9
$DIMTFAC
 40
1.0
  9
$DIMGAP
 40
0.09
  9
$DIMJUST
 70
     0
  9
$DIMSD1
 70
     0
  9
$DIMSD2
 70
     0
  9
$DIMTOLJ
 70
     1
  9
$DIMTZIN
 70
     0
  9
$DIMALTZ
 70
     0
  9
$DIMALTTZ
 70
     0
  9
$DIMUPT
 70
     0
  9
$DIMDEC
 70
     4
  9
$DIMTDEC
 70
     4
  9
$DIMALTU
 70
     2
  9
$DIMALTTD
 70
     2
  9
$DIMTXSTY
  7
STANDARD
  9
$DIMAUNIT
 70
     0
  9
$DIMADEC
 70
     0
  9
$DIMALTRND
 40
0.0
  9
$DIMAZIN
 70
     0
  9
$DIMDSEP
 70
    46
  9
$DIMATFIT
 70
     3
  9
$DIMFRAC
 70
     0
  9
$DIMLDRBLK
  1

  9
$DIMLUNIT
 70
     2
  9
$DIMLWD
 70
    -2
  9
$DIMLWE
 70
    -2
  9
$DIMTMOVE
 70
     0
  9
$DIMFXL
 40
1.0
  9
$DIMFXLON
 70
     0
  9
$DIMJOGANG
 40
0.7853981633974483
  9
$DIMTFILL
 70
     0
  9
$DIMTFILLCLR
 70
     0
  9
$DIMARCSYM
 70
     0
  9
$DIMLTYPE
  6

  9
$DIMLTEX1
  6

  9
$DIMLTEX2
  6

  9
$LUNITS
 70
     2
  9
$LUPREC
 70
     4
  9
$SKETCHINC
 40
0.1
  9
$FILLETRAD
 40
0.0
  9
$AUNITS
 70
     0
  9
$AUPREC
 70
     0
  9
$MENU
  1
.
  9
$ELEVATION
 40
0.0
  9
$PELEVATION
 40
0.0
  9
$THICKNESS
 40
0.0
  9
$LIMCHECK
 70
     0
  9
$CHAMFERA
 40
0.0
  9
$CHAMFERB
 40
0.0
  9
$CHAMFERC
 40
0.0
  9
$CHAMFERD
 40
0.0
  9
$SKPOLY
 70
     0
  9
$TDCREATE
 40
2456616.505667766
  9
$TDUCREATE
 40
2456616.672334433
  9
$TDUPDATE
 40
2456786.546815521
  9
$TDUUPDATE
 40
2456786.713482188
  9
$TDINDWG
 40
0.0053511343
  9
$TDUSRTIMER
 40
0.0053511343
  9
$USRTIMER
 70
     1
  9
$ANGBASE
 50
0.0
  9
$ANGDIR
 70
     0
  9
$PDMODE
 70
     3
  9
$PDSIZE
 40
0.03125
  9
$PLINEWID
 40
0.0
  9
$SPLFRAME
 70
     0
  9
$SPLINETYPE
 70
     6
  9
$SPLINESEGS
 70
     8
  9
$HANDSEED
  5
21B2
  9
$SURFTAB1
 70
     6
  9
$SURFTAB2
 70
     6
  9
$SURFTYPE
 70
     6
  9
$SURFU
 70
     6
  9
$SURFV
 70
     6
  9
$UCSBASE
  2

  9
$UCSNAME
  2

  9
$UCSORG
 10
0.0
 20
0.0
 30
0.0
  9
$UCSXDIR
 10
1.0
 20
0.0
 30
0.0
  9
$UCSYDIR
 10
0.0
 20
1.0
 30
0.0
  9
$UCSORTHOREF
  2

  9
$UCSORTHOVIEW
 70
     0
  9
$UCSORGTOP
 10
0.0
 20
0.0
 30
0.0
  9
$UCSORGBOTTOM
 10
0.0
 20
0.0
 30
0.0
  9
$UCSORGLEFT
 10
0.0
 20
0.0
 30
0.0
  9
$UCSORGRIGHT
 10
0.0
 20
0.0
 30
0.0
  9
$UCSORGFRONT
 10
0.0
 20
0.0
 30
0.0
  9
$UCSORGBACK
 10
0.0
 20
0.0
 30
0.0
  9
$PUCSBASE
  2

  9
$PUCSNAME
  2

  9
$PUCSORG
 10
0.0
 20
0.0
 30
0.0
  9
$PUCSXDIR
 10
1.0
 20
0.0
 30
0.0
  9
$PUCSYDIR
 10
0.0
 20
1.0
 30
0.0
  9
$PUCSORTHOREF
  2

  9
$PUCSORTHOVIEW
 70
     0
  9
$PUCSORGTOP
 10
0.0
 20
0.0
 30
0.0
  9
$PUCSORGBOTTOM
 10
0.0
 20
0.0
 30
0.0
  9
$PUCSORGLEFT
 10
0.0
 20
0.0
 30
0.0
  9
$PUCSORGRIGHT
 10
0.0
 20
0.0
 30
0.0
  9
$PUCSORGFRONT
 10
0.0
 20
0.0
 30
0.0
  9
$PUCSORGBACK
 10
0.0
 20
0.0
 30
0.0
  9
$USERI1
 70
     0
  9
$USERI2
 70
     0
  9
$USERI3
 70
     0
  9
$USERI4
 70
     0
  9
$USERI5
 70
     0
  9
$USERR1
 40
0.0
  9
$USERR2
 40
0.0
  9
$USERR3
 40
0.0
  9
$USERR4
 40
0.0
  9
$USERR5
 40
0.0
  9
$WORLDVIEW
 70
     1
  9
$SHADEDGE
 70
     3
  9
$SHADEDIF
 70
    70
  9
$TILEMODE
 70
     1
  9
$MAXACTVP
 70
    64
  9
$PINSBASE
 10
0.0
 20
0.0
 30
0.0
  9
$PLIMCHECK
 70
     0
  9
$PEXTMIN
 10
1.000000000000000E+20
 20
1.000000000000000E+20
 30
1.000000000000000E+20
  9
$PEXTMAX
 10
-1.000000000000000E+20
 20
-1.000000000000000E+20
 30
-1.000000000000000E+20
  9
$PLIMMIN
 10
0.0
 20
0.0
  9
$PLIMMAX
 10
12.0
 20
9.0
  9
$UNITMODE
 70
     0
  9
$VISRETAIN
 70
     1
  9
$PLINEGEN
 70
     0
  9
$PSLTSCALE
 70
     1
  9
$TREEDEPTH
 70
  3020
  9
$CMLSTYLE
  2
Standard
  9
$CMLJUST
 70
     0
  9
$CMLSCALE
 40
1.0
  9
$PROXYGRAPHICS
 70
     1
  9
$MEASUREMENT
 70
     0
  9
$CELWEIGHT
370
    -1
  9
$ENDCAPS
280
     0
  9
$JOINSTYLE
280
     0
  9
$LWDISPLAY
290
     0
  9
$INSUNITS
 70
     1
  9
$HYPERLINKBASE
  1

  9
$STYLESHEET
  1

  9
$XEDIT
290
     1
  9
$CEPSNTYPE
380
     0
  9
$PSTYLEMODE
290
     1
  9
$FINGERPRINTGUID
  2
{2E8BB179-56D8-46A4-80C1-5C71BB4E597A}
  9
$VERSIONGUID
  2
{090362DD-B5C0-4575-9389-7A8CF6AECE4D}
  9
$EXTNAMES
290
     1
  9
$PSVPSCALE
 40
0.0
  9
$OLESTARTUP
290
     0
  9
$SORTENTS
280
   127
  9
$INDEXCTL
280
     0
  9
$HIDETEXT
280
     0
  9
$XCLIPFRAME
290
     0
  9
$HALOGAP
280
     0
  9
$OBSCOLOR
 70
   257
  9
$OBSLTYPE
280
     0
  9
$INTERSECTIONDISPLAY
280
     0
  9
$INTERSECTIONCOLOR
 70
   257
  9
$DIMASSOC
280
     1
  9
$PROJECTNAME
  1

  9
$CAMERADISPLAY
290
     0
  9
$LENSLENGTH
 40
50.0
  9
$CAMERAHEIGHT
 40
0.0
  9
$STEPSPERSEC
 40
2.0
  9
$STEPSIZE
 40
6.0
  9
$3DDWFPREC
 40
2.0
  9
$PSOLWIDTH
 40
0.25
  9
$PSOLHEIGHT
 40
4.0
  9
$LOFTANG1
 40
1.570796326794896
  9
$LOFTANG2
 40
1.570796326794896
  9
$LOFTMAG1
 40
0.0
  9
$LOFTMAG2
 40
0.0
  9
$LOFTPARAM
 70
     7
  9
$LOFTNORMALS
280
     1
  9
$LATITUDE
 40
37.795
  9
$LONGITUDE
 40
-122.394
  9
$NORTHDIRECTION
 40
0.0
  9
$TIMEZONE
 70
 -8000
  9
$LIGHTGLYPHDISPLAY
280
     1
  9
$TILEMODELIGHTSYNCH
280
     1
  9
$CMATERIAL
347
19BD
  9
$SOLIDHIST
280
     1
  9
$SHOWHIST
280
     1
  9
$DWFFRAME
280
     2
  9
$DGNFRAME
280
     0
  9
$REALWORLDSCALE
290
     1
  9
$INTERFERECOLOR
 62
     1
  9
$INTERFEREOBJVS
345
19DF
  9
$INTERFEREVPVS
346
19DC
  9
$CSHADOW
280
     0
  9
$SHADOWPLANELOCATION
 40
0.0
  0
ENDSEC
  0
SECTION
  2
CLASSES
  0
CLASS
  1
ACDBDICTIONARYWDFLT
  2
AcDbDictionaryWithDefault
  3
ObjectDBX Classes
 90
        0
 91
        1
280
     0
281
     0
  0
CLASS
  1
MATERIAL
  2
AcDbMaterial
  3
ObjectDBX Classes
 90
     1153
 91
        3
280
     0
281
     0
  0
CLASS
  1
VISUALSTYLE
  2
AcDbVisualStyle
  3
ObjectDBX Classes
 90
     4095
 91
       19
280
     0
281
     0
  0
CLASS
  1
TABLESTYLE
  2
AcDbTableStyle
  3
ObjectDBX Classes
 90
     4095
 91
        1
280
     0
281
     0
  0
CLASS
  1
SCALE
  2
AcDbScale
  3
ObjectDBX Classes
 90
     1153
 91
       33
280
     0
281
     0
  0
CLASS
  1
MLEADERSTYLE
  2
AcDbMLeaderStyle
  3
ACDB_MLEADERSTYLE_CLASS
 90
     4095
 91
        1
280
     0
281
     0
  0
CLASS
  1
CELLSTYLEMAP
  2
AcDbCellStyleMap
  3
ObjectDBX Classes
 90
     1152
 91
        3
280
     0
281
     0
  0
CLASS
  1
DICTIONARYVAR
  2
AcDbDictionaryVar
  3
ObjectDBX Classes
 90
        0
 91
       15
280
     0
281
     0
  0
ENDSEC
  0
SECTION
  2
TABLES
  0
TABLE
  2
VPORT
  5
8
102
{ACAD_XDICTIONARY
360
1A15
102
}
330
0
100
AcDbSymbolTable
 70
     1
  0
VPORT
  5
1F4
330
8
100
AcDbSymbolTableRecord
100
AcDbViewportTableRecord
  2
*ACTIVE
 70
     0
 10
0.0
 20
0.0
 11
1.0
 21
1.0
 12
46.91233863744652
 22
36.01855493431188
 13
0.0
 23
0.0
 14
1.0
 24
1.0
 15
0.0
 25
0.0
 16
0.0
 26
0.0
 36
1.0
 17
0.0
 27
0.0
 37
0.0
 40
34.14572854832617
 41
1.765217391304347
 42
50.0
 43
0.0
 44
0.0
 50
0.0
 51
0.0
 71
     0
 72
   100
 73
     1
 74
     1
 75
     0
 76
     0
 77
     0
 78
     0
281
     0
 65
     1
110
0.0
120
0.0
130
0.0
111
1.0
121
0.0
131
0.0
112
0.0
122
1.0
132
0.0
 79
     0
146
0.0
348
19DB
 60
     3
 61
     5
292
     1
282
     1
141
0.0
142
0.0
 63
   250
421
  3355443
  0
ENDTAB
  0
TABLE
  2
LTYPE
  5
5
330
0
100
AcDbSymbolTable
 70
     6
  0
LTYPE
  5
14
330
5
100
AcDbSymbolTableRecord
100
AcDbLinetypeTableRecord
  2
BYBLOCK
 70
     0
  3

 72
    65
 73
     0
 40
0.0
  0
LTYPE
  5
15
330
5
100
AcDbSymbolTableRecord
100
AcDbLinetypeTableRecord
  2
BYLAYER
 70
     0
  3

 72
    65
 73
     0
 40
0.0
  0
LTYPE
  5
16
330
5
100
AcDbSymbolTableRecord
100
AcDbLinetypeTableRecord
  2
CONTINUOUS
 70
     0
  3
Solid line
 72
    65
 73
     0
 40
0.0
  0
LTYPE
  5
1F5
330
5
100
AcDbSymbolTableRecord
100
AcDbLinetypeTableRecord
  2
CENTER
 70
     0
  3
____ _ ____ _ ____ _ ____ _ ____ _ ____ _ ____
 72
    65
 73
     4
 40
0.6
 49
0.375
 74
     0
 49
-0.075
 74
     0
 49
0.075
 74
     0
 49
-0.075
 74
     0
  0
LTYPE
  5
1F6
330
5
100
AcDbSymbolTableRecord
100
AcDbLinetypeTableRecord
  2
HIDDEN
 70
     0
  3
- - - - - - - - - - - - - - - - - - - -
 72
    65
 73
     2
 40
0.2
 49
0.1
 74
     0
 49
-0.1
 74
     0
  0
LTYPE
  5
1F7
330
5
100
AcDbSymbolTableRecord
100
AcDbLinetypeTableRecord
  2
PHANTOM
 70
     0
  3
_____ _ _ _____ _ _ _____ _ _ _____
 72
    65
 73
     6
 40
0.8
 49
0.45
 74
     0
 49
-0.05
 74
     0
 49
0.1
 74
     0
 49
-0.05
 74
     0
 49
0.1
 74
     0
 49
-0.05
 74
     0
  0
LTYPE
  5
1F8
330
5
100
AcDbSymbolTableRecord
100
AcDbLinetypeTableRecord
  2
DOT
 70
     0
  3
. . . . . . . . . . . . . . . . . . . .
 72
    65
 73
     2
 40
0.2
 49
0.1
 74
     0
 49
-0.1
 74
     0
  0
LTYPE
  5
1F9
330
5
100
AcDbSymbolTableRecord
100
AcDbLinetypeTableRecord
  2
DASHED
 70
     0
  3
- - - - - - - - - - - - - - - - - - - -
 72
    65
 73
     2
 40
0.2
 49
0.1
 74
     0
 49
-0.1
 74
     0
  0
ENDTAB
  0
TABLE
  2
LAYER
  5
2
330
0
100
AcDbSymbolTable
 70
    19
  0
LAYER
  5
10
102
{ACAD_XDICTIONARY
360
1A55
102
}
330
2
100
AcDbSymbolTableRecord
100
AcDbLayerTableRecord
  2
0
 70
     0
 62
     7
  6
CONTINUOUS
370
    -3
390
F
347
19CD
  0
LAYER
  5
1FA
102
{ACAD_XDICTIONARY
360
1A57
102
}
330
2
100
AcDbSymbolTableRecord
100
AcDbLayerTableRecord
  2
DEFAULT_1
 70
     0
 62
     7
  6
CENTER
370
    -3
390
F
347
19CD
  0
LAYER
  5
1FB
102
{ACAD_XDICTIONARY
360
1A59
102
}
330
2
100
AcDbSymbolTableRecord
100
AcDbLayerTableRecord
  2
DEFAULT_2
 70
     0
 62
     7
  6
HIDDEN
370
    -3
390
F
347
19CD
  0
LAYER
  5
1FC
102
{ACAD_XDICTIONARY
360
1A5B
102
}
330
2
100
AcDbSymbolTableRecord
100
AcDbLayerTableRecord
  2
DEFAULT_3
 70
     0
 62
     7
  6
PHANTOM
370
    -3
390
F
347
19CD
  0
LAYER
  5
1FD
102
{ACAD_XDICTIONARY
360
1A5D
102
}
330
2
100
AcDbSymbolTableRecord
100
AcDbLayerTableRecord
  2
1_CURVES
 70
     0
 62
     7
  6
CONTINUOUS
370
    -3
390
F
347
19CD
  0
LAYER
  5
1FE
102
{ACAD_XDICTIONARY
360
1A5F
102
}
330
2
100
AcDbSymbolTableRecord
100
AcDbLayerTableRecord
  2
1_CURVES_SPEC
 70
     0
 62
     7
  6
CONTINUOUS
370
    -3
390
F
347
19CD
  0
LAYER
  5
1FF
102
{ACAD_XDICTIONARY
360
1A61
102
}
330
2
100
AcDbSymbolTableRecord
100
AcDbLayerTableRecord
  2
1_CURVES_ZONE-ROBINETERIE
 70
     0
 62
     7
  6
CONTINUOUS
370
    -3
390
F
347
19CD
  0
LAYER
  5
200
102
{ACAD_XDICTIONARY
360
1A63
102
}
330
2
100
AcDbSymbolTableRecord
100
AcDbLayerTableRecord
  2
2_PLANES
 70
     0
 62
     7
  6
CONTINUOUS
370
    -3
390
F
347
19CD
  0
LAYER
  5
201
102
{ACAD_XDICTIONARY
360
1A65
102
}
330
2
100
AcDbSymbolTableRecord
100
AcDbLayerTableRecord
  2
3_POINTS
 70
     0
 62
     7
  6
CONTINUOUS
370
    -3
390
F
347
19CD
  0
LAYER
  5
202
102
{ACAD_XDICTIONARY
360
1A67
102
}
330
2
100
AcDbSymbolTableRecord
100
AcDbLayerTableRecord
  2
4_CSYS
 70
     0
 62
     7
  6
CONTINUOUS
370
    -3
390
F
347
19CD
  0
LAYER
  5
203
102
{ACAD_XDICTIONARY
360
1A69
102
}
330
2
100
AcDbSymbolTableRecord
100
AcDbLayerTableRecord
  2
5_AXIS
 70
     0
 62
     7
  6
CONTINUOUS
370
    -3
390
F
347
19CD
  0
LAYER
  5
204
102
{ACAD_XDICTIONARY
360
1A6B
102
}
330
2
100
AcDbSymbolTableRecord
100
AcDbLayerTableRecord
  2
6_SURFACES
 70
     0
 62
     7
  6
CONTINUOUS
370
    -3
390
F
347
19CD
  0
LAYER
  5
205
102
{ACAD_XDICTIONARY
360
1A6D
102
}
330
2
100
AcDbSymbolTableRecord
100
AcDbLayerTableRecord
  2
6_SURFACES_BAIN_DROIT
 70
     0
 62
     7
  6
CONTINUOUS
370
    -3
390
F
347
19CD
  0
LAYER
  5
206
102
{ACAD_XDICTIONARY
360
1A6F
102
}
330
2
100
AcDbSymbolTableRecord
100
AcDbLayerTableRecord
  2
6_SURFACES_BAIN_GAUCHE
 70
     0
 62
     7
  6
CONTINUOUS
370
    -3
390
F
347
19CD
  0
LAYER
  5
207
102
{ACAD_XDICTIONARY
360
1A71
102
}
330
2
100
AcDbSymbolTableRecord
100
AcDbLayerTableRecord
  2
6_SURFACES_OFFSET-FIBRE
 70
     0
 62
     7
  6
CONTINUOUS
370
    -3
390
F
347
19CD
  0
LAYER
  5
208
102
{ACAD_XDICTIONARY
360
1A73
102
}
330
2
100
AcDbSymbolTableRecord
100
AcDbLayerTableRecord
  2
6_SURFACES_TOOLING
 70
     0
 62
     7
  6
CONTINUOUS
370
    -3
390
F
347
19CD
  0
LAYER
  5
209
102
{ACAD_XDICTIONARY
360
1A75
102
}
330
2
100
AcDbSymbolTableRecord
100
AcDbLayerTableRecord
  2
7_NOTES
 70
     0
 62
     7
  6
CONTINUOUS
370
    -3
390
F
347
19CD
  0
LAYER
  5
20A
102
{ACAD_XDICTIONARY
360
1A77
102
}
330
2
100
AcDbSymbolTableRecord
100
AcDbLayerTableRecord
  2
XSEC_DATUMS
 70
     0
 62
     7
  6
CONTINUOUS
370
    -3
390
F
347
19CD
  0
LAYER
  5
2191
330
2
100
AcDbSymbolTableRecord
100
AcDbLayerTableRecord
  2
Defpoints
 70
     0
 62
     7
  6
CONTINUOUS
290
     0
370
    -3
390
F
347
19CD
  0
ENDTAB
  0
TABLE
  2
STYLE
  5
3
330
0
100
AcDbSymbolTable
 70
     8
  0
STYLE
  5
11
330
3
100
AcDbSymbolTableRecord
100
AcDbTextStyleTableRecord
  2
STANDARD
 70
     0
 40
0.0
 41
0.8
 50
0.0
 71
     0
 42
0.2
  3
txt
  4

  0
STYLE
  5
20B
330
3
100
AcDbSymbolTableRecord
100
AcDbTextStyleTableRecord
  2
TEXTSTYLE_1
 70
     0
 40
0.0
 41
0.8
 50
0.0
 71
     0
 42
0.2
  3
gdt
  4

  0
STYLE
  5
20C
330
3
100
AcDbSymbolTableRecord
100
AcDbTextStyleTableRecord
  2
TEXTSTYLE_2
 70
     0
 40
0.0
 41
1.0
 50
0.0
 71
     0
 42
0.2
  3
trium.ttf
  4

  0
STYLE
  5
20D
330
3
100
AcDbSymbolTableRecord
100
AcDbTextStyleTableRecord
  2
TEXTSTYLE_3
 70
     0
 40
0.0
 41
1.0
 50
0.0
 71
     0
 42
0.2
  3
trium.ttf
  4

  0
STYLE
  5
20E
330
3
100
AcDbSymbolTableRecord
100
AcDbTextStyleTableRecord
  2
TEXTSTYLE_4
 70
     0
 40
0.0
 41
1.0
 50
0.0
 71
     0
 42
0.2
  3
txt_____.ttf
  4

1001
ACAD
1000
txt
1071
        2
  0
STYLE
  5
20F
330
3
100
AcDbSymbolTableRecord
100
AcDbTextStyleTableRecord
  2
TEXTSTYLE_5
 70
     0
 40
0.0
 41
1.0
 50
0.0
 71
     0
 42
0.2
  3
txt_____.ttf
  4

1001
ACAD
1000
txt
1071
        2
  0
STYLE
  5
210
330
3
100
AcDbSymbolTableRecord
100
AcDbTextStyleTableRecord
  2
TEXTSTYLE_6
 70
     0
 40
0.0
 41
1.0
 50
0.0
 71
     0
 42
0.2
  3
trium.ttf
  4

  0
STYLE
  5
211
330
3
100
AcDbSymbolTableRecord
100
AcDbTextStyleTableRecord
  2
TEXTSTYLE_7
 70
     0
 40
0.0
 41
0.8
 50
0.0
 71
     0
 42
0.2
  3
txt_____.ttf
  4

1001
ACAD
1000
txt
1071
        2
  0
ENDTAB
  0
TABLE
  2
VIEW
  5
6
330
0
100
AcDbSymbolTable
 70
     0
  0
ENDTAB
  0
TABLE
  2
UCS
  5
7
330
0
100
AcDbSymbolTable
 70
     0
  0
ENDTAB
  0
TABLE
  2
APPID
  5
9
330
0
100
AcDbSymbolTable
 70
     2
  0
APPID
  5
212
330
9
100
AcDbSymbolTableRecord
100
AcDbRegAppTableRecord
  2
ACAD
 70
     0
  0
APPID
  5
1A45
330
9
100
AcDbSymbolTableRecord
100
AcDbRegAppTableRecord
  2
ACAD_MLEADERVER
 70
     0
  0
ENDTAB
  0
TABLE
  2
DIMSTYLE
  5
A
330
0
100
AcDbSymbolTable
 70
     9
100
AcDbDimStyleTable
 71
     1
340
237
  0
DIMSTYLE
105
237
330
A
100
AcDbSymbolTableRecord
100
AcDbDimStyleTableRecord
  2
STANDARD
 70
     0
 41
2.0
 44
0.125
 47
0.00001
 48
0.00001
 71
     1
 78
     4
140
1.333333333299999
271
     5
272
     5
284
     4
340
11
341
215
342
215
343
215
344
215
  0
DIMSTYLE
105
238
330
A
100
AcDbSymbolTableRecord
100
AcDbDimStyleTableRecord
  2
DIMSTYLE_1
 70
     0
 41
2.0
 44
0.125
 47
0.00001
 48
0.00001
 78
     4
140
1.333333333299999
147
0.0625
271
     3
272
     3
284
     4
340
11
341
215
342
215
343
215
344
215
  0
DIMSTYLE
105
239
330
A
100
AcDbSymbolTableRecord
100
AcDbDimStyleTableRecord
  2
DIMSTYLE_2
 70
     0
 41
2.0
 44
0.125
 47
0.001
 48
0.001
 78
     4
140
1.333333333299999
147
0.0625
271
     3
272
     3
284
     4
340
11
341
215
342
215
343
215
344
215
  0
DIMSTYLE
105
23A
330
A
100
AcDbSymbolTableRecord
100
AcDbDimStyleTableRecord
  2
DIMSTYLE_3
 70
     0
 41
2.0
 44
0.125
 47
0.001
 48
0.001
 78
     4
140
1.333333333299999
147
0.0625
271
     2
272
     2
284
     4
340
11
341
215
342
215
343
215
344
215
  0
DIMSTYLE
105
23B
330
A
100
AcDbSymbolTableRecord
100
AcDbDimStyleTableRecord
  2
DIMSTYLE_4
 70
     0
 41
2.0
 44
0.125
 47
0.00001
 48
0.00001
 78
     4
140
1.333333333299999
147
0.0625
271
     2
272
     2
284
     4
340
11
341
215
342
215
343
215
344
215
  0
DIMSTYLE
105
23C
330
A
100
AcDbSymbolTableRecord
100
AcDbDimStyleTableRecord
  2
DIMSTYLE_5
 70
     0
 41
2.0
 44
0.125
 47
0.00001
 48
0.00001
 78
     4
140
1.333333333299999
147
0.0625
271
     6
272
     6
284
     4
340
11
341
215
342
215
343
215
344
215
  0
DIMSTYLE
105
23D
330
A
100
AcDbSymbolTableRecord
100
AcDbDimStyleTableRecord
  2
DIMSTYLE_6
 70
     0
 41
2.0
 44
0.125
 47
0.00001
 48
0.00001
 78
     4
140
1.333333333299999
147
0.0625
284
     4
340
11
341
215
342
215
343
215
344
215
  0
DIMSTYLE
105
23E
330
A
100
AcDbSymbolTableRecord
100
AcDbDimStyleTableRecord
  2
DIMSTYLE_7
 70
     0
 41
2.0
 44
0.125
 47
1.0
 48
1.0
 78
     4
140
1.333333333299999
271
     0
272
     0
284
     4
340
11
341
215
342
215
343
215
344
215
  0
DIMSTYLE
105
23F
330
A
100
AcDbSymbolTableRecord
100
AcDbDimStyleTableRecord
  2
DIMSTYLE_8
 70
     0
 41
2.0
 44
0.125
 47
0.00001
 48
0.00001
 78
     4
140
1.333333333299999
147
0.0625
271
     1
272
     1
284
     4
340
11
341
215
342
215
343
215
344
215
  0
ENDTAB
  0
TABLE
  2
BLOCK_RECORD
  5
1
330
0
100
AcDbSymbolTable
 70
    36
  0
BLOCK_RECORD
  5
213
330
1
100
AcDbSymbolTableRecord
100
AcDbBlockTableRecord
  2
*Model_Space
340
19B7
 70
     0
280
     1
281
     0
  0
BLOCK_RECORD
  5
214
330
1
100
AcDbSymbolTableRecord
100
AcDbBlockTableRecord
  2
*Paper_Space
340
19B8
 70
     0
280
     1
281
     0
  0
BLOCK_RECORD
  5
215
330
1
100
AcDbSymbolTableRecord
100
AcDbBlockTableRecord
  2
_FILLED
340
0
102
{BLKREFS
331
33C
331
33D
331
345
331
346
331
34E
331
34F
331
357
331
358
331
361
331
362
331
36B
331
36C
331
374
331
375
331
37D
331
37E
331
386
331
387
331
38F
331
390
331
398
331
399
331
3A1
331
3A2
331
3AA
331
3AB
331
3B3
331
3B4
331
3BD
331
3BE
331
3C6
331
3C7
331
3D0
331
3D1
331
3D9
331
3DA
331
3F2
331
3F3
331
3FB
331
3FC
331
405
331
406
331
219A
331
219B
102
}
 70
     0
280
     1
281
     0
  0
BLOCK_RECORD
  5
22D
330
1
100
AcDbSymbolTableRecord
100
AcDbBlockTableRecord
  2
SYMBOL_14_BL9
340
0
 70
     0
280
     1
281
     0
  0
BLOCK_RECORD
  5
22E
330
1
100
AcDbSymbolTableRecord
100
AcDbBlockTableRecord
  2
SYMBOL_12_BL8
340
0
 70
     0
280
     1
281
     0
  0
BLOCK_RECORD
  5
22F
330
1
100
AcDbSymbolTableRecord
100
AcDbBlockTableRecord
  2
SYMBOL_10_BL7
340
0
 70
     0
280
     1
281
     0
  0
BLOCK_RECORD
  5
230
330
1
100
AcDbSymbolTableRecord
100
AcDbBlockTableRecord
  2
SYMBOL_9_BL6
340
0
 70
     0
280
     1
281
     0
  0
BLOCK_RECORD
  5
231
330
1
100
AcDbSymbolTableRecord
100
AcDbBlockTableRecord
  2
SYMBOL_15_BL5
340
0
 70
     0
280
     1
281
     0
  0
BLOCK_RECORD
  5
232
330
1
100
AcDbSymbolTableRecord
100
AcDbBlockTableRecord
  2
SYMBOL_8_BL4
340
0
 70
     0
280
     1
281
     0
  0
BLOCK_RECORD
  5
233
330
1
100
AcDbSymbolTableRecord
100
AcDbBlockTableRecord
  2
SYMBOL_7_BL3
340
0
 70
     0
280
     1
281
     0
  0
BLOCK_RECORD
  5
234
330
1
100
AcDbSymbolTableRecord
100
AcDbBlockTableRecord
  2
SYMBOL_6_BL2
340
0
 70
     0
280
     1
281
     0
  0
BLOCK_RECORD
  5
235
330
1
100
AcDbSymbolTableRecord
100
AcDbBlockTableRecord
  2
SYMBOL_18_BL1
340
0
 70
     0
280
     1
281
     0
  0
BLOCK_RECORD
  5
236
330
1
100
AcDbSymbolTableRecord
100
AcDbBlockTableRecord
  2
SYMBOL_3_BL0
340
0
 70
     0
280
     1
281
     0
  0
BLOCK_RECORD
  5
2192
330
1
100
AcDbSymbolTableRecord
100
AcDbBlockTableRecord
  2
*D35
340
0
 70
     0
280
     1
281
     0
  0
ENDTAB
  0
ENDSEC
  0
SECTION
  2
BLOCKS
  0
BLOCK
  5
20
330
213
100
AcDbEntity
  8
0
100
AcDbBlockBegin
  2
*Model_Space
 70
     0
 10
0.0
 20
0.0
 30
0.0
  3
*Model_Space
  1

  0
ENDBLK
  5
21
330
213
100
AcDbEntity
  8
0
100
AcDbBlockEnd
  0
BLOCK
  5
1C
330
214
100
AcDbEntity
 67
     1
  8
0
100
AcDbBlockBegin
  2
*Paper_Space
 70
     0
 10
0.0
 20
0.0
 30
0.0
  3
*Paper_Space
  1

  0
ENDBLK
  5
1D
330
214
100
AcDbEntity
 67
     1
  8
0
100
AcDbBlockEnd
  0
BLOCK
  5
333
330
215
100
AcDbEntity
  8
0
100
AcDbBlockBegin
  2
_FILLED
 70
     0
 10
0.0
 20
0.0
 30
0.0
  3
_FILLED
  1

  0
SOLID
  5
334
330
215
100
AcDbEntity
  8
0
  6
ByBlock
 62
     0
100
AcDbTrace
 10
0.0
 20
0.0
 30
0.0
 11
-1.0
 21
0.1666666667
 31
0.0
 12
-1.0
 22
-0.1666666667
 32
0.0
 13
-1.0
 23
-0.1666666667
 33
0.0
  0
ENDBLK
  5
335
330
215
100
AcDbEntity
  8
0
  6
ByBlock
 62
     0
100
AcDbBlockEnd
  0
BLOCK
  5
240
330
22D
100
AcDbEntity
  8
0
  6
Continuous
 62
     7
100
AcDbBlockBegin
  2
SYMBOL_14_BL9
 70
     0
 10
170.0027219488
 20
86.35944116040001
 30
0.0
  3
SYMBOL_14_BL9
  1

  0
TEXT
  5
241
330
22D
100
AcDbEntity
  8
0
  6
Continuous
 62
     7
100
AcDbText
 10
169.4397587668
 20
85.69277423429999
 30
0.0
 40
1.333333852099999
  1
T
  7
TEXTSTYLE_2
100
AcDbText
  0
ELLIPSE
  5
242
330
22D
100
AcDbEntity
  8
0
  6
Continuous
 62
     7
100
AcDbEllipse
 10
170.0027219488
 20
86.35944116040001
 30
0.0
 11
-1.942887567899999
 21
0.0
 31
0.0
210
0.0
220
0.0
230
1.0
 40
0.6606458385
 41
0.0
 42
6.283185307179586
  0
ENDBLK
  5
243
330
22D
100
AcDbEntity
  8
0
  6
ByBlock
 62
     0
100
AcDbBlockEnd
  0
BLOCK
  5
244
330
22E
100
AcDbEntity
  8
0
  6
Continuous
 62
     7
100
AcDbBlockBegin
  2
SYMBOL_12_BL8
 70
     0
 10
168.3447525658
 20
73.984601065
 30
0.0
  3
SYMBOL_12_BL8
  1

  0
TEXT
  5
245
330
22E
100
AcDbEntity
  8
0
  6
Continuous
 62
     7
100
AcDbText
 10
168.5887695966
 20
73.07391710819999
 30
0.0
 40
1.333333852099999
  1
C
 50
60.0
  7
TEXTSTYLE_2
100
AcDbText
  0
ELLIPSE
  5
246
330
22E
100
AcDbEntity
  8
0
  6
Continuous
 62
     7
100
AcDbEllipse
 10
168.3447525658
 20
73.984601065
 30
0.0
 11
-0.9714437840000002
 21
-1.682589990499999
 31
0.0
210
0.0
220
0.0
230
1.0
 40
0.6606458385
 41
0.0
 42
6.283185307179586
  0
ENDBLK
  5
247
330
22E
100
AcDbEntity
  8
0
  6
ByBlock
 62
     0
100
AcDbBlockEnd
  0
BLOCK
  5
248
330
22F
100
AcDbEntity
  8
0
  6
Continuous
 62
     7
100
AcDbBlockBegin
  2
SYMBOL_10_BL7
 70
     0
 10
128.8478955889
 20
78.1148537092
 30
0.0
  3
SYMBOL_10_BL7
  1

  0
TEXT
  5
249
330
22F
100
AcDbEntity
  8
0
  6
Continuous
 62
     7
100
AcDbText
 10
128.2984203889
 20
77.44198136920001
 30
0.0
 40
1.333333852099999
  1
L
  7
TEXTSTYLE_2
100
AcDbText
  0
TEXT
  5
24A
330
22F
100
AcDbEntity
  8
0
  6
Continuous
 62
     7
100
AcDbText
 10
124.6138341106
 20
77.45439219720001
 30
0.0
 40
1.333333852099999
  1
7
  7
TEXTSTYLE_2
100
AcDbText
  0
TEXT
  5
24B
330
22F
100
AcDbEntity
  8
0
  6
Continuous
 62
     7
100
AcDbText
 10
132.0597344473
 20
77.45439219720001
 30
0.0
 40
1.333333852099999
  1
8
  7
TEXTSTYLE_2
100
AcDbText
  0
ELLIPSE
  5
24C
330
22F
100
AcDbEntity
  8
0
  6
Continuous
 62
     7
100
AcDbEllipse
 10
128.8268156562
 20
78.10864829519999
 30
0.0
 11
-1.942887567899999
 21
0.0
 31
0.0
210
0.0
220
0.0
230
1.0
 40
0.6606458385
 41
0.0
 42
6.283185307179586
  0
ENDBLK
  5
24D
330
22F
100
AcDbEntity
  8
0
  6
ByBlock
 62
     0
100
AcDbBlockEnd
  0
BLOCK
  5
24E
330
230
100
AcDbEntity
  8
0
  6
Continuous
 62
     7
100
AcDbBlockBegin
  2
SYMBOL_9_BL6
 70
     0
 10
150.8946497458
 20
94.04864969170001
 30
0.0
  3
SYMBOL_9_BL6
  1

  0
TEXT
  5
24F
330
230
100
AcDbEntity
  8
0
  6
Continuous
 62
     7
100
AcDbText
 10
150.3451745458
 20
93.3757773516
 30
0.0
 40
1.333333852099999
  1
L
  7
TEXTSTYLE_2
100
AcDbText
  0
TEXT
  5
250
330
230
100
AcDbEntity
  8
0
  6
Continuous
 62
     7
100
AcDbText
 10
146.1494769576
 20
93.38818817969999
 30
0.0
 40
1.333333852099999
  1
12
  7
TEXTSTYLE_2
100
AcDbText
  0
TEXT
  5
251
330
230
100
AcDbEntity
  8
0
  6
Continuous
 62
     7
100
AcDbText
 10
153.5953772943
 20
93.38818817969999
 30
0.0
 40
1.333333852099999
  1
13
  7
TEXTSTYLE_2
100
AcDbText
  0
ELLIPSE
  5
252
330
230
100
AcDbEntity
  8
0
  6
Continuous
 62
     7
100
AcDbEllipse
 10
150.8735698131
 20
94.04244427770001
 30
0.0
 11
-1.942887567899999
 21
0.0
 31
0.0
210
0.0
220
0.0
230
1.0
 40
0.6606458385
 41
0.0
 42
6.283185307179586
  0
ENDBLK
  5
253
330
230
100
AcDbEntity
  8
0
  6
ByBlock
 62
     0
100
AcDbBlockEnd
  0
BLOCK
  5
254
330
231
100
AcDbEntity
  8
0
  6
Continuous
 62
     7
100
AcDbBlockBegin
  2
SYMBOL_15_BL5
 70
     0
 10
18.4129286005
 20
86.29296027209999
 30
0.0
  3
SYMBOL_15_BL5
  1

  0
TEXT
  5
255
330
231
100
AcDbEntity
  8
0
  6
Continuous
 62
     7
100
AcDbText
 10
17.8499654185
 20
85.626293346
 30
0.0
 40
1.333333852099999
  1
T
  7
TEXTSTYLE_2
100
AcDbText
  0
ELLIPSE
  5
256
330
231
100
AcDbEntity
  8
0
  6
Continuous
 62
     7
100
AcDbEllipse
 10
18.4129286005
 20
86.29296027209999
 30
0.0
 11
-1.942887567899999
 21
0.0
 31
0.0
210
0.0
220
0.0
230
1.0
 40
0.6606458385
 41
0.0
 42
6.283185307179586
  0
ENDBLK
  5
257
330
231
100
AcDbEntity
  8
0
  6
ByBlock
 62
     0
100
AcDbBlockEnd
  0
BLOCK
  5
258
330
232
100
AcDbEntity
  8
0
  6
Continuous
 62
     7
100
AcDbBlockBegin
  2
SYMBOL_8_BL4
 70
     0
 10
37.3483830056
 20
78.14656650329999
 30
0.0
  3
SYMBOL_8_BL4
  1

  0
TEXT
  5
259
330
232
100
AcDbEntity
  8
0
  6
Continuous
 62
     7
100
AcDbText
 10
36.7989078056
 20
77.47369416329999
 30
0.0
 40
1.333333852099999
  1
L
  7
TEXTSTYLE_2
100
AcDbText
  0
TEXT
  5
25A
330
232
100
AcDbEntity
  8
0
  6
Continuous
 62
     7
100
AcDbText
 10
32.6032102174
 20
77.48610499129999
 30
0.0
 40
1.333333852099999
  1
13
  7
TEXTSTYLE_2
100
AcDbText
  0
TEXT
  5
25B
330
232
100
AcDbEntity
  8
0
  6
Continuous
 62
     7
100
AcDbText
 10
40.0491105541
 20
77.48610499129999
 30
0.0
 40
1.333333852099999
  1
12
  7
TEXTSTYLE_2
100
AcDbText
  0
ELLIPSE
  5
25C
330
232
100
AcDbEntity
  8
0
  6
Continuous
 62
     7
100
AcDbEllipse
 10
37.3273030729
 20
78.1403610893
 30
0.0
 11
-1.942887567899999
 21
0.0
 31
0.0
210
0.0
220
0.0
230
1.0
 40
0.6606458385
 41
0.0
 42
6.283185307179586
  0
ENDBLK
  5
25D
330
232
100
AcDbEntity
  8
0
  6
ByBlock
 62
     0
100
AcDbBlockEnd
  0
BLOCK
  5
25E
330
233
100
AcDbEntity
  8
0
  6
Continuous
 62
     7
100
AcDbBlockBegin
  2
SYMBOL_7_BL3
 70
     0
 10
61.5848740751
 20
94.2961038414
 30
0.0
  3
SYMBOL_7_BL3
  1

  0
TEXT
  5
25F
330
233
100
AcDbEntity
  8
0
  6
Continuous
 62
     7
100
AcDbText
 10
61.0353988751
 20
93.6232315013
 30
0.0
 40
1.333333852099999
  1
L
  7
TEXTSTYLE_2
100
AcDbText
  0
TEXT
  5
260
330
233
100
AcDbEntity
  8
0
  6
Continuous
 62
     7
100
AcDbText
 10
57.35081259680001
 20
93.6356423293
 30
0.0
 40
1.333333852099999
  1
8
  7
TEXTSTYLE_2
100
AcDbText
  0
TEXT
  5
261
330
233
100
AcDbEntity
  8
0
  6
Continuous
 62
     7
100
AcDbText
 10
64.7967129335
 20
93.6356423293
 30
0.0
 40
1.333333852099999
  1
7
  7
TEXTSTYLE_2
100
AcDbText
  0
ELLIPSE
  5
262
330
233
100
AcDbEntity
  8
0
  6
Continuous
 62
     7
100
AcDbEllipse
 10
61.56379414239999
 20
94.2898984273
 30
0.0
 11
-1.942887567899999
 21
0.0
 31
0.0
210
0.0
220
0.0
230
1.0
 40
0.6606458385
 41
0.0
 42
6.283185307179586
  0
ENDBLK
  5
263
330
233
100
AcDbEntity
  8
0
  6
ByBlock
 62
     0
100
AcDbBlockEnd
  0
BLOCK
  5
264
330
234
100
AcDbEntity
  8
0
  6
Continuous
 62
     7
100
AcDbBlockBegin
  2
SYMBOL_6_BL2
 70
     0
 10
20.4561293901
 20
96.87836373299999
 30
0.0
  3
SYMBOL_6_BL2
  1

  0
TEXT
  5
265
330
234
100
AcDbEntity
  8
0
  6
Continuous
 62
     7
100
AcDbText
 10
20.7001464209
 20
95.96767977610001
 30
0.0
 40
1.333333852099999
  1
C
 50
60.0
  7
TEXTSTYLE_2
100
AcDbText
  0
ELLIPSE
  5
266
330
234
100
AcDbEntity
  8
0
  6
Continuous
 62
     7
100
AcDbEllipse
 10
20.4561293901
 20
96.87836373299999
 30
0.0
 11
-0.9714437840000002
 21
-1.682589990499999
 31
0.0
210
0.0
220
0.0
230
1.0
 40
0.6606458385
 41
0.0
 42
6.283185307179586
  0
ENDBLK
  5
267
330
234
100
AcDbEntity
  8
0
  6
ByBlock
 62
     0
100
AcDbBlockEnd
  0
BLOCK
  5
268
330
235
100
AcDbEntity
  8
0
  6
Continuous
 62
     7
100
AcDbBlockBegin
  2
SYMBOL_18_BL1
 70
     0
 10
160.6666666667
 20
55.33333333329999
 30
0.0
  3
SYMBOL_18_BL1
  1

  0
TEXT
  5
269
330
235
100
AcDbEntity
  8
0
  6
Continuous
 62
     7
100
AcDbText
 10
144.4188815905
 20
63.10676672439999
 30
0.0
 40
0.5
  1
Infomations Techniques/Technical Infomations
  7
TEXTSTYLE_2
100
AcDbText
  0
TEXT
  5
26A
330
235
100
AcDbEntity
  8
0
  6
Continuous
 62
     7
100
AcDbText
 10
144.6666666667
 20
61.6666666667
 30
0.0
 40
0.6666666667
  1
NOMBRE DE JETS:     
  7
TEXTSTYLE_2
100
AcDbText
  0
TEXT
  5
26B
330
235
100
AcDbEntity
  8
0
  6
Continuous
 62
     7
100
AcDbText
 10
154.5111111111
 20
61.6666666667
 30
0.0
 40
0.6666666667
  1
36
  7
TEXTSTYLE_2
100
AcDbText
  0
TEXT
  5
26C
330
235
100
AcDbEntity
  8
0
  6
Continuous
 62
     7
100
AcDbText
 10
144.6666666667
 20
60.6666666667
 30
0.0
 40
0.6666666667
  1
 
  7
TEXTSTYLE_2
100
AcDbText
  0
TEXT
  5
26D
330
235
100
AcDbEntity
  8
0
  6
Continuous
 62
     7
100
AcDbText
 10
144.6666666667
 20
59.66666666670001
 30
0.0
 40
0.6666666667
  1
NIVEAU D'EAU              GALLONS(US)        LITRES        GALLONS(UK)
  7
TEXTSTYLE_2
100
AcDbText
  0
TEXT
  5
26E
330
235
100
AcDbEntity
  8
0
  6
Continuous
 62
     7
100
AcDbText
 10
144.6666666667
 20
58.6666666667
 30
0.0
 40
0.6666666667
  1
PLEIN
  7
TEXTSTYLE_2
100
AcDbText
  0
TEXT
  5
26F
330
235
100
AcDbEntity
  8
0
  6
Continuous
 62
     7
100
AcDbText
 10
144.6666666667
 20
57.6666666667
 30
0.0
 40
0.6666666667
  1
HAUT T.PLEIN
  7
TEXTSTYLE_2
100
AcDbText
  0
TEXT
  5
270
330
235
100
AcDbEntity
  8
0
  6
Continuous
 62
     7
100
AcDbText
 10
144.6666666667
 20
56.6666666667
 30
0.0
 40
0.6666666667
  1
MILIEU T.PLEIN
  7
TEXTSTYLE_2
100
AcDbText
  0
TEXT
  5
271
330
235
100
AcDbEntity
  8
0
  6
Continuous
 62
     7
100
AcDbText
 10
144.6666666667
 20
55.6666666667
 30
0.0
 40
0.6666666667
  1
BAS T.PLEIN
  7
TEXTSTYLE_2
100
AcDbText
  0
TEXT
  5
272
330
235
100
AcDbEntity
  8
0
  6
Continuous
 62
     7
100
AcDbText
 10
144.6666666667
 20
54.66666666670001
 30
0.0
 40
0.6666666667
  1
3" EN BAS T.PLEIN
  7
TEXTSTYLE_2
100
AcDbText
  0
TEXT
  5
273
330
235
100
AcDbEntity
  8
0
  6
Continuous
 62
     7
100
AcDbText
 10
144.6666666667
 20
53.6666666667
 30
0.0
 40
0.6666666667
  1
 
  7
TEXTSTYLE_2
100
AcDbText
  0
TEXT
  5
274
330
235
100
AcDbEntity
  8
0
  6
Continuous
 62
     7
100
AcDbText
 10
144.4665051611
 20
53.1198797418
 30
0.0
 40
0.5
  1
Legende/Legend
  7
TEXTSTYLE_2
100
AcDbText
  0
TEXT
  5
275
330
235
100
AcDbEntity
  8
0
  6
Continuous
 62
     7
100
AcDbText
 10
150.9953401051
 20
51.6086147641
 30
0.0
 40
0.6666666667
  1
ZONE DE ROBINETTERIE
  7
TEXTSTYLE_2
100
AcDbText
  0
TEXT
  5
276
330
235
100
AcDbEntity
  8
0
  6
Continuous
 62
     7
100
AcDbText
 10
145.9156155382
 20
50.1133702497
 30
0.0
 40
0.6666666667
  1
L   :  SYSTEME LED       DC   :  DOUBLE DOSSIER CHAUFFANT
  7
TEXTSTYLE_2
100
AcDbText
  0
TEXT
  5
277
330
235
100
AcDbEntity
  8
0
  6
Continuous
 62
     7
100
AcDbText
 10
145.9156155382
 20
48.7800369164
 30
0.0
 40
0.6666666667
  1
C   :  CONTROLE
  7
TEXTSTYLE_2
100
AcDbText
  0
TEXT
  5
278
330
235
100
AcDbEntity
  8
0
  6
Continuous
 62
     7
100
AcDbText
 10
145.9156155382
 20
47.4467035831
 30
0.0
 40
0.6666666667
  1
T   :  MOTEUR
  7
TEXTSTYLE_2
100
AcDbText
  0
TEXT
  5
279
330
235
100
AcDbEntity
  8
0
  6
Continuous
 62
     7
100
AcDbText
 10
157.499363366
 20
58.6666666667
 30
0.0
 40
0.6666666667
  1
69
  7
TEXTSTYLE_2
100
AcDbText
  0
TEXT
  5
27A
330
235
100
AcDbEntity
  8
0
  6
Continuous
 62
     7
100
AcDbText
 10
157.499363366
 20
57.6666666667
 30
0.0
 40
0.6666666667
  1
59
  7
TEXTSTYLE_2
100
AcDbText
  0
TEXT
  5
27B
330
235
100
AcDbEntity
  8
0
  6
Continuous
 62
     7
100
AcDbText
 10
157.499363366
 20
56.6666666667
 30
0.0
 40
0.6666666667
  1
54
  7
TEXTSTYLE_2
100
AcDbText
  0
TEXT
  5
27C
330
235
100
AcDbEntity
  8
0
  6
Continuous
 62
     7
100
AcDbText
 10
157.499363366
 20
55.6666666667
 30
0.0
 40
0.6666666667
  1
48
  7
TEXTSTYLE_2
100
AcDbText
  0
TEXT
  5
27D
330
235
100
AcDbEntity
  8
0
  6
Continuous
 62
     7
100
AcDbText
 10
157.499363366
 20
54.66666666670001
 30
0.0
 40
0.6666666667
  1
35
  7
TEXTSTYLE_2
100
AcDbText
  0
TEXT
  5
27E
330
235
100
AcDbEntity
  8
0
  6
Continuous
 62
     7
100
AcDbText
 10
164.4195693097
 20
58.68374606879999
 30
0.0
 40
0.6666666667
  1
262
  7
TEXTSTYLE_2
100
AcDbText
  0
TEXT
  5
27F
330
235
100
AcDbEntity
  8
0
  6
Continuous
 62
     7
100
AcDbText
 10
164.4195693097
 20
57.6837460688
 30
0.0
 40
0.6666666667
  1
223
  7
TEXTSTYLE_2
100
AcDbText
  0
TEXT
  5
280
330
235
100
AcDbEntity
  8
0
  6
Continuous
 62
     7
100
AcDbText
 10
164.4195693097
 20
56.6837460688
 30
0.0
 40
0.6666666667
  1
203
  7
TEXTSTYLE_2
100
AcDbText
  0
TEXT
  5
281
330
235
100
AcDbEntity
  8
0
  6
Continuous
 62
     7
100
AcDbText
 10
164.4195693097
 20
55.68374606879999
 30
0.0
 40
0.6666666667
  1
183
  7
TEXTSTYLE_2
100
AcDbText
  0
TEXT
  5
282
330
235
100
AcDbEntity
  8
0
  6
Continuous
 62
     7
100
AcDbText
 10
164.4195693097
 20
54.6837460688
 30
0.0
 40
0.6666666667
  1
134
  7
TEXTSTYLE_2
100
AcDbText
  0
TEXT
  5
283
330
235
100
AcDbEntity
  8
0
  6
Continuous
 62
     7
100
AcDbText
 10
171.3642082472
 20
58.6666666667
 30
0.0
 40
0.6666666667
  1
58
  7
TEXTSTYLE_2
100
AcDbText
  0
TEXT
  5
284
330
235
100
AcDbEntity
  8
0
  6
Continuous
 62
     7
100
AcDbText
 10
171.3642082472
 20
57.6666666667
 30
0.0
 40
0.6666666667
  1
49
  7
TEXTSTYLE_2
100
AcDbText
  0
TEXT
  5
285
330
235
100
AcDbEntity
  8
0
  6
Continuous
 62
     7
100
AcDbText
 10
171.3642082472
 20
56.6666666667
 30
0.0
 40
0.6666666667
  1
45
  7
TEXTSTYLE_2
100
AcDbText
  0
TEXT
  5
286
330
235
100
AcDbEntity
  8
0
  6
Continuous
 62
     7
100
AcDbText
 10
171.3642082472
 20
55.6666666667
 30
0.0
 40
0.6666666667
  1
40
  7
TEXTSTYLE_2
100
AcDbText
  0
TEXT
  5
287
330
235
100
AcDbEntity
  8
0
  6
Continuous
 62
     7
100
AcDbText
 10
171.3642082472
 20
54.66666666670001
 30
0.0
 40
0.6666666667
  1
29
  7
TEXTSTYLE_2
100
AcDbText
  0
LINE
  5
288
330
235
100
AcDbEntity
  8
0
  6
Continuous
 62
     7
100
AcDbLine
 10
144.0
 20
64.0
 30
0.0
 11
144.0
 21
46.6666666667
 31
0.0
  0
LINE
  5
289
330
235
100
AcDbEntity
  8
0
  6
Continuous
 62
     7
100
AcDbLine
 10
144.0
 20
64.0
 30
0.0
 11
177.3333333333
 21
64.0
 31
0.0
  0
LINE
  5
28A
330
235
100
AcDbEntity
  8
0
  6
Continuous
 62
     7
100
AcDbLine
 10
177.3333333333
 20
64.0
 30
0.0
 11
177.3333333333
 21
46.6666666667
 31
0.0
  0
LINE
  5
28B
330
235
100
AcDbEntity
  8
0
  6
Continuous
 62
     7
100
AcDbLine
 10
144.0
 20
46.6666666667
 30
0.0
 11
177.3333333333
 21
46.6666666667
 31
0.0
  0
LINE
  5
28C
330
235
100
AcDbEntity
  8
0
  6
Continuous
 62
     7
100
AcDbLine
 10
145.3333333333
 20
54.0
 30
0.0
 11
176.0
 21
54.0
 31
0.0
  0
LINE
  5
28D
330
235
100
AcDbEntity
  8
0
  6
Continuous
 62
     7
100
AcDbLine
 10
145.3333333333
 20
61.0
 30
0.0
 11
176.0
 21
61.0
 31
0.0
  0
LINE
  5
28E
330
235
100
AcDbEntity
  8
0
  6
Continuous
 62
     7
100
AcDbLine
 10
144.8089065593
 20
52.3781645044
 30
0.0
 11
144.4398858169
 21
52.009143762
 31
0.0
  0
LINE
  5
28F
330
235
100
AcDbEntity
  8
0
  6
Continuous
 62
     7
100
AcDbLine
 10
145.4755732259
 20
52.3781645044
 30
0.0
 11
144.6775574355
 21
51.5801487139
 31
0.0
  0
LINE
  5
290
330
235
100
AcDbEntity
  8
0
  6
Continuous
 62
     7
100
AcDbLine
 10
146.1422398926
 20
52.3781645044
 30
0.0
 11
145.3442241022
 21
51.5801487139
 31
0.0
  0
LINE
  5
291
330
235
100
AcDbEntity
  8
0
  6
Continuous
 62
     7
100
AcDbLine
 10
146.8089065593
 20
52.3781645044
 30
0.0
 11
146.0108907688
 21
51.5801487139
 31
0.0
  0
LINE
  5
292
330
235
100
AcDbEntity
  8
0
  6
Continuous
 62
     7
100
AcDbLine
 10
147.4755732259
 20
52.3781645044
 30
0.0
 11
146.6775574355
 21
51.5801487139
 31
0.0
  0
LINE
  5
293
330
235
100
AcDbEntity
  8
0
  6
Continuous
 62
     7
100
AcDbLine
 10
148.1422398926
 20
52.3781645044
 30
0.0
 11
147.3442241022
 21
51.5801487139
 31
0.0
  0
LINE
  5
294
330
235
100
AcDbEntity
  8
0
  6
Continuous
 62
     7
100
AcDbLine
 10
148.8089065593
 20
52.3781645044
 30
0.0
 11
148.0108907688
 21
51.5801487139
 31
0.0
  0
LINE
  5
295
330
235
100
AcDbEntity
  8
0
  6
Continuous
 62
     7
100
AcDbLine
 10
149.4755732259
 20
52.3781645044
 30
0.0
 11
148.6775574355
 21
51.5801487139
 31
0.0
  0
LINE
  5
296
330
235
100
AcDbEntity
  8
0
  6
Continuous
 62
     7
100
AcDbLine
 10
150.1422398926
 20
52.3781645044
 30
0.0
 11
149.3442241022
 21
51.5801487139
 31
0.0
  0
LINE
  5
297
330
235
100
AcDbEntity
  8
0
  6
Continuous
 62
     7
100
AcDbLine
 10
150.5857273268
 20
52.1549852718
 30
0.0
 11
150.0108907688
 21
51.5801487139
 31
0.0
  0
ELLIPSE
  5
298
330
235
100
AcDbEntity
  8
0
  6
Continuous
 62
     7
100
AcDbEllipse
 10
146.1454024822
 20
50.43094770689999
 30
0.0
 11
1.0473539356
 21
0.0
 31
0.0
210
0.0
220
0.0
230
1.0
 40
0.4938647983
 41
0.0
 42
6.283185307179586
  0
ELLIPSE
  5
299
330
235
100
AcDbEntity
  8
0
  6
Continuous
 62
     7
100
AcDbEllipse
 10
146.1454024822
 20
49.0976143736
 30
0.0
 11
1.0473539356
 21
0.0
 31
0.0
210
0.0
220
0.0
230
1.0
 40
0.4938647983
 41
0.0
 42
6.283185307179586
  0
ELLIPSE
  5
29A
330
235
100
AcDbEntity
  8
0
  6
Continuous
 62
     7
100
AcDbEllipse
 10
146.1454024822
 20
47.76428104029999
 30
0.0
 11
1.0473539356
 21
0.0
 31
0.0
210
0.0
220
0.0
230
1.0
 40
0.4938647983
 41
0.0
 42
6.283185307179586
  0
ELLIPSE
  5
29B
330
235
100
AcDbEntity
  8
0
  6
Continuous
 62
     7
100
AcDbEllipse
 10
157.1640380633
 20
50.45046906399999
 30
0.0
 11
1.0473539356
 21
0.0
 31
0.0
210
0.0
220
0.0
230
1.0
 40
0.4938647983
 41
0.0
 42
6.283185307179586
  0
ENDBLK
  5
29C
330
235
100
AcDbEntity
  8
0
  6
ByBlock
 62
     0
100
AcDbBlockEnd
  0
BLOCK
  5
29D
330
236
100
AcDbEntity
  8
0
  6
Continuous
 62
     7
100
AcDbBlockBegin
  2
SYMBOL_3_BL0
 70
     0
 10
114.4882002152
 20
52.29659140239999
 30
0.0
  3
SYMBOL_3_BL0
  1

  0
TEXT
  5
29E
330
236
100
AcDbEntity
  8
0
  6
Continuous
 62
     7
100
AcDbText
 10
108.1741399134
 20
54.5416253882
 30
0.0
 40
1.1626666667
  1
INTERNAL USE 
 50
10.0
  7
TEXTSTYLE_3
100
AcDbText
  0
TEXT
  5
29F
330
236
100
AcDbEntity
  8
0
  6
Continuous
 62
     7
100
AcDbText
 10
107.4304557094
 20
52.54010421050001
 30
0.0
 40
1.1626666667
  1
DOCUMENT ONLY
 50
10.0
  7
TEXTSTYLE_3
100
AcDbText
  0
TEXT
  5
2A0
330
236
100
AcDbEntity
  8
0
  6
Continuous
 62
     7
100
AcDbText
 10
113.2151832727
 20
52.29167616
 30
0.0
 40
1.1626666667
  1
 
 50
10.0
  7
TEXTSTYLE_5
100
AcDbText
  0
TEXT
  5
2A1
330
236
100
AcDbEntity
  8
0
  6
Continuous
 62
     7
100
AcDbText
 10
104.7705353897
 20
48.1145817537
 30
0.0
 40
1.1626666667
  1
DOCUMENT POUR USAGE
 50
10.0
  7
TEXTSTYLE_3
100
AcDbText
  0
TEXT
  5
2A2
330
236
100
AcDbEntity
  8
0
  6
Continuous
 62
     7
100
AcDbText
 10
105.1996348357
 20
46.09783329329999
 30
0.0
 40
1.1626666667
  1
A L'INTERNE SEULEMENT
 50
10.0
  7
TEXTSTYLE_3
100
AcDbText
  0
LINE
  5
2A3
330
236
100
AcDbEntity
  8
0
  6
Continuous
 62
     7
100
AcDbLine
 10
128.3447519385
 20
47.95305778439999
 30
0.0
 11
128.3515108712
 21
47.95981671709999
 31
0.0
  0
LINE
  5
2A4
330
236
100
AcDbEntity
  8
0
  6
Continuous
 62
     7
100
AcDbLine
 10
127.6121823721
 20
47.8238860046
 30
0.0
 11
128.2610638172
 21
48.4727674497
 31
0.0
  0
LINE
  5
2A5
330
236
100
AcDbEntity
  8
0
  6
Continuous
 62
     7
100
AcDbLine
 10
126.8796128057
 20
47.69471422479999
 30
0.0
 11
128.1706167633
 21
48.9857181824
 31
0.0
  0
LINE
  5
2A6
330
236
100
AcDbEntity
  8
0
  6
Continuous
 62
     7
100
AcDbLine
 10
126.1470432393
 20
47.565542445
 30
0.0
 11
128.0801697093
 21
49.49866891510001
 31
0.0
  0
LINE
  5
2A7
330
236
100
AcDbEntity
  8
0
  6
Continuous
 62
     7
100
AcDbLine
 10
125.4144736729
 20
47.4363706652
 30
0.0
 11
127.9897226554
 21
50.0116196477
 31
0.0
  0
LINE
  5
2A8
330
236
100
AcDbEntity
  8
0
  6
Continuous
 62
     7
100
AcDbLine
 10
124.6819041064
 20
47.3071988854
 30
0.0
 11
126.2229079212
 21
48.8482027002
 31
0.0
  0
LINE
  5
2A9
330
236
100
AcDbEntity
  8
0
  6
Continuous
 62
     7
100
AcDbLine
 10
126.8202531139
 20
49.4455478929
 30
0.0
 11
127.8992756015
 21
50.5245703804
 31
0.0
  0
LINE
  5
2AA
330
236
100
AcDbEntity
  8
0
  6
Continuous
 62
     7
100
AcDbLine
 10
123.94933454
 20
47.1780271056
 30
0.0
 11
125.4903383548
 21
48.7190309204
 31
0.0
  0
LINE
  5
2AB
330
236
100
AcDbEntity
  8
0
  6
Continuous
 62
     7
100
AcDbLine
 10
126.72980606
 20
49.9584986256
 30
0.0
 11
127.8088285475
 21
51.03752111310001
 31
0.0
  0
LINE
  5
2AC
330
236
100
AcDbEntity
  8
0
  6
Continuous
 62
     7
100
AcDbLine
 10
123.2167649736
 20
47.04885532579999
 30
0.0
 11
124.7577687884
 21
48.5898591406
 31
0.0
  0
LINE
  5
2AD
330
236
100
AcDbEntity
  8
0
  6
Continuous
 62
     7
100
AcDbLine
 10
126.639359006
 20
50.4714493582
 30
0.0
 11
127.7183814936
 21
51.55047184569999
 31
0.0
  0
LINE
  5
2AE
330
236
100
AcDbEntity
  8
0
  6
Continuous
 62
     7
100
AcDbLine
 10
122.4841954072
 20
46.919683546
 30
0.0
 11
124.025199222
 21
48.4606873608
 31
0.0
  0
LINE
  5
2AF
330
236
100
AcDbEntity
  8
0
  6
Continuous
 62
     7
100
AcDbLine
 10
126.5489119521
 20
50.9844000909
 30
0.0
 11
127.6279344396
 21
52.0634225784
 31
0.0
  0
LINE
  5
2B0
330
236
100
AcDbEntity
  8
0
  6
Continuous
 62
     7
100
AcDbLine
 10
121.7516258408
 20
46.79051176619999
 30
0.0
 11
123.2926296555
 21
48.3315155809
 31
0.0
  0
LINE
  5
2B1
330
236
100
AcDbEntity
  8
0
  6
Continuous
 62
     7
100
AcDbLine
 10
126.4584648982
 20
51.49735082359999
 30
0.0
 11
127.5374873857
 21
52.5763733111
 31
0.0
  0
LINE
  5
2B2
330
236
100
AcDbEntity
  8
0
  6
Continuous
 62
     7
100
AcDbLine
 10
121.0190562743
 20
46.6613399864
 30
0.0
 11
122.5600600891
 21
48.2023438011
 31
0.0
  0
LINE
  5
2B3
330
236
100
AcDbEntity
  8
0
  6
Continuous
 62
     7
100
AcDbLine
 10
126.3680178442
 20
52.01030155619999
 30
0.0
 11
127.4470403317
 21
53.0893240438
 31
0.0
  0
LINE
  5
2B4
330
236
100
AcDbEntity
  8
0
  6
Continuous
 62
     7
100
AcDbLine
 10
120.2864867079
 20
46.53216820659999
 30
0.0
 11
121.8274905227
 21
48.07317202130001
 31
0.0
  0
LINE
  5
2B5
330
236
100
AcDbEntity
  8
0
  6
Continuous
 62
     7
100
AcDbLine
 10
126.2775707903
 20
52.52325228890001
 30
0.0
 11
127.3565932778
 21
53.6022747764
 31
0.0
  0
LINE
  5
2B6
330
236
100
AcDbEntity
  8
0
  6
Continuous
 62
     7
100
AcDbLine
 10
119.5539171415
 20
46.4029964268
 30
0.0
 11
121.0949209563
 21
47.94400024149999
 31
0.0
  0
LINE
  5
2B7
330
236
100
AcDbEntity
  8
0
  6
Continuous
 62
     7
100
AcDbLine
 10
126.1871237363
 20
53.03620302159999
 30
0.0
 11
127.2661462238
 21
54.1152255091
 31
0.0
  0
LINE
  5
2B8
330
236
100
AcDbEntity
  8
0
  6
Continuous
 62
     7
100
AcDbLine
 10
118.8213475751
 20
46.2738246469
 30
0.0
 11
120.3623513899
 21
47.8148284617
 31
0.0
  0
LINE
  5
2B9
330
236
100
AcDbEntity
  8
0
  6
Continuous
 62
     7
100
AcDbLine
 10
126.0966766824
 20
53.5491537542
 30
0.0
 11
127.1756991699
 21
54.62817624180001
 31
0.0
  0
LINE
  5
2BA
330
236
100
AcDbEntity
  8
0
  6
Continuous
 62
     7
100
AcDbLine
 10
118.0887780087
 20
46.14465286709999
 30
0.0
 11
119.6297818234
 21
47.68565668189999
 31
0.0
  0
LINE
  5
2BB
330
236
100
AcDbEntity
  8
0
  6
Continuous
 62
     7
100
AcDbLine
 10
125.7937970826
 20
53.849671941
 30
0.0
 11
127.085252116
 21
55.14112697439999
 31
0.0
  0
LINE
  5
2BC
330
236
100
AcDbEntity
  8
0
  6
Continuous
 62
     7
100
AcDbLine
 10
117.3562084423
 20
46.01548108729999
 30
0.0
 11
118.897212257
 21
47.5564849021
 31
0.0
  0
LINE
  5
2BD
330
236
100
AcDbEntity
  8
0
  6
Continuous
 62
     7
100
AcDbLine
 10
125.0612275161
 20
53.7205001612
 30
0.0
 11
126.994805062
 21
55.6540777071
 31
0.0
  0
LINE
  5
2BE
330
236
100
AcDbEntity
  8
0
  6
Continuous
 62
     7
100
AcDbLine
 10
116.6236388758
 20
45.88630930749999
 30
0.0
 11
118.1646426906
 21
47.42731312229999
 31
0.0
  0
LINE
  5
2BF
330
236
100
AcDbEntity
  8
0
  6
Continuous
 62
     7
100
AcDbLine
 10
124.3286579497
 20
53.5913283814
 30
0.0
 11
125.356000248
 21
54.6186706797
 31
0.0
  0
LINE
  5
2C0
330
236
100
AcDbEntity
  8
0
  6
Continuous
 62
     7
100
AcDbLine
 10
125.8253355206
 20
55.08800595229999
 30
0.0
 11
126.9043580081
 21
56.16702843979999
 31
0.0
  0
LINE
  5
2C1
330
236
100
AcDbEntity
  8
0
  6
Continuous
 62
     7
100
AcDbLine
 10
115.8910693094
 20
45.7571375277
 30
0.0
 11
117.4320731242
 21
47.2981413425
 31
0.0
  0
LINE
  5
2C2
330
236
100
AcDbEntity
  8
0
  6
Continuous
 62
     7
100
AcDbLine
 10
123.5960883833
 20
53.4621566016
 30
0.0
 11
124.623430472
 21
54.48949869029999
 31
0.0
  0
LINE
  5
2C3
330
236
100
AcDbEntity
  8
0
  6
Continuous
 62
     7
100
AcDbLine
 10
125.7348884666
 20
55.60095668489999
 30
0.0
 11
126.8139109541
 21
56.6799791724
 31
0.0
  0
LINE
  5
2C4
330
236
100
AcDbEntity
  8
0
  6
Continuous
 62
     7
100
AcDbLine
 10
115.158499743
 20
45.6279657479
 30
0.0
 11
116.6995035578
 21
47.16896956270001
 31
0.0
  0
LINE
  5
2C5
330
236
100
AcDbEntity
  8
0
  6
Continuous
 62
     7
100
AcDbLine
 10
122.8635188169
 20
53.3329848218
 30
0.0
 11
123.8908606959
 21
54.3603267008
 31
0.0
  0
LINE
  5
2C6
330
236
100
AcDbEntity
  8
0
  6
Continuous
 62
     7
100
AcDbLine
 10
125.6444414127
 20
56.11390741760001
 30
0.0
 11
126.7234639002
 21
57.1929299051
 31
0.0
  0
LINE
  5
2C7
330
236
100
AcDbEntity
  8
0
  6
Continuous
 62
     7
100
AcDbLine
 10
114.4259301766
 20
45.4987939681
 30
0.0
 11
115.9669339914
 21
47.0397977829
 31
0.0
  0
LINE
  5
2C8
330
236
100
AcDbEntity
  8
0
  6
Continuous
 62
     7
100
AcDbLine
 10
122.1309492505
 20
53.203813042
 30
0.0
 11
123.1582909199
 21
54.2311547114
 31
0.0
  0
LINE
  5
2C9
330
236
100
AcDbEntity
  8
0
  6
Continuous
 62
     7
100
AcDbLine
 10
125.5539943587
 20
56.62685815029999
 30
0.0
 11
126.6330168462
 21
57.70588063779999
 31
0.0
  0
LINE
  5
2CA
330
236
100
AcDbEntity
  8
0
  6
Continuous
 62
     7
100
AcDbLine
 10
113.6933606102
 20
45.3696221883
 30
0.0
 11
115.2343644249
 21
46.9106260031
 31
0.0
  0
LINE
  5
2CB
330
236
100
AcDbEntity
  8
0
  6
Continuous
 62
     7
100
AcDbLine
 10
121.398379684
 20
53.07464126220001
 30
0.0
 11
122.4257211439
 21
54.10198272199999
 31
0.0
  0
LINE
  5
2CC
330
236
100
AcDbEntity
  8
0
  6
Continuous
 62
     7
100
AcDbLine
 10
125.4635473048
 20
57.1398088829
 30
0.0
 11
126.5425697923
 21
58.2188313704
 31
0.0
  0
LINE
  5
2CD
330
236
100
AcDbEntity
  8
0
  6
Continuous
 62
     7
100
AcDbLine
 10
112.9607910437
 20
45.2404504085
 30
0.0
 11
114.5017948585
 21
46.7814542233
 31
0.0
  0
LINE
  5
2CE
330
236
100
AcDbEntity
  8
0
  6
Continuous
 62
     7
100
AcDbLine
 10
120.6658101176
 20
52.9454694824
 30
0.0
 11
121.6931513678
 21
53.9728107326
 31
0.0
  0
LINE
  5
2CF
330
236
100
AcDbEntity
  8
0
  6
Continuous
 62
     7
100
AcDbLine
 10
125.3731002508
 20
57.6527596156
 30
0.0
 11
126.4521227384
 21
58.7317821031
 31
0.0
  0
LINE
  5
2D0
330
236
100
AcDbEntity
  8
0
  6
Continuous
 62
     7
100
AcDbLine
 10
112.2282214773
 20
45.1112786287
 30
0.0
 11
113.7692252921
 21
46.6522824435
 31
0.0
  0
LINE
  5
2D1
330
236
100
AcDbEntity
  8
0
  6
Continuous
 62
     7
100
AcDbLine
 10
119.9332405512
 20
52.8162977026
 30
0.0
 11
120.9605815918
 21
53.84363874319999
 31
0.0
  0
LINE
  5
2D2
330
236
100
AcDbEntity
  8
0
  6
Continuous
 62
     7
100
AcDbLine
 10
125.2826531969
 20
58.16571034829999
 30
0.0
 11
126.3616756844
 21
59.2447328358
 31
0.0
  0
LINE
  5
2D3
330
236
100
AcDbEntity
  8
0
  6
Continuous
 62
     7
100
AcDbLine
 10
111.4956519109
 20
44.9821068489
 30
0.0
 11
113.0366557257
 21
46.52311066369999
 31
0.0
  0
LINE
  5
2D4
330
236
100
AcDbEntity
  8
0
  6
Continuous
 62
     7
100
AcDbLine
 10
119.2006709848
 20
52.68712592279999
 30
0.0
 11
120.2280118158
 21
53.7144667538
 31
0.0
  0
LINE
  5
2D5
330
236
100
AcDbEntity
  8
0
  6
Continuous
 62
     7
100
AcDbLine
 10
125.1922061429
 20
58.6786610809
 30
0.0
 11
126.2712286305
 21
59.7576835684
 31
0.0
  0
LINE
  5
2D6
330
236
100
AcDbEntity
  8
0
  6
Continuous
 62
     7
100
AcDbLine
 10
110.7630823445
 20
44.85293506909999
 30
0.0
 11
112.3040861593
 21
46.3939388839
 31
0.0
  0
LINE
  5
2D7
330
236
100
AcDbEntity
  8
0
  6
Continuous
 62
     7
100
AcDbLine
 10
118.4681014184
 20
52.557954143
 30
0.0
 11
119.4954420398
 21
53.5852947644
 31
0.0
  0
LINE
  5
2D8
330
236
100
AcDbEntity
  8
0
  6
Continuous
 62
     7
100
AcDbLine
 10
125.101759089
 20
59.19161181359999
 30
0.0
 11
126.1807815765
 21
60.2706343011
 31
0.0
  0
LINE
  5
2D9
330
236
100
AcDbEntity
  8
0
  6
Continuous
 62
     7
100
AcDbLine
 10
110.0305127781
 20
44.7237632893
 30
0.0
 11
111.5715165929
 21
46.26476710409999
 31
0.0
  0
LINE
  5
2DA
330
236
100
AcDbEntity
  8
0
  6
Continuous
 62
     7
100
AcDbLine
 10
117.735531852
 20
52.4287823632
 30
0.0
 11
118.7628722637
 21
53.45612277489999
 31
0.0
  0
LINE
  5
2DB
330
236
100
AcDbEntity
  8
0
  6
Continuous
 62
     7
100
AcDbLine
 10
124.9268829876
 20
59.6201334988
 30
0.0
 11
126.0903345226
 21
60.7835850338
 31
0.0
  0
LINE
  5
2DC
330
236
100
AcDbEntity
  8
0
  6
Continuous
 62
     7
100
AcDbLine
 10
109.2979432117
 20
44.59459150949999
 30
0.0
 11
110.8389470264
 21
46.1355953243
 31
0.0
  0
LINE
  5
2DD
330
236
100
AcDbEntity
  8
0
  6
Continuous
 62
     7
100
AcDbLine
 10
117.0029622855
 20
52.2996105834
 30
0.0
 11
118.0303024877
 21
53.3269507855
 31
0.0
  0
LINE
  5
2DE
330
236
100
AcDbEntity
  8
0
  6
Continuous
 62
     7
100
AcDbLine
 10
124.1943134212
 20
59.49096171899999
 30
0.0
 11
125.7353172359
 21
61.0319655338
 31
0.0
  0
LINE
  5
2DF
330
236
100
AcDbEntity
  8
0
  6
Continuous
 62
     7
100
AcDbLine
 10
108.5653736452
 20
44.4654197297
 30
0.0
 11
110.10637746
 21
46.00642354449999
 31
0.0
  0
LINE
  5
2E0
330
236
100
AcDbEntity
  8
0
  6
Continuous
 62
     7
100
AcDbLine
 10
116.2703927191
 20
52.1704388036
 30
0.0
 11
117.2977327117
 21
53.1977787961
 31
0.0
  0
LINE
  5
2E1
330
236
100
AcDbEntity
  8
0
  6
Continuous
 62
     7
100
AcDbLine
 10
123.4617438548
 20
59.3617899392
 30
0.0
 11
125.0027476695
 21
60.90279375399999
 31
0.0
  0
LINE
  5
2E2
330
236
100
AcDbEntity
  8
0
  6
Continuous
 62
     7
100
AcDbLine
 10
107.8328040788
 20
44.3362479499
 30
0.0
 11
109.3738078936
 21
45.8772517646
 31
0.0
  0
LINE
  5
2E3
330
236
100
AcDbEntity
  8
0
  6
Continuous
 62
     7
100
AcDbLine
 10
115.5378231527
 20
52.0412670238
 30
0.0
 11
116.5651629356
 21
53.0686068067
 31
0.0
  0
LINE
  5
2E4
330
236
100
AcDbEntity
  8
0
  6
Continuous
 62
     7
100
AcDbLine
 10
122.7291742883
 20
59.2326181594
 30
0.0
 11
124.2701781031
 21
60.7736219742
 31
0.0
  0
LINE
  5
2E5
330
236
100
AcDbEntity
  8
0
  6
Continuous
 62
     7
100
AcDbLine
 10
107.1002345124
 20
44.2070761701
 30
0.0
 11
108.6412383272
 21
45.74807998479999
 31
0.0
  0
LINE
  5
2E6
330
236
100
AcDbEntity
  8
0
  6
Continuous
 62
     7
100
AcDbLine
 10
114.8052535863
 20
51.9120952439
 30
0.0
 11
115.8325931596
 21
52.9394348173
 31
0.0
  0
LINE
  5
2E7
330
236
100
AcDbEntity
  8
0
  6
Continuous
 62
     7
100
AcDbLine
 10
121.9966047219
 20
59.1034463796
 30
0.0
 11
123.5376085367
 21
60.64445019439999
 31
0.0
  0
LINE
  5
2E8
330
236
100
AcDbEntity
  8
0
  6
Continuous
 62
     7
100
AcDbLine
 10
106.367664946
 20
44.0779043903
 30
0.0
 11
107.9086687608
 21
45.61890820499999
 31
0.0
  0
LINE
  5
2E9
330
236
100
AcDbEntity
  8
0
  6
Continuous
 62
     7
100
AcDbLine
 10
114.0726840199
 20
51.7829234641
 30
0.0
 11
115.1000233836
 21
52.8102628279
 31
0.0
  0
LINE
  5
2EA
330
236
100
AcDbEntity
  8
0
  6
Continuous
 62
     7
100
AcDbLine
 10
121.2640351555
 20
58.9742745998
 30
0.0
 11
122.8050389703
 21
60.51527841449999
 31
0.0
  0
LINE
  5
2EB
330
236
100
AcDbEntity
  8
0
  6
Continuous
 62
     7
100
AcDbLine
 10
105.6350953796
 20
43.9487326105
 30
0.0
 11
107.1760991943
 21
45.4897364252
 31
0.0
  0
LINE
  5
2EC
330
236
100
AcDbEntity
  8
0
  6
Continuous
 62
     7
100
AcDbLine
 10
113.3401144535
 20
51.6537516843
 30
0.0
 11
114.3674536076
 21
52.6810908384
 31
0.0
  0
LINE
  5
2ED
330
236
100
AcDbEntity
  8
0
  6
Continuous
 62
     7
100
AcDbLine
 10
120.5314655891
 20
58.84510282
 30
0.0
 11
122.0724694039
 21
60.3861066347
 31
0.0
  0
LINE
  5
2EE
330
236
100
AcDbEntity
  8
0
  6
Continuous
 62
     7
100
AcDbLine
 10
104.9025258131
 20
43.8195608306
 30
0.0
 11
106.4435296279
 21
45.36056464539999
 31
0.0
  0
LINE
  5
2EF
330
236
100
AcDbEntity
  8
0
  6
Continuous
 62
     7
100
AcDbLine
 10
112.607544887
 20
51.5245799045
 30
0.0
 11
113.6348838315
 21
52.551918849
 31
0.0
  0
LINE
  5
2F0
330
236
100
AcDbEntity
  8
0
  6
Continuous
 62
     7
100
AcDbLine
 10
119.7988960227
 20
58.7159310402
 30
0.0
 11
121.3398998374
 21
60.25693485489999
 31
0.0
  0
LINE
  5
2F1
330
236
100
AcDbEntity
  8
0
  6
Continuous
 62
     7
100
AcDbLine
 10
104.1699562467
 20
43.6903890508
 30
0.0
 11
105.7109600615
 21
45.23139286560001
 31
0.0
  0
LINE
  5
2F2
330
236
100
AcDbEntity
  8
0
  6
Continuous
 62
     7
100
AcDbLine
 10
111.8749753206
 20
51.3954081247
 30
0.0
 11
112.9023140555
 21
52.4227468596
 31
0.0
  0
LINE
  5
2F3
330
236
100
AcDbEntity
  8
0
  6
Continuous
 62
     7
100
AcDbLine
 10
119.0663264562
 20
58.5867592604
 30
0.0
 11
120.607330271
 21
60.1277630751
 31
0.0
  0
LINE
  5
2F4
330
236
100
AcDbEntity
  8
0
  6
Continuous
 62
     7
100
AcDbLine
 10
103.4373866803
 20
43.561217271
 30
0.0
 11
104.9783904951
 21
45.10222108579999
 31
0.0
  0
LINE
  5
2F5
330
236
100
AcDbEntity
  8
0
  6
Continuous
 62
     7
100
AcDbLine
 10
111.1424057542
 20
51.2662363449
 30
0.0
 11
112.1697442795
 21
52.2935748702
 31
0.0
  0
LINE
  5
2F6
330
236
100
AcDbEntity
  8
0
  6
Continuous
 62
     7
100
AcDbLine
 10
118.3337568898
 20
58.4575874805
 30
0.0
 11
119.8747607046
 21
59.99859129529999
 31
0.0
  0
LINE
  5
2F7
330
236
100
AcDbEntity
  8
0
  6
Continuous
 62
     7
100
AcDbLine
 10
102.8860659078
 20
43.6132942851
 30
0.0
 11
104.2458209287
 21
44.97304930600001
 31
0.0
  0
LINE
  5
2F8
330
236
100
AcDbEntity
  8
0
  6
Continuous
 62
     7
100
AcDbLine
 10
110.4098361878
 20
51.1370645651
 30
0.0
 11
111.4371745034
 21
52.1644028808
 31
0.0
  0
LINE
  5
2F9
330
236
100
AcDbEntity
  8
0
  6
Continuous
 62
     7
100
AcDbLine
 10
117.6011873234
 20
58.3284157007
 30
0.0
 11
119.1421911382
 21
59.8694195155
 31
0.0
  0
LINE
  5
2FA
330
236
100
AcDbEntity
  8
0
  6
Continuous
 62
     7
100
AcDbLine
 10
102.7956188538
 20
44.12624501779999
 30
0.0
 11
103.8746413414
 21
45.2052675053
 31
0.0
  0
LINE
  5
2FB
330
236
100
AcDbEntity
  8
0
  6
Continuous
 62
     7
100
AcDbLine
 10
109.6772666214
 20
51.00789278529999
 30
0.0
 11
110.7046047274
 21
52.0352308914
 31
0.0
  0
LINE
  5
2FC
330
236
100
AcDbEntity
  8
0
  6
Continuous
 62
     7
100
AcDbLine
 10
116.868617757
 20
58.1992439209
 30
0.0
 11
118.4096215718
 21
59.7402477357
 31
0.0
  0
LINE
  5
2FD
330
236
100
AcDbEntity
  8
0
  6
Continuous
 62
     7
100
AcDbLine
 10
102.7051717999
 20
44.6391957505
 30
0.0
 11
103.7841942874
 21
45.71821823799999
 31
0.0
  0
LINE
  5
2FE
330
236
100
AcDbEntity
  8
0
  6
Continuous
 62
     7
100
AcDbLine
 10
108.9446970549
 20
50.87872100550001
 30
0.0
 11
109.9720349514
 21
51.90605890189999
 31
0.0
  0
LINE
  5
2FF
330
236
100
AcDbEntity
  8
0
  6
Continuous
 62
     7
100
AcDbLine
 10
116.1360481906
 20
58.0700721411
 30
0.0
 11
117.6770520053
 21
59.6110759559
 31
0.0
  0
LINE
  5
300
330
236
100
AcDbEntity
  8
0
  6
Continuous
 62
     7
100
AcDbLine
 10
102.614724746
 20
45.1521464831
 30
0.0
 11
103.6937472335
 21
46.2311689707
 31
0.0
  0
LINE
  5
301
330
236
100
AcDbEntity
  8
0
  6
Continuous
 62
     7
100
AcDbLine
 10
108.2121274885
 20
50.74954922569999
 30
0.0
 11
109.2394651754
 21
51.7768869125
 31
0.0
  0
LINE
  5
302
330
236
100
AcDbEntity
  8
0
  6
Continuous
 62
     7
100
AcDbLine
 10
115.4034786242
 20
57.9409003613
 30
0.0
 11
116.9444824389
 21
59.4819041761
 31
0.0
  0
LINE
  5
303
330
236
100
AcDbEntity
  8
0
  6
Continuous
 62
     7
100
AcDbLine
 10
102.524277692
 20
45.6650972158
 30
0.0
 11
103.6033001795
 21
46.7441197033
 31
0.0
  0
LINE
  5
304
330
236
100
AcDbEntity
  8
0
  6
Continuous
 62
     7
100
AcDbLine
 10
107.4795579220999
 20
50.6203774459
 30
0.0
 11
108.5068953993
 21
51.6477149231
 31
0.0
  0
LINE
  5
305
330
236
100
AcDbEntity
  8
0
  6
Continuous
 62
     7
100
AcDbLine
 10
114.6709090577
 20
57.8117285815
 30
0.0
 11
116.2119128725
 21
59.35273239629999
 31
0.0
  0
LINE
  5
306
330
236
100
AcDbEntity
  8
0
  6
Continuous
 62
     7
100
AcDbLine
 10
102.4338306381
 20
46.1780479485
 30
0.0
 11
103.5128531256
 21
47.257070436
 31
0.0
  0
LINE
  5
307
330
236
100
AcDbEntity
  8
0
  6
Continuous
 62
     7
100
AcDbLine
 10
106.7469883557
 20
50.4912056661
 30
0.0
 11
107.7743256233
 21
51.5185429337
 31
0.0
  0
LINE
  5
308
330
236
100
AcDbEntity
  8
0
  6
Continuous
 62
     7
100
AcDbLine
 10
113.9383394913
 20
57.6825568017
 30
0.0
 11
115.4793433061
 21
59.22356061649999
 31
0.0
  0
LINE
  5
309
330
236
100
AcDbEntity
  8
0
  6
Continuous
 62
     7
100
AcDbLine
 10
102.3433835841
 20
46.69099868109999
 30
0.0
 11
103.4224060716
 21
47.7700211687
 31
0.0
  0
LINE
  5
30A
330
236
100
AcDbEntity
  8
0
  6
Continuous
 62
     7
100
AcDbLine
 10
106.0144187893
 20
50.3620338863
 30
0.0
 11
107.0417558473
 21
51.38937094430001
 31
0.0
  0
LINE
  5
30B
330
236
100
AcDbEntity
  8
0
  6
Continuous
 62
     7
100
AcDbLine
 10
113.2057699249
 20
57.55338502189999
 30
0.0
 11
114.7467737397
 21
59.0943888367
 31
0.0
  0
LINE
  5
30C
330
236
100
AcDbEntity
  8
0
  6
Continuous
 62
     7
100
AcDbLine
 10
102.2529365302
 20
47.2039494138
 30
0.0
 11
103.3319590177
 21
48.2829719013
 31
0.0
  0
LINE
  5
30D
330
236
100
AcDbEntity
  8
0
  6
Continuous
 62
     7
100
AcDbLine
 10
105.2818492229
 20
50.23286210649999
 30
0.0
 11
106.3091860712
 21
51.26019895489999
 31
0.0
  0
LINE
  5
30E
330
236
100
AcDbEntity
  8
0
  6
Continuous
 62
     7
100
AcDbLine
 10
112.4732003585
 20
57.4242132421
 30
0.0
 11
114.0142041733
 21
58.96521705689999
 31
0.0
  0
LINE
  5
30F
330
236
100
AcDbEntity
  8
0
  6
Continuous
 62
     7
100
AcDbLine
 10
102.1624894762
 20
47.71690014649999
 30
0.0
 11
103.2415119638
 21
48.79592263399999
 31
0.0
  0
LINE
  5
310
330
236
100
AcDbEntity
  8
0
  6
Continuous
 62
     7
100
AcDbLine
 10
104.5492796564
 20
50.1036903267
 30
0.0
 11
105.5766162952
 21
51.1310269654
 31
0.0
  0
LINE
  5
311
330
236
100
AcDbEntity
  8
0
  6
Continuous
 62
     7
100
AcDbLine
 10
111.7406307921
 20
57.2950414623
 30
0.0
 11
113.2816346068
 21
58.8360452771
 31
0.0
  0
LINE
  5
312
330
236
100
AcDbEntity
  8
0
  6
Continuous
 62
     7
100
AcDbLine
 10
102.0720424223
 20
48.2298508791
 30
0.0
 11
103.1510649098
 21
49.3088733667
 31
0.0
  0
LINE
  5
313
330
236
100
AcDbEntity
  8
0
  6
Continuous
 62
     7
100
AcDbLine
 10
103.81671009
 20
49.97451854689999
 30
0.0
 11
104.8440465192
 21
51.001854976
 31
0.0
  0
LINE
  5
314
330
236
100
AcDbEntity
  8
0
  6
Continuous
 62
     7
100
AcDbLine
 10
111.0080612256
 20
57.1658696825
 30
0.0
 11
112.5490650404
 21
58.70687349729999
 31
0.0
  0
LINE
  5
315
330
236
100
AcDbEntity
  8
0
  6
Continuous
 62
     7
100
AcDbLine
 10
101.9815953684
 20
48.7428016118
 30
0.0
 11
103.0606178559
 21
49.8218240993
 31
0.0
  0
LINE
  5
316
330
236
100
AcDbEntity
  8
0
  6
Continuous
 62
     7
100
AcDbLine
 10
103.0841405236
 20
49.8453467671
 30
0.0
 11
104.1114767432
 21
50.87268298659999
 31
0.0
  0
LINE
  5
317
330
236
100
AcDbEntity
  8
0
  6
Continuous
 62
     7
100
AcDbLine
 10
110.2754916592
 20
57.03669790270001
 30
0.0
 11
111.816495474
 21
58.5777017175
 31
0.0
  0
LINE
  5
318
330
236
100
AcDbEntity
  8
0
  6
Continuous
 62
     7
100
AcDbLine
 10
101.8911483144
 20
49.2557523445
 30
0.0
 11
103.3789069671
 21
50.74351099720001
 31
0.0
  0
LINE
  5
319
330
236
100
AcDbEntity
  8
0
  6
Continuous
 62
     7
100
AcDbLine
 10
109.5429220928
 20
56.9075261229
 30
0.0
 11
111.0839259076
 21
58.4485299377
 31
0.0
  0
LINE
  5
31A
330
236
100
AcDbEntity
  8
0
  6
Continuous
 62
     7
100
AcDbLine
 10
101.8007012605
 20
49.7687030772
 30
0.0
 11
102.879723748
 21
50.84772556469999
 31
0.0
  0
LINE
  5
31B
330
236
100
AcDbEntity
  8
0
  6
Continuous
 62
     7
100
AcDbLine
 10
108.8103525264
 20
56.77835434310001
 30
0.0
 11
110.3513563412
 21
58.3193581579
 31
0.0
  0
LINE
  5
31C
330
236
100
AcDbEntity
  8
0
  6
Continuous
 62
     7
100
AcDbLine
 10
101.7102542065
 20
50.28165380979999
 30
0.0
 11
102.789276694
 21
51.3606762973
 31
0.0
  0
LINE
  5
31D
330
236
100
AcDbEntity
  8
0
  6
Continuous
 62
     7
100
AcDbLine
 10
108.07778296
 20
56.6491825633
 30
0.0
 11
109.6187867748
 21
58.1901863781
 31
0.0
  0
LINE
  5
31E
330
236
100
AcDbEntity
  8
0
  6
Continuous
 62
     7
100
AcDbLine
 10
101.6198071526
 20
50.7946045425
 30
0.0
 11
102.6988296401
 21
51.87362703
 31
0.0
  0
LINE
  5
31F
330
236
100
AcDbEntity
  8
0
  6
Continuous
 62
     7
100
AcDbLine
 10
107.3452133936
 20
56.5200107835
 30
0.0
 11
108.8862172083
 21
58.06101459819999
 31
0.0
  0
LINE
  5
320
330
236
100
AcDbEntity
  8
0
  6
Continuous
 62
     7
100
AcDbLine
 10
101.5293600986
 20
51.3075552752
 30
0.0
 11
102.6083825862
 21
52.38657776270001
 31
0.0
  0
LINE
  5
321
330
236
100
AcDbEntity
  8
0
  6
Continuous
 62
     7
100
AcDbLine
 10
106.6126438271
 20
56.3908390037
 30
0.0
 11
108.1536476419
 21
57.9318428184
 31
0.0
  0
LINE
  5
322
330
236
100
AcDbEntity
  8
0
  6
Continuous
 62
     7
100
AcDbLine
 10
101.4389130447
 20
51.8205060078
 30
0.0
 11
102.5179355322
 21
52.89952849529999
 31
0.0
  0
LINE
  5
323
330
236
100
AcDbEntity
  8
0
  6
Continuous
 62
     7
100
AcDbLine
 10
105.8800742607
 20
56.2616672239
 30
0.0
 11
107.4210780755
 21
57.80267103859999
 31
0.0
  0
LINE
  5
324
330
236
100
AcDbEntity
  8
0
  6
Continuous
 62
     7
100
AcDbLine
 10
101.3484659907
 20
52.3334567405
 30
0.0
 11
102.4274884783
 21
53.412479228
 31
0.0
  0
LINE
  5
325
330
236
100
AcDbEntity
  8
0
  6
Continuous
 62
     7
100
AcDbLine
 10
105.1475046943
 20
56.1324954441
 30
0.0
 11
106.6885085091
 21
57.6734992588
 31
0.0
  0
LINE
  5
326
330
236
100
AcDbEntity
  8
0
  6
Continuous
 62
     7
100
AcDbLine
 10
101.2580189368
 20
52.8464074732
 30
0.0
 11
102.3370414243
 21
53.92542996069999
 31
0.0
  0
LINE
  5
327
330
236
100
AcDbEntity
  8
0
  6
Continuous
 62
     7
100
AcDbLine
 10
104.4149351279
 20
56.0033236642
 30
0.0
 11
105.9559389427
 21
57.544327479
 31
0.0
  0
LINE
  5
328
330
236
100
AcDbEntity
  8
0
  6
Continuous
 62
     7
100
AcDbLine
 10
101.1675718829
 20
53.3593582058
 30
0.0
 11
102.2465943704
 21
54.43838069339999
 31
0.0
  0
LINE
  5
329
330
236
100
AcDbEntity
  8
0
  6
Continuous
 62
     7
100
AcDbLine
 10
103.6823655615
 20
55.87415188439999
 30
0.0
 11
105.2233693762
 21
57.4151556992
 31
0.0
  0
LINE
  5
32A
330
236
100
AcDbEntity
  8
0
  6
Continuous
 62
     7
100
AcDbLine
 10
101.0771248289
 20
53.8723089385
 30
0.0
 11
102.1561473164
 21
54.951331426
 31
0.0
  0
LINE
  5
32B
330
236
100
AcDbEntity
  8
0
  6
Continuous
 62
     7
100
AcDbLine
 10
102.949795995
 20
55.74498010460001
 30
0.0
 11
104.4907998098
 21
57.2859839194
 31
0.0
  0
LINE
  5
32C
330
236
100
AcDbEntity
  8
0
  6
Continuous
 62
     7
100
AcDbLine
 10
100.986677775
 20
54.3852596712
 30
0.0
 11
102.0657002625
 21
55.4642821587
 31
0.0
  0
LINE
  5
32D
330
236
100
AcDbEntity
  8
0
  6
Continuous
 62
     7
100
AcDbLine
 10
102.2172264286
 20
55.61580832479999
 30
0.0
 11
103.7582302434
 21
57.15681213959999
 31
0.0
  0
LINE
  5
32E
330
236
100
AcDbEntity
  8
0
  6
Continuous
 62
     7
100
AcDbLine
 10
100.896230721
 20
54.8982104038
 30
0.0
 11
103.025660677
 21
57.02764035979999
 31
0.0
  0
LINE
  5
32F
330
236
100
AcDbEntity
  8
0
  6
Continuous
 62
     7
100
AcDbLine
 10
100.8057836671
 20
55.4111611365
 30
0.0
 11
102.2930911106
 21
56.89846858
 31
0.0
  0
LINE
  5
330
330
236
100
AcDbEntity
  8
0
  6
Continuous
 62
     7
100
AcDbLine
 10
100.7153366131
 20
55.92411186919999
 30
0.0
 11
101.5605215442
 21
56.7692968002
 31
0.0
  0
LINE
  5
331
330
236
100
AcDbEntity
  8
0
  6
Continuous
 62
     7
100
AcDbLine
 10
100.6248895592
 20
56.4370626018
 30
0.0
 11
100.8279519777
 21
56.6401250204
 31
0.0
  0
ENDBLK
  5
332
330
236
100
AcDbEntity
  8
0
  6
ByBlock
 62
     0
100
AcDbBlockEnd
  0
BLOCK
  5
2193
330
2192
100
AcDbEntity
  8
0
100
AcDbBlockBegin
  2
*D35
 70
     1
 10
0.0
 20
0.0
 30
0.0
  3
*D35
  1

  0
LINE
  5
2195
330
2192
100
AcDbEntity
  8
0
 62
     0
370
    -2
100
AcDbLine
 10
76.84811579229999
 20
25.5177825823
 30
0.0
 11
61.69002287912491
 21
25.51778258230001
 31
0.0
  0
LINE
  5
2196
330
2192
100
AcDbEntity
  8
0
 62
     0
370
    -2
100
AcDbLine
 10
60.51275829184454
 20
26.15085511078265
 30
0.0
 11
61.94002287912491
 21
26.15085511078265
 31
0.0
  0
LINE
  5
2197
330
2192
100
AcDbEntity
  8
0
 62
     0
370
    -2
100
AcDbLine
 10
61.81502287912491
 20
23.5177825823
 30
0.0
 11
61.81502287912491
 21
21.51778258230001
 31
0.0
  0
LINE
  5
2198
330
2192
100
AcDbEntity
  8
0
 62
     0
370
    -2
100
AcDbLine
 10
61.81502287912491
 20
28.15085511078265
 30
0.0
 11
61.81502287912491
 21
30.15085511078265
 31
0.0
  0
LINE
  5
2199
330
2192
100
AcDbEntity
  8
0
 62
     0
370
    -2
100
AcDbLine
 10
61.81502287912491
 20
30.15085511078265
 30
0.0
 11
63.81502287912491
 21
30.15085511078265
 31
0.0
  0
INSERT
  5
219A
330
2192
100
AcDbEntity
  8
0
 62
     0
370
    -2
100
AcDbBlockReference
  2
_FILLED
 10
61.81502287912491
 20
25.51778258230001
 30
0.0
 41
2.0
 42
2.0
 43
2.0
 50
90.0
  0
INSERT
  5
219B
330
2192
100
AcDbEntity
  8
0
 62
     0
370
    -2
100
AcDbBlockReference
  2
_FILLED
 10
61.81502287912491
 20
26.15085511078265
 30
0.0
 41
2.0
 42
2.0
 43
2.0
 50
270.0
  0
MTEXT
  5
219C
330
2192
100
AcDbEntity
  8
0
 62
     0
100
AcDbMText
 10
69.2383562123249
 20
30.15085511078266
 30
0.0
 40
1.333333333299999
 41
0.0
 46
0.0
 71
     5
 72
     1
  1
\A1;0.6331±0.0000
 73
     1
 44
1.0
  0
POINT
  5
219D
330
2192
100
AcDbEntity
  8
Defpoints
 62
     0
100
AcDbPoint
 10
76.91061579229999
 20
25.5177825823
 30
0.0
  0
POINT
  5
219E
330
2192
100
AcDbEntity
  8
Defpoints
 62
     0
100
AcDbPoint
 10
60.45025829184455
 20
26.15085511078265
 30
0.0
  0
POINT
  5
219F
330
2192
100
AcDbEntity
  8
Defpoints
 62
     0
100
AcDbPoint
 10
61.81502287912491
 20
26.15085511078265
 30
0.0
  0
ENDBLK
  5
2194
330
2192
100
AcDbEntity
  8
0
100
AcDbBlockEnd
  0
ENDSEC
  0
SECTION
  2
ENTITIES
  0
LINE
  5
4A1
330
213
100
AcDbEntity
  8
DEFAULT_2
  6
HIDDEN
 62
     7
100
AcDbLine
 10
27.8746833848
 20
30.1421528788
 30
0.0
 11
21.7264395865
 21
44.6265075767
 31
0.0
  0
LINE
  5
4D3
330
213
100
AcDbEntity
  8
DEFAULT_2
  6
HIDDEN
 62
     7
100
AcDbLine
 10
65.0873924876
 20
27.653505887
 30
0.0
 11
64.73135451729999
 21
28.0095438574
 31
0.0
  0
LINE
  5
542
330
213
100
AcDbEntity
  8
DEFAULT_2
  6
HIDDEN
 62
     7
100
AcDbLine
 10
67.80706240169999
 20
27.5802825823
 30
0.0
 11
65.2641691829
 21
27.5802825823
 31
0.0
  0
LINE
  5
543
330
213
100
AcDbEntity
  8
DEFAULT_2
  6
HIDDEN
 62
     7
100
AcDbLine
 10
64.5606052073
 20
28.0826944928
 30
0.0
 11
29.6674740089
 21
28.9241964903
 31
0.0
  0
LINE
  5
566
330
213
100
AcDbEntity
  8
DEFAULT_2
  6
HIDDEN
 62
     7
100
AcDbLine
 10
68.81846464819999
 20
28.1190540592
 30
0.0
 11
68.5001427758
 21
28.0887933169
 31
0.0
  0
LINE
  5
635
330
213
100
AcDbEntity
  8
DEFAULT_2
  6
HIDDEN
 62
     7
100
AcDbLine
 10
70.60849404169999
 20
29.8230925689
 30
0.0
 11
72.7451796542
 21
44.5595567176
 31
0.0
  0
LINE
  5
75B
330
213
100
AcDbEntity
  8
DEFAULT_2
  6
HIDDEN
 62
     7
100
AcDbLine
 10
68.34702525299999
 20
28.016692043
 30
0.0
 11
67.983839097
 21
27.653505887
 31
0.0
  0
LINE
  5
1510
330
213
100
AcDbEntity
  8
0
  6
Continuous
 62
     7
100
AcDbLine
 10
17.0930930098
 20
46.289571518
 30
0.0
 11
17.1406499113
 21
45.7459936466
 31
0.0
  0
LWPOLYLINE
  5
1513
330
213
100
AcDbEntity
  8
0
  6
Continuous
 62
     7
100
AcDbPolyline
 90
        4
 70
     0
 43
0.0
 10
76.58663376069999
 20
46.5120003105
 10
76.55482289920001
 20
46.5104700899
 10
76.51939529020001
 20
46.5092631634
 10
76.47910309630001
 20
46.5087561101
  0
LWPOLYLINE
  5
1514
330
213
100
AcDbEntity
  8
0
  6
Continuous
 62
     7
100
AcDbPolyline
 90
        5
 70
     0
 43
0.0
 10
76.72837256689999
 20
46.51778258229999
 10
76.70022653859999
 20
46.517421296
 10
76.67212688470001
 20
46.5164726708
 10
76.6441535582
 20
46.5151420799
 10
76.58663376069999
 20
46.5120003105
  0
LINE
  5
1515
330
213
100
AcDbEntity
  8
0
  6
Continuous
 62
     7
100
AcDbLine
 10
76.91061579229999
 20
45.26778258229999
 30
0.0
 11
16.9106157923
 21
45.26778258229999
 31
0.0
  0
LINE
  5
1516
330
213
100
AcDbEntity
  8
0
  6
Continuous
 62
     7
100
AcDbLine
 10
76.43153299879999
 20
45.51778258229999
 30
0.0
 11
17.3896985858
 21
45.51778258229999
 31
0.0
  0
LINE
  5
1517
330
213
100
AcDbEntity
  8
0
  6
Continuous
 62
     7
100
AcDbLine
 10
17.3421260833
 20
46.5087561101
 30
0.0
 11
76.47910309630001
 21
46.5087561101
 31
0.0
  0
LINE
  5
1518
330
213
100
AcDbEntity
  8
0
  6
Continuous
 62
     7
100
AcDbLine
 10
76.91061579229999
 20
46.51778258229999
 30
0.0
 11
76.7283604344
 21
46.51778258229999
 31
0.0
  0
LINE
  5
1519
330
213
100
AcDbEntity
  8
0
  6
Continuous
 62
     7
100
AcDbLine
 10
17.0928642549
 20
46.51778258229999
 30
0.0
 11
16.9106157923
 21
46.51778258229999
 31
0.0
  0
LWPOLYLINE
  5
151A
330
213
100
AcDbEntity
  8
0
  6
Continuous
 62
     7
100
AcDbPolyline
 90
        8
 70
     0
 43
0.0
 10
16.9106157923
 20
45.0285846114
 10
24.2248498471
 20
45.02749913449999
 10
32.4884746696
 20
45.02659162359999
 10
41.5590727281
 20
45.02604620909999
 10
51.10608382979999
 20
45.0260123362
 10
60.5952018884
 20
45.0265290885
 10
69.2582417352
 20
45.0274548875
 10
76.91061579229999
 20
45.02858459609999
  0
LWPOLYLINE
  5
151B
330
213
100
AcDbEntity
  8
0
  6
Continuous
 62
     7
100
AcDbPolyline
 90
        5
 70
     0
 43
0.0
 10
17.3421260833
 20
46.5087561101
 10
17.3017130667
 20
46.50926619849999
 10
17.266218813
 20
46.5104780936
 10
17.2343882368
 20
46.5120114222
 10
17.1769257443
 20
46.5151500329
  0
LWPOLYLINE
  5
151C
330
213
100
AcDbEntity
  8
0
  6
Continuous
 62
     7
100
AcDbPolyline
 90
        4
 70
     0
 43
0.0
 10
17.1769257443
 20
46.5151500329
 10
17.1490026104
 20
46.5164769387
 10
17.1209511848
 20
46.51742261479999
 10
17.0928516211
 20
46.51778258229999
  0
LINE
  5
151D
330
213
100
AcDbEntity
  8
DEFAULT_1
  6
CENTER
 62
     7
100
AcDbLine
 10
73.9452179209
 20
41.91797747449999
 30
0.0
 11
70.84431024220001
 21
42.3675876901
 31
0.0
  0
LINE
  5
151F
330
213
100
AcDbEntity
  8
0
  6
Continuous
 62
     7
100
AcDbLine
 10
76.7281385748
 20
46.289571518
 30
0.0
 11
76.68058167329999
 21
45.7459936466
 31
0.0
  0
ARC
  5
1988
330
213
100
AcDbEntity
  8
DEFAULT_2
  6
HIDDEN
 62
     7
100
AcDbCircle
 10
29.7156930804
 20
30.9236151359
 30
0.0
 40
2.0
100
AcDbArc
 50
203.0000001277
 51
268.6184914977
  0
ARC
  5
1989
330
213
100
AcDbEntity
  8
DEFAULT_2
  6
HIDDEN
 62
     7
100
AcDbCircle
 10
68.62919126539999
 20
30.1100778108
 30
0.0
 40
1.9999999993
100
AcDbArc
 50
275.430409553
 51
351.7500000726999
  0
ARC
  5
198C
330
213
100
AcDbEntity
  8
DEFAULT_2
  6
HIDDEN
 62
     7
100
AcDbCircle
 10
72.88411579229999
 20
45.51778258229999
 30
0.0
 40
0.75
100
AcDbArc
 50
276.2275091852
 51
345.5224878512999
  0
ARC
  5
198D
330
213
100
AcDbEntity
  8
DEFAULT_2
  6
HIDDEN
 62
     7
100
AcDbCircle
 10
21.3481157923
 20
45.51778258229999
 30
0.0
 40
0.75
100
AcDbArc
 50
194.4775122615
 51
278.5224907267
  0
ARC
  5
198F
330
213
100
AcDbEntity
  8
DEFAULT_2
  6
HIDDEN
 62
     7
100
AcDbCircle
 10
73.85236161729999
 20
45.26778258229999
 30
0.0
 40
0.2499999998
100
AcDbArc
 50
89.99999992899999
 51
165.5224877969
  0
ARC
  5
1990
330
213
100
AcDbEntity
  8
DEFAULT_2
  6
HIDDEN
 62
     7
100
AcDbCircle
 10
67.80706240169999
 20
27.8302825823
 30
0.0
 40
0.25
100
AcDbArc
 50
270.0
 51
315.0
  0
ARC
  5
1991
330
213
100
AcDbEntity
  8
DEFAULT_2
  6
HIDDEN
 62
     7
100
AcDbCircle
 10
65.2641691829
 20
27.8302825823
 30
0.0
 40
0.25
100
AcDbArc
 50
225.0
 51
270.0
  0
ARC
  5
1992
330
213
100
AcDbEntity
  8
DEFAULT_2
  6
HIDDEN
 62
     7
100
AcDbCircle
 10
68.5238019449
 20
27.8399153478
 30
0.0
 40
0.2499999998
100
AcDbArc
 50
95.43040870770001
 51
134.999999454
  0
ARC
  5
1993
330
213
100
AcDbEntity
  8
DEFAULT_2
  6
HIDDEN
 62
     7
100
AcDbCircle
 10
64.55457782429999
 20
27.832767162
 30
0.0
 40
0.2499999999
100
AcDbArc
 50
45.00000040069999
 51
88.61849169580001
  0
ARC
  5
1994
330
213
100
AcDbEntity
  8
DEFAULT_2
  6
HIDDEN
 62
     7
100
AcDbCircle
 10
20.3798699669
 20
45.26778258229999
 30
0.0
 40
0.2499999998
100
AcDbArc
 50
14.4775122023
 51
90.00000006809999
  0
ARC
  5
1995
330
213
100
AcDbEntity
  8
DEFAULT_2
  6
HIDDEN
 62
     7
100
AcDbCircle
 10
72.99259243219999
 20
44.5236835855
 30
0.0
 40
0.2499999988
100
AcDbArc
 50
96.2275046591
 51
171.7500002329999
  0
ARC
  5
1996
330
213
100
AcDbEntity
  8
DEFAULT_2
  6
HIDDEN
 62
     7
100
AcDbCircle
 10
21.4963134333
 20
44.5288248168
 30
0.0
 40
0.2499999988
100
AcDbArc
 50
22.999999826
 51
98.5224942524
  0
ARC
  5
1997
330
213
100
AcDbEntity
  8
0
  6
Continuous
 62
     7
100
AcDbCircle
 10
76.43153299879999
 20
45.76778258229999
 30
0.0
 40
0.5
100
AcDbArc
 50
270.0
 51
343.3685445908
  0
ARC
  5
1998
330
213
100
AcDbEntity
  8
0
  6
Continuous
 62
     7
100
AcDbCircle
 10
17.3896985858
 20
45.76778258229999
 30
0.0
 40
0.5
100
AcDbArc
 50
196.6314554092
 51
270.0
  0
ARC
  5
1999
330
213
100
AcDbEntity
  8
0
  6
Continuous
 62
     7
100
AcDbCircle
 10
16.8440443353
 20
46.26778258229999
 30
0.0
 40
0.25
100
AcDbArc
 50
5.0
 51
74.556629082
  0
ARC
  5
199A
330
213
100
AcDbEntity
  8
0
  6
Continuous
 62
     7
100
AcDbCircle
 10
76.43153299879999
 20
45.76778258229999
 30
0.0
 40
0.25
100
AcDbArc
 50
270.0
 51
355.0
  0
ARC
  5
199B
330
213
100
AcDbEntity
  8
0
  6
Continuous
 62
     7
100
AcDbCircle
 10
17.3896985858
 20
45.76778258229999
 30
0.0
 40
0.25
100
AcDbArc
 50
185.0
 51
270.0
  0
ARC
  5
199C
330
213
100
AcDbEntity
  8
0
  6
Continuous
 62
     7
100
AcDbCircle
 10
76.9771869157
 20
46.26778258229999
 30
0.0
 40
0.2499998338
100
AcDbArc
 50
105.4432972178
 51
174.9999933359999
  0
LINE
  5
2029
330
213
100
AcDbEntity
  8
DEFAULT_2
  6
HIDDEN
 62
     8
100
AcDbLine
 10
27.8746833848
 20
30.14215287879999
 30
0.0
 11
21.7264395865
 21
44.62650757659998
 31
0.0
  0
LINE
  5
202A
330
213
100
AcDbEntity
  8
DEFAULT_2
  6
HIDDEN
 62
     8
100
AcDbLine
 10
65.0873924876
 20
27.65350588699999
 30
0.0
 11
64.73135451729999
 21
28.00954385729999
 31
0.0
  0
LINE
  5
202B
330
213
100
AcDbEntity
  8
DEFAULT_2
  6
HIDDEN
 62
     8
100
AcDbLine
 10
67.80706240169999
 20
27.58028258229999
 30
0.0
 11
65.2641691829
 21
27.58028258229999
 31
0.0
  0
LINE
  5
202C
330
213
100
AcDbEntity
  8
DEFAULT_2
  6
HIDDEN
 62
     8
100
AcDbLine
 10
64.5606052073
 20
28.08269449269999
 30
0.0
 11
29.6674740089
 21
28.92419649029999
 31
0.0
  0
LINE
  5
202D
330
213
100
AcDbEntity
  8
DEFAULT_2
  6
HIDDEN
 62
     8
100
AcDbLine
 10
68.81846464819999
 20
28.11905405919999
 30
0.0
 11
68.5001427758
 21
28.08879331689999
 31
0.0
  0
LINE
  5
202E
330
213
100
AcDbEntity
  8
DEFAULT_2
  6
HIDDEN
 62
     8
100
AcDbLine
 10
70.60849404169999
 20
29.82309256889998
 30
0.0
 11
72.7451796542
 21
44.55955671759999
 31
0.0
  0
LINE
  5
202F
330
213
100
AcDbEntity
  8
0
  6
Continuous
 62
     7
100
AcDbLine
 10
17.3896985858
 20
44.76778258229999
 30
0.0
 11
76.43153299879999
 21
44.76778258229999
 31
0.0
  0
LINE
  5
2030
330
213
100
AcDbEntity
  8
DEFAULT_2
  6
HIDDEN
 62
     8
100
AcDbLine
 10
68.34702525299999
 20
28.01669204299999
 30
0.0
 11
67.983839097
 21
27.65350588699999
 31
0.0
  0
LINE
  5
2031
330
213
100
AcDbEntity
  8
0
  6
Continuous
 62
     7
100
AcDbLine
 10
16.9106157923
 20
44.76778258229999
 30
0.0
 11
16.9106157923
 21
46.51778258229999
 31
0.0
  0
LINE
  5
2032
330
213
100
AcDbEntity
  8
0
  6
Continuous
 62
     7
100
AcDbLine
 10
21.6113764798
 20
44.57766618559999
 30
0.0
 11
27.7596202781
 21
30.09331148779999
 31
0.0
  0
LWPOLYLINE
  5
2033
330
213
100
AcDbEntity
  8
0
  6
Continuous
 62
     7
100
AcDbPolyline
 90
        3
 70
     0
 43
0.0
 10
31.5328906612
 20
28.44599661499999
 10
31.7075850545
 20
28.12069405039999
 10
31.9191377139
 20
27.72444001059998
  0
LINE
  5
2034
330
213
100
AcDbEntity
  8
0
  6
Continuous
 62
     7
100
AcDbLine
 10
32.0808375056
 20
27.41912741059999
 30
0.0
 11
32.0810383142
 21
27.41875245059999
 31
0.0
  0
LINE
  5
2035
330
213
100
AcDbEntity
  8
0
  6
Continuous
 62
     7
100
AcDbLine
 10
31.9191377139
 20
27.72444001059998
 30
0.0
 11
32.0809966443
 21
27.41865544639999
 31
0.0
  0
LWPOLYLINE
  5
2036
330
213
100
AcDbEntity
  8
0
  6
Continuous
 62
     9
100
AcDbPolyline
 90
        4
 70
     0
 43
0.0
 10
32.0790431362
 20
27.42609668559999
 10
31.9045291476
 20
27.75667601349999
 10
31.7239139295
 20
28.09583912939999
 10
31.5378312871
 20
28.44319485699999
  0
LINE
  5
2037
330
213
100
AcDbEntity
  8
0
  6
Continuous
 62
     7
100
AcDbLine
 10
31.0568338857
 20
28.69985805239999
 30
0.0
 11
31.0555677545
 21
28.64687331939999
 31
0.0
  0
LINE
  5
2038
330
213
100
AcDbEntity
  8
0
  6
Continuous
 62
     9
100
AcDbLine
 10
31.0591139405
 20
28.64712047159999
 30
0.0
 11
31.0603793876
 21
28.70010518109999
 31
0.0
  0
LWPOLYLINE
  5
2039
330
213
100
AcDbEntity
  8
0
  6
Continuous
 62
     9
100
AcDbPolyline
 90
        3
 70
     0
 43
0.0
 10
32.22594716400001
 20
27.22067373329999
 10
32.4227938393
 20
27.06154696139999
 10
32.6557578421
 20
26.96104149859999
  0
LWPOLYLINE
  5
203A
330
213
100
AcDbEntity
  8
0
  6
Continuous
 62
     7
100
AcDbPolyline
 90
        4
 70
     0
 43
0.0
 10
32.5208467613
 20
28.45626762629999
 10
32.4396061208
 20
28.54456221279999
 10
32.3346370729
 20
28.60267859079998
 10
32.2166855831
 20
28.62466735079999
  0
LWPOLYLINE
  5
203B
330
213
100
AcDbEntity
  8
0
  6
Continuous
 62
     7
100
AcDbPolyline
 90
        3
 70
     0
 43
0.0
 10
31.4752540928
 20
28.52583805809999
 10
31.50905771110001
 20
28.48452055779999
 10
31.5328914286
 20
28.44599525569999
  0
LINE
  5
203C
330
213
100
AcDbEntity
  8
0
  6
Continuous
 62
     9
100
AcDbLine
 10
32.0790431362
 20
27.42609668559999
 30
0.0
 11
32.22594716400001
 21
27.22067373329999
 31
0.0
  0
LWPOLYLINE
  5
203D
330
213
100
AcDbEntity
  8
0
  6
Continuous
 62
     9
100
AcDbPolyline
 90
        5
 70
     0
 43
0.0
 10
31.5378325784
 20
28.44319079509999
 10
31.4804912145
 20
28.52417021789999
 10
31.4039581999
 20
28.58722391369999
 10
31.3135999142
 20
28.62793132339999
 10
31.2157526548
 20
28.64343755699999
  0
LWPOLYLINE
  5
203E
330
213
100
AcDbEntity
  8
0
  6
Continuous
 62
     7
100
AcDbPolyline
 90
        5
 70
     0
 43
0.0
 10
32.0808375056
 20
27.41912741059999
 10
32.1463169161
 20
27.31288091109999
 10
32.2706718221
 20
27.17091996369999
 10
32.4112644976
 20
27.06242177769999
 10
32.5587633327
 20
26.98699011469999
  0
LWPOLYLINE
  5
203F
330
213
100
AcDbEntity
  8
0
  6
Continuous
 62
     9
100
AcDbPolyline
 90
        4
 70
     0
 43
0.0
 10
33.0461574309
 20
26.56994729929999
 10
32.96531304510001
 20
26.74332458699999
 10
32.8298469469
 20
26.87903205619999
 10
32.6557578483
 20
26.96104155369999
  0
LWPOLYLINE
  5
2040
330
213
100
AcDbEntity
  8
0
  6
Continuous
 62
     7
100
AcDbPolyline
 90
        5
 70
     0
 43
0.0
 10
32.5700420895
 20
28.34683367879999
 10
32.5207017244
 20
28.45680620659999
 10
32.4394575073
 20
28.54510264759999
 10
32.3344837943
 20
28.60321858369998
 10
32.21652772320001
 20
28.62520422289998
  0
LINE
  5
2041
330
213
100
AcDbEntity
  8
0
  6
Continuous
 62
     7
100
AcDbLine
 10
32.5698986634
 20
28.34736892019999
 30
0.0
 11
33.0861412279
 21
26.42072544039999
 31
0.0
  0
LINE
  5
2042
330
213
100
AcDbEntity
  8
0
  6
Continuous
 62
     7
100
AcDbLine
 10
32.0790431362
 20
27.42609668559999
 30
0.0
 11
32.0808375056
 21
27.41912741059999
 31
0.0
  0
LINE
  5
2043
330
213
100
AcDbEntity
  8
0
  6
Continuous
 62
     9
100
AcDbLine
 10
32.7421366361
 20
28.61784567029999
 30
0.0
 11
32.74332437050001
 21
28.67082969309999
 31
0.0
  0
LINE
  5
2044
330
213
100
AcDbEntity
  8
0
  6
Continuous
 62
     7
100
AcDbLine
 10
32.1222837541
 20
28.62773494519999
 30
0.0
 11
32.123529363
 21
28.68073777559999
 31
0.0
  0
LINE
  5
2045
330
213
100
AcDbEntity
  8
0
  6
Continuous
 62
     9
100
AcDbLine
 10
32.0410833028
 20
28.62857349359999
 30
0.0
 11
32.0423369923
 21
28.68155828119999
 31
0.0
  0
LINE
  5
2046
330
213
100
AcDbEntity
  8
0
  6
Continuous
 62
     7
100
AcDbLine
 10
32.5587633327
 20
26.98699011469999
 30
0.0
 11
32.6581583535
 21
26.95311632079999
 31
0.0
  0
LINE
  5
2047
330
213
100
AcDbEntity
  8
0
  6
Continuous
 62
     9
100
AcDbLine
 10
31.5328913621
 20
28.44599530979999
 30
0.0
 11
31.5378312871
 21
28.44319485699999
 31
0.0
  0
LWPOLYLINE
  5
2048
330
213
100
AcDbEntity
  8
0
  6
Continuous
 62
     7
100
AcDbPolyline
 90
        3
 70
     0
 43
0.0
 10
31.3976049286
 20
28.58866308029999
 10
31.4376435376
 20
28.56056342959999
 10
31.4752540928
 20
28.52583805809999
  0
LINE
  5
2049
330
213
100
AcDbEntity
  8
0
  6
Continuous
 62
     9
100
AcDbLine
 10
35.566700116
 20
28.55595705829998
 30
0.0
 11
35.5678203285
 21
28.60893850949999
 31
0.0
  0
LINE
  5
204A
330
213
100
AcDbEntity
  8
0
  6
Continuous
 62
     9
100
AcDbLine
 10
36.1740196903
 20
28.53542192179999
 30
0.0
 11
36.1751908259
 21
28.58840546579999
 31
0.0
  0
LWPOLYLINE
  5
204B
330
213
100
AcDbEntity
  8
0
  6
Continuous
 62
     7
100
AcDbPolyline
 90
        3
 70
     0
 43
0.0
 10
31.3150136204
 20
28.62608395319999
 10
31.3564425084
 20
28.61033286929999
 10
31.3976049286
 20
28.58866308029999
  0
LWPOLYLINE
  5
204C
330
213
100
AcDbEntity
  8
0
  6
Continuous
 62
     7
100
AcDbPolyline
 90
        7
 70
     0
 43
0.0
 10
31.3192959168
 20
28.62471159449999
 10
31.3608069481
 20
28.60833708879999
 10
31.4019244431
 20
28.58599430799999
 10
31.4417645919
 20
28.55720140149999
 10
31.479025201
 20
28.52178655469999
 10
31.5123279219
 20
28.47980973149999
 10
31.5328914316
 20
28.44599525019999
  0
LINE
  5
204D
330
213
100
AcDbEntity
  8
0
  6
Continuous
 62
     9
100
AcDbLine
 10
36.32769786
 20
28.53037328049999
 30
0.0
 11
36.328881456
 21
28.58335719389998
 31
0.0
  0
LWPOLYLINE
  5
204E
330
213
100
AcDbEntity
  8
0
  6
Continuous
 62
     9
100
AcDbPolyline
 90
        3
 70
     0
 43
0.0
 10
35.72848763710001
 20
28.26616071189999
 10
35.5928398847
 20
27.75641581289999
 10
35.5212075243
 20
27.48852924689999
  0
LINE
  5
204F
330
213
100
AcDbEntity
  8
0
  6
Continuous
 62
     7
100
AcDbLine
 10
35.2350903567
 20
26.42072544039999
 30
0.0
 11
35.5212075243
 21
27.48852924689999
 31
0.0
  0
LWPOLYLINE
  5
2050
330
213
100
AcDbEntity
  8
0
  6
Continuous
 62
     7
100
AcDbPolyline
 90
       10
 70
     0
 43
0.0
 10
57.7515904037
 20
28.15070432389998
 10
57.74946234739999
 20
28.15025194879999
 10
57.7456611003
 20
28.14983368339999
 10
57.7401195578
 20
28.14946456149998
 10
57.7327575867
 20
28.14915402899999
 10
57.7235323172
 20
28.14891048939999
 10
57.71242377270001
 20
28.14874161719999
 10
57.69921540310001
 20
28.14865395409999
 10
57.68376511119999
 20
28.14865704039999
 10
57.66634279
 20
28.14876070849999
  0
LWPOLYLINE
  5
2051
330
213
100
AcDbEntity
  8
0
  6
Continuous
 62
     9
100
AcDbPolyline
 90
        8
 70
     0
 43
0.0
 10
57.8486419351
 20
28.14751226719999
 10
57.8572984735
 20
28.14871619549999
 10
57.87011295510001
 20
28.14979377829999
 10
57.8869207732
 20
28.15074235759999
 10
57.90756030649999
 20
28.15156002389999
 10
57.93185059939999
 20
28.15224461249999
 10
57.95956287590001
 20
28.15279390779999
 10
57.9904586948
 20
28.15320708619998
  0
LINE
  5
2052
330
213
100
AcDbEntity
  8
0
  6
Continuous
 62
     9
100
AcDbLine
 10
65.65921496939999
 20
27.96123309569999
 30
0.0
 11
65.76103098069999
 21
27.97439955709999
 31
0.0
  0
LINE
  5
2053
330
213
100
AcDbEntity
  8
0
  6
Continuous
 62
     7
100
AcDbLine
 10
68.8302942344
 20
27.99461507459999
 30
0.0
 11
68.51197236199999
 21
27.96435433229999
 31
0.0
  0
LWPOLYLINE
  5
2054
330
213
100
AcDbEntity
  8
0
  6
Continuous
 62
     7
100
AcDbPolyline
 90
        5
 70
     0
 43
0.0
 10
65.7243067223
 20
27.94907342149999
 10
65.8114635148
 20
27.95419978929999
 10
65.8725489544
 20
27.95991546879999
 10
65.90475095229999
 20
27.96600416109999
 10
65.9104696645
 20
27.96974469939998
  0
LINE
  5
2055
330
213
100
AcDbEntity
  8
0
  6
Continuous
 62
     7
100
AcDbLine
 10
65.6236853268
 20
27.94500649429999
 30
0.0
 11
65.7243067223
 21
27.94907342149999
 31
0.0
  0
LWPOLYLINE
  5
2056
330
213
100
AcDbEntity
  8
0
  6
Continuous
 62
     7
100
AcDbPolyline
 90
       15
 70
     0
 43
0.0
 10
64.410615526
 20
26.91790196049999
 10
64.4484033574
 20
26.91872945959999
 10
64.50661765949999
 20
26.92305154699999
 10
64.5681428608
 20
26.93162577989999
 10
64.6324506566
 20
26.94506806999999
 10
64.6983299477
 20
26.96373377029999
 10
64.7650512929
 20
26.98803796249999
 10
64.83167270439999
 20
27.01825690549999
 10
64.8976034227
 20
27.05476593399999
 10
64.96226597599999
 20
27.09791277319999
 10
65.024701021
 20
27.14762952439999
 10
65.0840274151
 20
27.20378784539999
 10
65.139377846
 20
27.26618538249999
 10
65.18987631529999
 20
27.33450031999999
 10
65.23464416569999
 20
27.40837908459999
  0
LINE
  5
2057
330
213
100
AcDbEntity
  8
0
  6
Continuous
 62
     7
100
AcDbLine
 10
33.7751571891
 20
26.39278258229999
 30
0.0
 11
34.5460743956
 21
26.39278258229999
 31
0.0
  0
LINE
  5
2058
330
213
100
AcDbEntity
  8
0
  6
Continuous
 62
     7
100
AcDbLine
 10
59.2751571891
 20
26.39278258229999
 30
0.0
 11
60.0460743956
 21
26.39278258229999
 31
0.0
  0
LINE
  5
2059
330
213
100
AcDbEntity
  8
0
  6
Continuous
 62
     7
100
AcDbLine
 10
64.41061567289999
 20
26.91778258229998
 30
0.0
 11
61.3021626314
 21
26.91778258229998
 31
0.0
  0
LINE
  5
205A
330
213
100
AcDbEntity
  8
0
  6
Continuous
 62
     7
100
AcDbLine
 10
58.0190689533
 20
26.91778258229998
 30
0.0
 11
35.8021626314
 21
26.91778258229998
 31
0.0
  0
LINE
  5
205B
330
213
100
AcDbEntity
  8
0
  6
Continuous
 62
     7
100
AcDbLine
 10
35.256583683
 20
26.50088409979999
 30
0.0
 11
35.3196223264
 21
26.64808390179999
 31
0.0
  0
LWPOLYLINE
  5
205C
330
213
100
AcDbEntity
  8
0
  6
Continuous
 62
     9
100
AcDbPolyline
 90
        5
 70
     0
 43
0.0
 10
35.72848765590001
 20
28.26616071439999
 10
35.7812142791
 20
28.37625978079999
 10
35.8663651479
 20
28.46355294279999
 10
35.9749102056
 20
28.51878294299999
 10
36.09533848989999
 20
28.53609275109999
  0
LWPOLYLINE
  5
205D
330
213
100
AcDbEntity
  8
0
  6
Continuous
 62
     7
100
AcDbPolyline
 90
        5
 70
     0
 43
0.0
 10
57.7526632021
 20
28.20367484619998
 10
57.7359633165
 20
28.20220052139998
 10
57.69925509770001
 20
28.20162145039999
 10
57.65034679300001
 20
28.20191025689999
 10
57.6010909761
 20
28.20273717799999
  0
LWPOLYLINE
  5
205E
330
213
100
AcDbEntity
  8
0
  6
Continuous
 62
     7
100
AcDbPolyline
 90
        3
 70
     0
 43
0.0
 10
32.1223931164
 20
28.62721034189999
 10
32.1211354898
 20
28.62715166809999
 10
32.1175046584
 20
28.62715521279999
  0
LINE
  5
205F
330
213
100
AcDbEntity
  8
0
  6
Continuous
 62
     9
100
AcDbLine
 10
68.3758975722
 20
27.92728262579999
 30
0.0
 11
68.4354136007
 21
27.92830369539999
 31
0.0
  0
LINE
  5
2060
330
213
100
AcDbEntity
  8
0
  6
Continuous
 62
     9
100
AcDbLine
 10
68.4487163109
 20
27.96340273359999
 30
0.0
 11
68.51197236029999
 21
27.96435433239999
 31
0.0
  0
LINE
  5
2061
330
213
100
AcDbEntity
  8
0
  6
Continuous
 62
     9
100
AcDbLine
 10
68.2630772837
 20
27.92590251829999
 30
0.0
 11
68.3758975722
 21
27.92728262579999
 31
0.0
  0
LINE
  5
2062
330
213
100
AcDbEntity
  8
0
  6
Continuous
 62
     9
100
AcDbLine
 10
68.32942870220001
 20
27.96213731119999
 30
0.0
 11
68.4487163109
 21
27.96340273359999
 31
0.0
  0
LINE
  5
2063
330
213
100
AcDbEntity
  8
0
  6
Continuous
 62
     9
100
AcDbLine
 10
66.3518530681
 20
27.92562320109999
 30
0.0
 11
67.05424301509999
 21
27.93025756899999
 31
0.0
  0
LINE
  5
2064
330
213
100
AcDbEntity
  8
0
  6
Continuous
 62
     9
100
AcDbLine
 10
66.39890599800001
 20
27.96218882429999
 30
0.0
 11
67.0222909086
 21
27.96595845819999
 31
0.0
  0
LWPOLYLINE
  5
2065
330
213
100
AcDbEntity
  8
0
  6
Continuous
 62
     9
100
AcDbPolyline
 90
        5
 70
     0
 43
0.0
 10
67.0222909086
 20
27.96595845819999
 10
67.14151205899999
 20
27.96655434449999
 10
67.258125382
 20
27.96690180609999
 10
67.37015288970001
 20
27.96695481579999
 10
67.475985529
 20
27.96673499139999
  0
LWPOLYLINE
  5
2066
330
213
100
AcDbEntity
  8
0
  6
Continuous
 62
     9
100
AcDbPolyline
 90
        3
 70
     0
 43
0.0
 10
68.14120750149999
 20
27.92501806119999
 10
68.181848075
 20
27.92521200349999
 10
68.2630772837
 20
27.92590251829999
  0
LWPOLYLINE
  5
2067
330
213
100
AcDbEntity
  8
0
  6
Continuous
 62
     7
100
AcDbPolyline
 90
        8
 70
     0
 43
0.0
 10
57.9707561218
 20
28.15773586029999
 10
57.9236155789
 20
28.15750873139999
 10
57.8799719034
 20
28.15704235519999
 10
57.8407372722
 20
28.15631987479999
 10
57.8070309166
 20
28.15532495899999
 10
57.78038669
 20
28.15405607219999
 10
57.7617122943
 20
28.15251945919999
 10
57.7515904037
 20
28.15070432389998
  0
LWPOLYLINE
  5
2068
330
213
100
AcDbEntity
  8
0
  6
Continuous
 62
     9
100
AcDbPolyline
 90
       10
 70
     0
 43
0.0
 10
57.7822715182
 20
28.14393375069999
 10
57.7940760545
 20
28.14398702309999
 10
57.8048579685
 20
28.14409275949999
 10
57.81449033600001
 20
28.14425033629999
 10
57.8228620606
 20
28.14445785989999
 10
57.8299353776
 20
28.14471413089999
 10
57.8356570547
 20
28.14501734119998
 10
57.83998312979999
 20
28.14536550049999
 10
57.842875156
 20
28.14575619939999
 10
57.8486419351
 20
28.14751226719999
  0
LWPOLYLINE
  5
2069
330
213
100
AcDbEntity
  8
0
  6
Continuous
 62
     9
100
AcDbPolyline
 90
        4
 70
     0
 43
0.0
 10
67.05424301509999
 20
27.93025756899999
 10
67.1652687952
 20
27.93070362719999
 10
67.2733747925
 20
27.93086327429999
 10
67.3763004315
 20
27.93073813579999
  0
LINE
  5
206A
330
213
100
AcDbEntity
  8
0
  6
Continuous
 62
     9
100
AcDbLine
 10
57.9904586948
 20
28.15320708619998
 30
0.0
 11
58.0609629309
 21
28.15362679259999
 31
0.0
  0
LINE
  5
206B
330
213
100
AcDbEntity
  8
0
  6
Continuous
 62
     9
100
AcDbLine
 10
65.79237329619999
 20
27.92328405169999
 30
0.0
 11
66.3518530681
 21
27.92562320109999
 31
0.0
  0
LINE
  5
206C
330
213
100
AcDbEntity
  8
0
  6
Continuous
 62
     9
100
AcDbLine
 10
65.87354776239999
 20
27.96010432149999
 30
0.0
 11
66.39890599800001
 21
27.96218882429999
 31
0.0
  0
LWPOLYLINE
  5
206D
330
213
100
AcDbEntity
  8
0
  6
Continuous
 62
     9
100
AcDbPolyline
 90
        3
 70
     0
 43
0.0
 10
68.20102891080001
 20
27.96139733899999
 10
68.2443967883
 20
27.96152078259999
 10
68.32942870220001
 20
27.96213731119999
  0
LINE
  5
206E
330
213
100
AcDbEntity
  8
0
  6
Continuous
 62
     9
100
AcDbLine
 10
65.5776337764
 20
27.92266811749999
 30
0.0
 11
65.79237329619999
 21
27.92328405169999
 31
0.0
  0
LINE
  5
206F
330
213
100
AcDbEntity
  8
0
  6
Continuous
 62
     7
100
AcDbLine
 10
67.80706240169999
 20
27.45528258229999
 30
0.0
 11
65.2641691829
 21
27.45528258229999
 31
0.0
  0
LINE
  5
2070
330
213
100
AcDbEntity
  8
0
  6
Continuous
 62
     7
100
AcDbLine
 10
32.1236065889
 20
28.68019956779999
 30
0.0
 11
32.1130258575
 21
28.68020053899999
 31
0.0
  0
LWPOLYLINE
  5
2071
330
213
100
AcDbEntity
  8
0
  6
Continuous
 62
     7
100
AcDbPolyline
 90
        3
 70
     0
 43
0.0
 10
32.1541833668
 20
28.62799300949999
 10
32.13075995510001
 20
28.62802508329999
 10
32.1222391821
 20
28.62773599489999
  0
LINE
  5
2072
330
213
100
AcDbEntity
  8
0
  6
Continuous
 62
     9
100
AcDbLine
 10
58.0609629309
 20
28.15362679259999
 30
0.0
 11
58.1422803596
 21
28.15350629299999
 31
0.0
  0
LINE
  5
2073
330
213
100
AcDbEntity
  8
0
  6
Continuous
 62
     7
100
AcDbLine
 10
31.08725129070001
 20
28.64703413979999
 30
0.0
 11
31.0591139405
 21
28.64712047159999
 31
0.0
  0
LINE
  5
2074
330
213
100
AcDbEntity
  8
0
  6
Continuous
 62
     7
100
AcDbLine
 10
58.07024726499999
 20
28.15756884769999
 30
0.0
 11
57.9707561218
 21
28.15773586029999
 31
0.0
  0
LINE
  5
2075
330
213
100
AcDbEntity
  8
0
  6
Continuous
 62
     9
100
AcDbLine
 10
57.7554983952
 20
28.14398553479999
 30
0.0
 11
57.7822715182
 21
28.14393375069999
 31
0.0
  0
LINE
  5
2076
330
213
100
AcDbEntity
  8
0
  6
Continuous
 62
     9
100
AcDbLine
 10
39.5830769323
 20
28.61244326729999
 30
0.0
 11
39.4667894663
 21
28.61282731999999
 31
0.0
  0
LINE
  5
2077
330
213
100
AcDbEntity
  8
0
  6
Continuous
 62
     9
100
AcDbLine
 10
68.042220988
 20
27.92527648549999
 30
0.0
 11
68.14120750149999
 21
27.92501806119999
 31
0.0
  0
LINE
  5
2078
330
213
100
AcDbEntity
  8
0
  6
Continuous
 62
     9
100
AcDbLine
 10
68.0932658467
 20
27.96179765139998
 30
0.0
 11
68.20102891080001
 21
27.96139733899999
 31
0.0
  0
LINE
  5
2079
330
213
100
AcDbEntity
  8
0
  6
Continuous
 62
     9
100
AcDbLine
 10
67.3763004315
 20
27.93073813579999
 30
0.0
 11
67.56726755789999
 21
27.92982215969999
 31
0.0
  0
LINE
  5
207A
330
213
100
AcDbEntity
  8
0
  6
Continuous
 62
     9
100
AcDbLine
 10
67.475985529
 20
27.96673499139999
 30
0.0
 11
67.67676156260001
 21
27.96565510269999
 31
0.0
  0
LINE
  5
207B
330
213
100
AcDbEntity
  8
0
  6
Continuous
 62
     9
100
AcDbLine
 10
39.4667894663
 20
28.61282731999999
 30
0.0
 11
39.3650118835
 21
28.61349744729999
 31
0.0
  0
LINE
  5
207C
330
213
100
AcDbEntity
  8
0
  6
Continuous
 62
     9
100
AcDbLine
 10
58.1422803596
 20
28.15350629299999
 30
0.0
 11
58.2336992838
 21
28.15283413109998
 31
0.0
  0
LINE
  5
207D
330
213
100
AcDbEntity
  8
0
  6
Continuous
 62
     9
100
AcDbLine
 10
67.56726755789999
 20
27.92982215969999
 30
0.0
 11
67.7506210186
 21
27.92825126059998
 31
0.0
  0
LINE
  5
207E
330
213
100
AcDbEntity
  8
0
  6
Continuous
 62
     9
100
AcDbLine
 10
67.67676156260001
 20
27.96565510269999
 30
0.0
 11
67.8659445695
 21
27.96401460999998
 31
0.0
  0
LINE
  5
207F
330
213
100
AcDbEntity
  8
0
  6
Continuous
 62
     7
100
AcDbLine
 10
58.1705431503
 20
28.15675885149999
 30
0.0
 11
58.07024726499999
 21
28.15756884769999
 31
0.0
  0
LWPOLYLINE
  5
2080
330
213
100
AcDbEntity
  8
0
  6
Continuous
 62
     7
100
AcDbPolyline
 90
        3
 70
     0
 43
0.0
 10
32.2323742371
 20
28.68019196819999
 10
32.1539878841
 20
28.68098587969999
 10
32.123529363
 20
28.68073777559999
  0
LINE
  5
2081
330
213
100
AcDbEntity
  8
0
  6
Continuous
 62
     9
100
AcDbLine
 10
57.72569439939999
 20
28.14424663179999
 30
0.0
 11
57.7554983952
 21
28.14398553479999
 31
0.0
  0
LINE
  5
2082
330
213
100
AcDbEntity
  8
0
  6
Continuous
 62
     9
100
AcDbLine
 10
67.8659445695
 20
27.96401460999998
 30
0.0
 11
68.0932658467
 21
27.96179765139998
 31
0.0
  0
LWPOLYLINE
  5
2083
330
213
100
AcDbEntity
  8
0
  6
Continuous
 62
     9
100
AcDbPolyline
 90
        3
 70
     0
 43
0.0
 10
40.40369230719999
 20
28.60380952879999
 10
39.64899433380001
 20
28.61183425589999
 10
39.5830769323
 20
28.61244326729999
  0
LINE
  5
2084
330
213
100
AcDbEntity
  8
0
  6
Continuous
 62
     9
100
AcDbLine
 10
39.3650118835
 20
28.61349744729999
 30
0.0
 11
39.2339976267
 21
28.61482617229999
 31
0.0
  0
LINE
  5
2085
330
213
100
AcDbEntity
  8
0
  6
Continuous
 62
     9
100
AcDbLine
 10
67.7506210186
 20
27.92825126059998
 30
0.0
 11
68.042220988
 21
27.92527648549999
 31
0.0
  0
LWPOLYLINE
  5
2086
330
213
100
AcDbEntity
  8
0
  6
Continuous
 62
     9
100
AcDbPolyline
 90
        3
 70
     0
 43
0.0
 10
65.76184781270001
 20
28.16819547109999
 10
65.6603566555
 20
28.16936940029999
 10
65.6194539455
 20
28.16984500329999
  0
LINE
  5
2087
330
213
100
AcDbEntity
  8
0
  6
Continuous
 62
     7
100
AcDbLine
 10
32.2334333503
 20
28.62717816279999
 30
0.0
 11
32.1541833668
 21
28.62799300949999
 31
0.0
  0
LINE
  5
2088
330
213
100
AcDbEntity
  8
0
  6
Continuous
 62
     7
100
AcDbLine
 10
44.4695472445
 20
28.38089241169999
 30
0.0
 11
42.9354329219
 21
28.39855773459999
 31
0.0
  0
LWPOLYLINE
  5
2089
330
213
100
AcDbEntity
  8
0
  6
Continuous
 62
     9
100
AcDbPolyline
 90
        3
 70
     0
 43
0.0
 10
65.6194539455
 20
28.16984500329999
 10
65.5295130585
 20
28.17089975619999
 10
65.48056164640001
 20
28.17147789219999
  0
LINE
  5
208A
330
213
100
AcDbEntity
  8
0
  6
Continuous
 62
     7
100
AcDbLine
 10
44.43486970699999
 20
28.43422668339999
 30
0.0
 11
43.05332567979999
 21
28.45004532999999
 31
0.0
  0
LWPOLYLINE
  5
208B
330
213
100
AcDbEntity
  8
0
  6
Continuous
 62
     9
100
AcDbPolyline
 90
        3
 70
     0
 43
0.0
 10
65.48056164640001
 20
28.17147789219999
 10
65.3730499086
 20
28.17275645109999
 10
65.3136815549
 20
28.17346783979999
  0
LINE
  5
208C
330
213
100
AcDbEntity
  8
0
  6
Continuous
 62
     9
100
AcDbLine
 10
65.3136815549
 20
28.17346783979999
 30
0.0
 11
65.1817538734
 21
28.17506292479999
 31
0.0
  0
LINE
  5
208D
330
213
100
AcDbEntity
  8
0
  6
Continuous
 62
     9
100
AcDbLine
 10
65.1817538734
 20
28.17506292479999
 30
0.0
 11
65.03128027089999
 21
28.17690650949999
 31
0.0
  0
LINE
  5
208E
330
213
100
AcDbEntity
  8
0
  6
Continuous
 62
     7
100
AcDbLine
 10
45.09629843229999
 20
28.42619505859999
 30
0.0
 11
44.43486970699999
 21
28.43422668339999
 31
0.0
  0
LINE
  5
208F
330
213
100
AcDbEntity
  8
0
  6
Continuous
 62
     9
100
AcDbLine
 10
42.26629307849999
 20
28.58211090019999
 30
0.0
 11
40.40369230719999
 21
28.60380952879999
 31
0.0
  0
LINE
  5
2090
330
213
100
AcDbEntity
  8
0
  6
Continuous
 62
     9
100
AcDbLine
 10
44.6742661695
 20
28.37132228159998
 30
0.0
 11
45.77318561609999
 21
28.35791729489999
 31
0.0
  0
LWPOLYLINE
  5
2091
330
213
100
AcDbEntity
  8
0
  6
Continuous
 62
     7
100
AcDbPolyline
 90
        3
 70
     0
 43
0.0
 10
43.05332567979999
 20
28.45004532999999
 10
42.8659965746
 20
28.45239997589999
 10
42.67625651369999
 20
28.45508266969999
  0
LINE
  5
2092
330
213
100
AcDbEntity
  8
0
  6
Continuous
 62
     9
100
AcDbLine
 10
65.03128027089999
 20
28.17690650949999
 30
0.0
 11
64.86120282839999
 21
28.17902092079999
 31
0.0
  0
LINE
  5
2093
330
213
100
AcDbEntity
  8
0
  6
Continuous
 62
     7
100
AcDbLine
 10
45.4865087176
 20
28.36835648649999
 30
0.0
 11
44.4695472445
 21
28.38089241169999
 31
0.0
  0
LINE
  5
2094
330
213
100
AcDbEntity
  8
0
  6
Continuous
 62
     7
100
AcDbLine
 10
45.9065105299
 20
28.41585613139999
 30
0.0
 11
45.09629843229999
 21
28.42619505859999
 31
0.0
  0
LINE
  5
2095
330
213
100
AcDbEntity
  8
0
  6
Continuous
 62
     9
100
AcDbLine
 10
64.86120282839999
 20
28.17902092079999
 30
0.0
 11
64.5594177591
 21
28.18285241509999
 31
0.0
  0
LINE
  5
2096
330
213
100
AcDbEntity
  8
0
  6
Continuous
 62
     9
100
AcDbLine
 10
45.77318561609999
 20
28.35791729489999
 30
0.0
 11
46.5577815752
 21
28.34772197539999
 31
0.0
  0
LINE
  5
2097
330
213
100
AcDbEntity
  8
0
  6
Continuous
 62
     9
100
AcDbLine
 10
43.2505092993
 20
28.56946627399999
 30
0.0
 11
42.26629307849999
 21
28.58211090019999
 31
0.0
  0
LINE
  5
2098
330
213
100
AcDbEntity
  8
0
  6
Continuous
 62
     9
100
AcDbLine
 10
58.2336992838
 20
28.15283413109998
 30
0.0
 11
58.3276237701
 21
28.15168451649999
 31
0.0
  0
LINE
  5
2099
330
213
100
AcDbEntity
  8
0
  6
Continuous
 62
     7
100
AcDbLine
 10
46.3382018556
 20
28.35718356729999
 30
0.0
 11
45.4865087176
 21
28.36835648649999
 31
0.0
  0
LWPOLYLINE
  5
209A
330
213
100
AcDbEntity
  8
0
  6
Continuous
 62
     7
100
AcDbPolyline
 90
        7
 70
     0
 43
0.0
 10
58.277466695
 20
28.20833304639999
 10
58.1774580255
 20
28.20966567959999
 10
58.0728147761
 20
28.21053178979999
 10
57.9670238855
 20
28.21069445179999
 10
57.86912045930001
 20
28.20983028119999
 10
57.7914996279
 20
28.20758198219999
 10
57.7526632021
 20
28.20367484619998
  0
LWPOLYLINE
  5
209B
330
213
100
AcDbEntity
  8
0
  6
Continuous
 62
     7
100
AcDbPolyline
 90
        4
 70
     0
 43
0.0
 10
64.40776140060001
 20
28.08593227389998
 10
63.5463901726
 20
28.09769034909999
 10
62.64735243829999
 20
28.11095087089999
 10
61.709175323
 20
28.12583816949999
  0
LINE
  5
209C
330
213
100
AcDbEntity
  8
0
  6
Continuous
 62
     9
100
AcDbLine
 10
64.5594177591
 20
28.18285241509999
 30
0.0
 11
63.90359478019999
 21
28.19152962649999
 31
0.0
  0
LINE
  5
209D
330
213
100
AcDbEntity
  8
0
  6
Continuous
 62
     9
100
AcDbLine
 10
46.5577815752
 20
28.34772197539999
 30
0.0
 11
47.2019043427
 21
28.33895781129999
 31
0.0
  0
LWPOLYLINE
  5
209E
330
213
100
AcDbEntity
  8
0
  6
Continuous
 62
     7
100
AcDbPolyline
 90
        4
 70
     0
 43
0.0
 10
42.9354329219
 20
28.39855773459999
 10
42.6668764729
 20
28.40226601619999
 10
42.38410589309999
 20
28.40664023489999
 10
42.09261687629999
 20
28.41148161039999
  0
LINE
  5
209F
330
213
100
AcDbEntity
  8
0
  6
Continuous
 62
     9
100
AcDbLine
 10
39.2339976267
 20
28.61482617229999
 30
0.0
 11
39.0036322795
 21
28.61781489899999
 31
0.0
  0
LINE
  5
20A0
330
213
100
AcDbEntity
  8
0
  6
Continuous
 62
     9
100
AcDbLine
 10
43.3302783676
 20
28.38703179989999
 30
0.0
 11
44.6742661695
 21
28.37132228159998
 31
0.0
  0
LINE
  5
20A1
330
213
100
AcDbEntity
  8
0
  6
Continuous
 62
     7
100
AcDbLine
 10
47.03849886729999
 20
28.34752814979999
 30
0.0
 11
46.3382018556
 21
28.35718356729999
 31
0.0
  0
LINE
  5
20A2
330
213
100
AcDbEntity
  8
0
  6
Continuous
 62
     9
100
AcDbLine
 10
44.22000260819999
 20
28.55619557979999
 30
0.0
 11
43.2505092993
 21
28.56946627399999
 31
0.0
  0
LINE
  5
20A3
330
213
100
AcDbEntity
  8
0
  6
Continuous
 62
     9
100
AcDbLine
 10
62.9708516789
 20
28.04951942939999
 30
0.0
 11
64.4069648363
 21
28.02936755009999
 31
0.0
  0
LWPOLYLINE
  5
20A4
330
213
100
AcDbEntity
  8
0
  6
Continuous
 62
     7
100
AcDbPolyline
 90
        3
 70
     0
 43
0.0
 10
63.7581190308
 20
28.04173178189999
 10
63.0902620563
 20
28.05131083169999
 10
62.4070136546
 20
28.06168055019999
  0
LINE
  5
20A5
330
213
100
AcDbEntity
  8
0
  6
Continuous
 62
     9
100
AcDbLine
 10
63.90359478019999
 20
28.19152962649999
 30
0.0
 11
63.196461653
 21
28.20141956989999
 31
0.0
  0
LINE
  5
20A6
330
213
100
AcDbEntity
  8
0
  6
Continuous
 62
     7
100
AcDbLine
 10
58.2764281851
 20
28.15536230309998
 30
0.0
 11
58.1705431503
 21
28.15675885149999
 31
0.0
  0
LINE
  5
20A7
330
213
100
AcDbEntity
  8
0
  6
Continuous
 62
     9
100
AcDbLine
 10
47.2019043427
 20
28.33895781129999
 30
0.0
 11
47.968517002
 21
28.32805780349998
 31
0.0
  0
LINE
  5
20A8
330
213
100
AcDbEntity
  8
0
  6
Continuous
 62
     9
100
AcDbLine
 10
45.0149047706
 20
28.54470121619998
 30
0.0
 11
44.22000260819999
 21
28.55619557979999
 31
0.0
  0
LINE
  5
20A9
330
213
100
AcDbEntity
  8
0
  6
Continuous
 62
     7
100
AcDbLine
 10
32.1175046584
 20
28.62715521279999
 30
0.0
 11
32.1036832687
 21
28.62733508689999
 31
0.0
  0
LINE
  5
20AA
330
213
100
AcDbEntity
  8
0
  6
Continuous
 62
     7
100
AcDbLine
 10
57.66634279
 20
28.14876070849999
 30
0.0
 11
57.62415810810001
 21
28.14930987599998
 31
0.0
  0
LINE
  5
20AB
330
213
100
AcDbEntity
  8
0
  6
Continuous
 62
     9
100
AcDbLine
 10
63.196461653
 20
28.20141956989999
 30
0.0
 11
62.52751206270001
 21
28.21127903359999
 31
0.0
  0
LWPOLYLINE
  5
20AC
330
213
100
AcDbEntity
  8
0
  6
Continuous
 62
     9
100
AcDbPolyline
 90
        8
 70
     0
 43
0.0
 10
47.968517002
 20
28.32805780349998
 10
48.88717685979999
 20
28.31431439069999
 10
49.4157507421
 20
28.30606490279999
 10
49.9990307422
 20
28.29666741909999
 10
50.6494335341
 20
28.28581929849999
 10
51.3176924436
 20
28.27426118939999
 10
51.9258116661
 20
28.26337365669999
 10
52.4587262154
 20
28.25353782479999
  0
LINE
  5
20AD
330
213
100
AcDbEntity
  8
0
  6
Continuous
 62
     9
100
AcDbLine
 10
66.00286024189999
 20
28.16496417339999
 30
0.0
 11
65.76184781270001
 21
28.16819547109999
 31
0.0
  0
LINE
  5
20AE
330
213
100
AcDbEntity
  8
0
  6
Continuous
 62
     9
100
AcDbLine
 10
39.0036322795
 20
28.61781489899999
 30
0.0
 11
38.7586637477
 21
28.62145900279999
 31
0.0
  0
LINE
  5
20AF
330
213
100
AcDbEntity
  8
0
  6
Continuous
 62
     9
100
AcDbLine
 10
57.69602923029999
 20
28.14466818109999
 30
0.0
 11
57.72569439939999
 21
28.14424663179999
 31
0.0
  0
LINE
  5
20B0
330
213
100
AcDbEntity
  8
0
  6
Continuous
 62
     9
100
AcDbLine
 10
62.52751206270001
 20
28.21127903359999
 30
0.0
 11
62.00049996659999
 21
28.21938616969999
 31
0.0
  0
LINE
  5
20B1
330
213
100
AcDbEntity
  8
0
  6
Continuous
 62
     9
100
AcDbLine
 10
64.4154704357
 20
28.02924819749998
 30
0.0
 11
64.57797702419999
 21
28.02684777349999
 31
0.0
  0
LINE
  5
20B2
330
213
100
AcDbEntity
  8
0
  6
Continuous
 62
     9
100
AcDbLine
 10
42.9843578659
 20
28.39227024019999
 30
0.0
 11
43.3302783676
 21
28.38703179989999
 31
0.0
  0
LINE
  5
20B3
330
213
100
AcDbEntity
  8
0
  6
Continuous
 62
     7
100
AcDbLine
 10
42.67625651369999
 20
28.45508266969999
 30
0.0
 11
42.29750621109999
 21
28.46101913919999
 31
0.0
  0
LINE
  5
20B4
330
213
100
AcDbEntity
  8
0
  6
Continuous
 62
     7
100
AcDbLine
 10
31.2133999677
 20
28.64519928959999
 30
0.0
 11
31.08725129070001
 21
28.64703413979999
 31
0.0
  0
LINE
  5
20B5
330
213
100
AcDbEntity
  8
0
  6
Continuous
 62
     9
100
AcDbLine
 10
62.00049996659999
 20
28.21938616969999
 30
0.0
 11
61.3964842778
 21
28.22903968279999
 31
0.0
  0
LINE
  5
20B6
330
213
100
AcDbEntity
  8
0
  6
Continuous
 62
     7
100
AcDbLine
 10
32.4048354158
 20
28.62455428189999
 30
0.0
 11
32.2334333503
 21
28.62717816279999
 31
0.0
  0
LINE
  5
20B7
330
213
100
AcDbEntity
  8
0
  6
Continuous
 62
     9
100
AcDbLine
 10
38.7586637477
 20
28.62145900279999
 30
0.0
 11
38.4325582475
 21
28.62676598209999
 31
0.0
  0
LINE
  5
20B8
330
213
100
AcDbEntity
  8
0
  6
Continuous
 62
     9
100
AcDbLine
 10
61.3964842778
 20
28.22903968279999
 30
0.0
 11
60.7028743751
 21
28.24059186279999
 31
0.0
  0
LINE
  5
20B9
330
213
100
AcDbEntity
  8
0
  6
Continuous
 62
     9
100
AcDbLine
 10
30.1347421617
 20
28.79132593379999
 30
0.0
 11
29.8416832701
 21
28.79627322199999
 31
0.0
  0
LINE
  5
20BA
330
213
100
AcDbEntity
  8
0
  6
Continuous
 62
     9
100
AcDbLine
 10
29.8416832701
 20
28.79627322199999
 30
0.0
 11
29.6644603169
 21
28.79923282469999
 31
0.0
  0
LINE
  5
20BB
330
213
100
AcDbEntity
  8
0
  6
Continuous
 62
     9
100
AcDbLine
 10
42.4707097863
 20
28.40089954959999
 30
0.0
 11
42.9843578659
 21
28.39227024019999
 31
0.0
  0
LINE
  5
20BC
330
213
100
AcDbEntity
  8
0
  6
Continuous
 62
     7
100
AcDbLine
 10
42.29750621109999
 20
28.46101913919999
 30
0.0
 11
41.92149786199999
 21
28.46742563249998
 31
0.0
  0
LINE
  5
20BD
330
213
100
AcDbEntity
  8
0
  6
Continuous
 62
     9
100
AcDbLine
 10
60.7028743751
 20
28.24059186279999
 30
0.0
 11
59.90464328369999
 21
28.25448656539999
 31
0.0
  0
LWPOLYLINE
  5
20BE
330
213
100
AcDbEntity
  8
0
  6
Continuous
 62
     7
100
AcDbPolyline
 90
        4
 70
     0
 43
0.0
 10
60.324365628
 20
28.11751140389999
 10
59.68829615709999
 20
28.12889163539999
 10
59.03622163529999
 20
28.14096877699999
 10
58.2764281851
 20
28.15536230309998
  0
LINE
  5
20BF
330
213
100
AcDbEntity
  8
0
  6
Continuous
 62
     9
100
AcDbLine
 10
38.4325582475
 20
28.62676598209999
 30
0.0
 11
37.986934013
 21
28.63456211509999
 31
0.0
  0
LINE
  5
20C0
330
213
100
AcDbEntity
  8
0
  6
Continuous
 62
     7
100
AcDbLine
 10
42.09261687629999
 20
28.41148161039999
 30
0.0
 11
41.4915057444
 21
28.42219548729999
 31
0.0
  0
LINE
  5
20C1
330
213
100
AcDbEntity
  8
0
  6
Continuous
 62
     9
100
AcDbLine
 10
41.9925872284
 20
28.40953956249999
 30
0.0
 11
42.4707097863
 21
28.40089954959999
 31
0.0
  0
LINE
  5
20C2
330
213
100
AcDbEntity
  8
0
  6
Continuous
 62
     7
100
AcDbLine
 10
41.92149786199999
 20
28.46742563249998
 30
0.0
 11
41.53053086849999
 21
28.47446381139999
 31
0.0
  0
LINE
  5
20C3
330
213
100
AcDbEntity
  8
0
  6
Continuous
 62
     7
100
AcDbLine
 10
60.11207197970001
 20
28.17425232759999
 30
0.0
 11
59.2519933408
 21
28.18991653859999
 31
0.0
  0
LINE
  5
20C4
330
213
100
AcDbEntity
  8
0
  6
Continuous
 62
     9
100
AcDbLine
 10
31.4359669704
 20
28.76967595989999
 30
0.0
 11
30.1347421617
 21
28.79132593379999
 31
0.0
  0
LWPOLYLINE
  5
20C5
330
213
100
AcDbEntity
  8
0
  6
Continuous
 62
     9
100
AcDbPolyline
 90
        8
 70
     0
 43
0.0
 10
59.90464328369999
 20
28.25448656539999
 10
58.98306305720001
 20
28.27129593109999
 10
58.46906754399999
 20
28.28101325099999
 10
57.9148100528
 20
28.29175433419999
 10
57.3164018041
 20
28.30364426249999
 10
56.664604232
 20
28.31692424429999
 10
55.98359021140001
 20
28.33114444049999
 10
55.3340914892
 20
28.34501277439999
  0
LINE
  5
20C6
330
213
100
AcDbEntity
  8
0
  6
Continuous
 62
     9
100
AcDbLine
 10
58.3276237701
 20
28.15168451649999
 30
0.0
 11
58.4460031446
 21
28.14967517059999
 31
0.0
  0
LINE
  5
20C7
330
213
100
AcDbEntity
  8
0
  6
Continuous
 62
     7
100
AcDbLine
 10
31.4214189613
 20
28.64138483839999
 30
0.0
 11
31.2133999677
 21
28.64519928959999
 31
0.0
  0
LINE
  5
20C8
330
213
100
AcDbEntity
  8
0
  6
Continuous
 62
     9
100
AcDbLine
 10
64.57797702419999
 20
28.02684777349999
 30
0.0
 11
64.72577582609999
 21
28.02417854819999
 31
0.0
  0
LINE
  5
20C9
330
213
100
AcDbEntity
  8
0
  6
Continuous
 62
     9
100
AcDbLine
 10
58.4460031446
 20
28.14967517059999
 30
0.0
 11
59.6191188182
 21
28.12750507799999
 31
0.0
  0
LINE
  5
20CA
330
213
100
AcDbEntity
  8
0
  6
Continuous
 62
     7
100
AcDbLine
 10
59.2519933408
 20
28.18991653859999
 30
0.0
 11
58.277466695
 21
28.20833304639999
 31
0.0
  0
LINE
  5
20CB
330
213
100
AcDbEntity
  8
0
  6
Continuous
 62
     9
100
AcDbLine
 10
37.986934013
 20
28.63456211509999
 30
0.0
 11
37.3757153718
 21
28.64593173629999
 31
0.0
  0
LINE
  5
20CC
330
213
100
AcDbEntity
  8
0
  6
Continuous
 62
     7
100
AcDbLine
 10
41.53053086849999
 20
28.47446381139999
 30
0.0
 11
40.90226167189999
 21
28.48635033879999
 31
0.0
  0
LINE
  5
20CD
330
213
100
AcDbEntity
  8
0
  6
Continuous
 62
     9
100
AcDbLine
 10
66.29427391649999
 20
28.15974291869999
 30
0.0
 11
66.00286024189999
 21
28.16496417339999
 31
0.0
  0
LINE
  5
20CE
330
213
100
AcDbEntity
  8
0
  6
Continuous
 62
     9
100
AcDbLine
 10
41.364909053
 20
28.42148838439999
 30
0.0
 11
41.9925872284
 21
28.40953956249999
 31
0.0
  0
LINE
  5
20CF
330
213
100
AcDbEntity
  8
0
  6
Continuous
 62
     7
100
AcDbLine
 10
41.4915057444
 20
28.42219548729999
 30
0.0
 11
40.76874647469999
 21
28.43595351789998
 31
0.0
  0
LINE
  5
20D0
330
213
100
AcDbEntity
  8
0
  6
Continuous
 62
     9
100
AcDbLine
 10
52.4587262154
 20
28.25353782479999
 30
0.0
 11
53.35912681039999
 21
28.23628045309999
 31
0.0
  0
LWPOLYLINE
  5
20D1
330
213
100
AcDbEntity
  8
0
  6
Continuous
 62
     7
100
AcDbPolyline
 90
        4
 70
     0
 43
0.0
 10
32.5976928546
 20
28.67394163979999
 10
32.4673502946
 20
28.67645241589999
 10
32.3426300456
 20
28.67859002159999
 10
32.2323742371
 20
28.68019196819999
  0
LINE
  5
20D2
330
213
100
AcDbEntity
  8
0
  6
Continuous
 62
     7
100
AcDbLine
 10
62.4070136546
 20
28.06168055019999
 30
0.0
 11
61.6825645913
 21
28.07338990099998
 31
0.0
  0
LINE
  5
20D3
330
213
100
AcDbEntity
  8
0
  6
Continuous
 62
     9
100
AcDbLine
 10
37.3757153718
 20
28.64593173629999
 30
0.0
 11
36.8492154924
 21
28.65616535539999
 31
0.0
  0
LINE
  5
20D4
330
213
100
AcDbEntity
  8
0
  6
Continuous
 62
     7
100
AcDbLine
 10
32.59709805550001
 20
28.62094540429999
 30
0.0
 11
32.4048354158
 21
28.62455428189999
 31
0.0
  0
LINE
  5
20D5
330
213
100
AcDbEntity
  8
0
  6
Continuous
 62
     7
100
AcDbLine
 10
40.90226167189999
 20
28.48635033879999
 30
0.0
 11
40.1728458988
 21
28.50079553479999
 31
0.0
  0
LINE
  5
20D6
330
213
100
AcDbEntity
  8
0
  6
Continuous
 62
     9
100
AcDbLine
 10
61.61911557839999
 20
28.07094926079999
 30
0.0
 11
62.9708516789
 21
28.04951942939999
 31
0.0
  0
LINE
  5
20D7
330
213
100
AcDbEntity
  8
0
  6
Continuous
 62
     9
100
AcDbLine
 10
40.54273831559999
 20
28.43788064409999
 30
0.0
 11
41.364909053
 21
28.42148838439999
 31
0.0
  0
LINE
  5
20D8
330
213
100
AcDbEntity
  8
0
  6
Continuous
 62
     7
100
AcDbLine
 10
40.76874647469999
 20
28.43595351789998
 30
0.0
 11
39.8492213889
 21
28.45437610919999
 31
0.0
  0
LINE
  5
20D9
330
213
100
AcDbEntity
  8
0
  6
Continuous
 62
     9
100
AcDbLine
 10
53.35912681039999
 20
28.23628045309999
 30
0.0
 11
54.0903141647
 21
28.22166162789999
 31
0.0
  0
LINE
  5
20DA
330
213
100
AcDbEntity
  8
0
  6
Continuous
 62
     9
100
AcDbLine
 10
36.8492154924
 20
28.65616535539999
 30
0.0
 11
36.2018042248
 21
28.66916401109999
 31
0.0
  0
LINE
  5
20DB
330
213
100
AcDbEntity
  8
0
  6
Continuous
 62
     7
100
AcDbLine
 10
40.1728458988
 20
28.50079553479999
 30
0.0
 11
39.3074776492
 21
28.51858882669999
 31
0.0
  0
LWPOLYLINE
  5
20DC
330
213
100
AcDbEntity
  8
0
  6
Continuous
 62
     7
100
AcDbPolyline
 90
        6
 70
     0
 43
0.0
 10
61.709175323
 20
28.12583816949999
 10
61.67044011739999
 20
28.12664423599999
 10
61.6371799885
 20
28.12755667389998
 10
61.6079569749
 20
28.12865072169999
 10
61.5827169205
 20
28.12997818099999
 10
61.5644563127
 20
28.13148122249998
  0
LINE
  5
20DD
330
213
100
AcDbEntity
  8
0
  6
Continuous
 62
     9
100
AcDbLine
 10
54.0903141647
 20
28.22166162789999
 30
0.0
 11
54.6932625196
 21
28.20918906039999
 31
0.0
  0
LINE
  5
20DE
330
213
100
AcDbEntity
  8
0
  6
Continuous
 62
     9
100
AcDbLine
 10
59.6191188182
 20
28.12750507799999
 30
0.0
 11
60.9792801988
 21
28.10325659279999
 31
0.0
  0
LINE
  5
20DF
330
213
100
AcDbEntity
  8
0
  6
Continuous
 62
     9
100
AcDbLine
 10
36.2018042248
 20
28.66916401109999
 30
0.0
 11
35.3036593379
 21
28.68777909469999
 31
0.0
  0
LINE
  5
20E0
330
213
100
AcDbEntity
  8
0
  6
Continuous
 62
     7
100
AcDbLine
 10
39.8492213889
 20
28.45437610919999
 30
0.0
 11
38.7952938827
 21
28.47637830169999
 31
0.0
  0
LINE
  5
20E1
330
213
100
AcDbEntity
  8
0
  6
Continuous
 62
     9
100
AcDbLine
 10
57.0126936229
 20
28.15896012869999
 30
0.0
 11
57.69602923029999
 21
28.14466818109999
 31
0.0
  0
LINE
  5
20E2
330
213
100
AcDbEntity
  8
0
  6
Continuous
 62
     7
100
AcDbLine
 10
57.6010909761
 20
28.20273717799999
 30
0.0
 11
56.6601341287
 21
28.22258104979999
 31
0.0
  0
LWPOLYLINE
  5
20E3
330
213
100
AcDbEntity
  8
0
  6
Continuous
 62
     7
100
AcDbPolyline
 90
        6
 70
     0
 43
0.0
 10
32.1130258575
 20
28.68020053899999
 10
31.7489553275
 20
28.68779642539999
 10
31.4914074288
 20
28.69302849199999
 10
31.2813324804
 20
28.69701558669999
 10
31.1327299368
 20
28.69947800259999
 10
31.0603793876
 20
28.70010518109999
  0
LWPOLYLINE
  5
20E4
330
213
100
AcDbEntity
  8
0
  6
Continuous
 62
     7
100
AcDbPolyline
 90
       13
 70
     0
 43
0.0
 10
57.62415810810001
 20
28.14930987599998
 10
56.1063290665
 20
28.18156329789998
 10
54.7977556639
 20
28.21029538169998
 10
53.643667328
 20
28.23444127269999
 10
52.6200442125
 20
28.25470884409999
 10
51.7079880154
 20
28.27188453529999
 10
50.89237620569999
 20
28.28655747389999
 10
50.16052195149999
 20
28.29918405549999
 10
49.501289591
 20
28.31012900089999
 10
48.9064530842
 20
28.31966162419999
 10
48.3690329981
 20
28.32799794779999
 10
47.88226788359999
 20
28.33532485619999
 10
47.03849886729999
 20
28.34752814979999
  0
LWPOLYLINE
  5
20E5
330
213
100
AcDbEntity
  8
0
  6
Continuous
 62
     7
100
AcDbPolyline
 90
        3
 70
     0
 43
0.0
 10
32.0410833028
 20
28.62857349359999
 10
31.86441583760001
 20
28.63235930499999
 10
31.4214189613
 20
28.64138483839999
  0
LINE
  5
20E6
330
213
100
AcDbEntity
  8
0
  6
Continuous
 62
     7
100
AcDbLine
 10
32.1036832687
 20
28.62733508689999
 30
0.0
 11
32.0410833028
 21
28.62857349359999
 31
0.0
  0
LINE
  5
20E7
330
213
100
AcDbEntity
  8
0
  6
Continuous
 62
     7
100
AcDbLine
 10
39.3074776492
 20
28.51858882669999
 30
0.0
 11
38.2833318399
 21
28.54033679449999
 31
0.0
  0
LWPOLYLINE
  5
20E8
330
213
100
AcDbEntity
  8
0
  6
Continuous
 62
     7
100
AcDbPolyline
 90
        3
 70
     0
 43
0.0
 10
35.5678203285
 20
28.60893850949999
 10
34.6563052466
 20
28.62852103029999
 10
33.7142592911
 20
28.64917338369999
  0
LINE
  5
20E9
330
213
100
AcDbEntity
  8
0
  6
Continuous
 62
     9
100
AcDbLine
 10
54.6932625196
 20
28.20918906039999
 30
0.0
 11
55.41570015520001
 21
28.19373647549999
 31
0.0
  0
LINE
  5
20EA
330
213
100
AcDbEntity
  8
0
  6
Continuous
 62
     9
100
AcDbLine
 10
35.3036593379
 20
28.68777909469999
 30
0.0
 11
34.2900735209
 21
28.70941591969999
 31
0.0
  0
LINE
  5
20EB
330
213
100
AcDbEntity
  8
0
  6
Continuous
 62
     7
100
AcDbLine
 10
38.7952938827
 20
28.47637830169999
 30
0.0
 11
37.5997973066
 21
28.50217425009999
 31
0.0
  0
LINE
  5
20EC
330
213
100
AcDbEntity
  8
0
  6
Continuous
 62
     7
100
AcDbLine
 10
34.8857974514
 20
28.57054417299999
 30
0.0
 11
34.1880809077
 21
28.58572928309999
 31
0.0
  0
LINE
  5
20ED
330
213
100
AcDbEntity
  8
0
  6
Continuous
 62
     7
100
AcDbLine
 10
38.2833318399
 20
28.54033679449999
 30
0.0
 11
37.1435116542
 21
28.56521861509999
 31
0.0
  0
LWPOLYLINE
  5
20EE
330
213
100
AcDbEntity
  8
0
  6
Continuous
 62
     7
100
AcDbPolyline
 90
       12
 70
     0
 43
0.0
 10
56.6601341287
 20
28.22258104979999
 10
54.78581115459999
 20
28.26354545399999
 10
53.8418367262
 20
28.28338151129999
 10
52.880246728
 20
28.30263832209999
 10
51.87908930979999
 20
28.32169922959998
 10
50.8300441291
 20
28.34061988159998
 10
49.81760810739999
 20
28.35788771379999
 10
48.94555609720001
 20
28.37199879359999
 10
48.1929762088
 20
28.38362090169999
 10
47.5183122255
 20
28.39360920149999
 10
46.91649607779999
 20
28.40218012829998
 10
45.9065105299
 20
28.41585613139999
  0
LWPOLYLINE
  5
20EF
330
213
100
AcDbEntity
  8
0
  6
Continuous
 62
     9
100
AcDbPolyline
 90
       13
 70
     0
 43
0.0
 10
52.90370078439999
 20
28.39903636699999
 10
52.42003778
 20
28.40967997149999
 10
51.8971011284
 20
28.42093539689999
 10
51.3312341425
 20
28.43281099529999
 10
50.7181204873
 20
28.44532609949999
 10
50.0528048838
 20
28.45849501869999
 10
49.3269524601
 20
28.47237729369999
 10
48.5507977875
 20
28.48666743799999
 10
47.7919147893
 20
28.50009178809999
 10
47.1162618338
 20
28.51159315819999
 10
46.51131535770001
 20
28.52153457129999
 10
45.9648004105
 20
28.53022912499999
 10
45.0149047706
 20
28.54470121619998
  0
LINE
  5
20F0
330
213
100
AcDbEntity
  8
0
  6
Continuous
 62
     9
100
AcDbLine
 10
66.51152518189999
 20
28.15519065489999
 30
0.0
 11
66.29427391649999
 21
28.15974291869999
 31
0.0
  0
LWPOLYLINE
  5
20F1
330
213
100
AcDbEntity
  8
0
  6
Continuous
 62
     9
100
AcDbPolyline
 90
        5
 70
     0
 43
0.0
 10
37.2357612287
 20
28.50882791279999
 10
38.0800306055
 20
28.49015225389999
 10
38.8204779719
 20
28.47404971419999
 10
39.4707260866
 20
28.46015700459999
 10
40.54273831559999
 20
28.43788064409999
  0
LINE
  5
20F2
330
213
100
AcDbEntity
  8
0
  6
Continuous
 62
     9
100
AcDbLine
 10
55.41570015520001
 20
28.19373647549999
 30
0.0
 11
57.0126936229
 21
28.15896012869999
 31
0.0
  0
LINE
  5
20F3
330
213
100
AcDbEntity
  8
0
  6
Continuous
 62
     9
100
AcDbLine
 10
64.72577582609999
 20
28.02417854819999
 30
0.0
 11
64.862451979
 21
28.02126704269999
 31
0.0
  0
LINE
  5
20F4
330
213
100
AcDbEntity
  8
0
  6
Continuous
 62
     9
100
AcDbLine
 10
34.2900735209
 20
28.70941591969999
 30
0.0
 11
33.3299362036
 21
28.73040085669999
 31
0.0
  0
LINE
  5
20F5
330
213
100
AcDbEntity
  8
0
  6
Continuous
 62
     9
100
AcDbLine
 10
55.3340914892
 20
28.34501277439999
 30
0.0
 11
54.24531706949999
 21
28.36886857709999
 31
0.0
  0
LINE
  5
20F6
330
213
100
AcDbEntity
  8
0
  6
Continuous
 62
     7
100
AcDbLine
 10
34.1880809077
 20
28.58572928309999
 30
0.0
 11
32.59709805550001
 21
28.62094540429999
 31
0.0
  0
LINE
  5
20F7
330
213
100
AcDbEntity
  8
0
  6
Continuous
 62
     7
100
AcDbLine
 10
33.7142592911
 20
28.64917338369999
 30
0.0
 11
32.5976928546
 21
28.67394163979999
 31
0.0
  0
LINE
  5
20F8
330
213
100
AcDbEntity
  8
0
  6
Continuous
 62
     9
100
AcDbLine
 10
32.4924547963
 20
28.74902820749999
 30
0.0
 11
31.4359669704
 21
28.76967595989999
 31
0.0
  0
LINE
  5
20F9
330
213
100
AcDbEntity
  8
0
  6
Continuous
 62
     9
100
AcDbLine
 10
33.3299362036
 20
28.73040085669999
 30
0.0
 11
32.4924547963
 21
28.74902820749999
 31
0.0
  0
LINE
  5
20FA
330
213
100
AcDbEntity
  8
0
  6
Continuous
 62
     9
100
AcDbLine
 10
54.24531706949999
 20
28.36886857709999
 30
0.0
 11
52.90370078439999
 21
28.39903636699999
 31
0.0
  0
LINE
  5
20FB
330
213
100
AcDbEntity
  8
0
  6
Continuous
 62
     7
100
AcDbLine
 10
37.5997973066
 20
28.50217425009999
 30
0.0
 11
36.3012591206
 21
28.53098779339999
 31
0.0
  0
LINE
  5
20FC
330
213
100
AcDbEntity
  8
0
  6
Continuous
 62
     7
100
AcDbLine
 10
61.6825645913
 20
28.07338990099998
 30
0.0
 11
61.6628111228
 21
28.07383776889999
 31
0.0
  0
LWPOLYLINE
  5
20FD
330
213
100
AcDbEntity
  8
0
  6
Continuous
 62
     7
100
AcDbPolyline
 90
        4
 70
     0
 43
0.0
 10
37.1435116542
 20
28.56521861509999
 10
36.2785190517
 20
28.58456875109999
 10
36.2306434085
 20
28.58592722569999
 10
36.1942203402
 20
28.58725330459999
  0
LINE
  5
20FE
330
213
100
AcDbEntity
  8
0
  6
Continuous
 62
     7
100
AcDbLine
 10
29.6644603162
 20
28.79923282489999
 30
0.0
 11
45.1721478347
 21
28.42524087939999
 31
0.0
  0
LINE
  5
20FF
330
213
100
AcDbEntity
  8
0
  6
Continuous
 62
     9
100
AcDbLine
 10
61.5932664147
 20
28.07155960039999
 30
0.0
 11
61.61911557839999
 21
28.07094926079999
 31
0.0
  0
LINE
  5
2100
330
213
100
AcDbEntity
  8
0
  6
Continuous
 62
     9
100
AcDbLine
 10
66.6599872271
 20
28.15162301199999
 30
0.0
 11
66.51152518189999
 21
28.15519065489999
 31
0.0
  0
LINE
  5
2101
330
213
100
AcDbEntity
  8
0
  6
Continuous
 62
     7
100
AcDbLine
 10
35.73584255780001
 20
28.55199383589999
 30
0.0
 11
34.8857974514
 21
28.57054417299999
 31
0.0
  0
LINE
  5
2102
330
213
100
AcDbEntity
  8
0
  6
Continuous
 62
     9
100
AcDbLine
 10
60.9792801988
 20
28.10325659279999
 30
0.0
 11
61.0647486796
 21
28.10121933429999
 31
0.0
  0
LINE
  5
2103
330
213
100
AcDbEntity
  8
0
  6
Continuous
 62
     9
100
AcDbLine
 10
64.862451979
 20
28.02126704269999
 30
0.0
 11
64.9918359217
 21
28.01807934949999
 31
0.0
  0
LINE
  5
2104
330
213
100
AcDbEntity
  8
0
  6
Continuous
 62
     9
100
AcDbLine
 10
36.195376411
 20
28.53238650019999
 30
0.0
 11
37.2357612287
 21
28.50882791279999
 31
0.0
  0
LINE
  5
2105
330
213
100
AcDbEntity
  8
0
  6
Continuous
 62
     7
100
AcDbLine
 10
36.3012591206
 20
28.53098779339999
 30
0.0
 11
36.2466677856
 21
28.53242331619999
 31
0.0
  0
LINE
  5
2106
330
213
100
AcDbEntity
  8
0
  6
Continuous
 62
     9
100
AcDbLine
 10
66.79765802189999
 20
28.14783015179999
 30
0.0
 11
66.6599872271
 21
28.15162301199999
 31
0.0
  0
LINE
  5
2107
330
213
100
AcDbEntity
  8
0
  6
Continuous
 62
     7
100
AcDbLine
 10
61.6628111228
 20
28.07383776889999
 30
0.0
 11
61.6408572301
 21
28.07444535699999
 31
0.0
  0
LINE
  5
2108
330
213
100
AcDbEntity
  8
0
  6
Continuous
 62
     9
100
AcDbLine
 10
64.9918359217
 20
28.01807934949999
 30
0.0
 11
65.1147554027
 21
28.01460801799999
 31
0.0
  0
LINE
  5
2109
330
213
100
AcDbEntity
  8
0
  6
Continuous
 62
     9
100
AcDbLine
 10
61.5690445906
 20
28.07225209879999
 30
0.0
 11
61.5932664147
 21
28.07155960039999
 31
0.0
  0
LINE
  5
210A
330
213
100
AcDbEntity
  8
0
  6
Continuous
 62
     9
100
AcDbLine
 10
61.0647486796
 20
28.10121933429999
 30
0.0
 11
61.1451027542
 21
28.09893678829999
 31
0.0
  0
LINE
  5
210B
330
213
100
AcDbEntity
  8
0
  6
Continuous
 62
     7
100
AcDbLine
 10
35.8980104921
 20
28.54739333879999
 30
0.0
 11
35.73584255780001
 21
28.55199383589999
 31
0.0
  0
LINE
  5
210C
330
213
100
AcDbEntity
  8
0
  6
Continuous
 62
     9
100
AcDbLine
 10
36.1458983973
 20
28.53383580829999
 30
0.0
 11
36.195376411
 21
28.53238650019999
 31
0.0
  0
LINE
  5
210D
330
213
100
AcDbEntity
  8
0
  6
Continuous
 62
     9
100
AcDbLine
 10
65.1147554027
 20
28.01460801799999
 30
0.0
 11
65.23139581789999
 21
28.01083619529999
 31
0.0
  0
LINE
  5
210E
330
213
100
AcDbEntity
  8
0
  6
Continuous
 62
     9
100
AcDbLine
 10
66.9224903196
 20
28.14380125459999
 30
0.0
 11
66.79765802189999
 21
28.14783015179999
 31
0.0
  0
LINE
  5
210F
330
213
100
AcDbEntity
  8
0
  6
Continuous
 62
     7
100
AcDbLine
 10
36.2466677856
 20
28.53242331619999
 30
0.0
 11
36.211957593
 21
28.53352806039999
 31
0.0
  0
LINE
  5
2110
330
213
100
AcDbEntity
  8
0
  6
Continuous
 62
     9
100
AcDbLine
 10
36.1264772037
 20
28.53450214689999
 30
0.0
 11
36.1458983973
 21
28.53383580829999
 31
0.0
  0
LINE
  5
2111
330
213
100
AcDbEntity
  8
0
  6
Continuous
 62
     9
100
AcDbLine
 10
61.1451027542
 20
28.09893678829999
 30
0.0
 11
61.22275188199999
 21
28.09631405149999
 31
0.0
  0
LWPOLYLINE
  5
2112
330
213
100
AcDbEntity
  8
0
  6
Continuous
 62
     7
100
AcDbPolyline
 90
       12
 70
     0
 43
0.0
 10
61.6408572301
 20
28.07444535699999
 10
61.6189349307
 20
28.07519409029999
 10
61.6082918853
 20
28.07562787969999
 10
61.5982176105
 20
28.07609065959999
 10
61.58902413239999
 20
28.07657418719999
 10
61.58086371159999
 20
28.07707178769998
 10
61.5737208866
 20
28.07758103519999
 10
61.5676274176
 20
28.07809818509999
 10
61.56267435770001
 20
28.07861546679999
 10
61.55889559310001
 20
28.07912616279999
 10
61.5562710241
 20
28.07962521969999
 10
61.5547524099
 20
28.08010477559998
  0
LINE
  5
2113
330
213
100
AcDbEntity
  8
0
  6
Continuous
 62
     9
100
AcDbLine
 10
65.23139581789999
 20
28.01083619529999
 30
0.0
 11
65.3410970613
 21
28.00674967319999
 31
0.0
  0
LINE
  5
2114
330
213
100
AcDbEntity
  8
0
  6
Continuous
 62
     9
100
AcDbLine
 10
61.22275188199999
 20
28.09631405149999
 30
0.0
 11
61.2752558106
 21
28.09423865139999
 31
0.0
  0
LWPOLYLINE
  5
2115
330
213
100
AcDbEntity
  8
0
  6
Continuous
 62
     7
100
AcDbPolyline
 90
        6
 70
     0
 43
0.0
 10
36.211957593
 20
28.53352806039999
 10
36.1942395918
 20
28.53421721919999
 10
36.1871833852
 20
28.53454274679999
 10
36.18143754590001
 20
28.53485239559999
 10
36.1770178348
 20
28.53514727419998
 10
36.1740196903
 20
28.53542192179999
  0
LWPOLYLINE
  5
2116
330
213
100
AcDbEntity
  8
0
  6
Continuous
 62
     9
100
AcDbPolyline
 90
        5
 70
     0
 43
0.0
 10
65.3410970613
 20
28.00674967319999
 10
65.44456193169999
 20
28.00224766289998
 10
65.4936810141
 20
27.99981627779999
 10
65.5405186263
 20
27.99726415619999
 10
65.58446927760001
 20
27.99460067919999
  0
LWPOLYLINE
  5
2117
330
213
100
AcDbEntity
  8
0
  6
Continuous
 62
     9
100
AcDbPolyline
 90
       10
 70
     0
 43
0.0
 10
61.2752558106
 20
28.09423865139999
 10
61.3307674556
 20
28.09167495649999
 10
61.35875542239999
 20
28.09018091769999
 10
61.38559872470001
 20
28.08856480289998
 10
61.40999973399999
 20
28.08687062659999
 10
61.4308527243
 20
28.08515346789999
 10
61.44769738279999
 20
28.08344270069999
 10
61.4603873206
 20
28.08174840189998
 10
61.4687977205
 20
28.08007794989999
 10
61.4727810279
 20
28.07844054309999
  0
LWPOLYLINE
  5
2118
330
213
100
AcDbEntity
  8
0
  6
Continuous
 62
     7
100
AcDbPolyline
 90
       10
 70
     0
 43
0.0
 10
65.6452479095
 20
27.99850071409999
 10
65.5508100812
 20
28.00326761089999
 10
65.439705582
 20
28.00804505089999
 10
65.3160003975
 20
28.01261533079999
 10
65.1839285125
 20
28.01683857659999
 10
65.0437203945
 20
28.02074825809999
 10
64.8942517225
 20
28.02436660379999
 10
64.7389842622
 20
28.02760728779999
 10
64.57868915529999
 20
28.03043964879999
 10
63.7581190308
 20
28.04173178189999
  0
LWPOLYLINE
  5
2119
330
213
100
AcDbEntity
  8
0
  6
Continuous
 62
     7
100
AcDbPolyline
 90
        5
 70
     0
 43
0.0
 10
36.1508959989
 20
28.53723817029999
 10
36.1127033135
 20
28.53930910179999
 10
36.0636430974
 20
28.54149573149999
 10
36.0089543187
 20
28.54363190439999
 10
35.8980104921
 20
28.54739333879999
  0
LWPOLYLINE
  5
211A
330
213
100
AcDbEntity
  8
0
  6
Continuous
 62
     9
100
AcDbPolyline
 90
        5
 70
     0
 43
0.0
 10
67.1512203185
 20
28.13365740309999
 10
67.1195639102
 20
28.13540956849998
 10
67.07987315379999
 20
28.13740469079999
 10
67.03285700249999
 20
28.13952592579999
 10
66.9224903196
 20
28.14380125459999
  0
LWPOLYLINE
  5
211B
330
213
100
AcDbEntity
  8
0
  6
Continuous
 62
     7
100
AcDbPolyline
 90
        8
 70
     0
 43
0.0
 10
61.4731220512
 20
28.08929532029999
 10
61.4210426115
 20
28.09234319959999
 10
61.3581267224
 20
28.09531734689999
 10
61.2861775225
 20
28.09813254539998
 10
61.2070856638
 20
28.10073122659999
 10
61.1228541937
 20
28.10306255579999
 10
61.03487650359999
 20
28.10509763139999
 10
60.324365628
 20
28.11751140389999
  0
LINE
  5
211C
330
213
100
AcDbEntity
  8
0
  6
Continuous
 62
     7
100
AcDbLine
 10
65.72426759539999
 20
27.99375998059999
 30
0.0
 11
65.6452479095
 21
27.99850071409999
 31
0.0
  0
LWPOLYLINE
  5
211D
330
213
100
AcDbEntity
  8
0
  6
Continuous
 62
     7
100
AcDbPolyline
 90
        6
 70
     0
 43
0.0
 10
36.1942203402
 20
28.58725330459999
 10
36.1160980351
 20
28.59218260279999
 10
36.00554294230001
 20
28.59678132009999
 10
35.8613466115
 20
28.60152899509999
 10
35.70928609540001
 20
28.60567678689999
 10
35.5678203285
 20
28.60893850949999
  0
LWPOLYLINE
  5
211E
330
213
100
AcDbEntity
  8
0
  6
Continuous
 62
     9
100
AcDbPolyline
 90
        8
 70
     0
 43
0.0
 10
65.58446927760001
 20
27.99460067919999
 10
65.62480597930001
 20
27.99184528289999
 10
65.6608550918
 20
27.98902008629999
 10
65.69207471369999
 20
27.98614281419999
 10
65.7180227145
 20
27.98322835739999
 10
65.7383438751
 20
27.98029140269999
 10
65.7527675461
 20
27.97734471629999
 10
65.7610309802
 20
27.97439951099999
  0
LINE
  5
211F
330
213
100
AcDbEntity
  8
0
  6
Continuous
 62
     7
100
AcDbLine
 10
61.5131413175
 20
28.08623745439999
 30
0.0
 11
61.4731220512
 21
28.08929532029999
 31
0.0
  0
LINE
  5
2120
330
213
100
AcDbEntity
  8
0
  6
Continuous
 62
     7
100
AcDbLine
 10
36.1740196903
 20
28.53542192179999
 30
0.0
 11
36.1508959989
 21
28.53723817029999
 31
0.0
  0
LINE
  5
2121
330
213
100
AcDbEntity
  8
0
  6
Continuous
 62
     7
100
AcDbLine
 10
58.0213296692
 20
26.91779207549999
 30
0.0
 11
58.1094009637
 21
26.91085427839999
 31
0.0
  0
LWPOLYLINE
  5
2122
330
213
100
AcDbEntity
  8
0
  6
Continuous
 62
     7
100
AcDbPolyline
 90
        5
 70
     0
 43
0.0
 10
58.0213296692
 20
26.91779207549999
 10
58.1142226401
 20
26.91006840199999
 10
58.267284463
 20
26.86116739899999
 10
58.400275533
 20
26.77098409789999
 10
58.5022715808
 20
26.64699463229999
  0
LWPOLYLINE
  5
2123
330
213
100
AcDbEntity
  8
0
  6
Continuous
 62
     9
100
AcDbPolyline
 90
        6
 70
     0
 43
0.0
 10
36.09533848989999
 20
28.53609275099998
 10
36.0974389334
 20
28.53587992209999
 10
36.1008187371
 20
28.53564417059999
 10
36.1054528427
 20
28.53538688039999
 10
36.1113050728
 20
28.53510964659998
 10
36.1264772037
 20
28.53450214689999
  0
LINE
  5
2124
330
213
100
AcDbEntity
  8
0
  6
Continuous
 62
     7
100
AcDbLine
 10
31.0591139405
 20
28.64712047159999
 30
0.0
 11
31.0556538851
 21
28.64687126139998
 31
0.0
  0
LINE
  5
2125
330
213
100
AcDbEntity
  8
0
  6
Continuous
 62
     7
100
AcDbLine
 10
31.0603793876
 20
28.70010518109999
 30
0.0
 11
31.0566960438
 21
28.69986134579999
 31
0.0
  0
LINE
  5
2126
330
213
100
AcDbEntity
  8
0
  6
Continuous
 62
     9
100
AcDbLine
 10
67.2156655741
 20
28.12956250869999
 30
0.0
 11
67.1512203185
 21
28.13365740309999
 31
0.0
  0
LINE
  5
2127
330
213
100
AcDbEntity
  8
0
  6
Continuous
 62
     9
100
AcDbLine
 10
67.4525880525
 20
28.11352726289999
 30
0.0
 11
67.2156655741
 21
28.12956250869999
 31
0.0
  0
LINE
  5
2128
330
213
100
AcDbEntity
  8
0
  6
Continuous
 62
     9
100
AcDbLine
 10
67.63994597899999
 20
28.10006183999999
 30
0.0
 11
67.4525880525
 21
28.11352726289999
 31
0.0
  0
LINE
  5
2129
330
213
100
AcDbEntity
  8
0
  6
Continuous
 62
     9
100
AcDbLine
 10
68.4004427854
 20
28.03786516769999
 30
0.0
 11
68.37327252779999
 21
28.03985942999999
 31
0.0
  0
LINE
  5
212A
330
213
100
AcDbEntity
  8
0
  6
Continuous
 62
     9
100
AcDbLine
 10
67.79198571950001
 20
28.08851966609999
 30
0.0
 11
67.63994597899999
 21
28.10006183999999
 31
0.0
  0
LINE
  5
212B
330
213
100
AcDbEntity
  8
0
  6
Continuous
 62
     9
100
AcDbLine
 10
67.9433652444
 20
28.07640645449999
 30
0.0
 11
67.79198571950001
 21
28.08851966609999
 31
0.0
  0
LINE
  5
212C
330
213
100
AcDbEntity
  8
0
  6
Continuous
 62
     9
100
AcDbLine
 10
68.37327252779999
 20
28.03985942999999
 30
0.0
 11
68.3214635837
 21
28.04400011709999
 31
0.0
  0
LWPOLYLINE
  5
212D
330
213
100
AcDbEntity
  8
0
  6
Continuous
 62
     9
100
AcDbPolyline
 90
        3
 70
     0
 43
0.0
 10
68.3214635837
 20
28.04400011709999
 10
68.187973504
 20
28.05552849629999
 10
67.9433652444
 20
28.07640645449999
  0
LWPOLYLINE
  5
212E
330
213
100
AcDbEntity
  8
0
  6
Continuous
 62
     9
100
AcDbPolyline
 90
        4
 70
     0
 43
0.0
 10
68.8302942348
 20
27.99461507289999
 10
68.82249805989999
 20
27.99531109149999
 10
68.80355675279999
 20
27.99710615439999
 10
68.778996319
 20
27.99960911899999
  0
LWPOLYLINE
  5
212F
330
213
100
AcDbEntity
  8
0
  6
Continuous
 62
     9
100
AcDbPolyline
 90
        6
 70
     0
 43
0.0
 10
68.4661191924
 20
28.03322767849999
 10
68.45440656930001
 20
28.03428628999999
 10
68.44131160839999
 20
28.03526926159999
 10
68.427069812
 20
28.03617230809999
 10
68.41307753489999
 20
28.03702193199999
 10
68.4004427854
 20
28.03786516769999
  0
LWPOLYLINE
  5
2130
330
213
100
AcDbEntity
  8
0
  6
Continuous
 62
     7
100
AcDbPolyline
 90
        3
 70
     0
 43
0.0
 10
65.8502337437
 20
27.98319184709999
 10
65.7932882991
 20
27.98867964139999
 10
65.72426759539999
 20
27.99375998059999
  0
LINE
  5
2131
330
213
100
AcDbEntity
  8
0
  6
Continuous
 62
     9
100
AcDbLine
 10
68.52018829859999
 20
28.02796352669999
 30
0.0
 11
68.4661191924
 21
28.03322767849999
 31
0.0
  0
LINE
  5
2132
330
213
100
AcDbEntity
  8
0
  6
Continuous
 62
     9
100
AcDbLine
 10
68.5702372522
 20
28.02282102749999
 30
0.0
 11
68.52018829859999
 21
28.02796352669999
 31
0.0
  0
LINE
  5
2133
330
213
100
AcDbEntity
  8
0
  6
Continuous
 62
     9
100
AcDbLine
 10
68.62980390209999
 20
28.01637331859999
 30
0.0
 11
68.5702372522
 21
28.02282102749999
 31
0.0
  0
LINE
  5
2134
330
213
100
AcDbEntity
  8
0
  6
Continuous
 62
     9
100
AcDbLine
 10
68.778996319
 20
27.99960911899999
 30
0.0
 11
68.72585897479999
 21
28.00546861879999
 31
0.0
  0
LINE
  5
2135
330
213
100
AcDbEntity
  8
0
  6
Continuous
 62
     9
100
AcDbLine
 10
68.72585897479999
 20
28.00546861879999
 30
0.0
 11
68.62980390209999
 21
28.01637331859999
 31
0.0
  0
LINE
  5
2136
330
213
100
AcDbEntity
  8
0
  6
Continuous
 62
     7
100
AcDbLine
 10
65.88902700209999
 20
27.97761744969999
 30
0.0
 11
65.8502337437
 21
27.98319184709999
 31
0.0
  0
LWPOLYLINE
  5
2137
330
213
100
AcDbEntity
  8
0
  6
Continuous
 62
     7
100
AcDbPolyline
 90
        9
 70
     0
 43
0.0
 10
61.5556212051
 20
28.13307543369999
 10
61.5266843763
 20
28.13797475379999
 10
61.468741354
 20
28.14260882349998
 10
61.39330276819999
 20
28.14674018409999
 10
61.31158659909999
 20
28.15019947309999
 10
61.2277679189
 20
28.15309230119999
 10
61.1416747489
 20
28.15557048079999
 10
61.0489018069
 20
28.15778855309999
 10
60.11207197970001
 20
28.17425232759999
  0
LINE
  5
2138
330
213
100
AcDbEntity
  8
0
  6
Continuous
 62
     7
100
AcDbLine
 10
61.5644563127
 20
28.13148122249998
 30
0.0
 11
61.5556212051
 21
28.13307543369999
 31
0.0
  0
LWPOLYLINE
  5
2139
330
213
100
AcDbEntity
  8
0
  6
Continuous
 62
     7
100
AcDbPolyline
 90
        3
 70
     0
 43
0.0
 10
61.5547524099
 20
28.08010477559998
 10
61.54083911939999
 20
28.08315847799999
 10
61.5131413175
 20
28.08623745439999
  0
LINE
  5
213A
330
213
100
AcDbEntity
  8
0
  6
Continuous
 62
     7
100
AcDbLine
 10
58.1094009637
 20
26.91085427839999
 30
0.0
 11
58.2639613846
 21
26.86276968699999
 31
0.0
  0
LWPOLYLINE
  5
213B
330
213
100
AcDbEntity
  8
0
  6
Continuous
 62
     7
100
AcDbPolyline
 90
        5
 70
     0
 43
0.0
 10
35.3189602789
 20
26.64699508509999
 10
35.4209564373
 20
26.77098444959999
 10
35.5539473359
 20
26.86116750339999
 10
35.7070089141
 20
26.91006839729999
 10
35.7999019156
 20
26.91779207599999
  0
LINE
  5
213C
330
213
100
AcDbEntity
  8
0
  6
Continuous
 62
     7
100
AcDbLine
 10
35.353975401
 20
26.68956044069999
 30
0.0
 11
35.42280373900001
 21
26.77266104409998
 31
0.0
  0
LINE
  5
213D
330
213
100
AcDbEntity
  8
0
  6
Continuous
 62
     7
100
AcDbLine
 10
65.90761356219999
 20
27.97230246089999
 30
0.0
 11
65.88902700209999
 21
27.97761744969999
 31
0.0
  0
LWPOLYLINE
  5
213E
330
213
100
AcDbEntity
  8
0
  6
Continuous
 62
     7
100
AcDbPolyline
 90
       18
 70
     0
 43
0.0
 10
65.90816436629999
 20
28.02527513689998
 10
65.8982426796
 20
28.02870958849999
 10
65.8808860195
 20
28.03211638509999
 10
65.8566227524
 20
28.03547773179999
 10
65.82598853170001
 20
28.03877557589999
 10
65.78944947720001
 20
28.04201622639999
 10
65.7468365739
 20
28.04523556709998
 10
65.6980428477
 20
28.04844331759999
 10
65.6437345681
 20
28.05158914089999
 10
65.5828686856
 20
28.05473772299999
 10
65.5118897672
 20
28.05802687519999
 10
65.42664894939999
 20
28.06155763549999
 10
65.3221086693
 20
28.06539934569999
 10
65.1954090487
 20
28.06948583619999
 10
65.0442979433
 20
28.07372269959999
 10
64.86438764279999
 20
28.07801639209999
 10
64.6531901143
 20
28.08217010589999
 10
64.4077583108
 20
28.08591409159999
  0
LWPOLYLINE
  5
213F
330
213
100
AcDbEntity
  8
0
  6
Continuous
 62
     9
100
AcDbPolyline
 90
       12
 70
     0
 43
0.0
 10
61.4727810279
 20
28.07844054309999
 10
61.4741117197
 20
28.07790347299999
 10
61.476971998
 20
28.07735089169998
 10
61.48133087729999
 20
28.07678792449999
 10
61.4871406359
 20
28.07621959059999
 10
61.49435182649999
 20
28.07564990529999
 10
61.5029305547
 20
28.07508158059999
 10
61.5128077753
 20
28.07451958069999
 10
61.52368468189999
 20
28.07397887889999
 10
61.53497814479999
 20
28.07348111459999
 10
61.546247185
 20
28.07303485469999
 10
61.5690445906
 20
28.07225209879999
  0
LINE
  5
2140
330
213
100
AcDbEntity
  8
0
  6
Continuous
 62
     7
100
AcDbLine
 10
58.2639613846
 20
26.86276968699999
 30
0.0
 11
58.34540378939999
 21
26.80819347579999
 31
0.0
  0
LINE
  5
2141
330
213
100
AcDbEntity
  8
0
  6
Continuous
 62
     7
100
AcDbLine
 10
35.42280373900001
 20
26.77266104409998
 30
0.0
 11
35.5572703611
 21
26.86276976429999
 31
0.0
  0
LINE
  5
2142
330
213
100
AcDbEntity
  8
0
  6
Continuous
 62
     7
100
AcDbLine
 10
65.9137751432
 20
28.02269183059999
 30
0.0
 11
65.90816436629999
 21
28.02527513689998
 31
0.0
  0
LINE
  5
2143
330
213
100
AcDbEntity
  8
0
  6
Continuous
 62
     7
100
AcDbLine
 10
58.3992291492
 20
26.77169366699999
 30
0.0
 11
58.50160945869999
 21
26.64808357349999
 31
0.0
  0
LWPOLYLINE
  5
2144
330
213
100
AcDbEntity
  8
0
  6
Continuous
 62
     7
100
AcDbPolyline
 90
        3
 70
     0
 43
0.0
 10
35.5572703611
 20
26.86276976429999
 10
35.7118306031
 20
26.91085427609999
 10
35.7999019156
 20
26.91779207599999
  0
LINE
  5
2145
330
213
100
AcDbEntity
  8
0
  6
Continuous
 62
     7
100
AcDbLine
 10
65.9104696645
 20
27.96974469939998
 30
0.0
 11
65.90761356219999
 21
27.97230246089999
 31
0.0
  0
LWPOLYLINE
  5
2146
330
213
100
AcDbEntity
  8
0
  6
Continuous
 62
     9
100
AcDbPolyline
 90
        5
 70
     0
 43
0.0
 10
58.1973967138
 20
27.87260289869998
 10
58.14735059260001
 20
27.98070982169999
 10
58.0659539756
 20
28.06769205699999
 10
57.9614216788
 20
28.12477106689999
 10
57.8443034512
 20
28.14618624479999
  0
LINE
  5
2147
330
213
100
AcDbEntity
  8
0
  6
Continuous
 62
     7
100
AcDbLine
 10
58.50160945869999
 20
26.64808357349999
 30
0.0
 11
58.5646479018
 21
26.50088410139999
 31
0.0
  0
LINE
  5
2148
330
213
100
AcDbEntity
  8
0
  6
Continuous
 62
     9
100
AcDbLine
 10
57.7515904037
 20
28.15070432389998
 30
0.0
 11
57.7526632021
 21
28.20367484619998
 31
0.0
  0
LINE
  5
2149
330
213
100
AcDbEntity
  8
0
  6
Continuous
 62
     9
100
AcDbLine
 10
57.600005115
 20
28.14976677949999
 30
0.0
 11
57.6010909761
 21
28.20273717799999
 31
0.0
  0
LINE
  5
214A
330
213
100
AcDbEntity
  8
0
  6
Continuous
 62
     7
100
AcDbLine
 10
21.3489632169
 20
44.64278299269999
 30
0.0
 11
21.5471133319
 21
44.64278262019998
 31
0.0
  0
LINE
  5
214B
330
213
100
AcDbEntity
  8
0
  6
Continuous
 62
     7
100
AcDbLine
 10
76.91061579229999
 20
44.76778258229999
 30
0.0
 11
16.9106157923
 21
44.76778258229999
 31
0.0
  0
LINE
  5
214C
330
213
100
AcDbEntity
  8
0
  6
Continuous
 62
     7
100
AcDbLine
 10
58.3000240603
 20
27.48852924689999
 30
0.0
 11
58.5861412279
 21
26.42072544039999
 31
0.0
  0
LINE
  5
214D
330
213
100
AcDbEntity
  8
0
  6
Continuous
 62
     9
100
AcDbLine
 10
58.3000240603
 20
27.48852924689999
 30
0.0
 11
58.19739668779999
 21
27.87260289139999
 31
0.0
  0
LINE
  5
214E
330
213
100
AcDbEntity
  8
0
  6
Continuous
 62
     9
100
AcDbLine
 10
58.3681315958
 20
28.15375521639999
 30
0.0
 11
58.3691539029
 21
28.20672613809998
 31
0.0
  0
LWPOLYLINE
  5
214F
330
213
100
AcDbEntity
  8
0
  6
Continuous
 62
     7
100
AcDbPolyline
 90
        3
 70
     0
 43
0.0
 10
61.0572703611
 20
26.86276976429999
 10
61.2118306031
 20
26.91085427609999
 10
61.29990191560001
 20
26.91779207599999
  0
LWPOLYLINE
  5
2150
330
213
100
AcDbEntity
  8
0
  6
Continuous
 62
     9
100
AcDbPolyline
 90
        8
 70
     0
 43
0.0
 10
65.7610309802
 20
27.97439951099999
 10
65.76287535609999
 20
27.97153685099999
 10
65.75836914719999
 20
27.96871506589999
 10
65.7474326521
 20
27.96595231449999
 10
65.73002373130001
 20
27.96326511689999
 10
65.70610098580001
 20
27.96066022069999
 10
65.6757225388
 20
27.95815049539999
 10
65.66370643
 20
27.95736392679999
  0
LINE
  5
2151
330
213
100
AcDbEntity
  8
0
  6
Continuous
 62
     9
100
AcDbLine
 10
61.5547524099
 20
28.08010477559998
 30
0.0
 11
61.5556212051
 21
28.13307543369999
 31
0.0
  0
LINE
  5
2152
330
213
100
AcDbEntity
  8
0
  6
Continuous
 62
     9
100
AcDbLine
 10
61.7086004981
 20
28.09047739679999
 30
0.0
 11
61.709175323
 21
28.12583816949999
 31
0.0
  0
LINE
  5
2153
330
213
100
AcDbEntity
  8
0
  6
Continuous
 62
     9
100
AcDbLine
 10
60.94443918319999
 20
28.10681242099999
 30
0.0
 11
60.94532921529999
 21
28.15978346499999
 31
0.0
  0
LINE
  5
2154
330
213
100
AcDbEntity
  8
0
  6
Continuous
 62
     7
100
AcDbLine
 10
60.92280373899999
 20
26.77266104409998
 30
0.0
 11
61.0572703611
 21
26.86276976429999
 31
0.0
  0
LINE
  5
2155
330
213
100
AcDbEntity
  8
0
  6
Continuous
 62
     9
100
AcDbLine
 10
61.7063903496
 20
28.07289917549999
 30
0.0
 11
61.7086004981
 21
28.09047739679999
 31
0.0
  0
LINE
  5
2156
330
213
100
AcDbEntity
  8
0
  6
Continuous
 62
     9
100
AcDbLine
 10
61.105589082
 20
27.80418674469999
 30
0.0
 11
61.0212075243
 21
27.48852924689999
 31
0.0
  0
LINE
  5
2157
330
213
100
AcDbEntity
  8
0
  6
Continuous
 62
     7
100
AcDbLine
 10
60.73509035669999
 20
26.42072544039999
 30
0.0
 11
61.0212075243
 21
27.48852924689999
 31
0.0
  0
LINE
  5
2158
330
213
100
AcDbEntity
  8
0
  6
Continuous
 62
     7
100
AcDbLine
 10
60.756583683
 20
26.50088409979999
 30
0.0
 11
60.8196223264
 21
26.64808390179999
 31
0.0
  0
LWPOLYLINE
  5
2159
330
213
100
AcDbEntity
  8
0
  6
Continuous
 62
     9
100
AcDbPolyline
 90
        5
 70
     0
 43
0.0
 10
61.1055890471
 20
27.80418675189999
 10
61.1574799763
 20
27.91537892439999
 10
61.24247162399999
 20
28.00389755989999
 10
61.3514624795
 20
28.06026345389998
 10
61.4727810279
 20
28.07844054299999
  0
LWPOLYLINE
  5
215A
330
213
100
AcDbEntity
  8
0
  6
Continuous
 62
     7
100
AcDbPolyline
 90
        5
 70
     0
 43
0.0
 10
60.8189602789
 20
26.64699508509999
 10
60.92095643729999
 20
26.77098444959999
 10
61.05394733589999
 20
26.86116750339999
 10
61.2070089141
 20
26.91006839729999
 10
61.29990191560001
 20
26.91779207599999
  0
LINE
  5
215B
330
213
100
AcDbEntity
  8
0
  6
Continuous
 62
     7
100
AcDbLine
 10
60.853975401
 20
26.68956044059999
 30
0.0
 11
60.92280373899999
 21
26.77266104409998
 31
0.0
  0
LINE
  5
215C
330
213
100
AcDbEntity
  8
0
  6
Continuous
 62
     7
100
AcDbLine
 10
65.91041052920001
 20
27.96974530889999
 30
0.0
 11
65.9109580607
 21
28.02271934429999
 31
0.0
  0
LINE
  5
215D
330
213
100
AcDbEntity
  8
0
  6
Continuous
 62
     9
100
AcDbLine
 10
65.90761356219999
 20
27.97230246089999
 30
0.0
 11
65.90816436629999
 21
28.02527513689998
 31
0.0
  0
LWPOLYLINE
  5
215E
330
213
100
AcDbEntity
  8
0
  6
Continuous
 62
     9
100
AcDbPolyline
 90
        4
 70
     0
 43
0.0
 10
65.4251734296
 20
27.77264310889999
 10
65.4847310093
 20
27.85641656069999
 10
65.5647489472
 20
27.92089516519999
 10
65.65921496939999
 20
27.96123309569999
  0
LINE
  5
215F
330
213
100
AcDbEntity
  8
0
  6
Continuous
 62
     7
100
AcDbLine
 10
65.2421884484
 20
27.42609668559999
 30
0.0
 11
65.2403595145
 21
27.41906143799999
 31
0.0
  0
LWPOLYLINE
  5
2160
330
213
100
AcDbEntity
  8
0
  6
Continuous
 62
     9
100
AcDbPolyline
 90
        3
 70
     0
 43
0.0
 10
65.2421884484
 20
27.42609668559999
 10
65.3327629039
 20
27.59809111459999
 10
65.42517405799999
 20
27.77264307359999
  0
LINE
  5
2161
330
213
100
AcDbEntity
  8
0
  6
Continuous
 62
     7
100
AcDbLine
 10
65.2402245925
 20
27.41863580039999
 30
0.0
 11
65.2995961026
 21
27.53112362369999
 31
0.0
  0
LINE
  5
2162
330
213
100
AcDbEntity
  8
0
  6
Continuous
 62
     7
100
AcDbLine
 10
65.2995961026
 20
27.53112362369999
 30
0.0
 11
65.42782415810001
 21
27.77281439249998
 31
0.0
  0
LINE
  5
2163
330
213
100
AcDbEntity
  8
0
  6
Continuous
 62
     7
100
AcDbLine
 10
65.23464416569999
 20
27.40837908459999
 30
0.0
 11
65.2403595145
 21
27.41906143799999
 31
0.0
  0
LWPOLYLINE
  5
2164
330
213
100
AcDbEntity
  8
0
  6
Continuous
 62
     7
100
AcDbPolyline
 90
        8
 70
     0
 43
0.0
 10
65.42782407039999
 20
27.77281417259999
 10
65.43759893669999
 20
27.79005984649999
 10
65.4924400581
 20
27.86040222639999
 10
65.5562442387
 20
27.91175571869999
 10
65.6175274329
 20
27.94302084759999
 10
65.65867885999999
 20
27.95629035169999
 10
65.6765246816
 20
27.96010110499999
 10
65.6788636334
 20
27.96047607819999
  0
LINE
  5
2165
330
213
100
AcDbEntity
  8
0
  6
Continuous
 62
     7
100
AcDbLine
 10
68.4354136007
 20
27.92830369539999
 30
0.0
 11
68.0722274447
 21
27.56511753939999
 31
0.0
  0
LINE
  5
2166
330
213
100
AcDbEntity
  8
0
  6
Continuous
 62
     7
100
AcDbLine
 10
72.62720515419999
 20
42.99017302869998
 30
0.0
 11
72.650247799
 21
43.10898655629999
 31
0.0
  0
LINE
  5
2167
330
213
100
AcDbEntity
  8
0
  6
Continuous
 62
     7
100
AcDbLine
 10
72.650247799
 20
43.10898655629999
 30
0.0
 11
72.668633051
 21
43.20114296829998
 31
0.0
  0
LINE
  5
2168
330
213
100
AcDbEntity
  8
0
  6
Continuous
 62
     7
100
AcDbLine
 10
72.668633051
 20
43.20114296829998
 30
0.0
 11
72.68886799349999
 21
43.30005702639999
 31
0.0
  0
LINE
  5
2169
330
213
100
AcDbEntity
  8
0
  6
Continuous
 62
     7
100
AcDbLine
 10
72.3480730163
 20
40.94963498269998
 30
0.0
 11
72.3536303635
 21
41.01549859649998
 31
0.0
  0
LINE
  5
216A
330
213
100
AcDbEntity
  8
0
  6
Continuous
 62
     7
100
AcDbLine
 10
72.3536303635
 20
41.01549859649998
 30
0.0
 11
72.36064626619999
 21
41.09499169029999
 31
0.0
  0
LWPOLYLINE
  5
216B
330
213
100
AcDbEntity
  8
0
  6
Continuous
 62
     7
100
AcDbPolyline
 90
       13
 70
     0
 43
0.0
 10
72.36064626619999
 20
41.09499169029999
 10
72.3706155703
 20
41.20194800759999
 10
72.3767468602
 20
41.26469723259998
 10
72.3836777312
 20
41.33319012289998
 10
72.3914099065
 20
41.40685613629998
 10
72.3999773288
 20
41.48545477979999
 10
72.40937145699999
 20
41.56837618459998
 10
72.41961806489999
 20
41.65535912099998
 10
72.4306899952
 20
41.74573448559999
 10
72.44258790329999
 20
41.83913081789998
 10
72.45524626229999
 20
41.93472914589999
 10
72.46862305399999
 20
42.03199061559998
 10
72.4826116623
 20
42.13000518439998
  0
LINE
  5
216C
330
213
100
AcDbEntity
  8
0
  6
Continuous
 62
     7
100
AcDbLine
 10
70.73220046510001
 20
29.80515599109999
 30
0.0
 11
72.3480730163
 21
40.94963498269998
 31
0.0
  0
LINE
  5
216D
330
213
100
AcDbEntity
  8
0
  6
Continuous
 62
     7
100
AcDbLine
 10
72.68886799349999
 20
43.30005702639999
 30
0.0
 11
72.86888607749999
 21
44.54162013989998
 31
0.0
  0
LWPOLYLINE
  5
216E
330
213
100
AcDbEntity
  8
0
  6
Continuous
 62
     7
100
AcDbPolyline
 90
       11
 70
     0
 43
0.0
 10
72.4826116623
 20
42.13000518439998
 10
72.4968510487
 20
42.22629720029998
 10
72.51151213029999
 20
42.32213758429998
 10
72.5264546216
 20
42.41669763879999
 10
72.54155925860001
 20
42.50937526329998
 10
72.5566625143
 20
42.59937516399999
 10
72.57164779819999
 20
42.68625141259998
 10
72.5863342901
 20
42.76923748059998
 10
72.60060357810001
 20
42.84796793879999
 10
72.61426726519999
 20
42.92172152979999
 10
72.62720515419999
 20
42.99017302869998
  0
LINE
  5
216F
330
213
100
AcDbEntity
  8
0
  6
Continuous
 62
     7
100
AcDbLine
 10
76.91061579229999
 20
44.76778258229999
 30
0.0
 11
76.91061579229999
 21
46.51778258229999
 31
0.0
  0
ARC
  5
2170
330
213
100
AcDbEntity
  8
DEFAULT_2
  6
HIDDEN
 62
     8
100
AcDbCircle
 10
29.7156930804
 20
30.92361513579998
 30
0.0
 40
2.0
100
AcDbArc
 50
203.0000001277002
 51
268.6184914976999
  0
ARC
  5
2171
330
213
100
AcDbEntity
  8
DEFAULT_2
  6
HIDDEN
 62
     8
100
AcDbCircle
 10
68.62919126539999
 20
30.11007781069999
 30
0.0
 40
1.9999999993
100
AcDbArc
 50
275.4304095530001
 51
351.7500000726999
  0
ARC
  5
2172
330
213
100
AcDbEntity
  8
DEFAULT_2
  6
HIDDEN
 62
     8
100
AcDbCircle
 10
72.88411579229999
 20
45.51778258229999
 30
0.0
 40
0.75
100
AcDbArc
 50
276.2275091852
 51
345.5224878512999
  0
ARC
  5
2173
330
213
100
AcDbEntity
  8
DEFAULT_2
  6
HIDDEN
 62
     8
100
AcDbCircle
 10
21.3481157923
 20
45.51778258229999
 30
0.0
 40
0.75
100
AcDbArc
 50
194.4775122615
 51
278.5224907267
  0
ARC
  5
2174
330
213
100
AcDbEntity
  8
DEFAULT_2
  6
HIDDEN
 62
     8
100
AcDbCircle
 10
73.85236161729999
 20
45.26778258229999
 30
0.0
 40
0.2499999998
100
AcDbArc
 50
89.99999992900004
 51
165.5224877969
  0
ARC
  5
2175
330
213
100
AcDbEntity
  8
DEFAULT_2
  6
HIDDEN
 62
     8
100
AcDbCircle
 10
67.80706240169999
 20
27.83028258229999
 30
0.0
 40
0.25
100
AcDbArc
 50
270.0
 51
315.0000000000001
  0
ARC
  5
2176
330
213
100
AcDbEntity
  8
DEFAULT_2
  6
HIDDEN
 62
     8
100
AcDbCircle
 10
65.2641691829
 20
27.83028258229999
 30
0.0
 40
0.25
100
AcDbArc
 50
225.0
 51
270.0
  0
ARC
  5
2177
330
213
100
AcDbEntity
  8
DEFAULT_2
  6
HIDDEN
 62
     8
100
AcDbCircle
 10
68.5238019449
 20
27.83991534779999
 30
0.0
 40
0.2499999998
100
AcDbArc
 50
95.43040870770004
 51
134.9999994539999
  0
ARC
  5
2178
330
213
100
AcDbEntity
  8
DEFAULT_2
  6
HIDDEN
 62
     8
100
AcDbCircle
 10
64.55457782429999
 20
27.83276716199999
 30
0.0
 40
0.2499999999
100
AcDbArc
 50
45.00000040070012
 51
88.61849169579995
  0
ARC
  5
2179
330
213
100
AcDbEntity
  8
DEFAULT_2
  6
HIDDEN
 62
     8
100
AcDbCircle
 10
20.3798699669
 20
45.26778258229999
 30
0.0
 40
0.2499999998
100
AcDbArc
 50
14.4775122022998
 51
90.00000006809989
  0
ARC
  5
217A
330
213
100
AcDbEntity
  8
DEFAULT_2
  6
HIDDEN
 62
     8
100
AcDbCircle
 10
72.99259243219999
 20
44.52368358539998
 30
0.0
 40
0.2499999988
100
AcDbArc
 50
96.22750465910009
 51
171.7500002330001
  0
ARC
  5
217B
330
213
100
AcDbEntity
  8
DEFAULT_2
  6
HIDDEN
 62
     8
100
AcDbCircle
 10
21.4963134333
 20
44.52882481669998
 30
0.0
 40
0.2499999988
100
AcDbArc
 50
22.99999982600007
 51
98.52249425239991
  0
ARC
  5
217C
330
213
100
AcDbEntity
  8
0
  6
Continuous
 62
     7
100
AcDbCircle
 10
29.7156930804
 20
30.92361513579998
 30
0.0
 40
2.125
100
AcDbArc
 50
203.0000001277002
 51
268.6184914947999
  0
ARC
  5
217D
330
213
100
AcDbEntity
  8
0
  6
Continuous
 62
     7
100
AcDbCircle
 10
32.5062685573
 20
26.41150659999999
 30
0.0
 40
0.5625000184000001
100
AcDbArc
 50
16.34616591959975
 51
74.33577117210003
  0
ARC
  5
217E
330
213
100
AcDbEntity
  8
0
  6
Continuous
 62
     7
100
AcDbCircle
 10
33.4483634128
 20
26.51778258229999
 30
0.0
 40
0.375
100
AcDbArc
 50
194.9999999999999
 51
258.0900767622
  0
ARC
  5
217F
330
213
100
AcDbEntity
  8
0
  6
Continuous
 62
     7
100
AcDbCircle
 10
33.4225667061
 20
26.39547342509999
 30
0.0
 40
0.25
100
AcDbArc
 50
258.0900786556
 51
340.0921171109001
  0
ARC
  5
2180
330
213
100
AcDbEntity
  8
0
  6
Continuous
 62
     7
100
AcDbCircle
 10
34.5460743956
 20
26.26778258229999
 30
0.0
 40
0.125
100
AcDbArc
 50
19.90788290029997
 51
90.0
  0
ARC
  5
2181
330
213
100
AcDbEntity
  8
0
  6
Continuous
 62
     7
100
AcDbCircle
 10
33.7751571891
 20
26.26778258229999
 30
0.0
 40
0.125
100
AcDbArc
 50
90.0
 51
160.0921170997
  0
ARC
  5
2182
330
213
100
AcDbEntity
  8
0
  6
Continuous
 62
     7
100
AcDbCircle
 10
34.8728681718
 20
26.51778258229999
 30
0.0
 40
0.375
100
AcDbArc
 50
281.9099232378
 51
345.0000000000001
  0
ARC
  5
2183
330
213
100
AcDbEntity
  8
0
  6
Continuous
 62
     7
100
AcDbCircle
 10
34.8986648785
 20
26.39547342509999
 30
0.0
 40
0.25
100
AcDbArc
 50
199.9078829003
 51
281.9099232378
  0
ARC
  5
2184
330
213
100
AcDbEntity
  8
0
  6
Continuous
 62
     7
100
AcDbCircle
 10
21.4963134333
 20
44.52882481669998
 30
0.0
 40
0.1249999987
100
AcDbArc
 50
22.99999982600007
 51
65.97195194099993
  0
ARC
  5
2185
330
213
100
AcDbEntity
  8
0
  6
Continuous
 62
     7
100
AcDbCircle
 10
59.2751571891
 20
26.26778258229999
 30
0.0
 40
0.125
100
AcDbArc
 50
90.0
 51
160.0921170997
  0
ARC
  5
2186
330
213
100
AcDbEntity
  8
0
  6
Continuous
 62
     7
100
AcDbCircle
 10
58.9483634128
 20
26.51778258229999
 30
0.0
 40
0.375
100
AcDbArc
 50
194.9999999999999
 51
258.0900767622
  0
ARC
  5
2187
330
213
100
AcDbEntity
  8
0
  6
Continuous
 62
     7
100
AcDbCircle
 10
58.9225667061
 20
26.39547342509999
 30
0.0
 40
0.25
100
AcDbArc
 50
258.0900786556
 51
340.0921171109001
  0
ARC
  5
2188
330
213
100
AcDbEntity
  8
0
  6
Continuous
 62
     7
100
AcDbCircle
 10
60.0460743956
 20
26.26778258229999
 30
0.0
 40
0.125
100
AcDbArc
 50
19.90788290029997
 51
90.0
  0
ARC
  5
2189
330
213
100
AcDbEntity
  8
0
  6
Continuous
 62
     7
100
AcDbCircle
 10
60.3728681718
 20
26.51778258229999
 30
0.0
 40
0.375
100
AcDbArc
 50
281.9099232378
 51
345.0000000000001
  0
ARC
  5
218A
330
213
100
AcDbEntity
  8
0
  6
Continuous
 62
     7
100
AcDbCircle
 10
60.39866487850001
 20
26.39547342509999
 30
0.0
 40
0.25
100
AcDbArc
 50
199.9078829003
 51
281.9099232378
  0
ARC
  5
218B
330
213
100
AcDbEntity
  8
0
  6
Continuous
 62
     7
100
AcDbCircle
 10
65.2641691829
 20
27.83028258229999
 30
0.0
 40
0.375
100
AcDbArc
 50
269.3156316564
 51
270.0
  0
ARC
  5
218C
330
213
100
AcDbEntity
  8
0
  6
Continuous
 62
     7
100
AcDbCircle
 10
67.80706240169999
 20
27.83028258229999
 30
0.0
 40
0.375
100
AcDbArc
 50
270.0
 51
315.0000000000001
  0
ARC
  5
218D
330
213
100
AcDbEntity
  8
0
  6
Continuous
 62
     7
100
AcDbCircle
 10
68.5238019449
 20
27.83991534779999
 30
0.0
 40
0.1249999998
100
AcDbArc
 50
95.43040870770004
 51
134.999999467
  0
ARC
  5
218E
330
213
100
AcDbEntity
  8
0
  6
Continuous
 62
     7
100
AcDbCircle
 10
68.62919126539999
 20
30.11007780999999
 30
0.0
 40
2.124999999199999
100
AcDbArc
 50
275.4304095583
 51
351.7500000921
  0
ARC
  5
218F
330
213
100
AcDbEntity
  8
0
  6
Continuous
 62
     7
100
AcDbCircle
 10
72.99259243219999
 20
44.52368358539998
 30
0.0
 40
0.1249999986
100
AcDbArc
 50
96.2275046589
 51
171.7500002330001
  0
LINE
  5
21A0
330
213
100
AcDbEntity
  8
0
100
AcDbLine
 10
60.45025829184455
 20
26.15085511078265
 30
0.0
 11
58.87096515106892
 21
26.15085682811938
 31
0.0
  0
LINE
  5
21A1
330
213
100
AcDbEntity
  8
0
100
AcDbLine
 10
34.95025829184454
 20
26.15085511078265
 30
0.0
 11
33.37097330083913
 21
26.15085510907769
 31
0.0
  0
LINE
  5
21A2
330
213
100
AcDbEntity
  8
0
100
AcDbLine
 10
60.45025829184455
 20
25.52585511078265
 30
0.0
 11
58.87096515106892
 21
25.52585682811938
 31
0.0
  0
LINE
  5
21A3
330
213
100
AcDbEntity
  8
0
100
AcDbLine
 10
34.95025829184454
 20
25.52585511078265
 30
0.0
 11
33.37097330083913
 21
25.52585510907769
 31
0.0
  0
LINE
  5
21A4
330
213
100
AcDbEntity
  8
0
100
AcDbLine
 10
34.95025829162089
 20
26.15085511078265
 30
0.0
 11
34.95025829184454
 21
25.52585511078265
 31
0.0
  0
LINE
  5
21A5
330
213
100
AcDbEntity
  8
0
100
AcDbLine
 10
33.37097330106278
 20
26.15085510907769
 30
0.0
 11
33.37097330083913
 21
25.52585510907769
 31
0.0
  0
LINE
  5
21A6
330
213
100
AcDbEntity
  8
0
100
AcDbLine
 10
58.87096515106892
 20
26.15085682811938
 30
0.0
 11
58.87096515106892
 21
25.52585682811938
 31
0.0
  0
LINE
  5
21A7
330
213
100
AcDbEntity
  8
0
100
AcDbLine
 10
60.45025829162089
 20
26.15085511078265
 30
0.0
 11
60.45025829184455
 21
25.52585511078265
 31
0.0
  0
ENDSEC
  0
SECTION
  2
OBJECTS
  0
DICTIONARY
  5
C
330
0
100
AcDbDictionary
281
     1
  3
ACAD_COLOR
350
19E9
  3
ACAD_GROUP
350
D
  3
ACAD_LAYOUT
350
1A
  3
ACAD_MATERIAL
350
19BC
  3
ACAD_MLEADERSTYLE
350
1A0E
  3
ACAD_MLINESTYLE
350
17
  3
ACAD_PLOTSETTINGS
350
19
  3
ACAD_PLOTSTYLENAME
350
E
  3
ACAD_SCALELIST
350
19EC
  3
ACAD_TABLESTYLE
350
19EA
  3
ACAD_VISUALSTYLE
350
19D5
  3
ACDB_RECOMPOSE_DATA
350
1A14
  3
AcDbVariableDictionary
350
1A46
  0
DICTIONARY
  5
1A15
330
8
100
AcDbDictionary
280
     1
281
     1
  0
DICTIONARY
  5
1A55
330
10
100
AcDbDictionary
280
     1
281
     1
  3
ADSK_XREC_LAYER_RECONCILED
360
1A56
  0
DICTIONARY
  5
1A57
330
1FA
100
AcDbDictionary
280
     1
281
     1
  3
ADSK_XREC_LAYER_RECONCILED
360
1A58
  0
DICTIONARY
  5
1A59
330
1FB
100
AcDbDictionary
280
     1
281
     1
  3
ADSK_XREC_LAYER_RECONCILED
360
1A5A
  0
DICTIONARY
  5
1A5B
330
1FC
100
AcDbDictionary
280
     1
281
     1
  3
ADSK_XREC_LAYER_RECONCILED
360
1A5C
  0
DICTIONARY
  5
1A5D
330
1FD
100
AcDbDictionary
280
     1
281
     1
  3
ADSK_XREC_LAYER_RECONCILED
360
1A5E
  0
DICTIONARY
  5
1A5F
330
1FE
100
AcDbDictionary
280
     1
281
     1
  3
ADSK_XREC_LAYER_RECONCILED
360
1A60
  0
DICTIONARY
  5
1A61
330
1FF
100
AcDbDictionary
280
     1
281
     1
  3
ADSK_XREC_LAYER_RECONCILED
360
1A62
  0
DICTIONARY
  5
1A63
330
200
100
AcDbDictionary
280
     1
281
     1
  3
ADSK_XREC_LAYER_RECONCILED
360
1A64
  0
DICTIONARY
  5
1A65
330
201
100
AcDbDictionary
280
     1
281
     1
  3
ADSK_XREC_LAYER_RECONCILED
360
1A66
  0
DICTIONARY
  5
1A67
330
202
100
AcDbDictionary
280
     1
281
     1
  3
ADSK_XREC_LAYER_RECONCILED
360
1A68
  0
DICTIONARY
  5
1A69
330
203
100
AcDbDictionary
280
     1
281
     1
  3
ADSK_XREC_LAYER_RECONCILED
360
1A6A
  0
DICTIONARY
  5
1A6B
330
204
100
AcDbDictionary
280
     1
281
     1
  3
ADSK_XREC_LAYER_RECONCILED
360
1A6C
  0
DICTIONARY
  5
1A6D
330
205
100
AcDbDictionary
280
     1
281
     1
  3
ADSK_XREC_LAYER_RECONCILED
360
1A6E
  0
DICTIONARY
  5
1A6F
330
206
100
AcDbDictionary
280
     1
281
     1
  3
ADSK_XREC_LAYER_RECONCILED
360
1A70
  0
DICTIONARY
  5
1A71
330
207
100
AcDbDictionary
280
     1
281
     1
  3
ADSK_XREC_LAYER_RECONCILED
360
1A72
  0
DICTIONARY
  5
1A73
330
208
100
AcDbDictionary
280
     1
281
     1
  3
ADSK_XREC_LAYER_RECONCILED
360
1A74
  0
DICTIONARY
  5
1A75
330
209
100
AcDbDictionary
280
     1
281
     1
  3
ADSK_XREC_LAYER_RECONCILED
360
1A76
  0
DICTIONARY
  5
1A77
330
20A
100
AcDbDictionary
280
     1
281
     1
  3
ADSK_XREC_LAYER_RECONCILED
360
1A78
  0
DICTIONARY
  5
19E9
102
{ACAD_REACTORS
330
C
102
}
330
C
100
AcDbDictionary
281
     1
  0
DICTIONARY
  5
D
102
{ACAD_REACTORS
330
C
102
}
330
C
100
AcDbDictionary
281
     1
  0
DICTIONARY
  5
1A
102
{ACAD_REACTORS
330
C
102
}
330
C
100
AcDbDictionary
281
     1
  3
Layout1
350
19B8
  3
Model
350
19B7
  0
DICTIONARY
  5
19BC
102
{ACAD_REACTORS
330
C
102
}
330
C
100
AcDbDictionary
281
     1
  3
ByBlock
350
19C5
  3
ByLayer
350
19BD
  3
Global
350
19CD
  0
DICTIONARY
  5
1A0E
102
{ACAD_REACTORS
330
C
102
}
330
C
100
AcDbDictionary
281
     1
  3
Standard
350
1A0F
  0
DICTIONARY
  5
17
102
{ACAD_REACTORS
330
C
102
}
330
C
100
AcDbDictionary
281
     1
  3
Standard
350
18
  0
DICTIONARY
  5
19
102
{ACAD_REACTORS
330
C
102
}
330
C
100
AcDbDictionary
281
     1
  0
ACDBDICTIONARYWDFLT
  5
E
102
{ACAD_REACTORS
330
C
102
}
330
C
100
AcDbDictionary
281
     1
  3
Normal
350
F
100
AcDbDictionaryWithDefault
340
F
  0
DICTIONARY
  5
19EC
102
{ACAD_REACTORS
330
C
102
}
330
C
100
AcDbDictionary
281
     1
  3
A0
350
19ED
  3
A1
350
19EE
  3
A2
350
19EF
  3
A3
350
19F0
  3
A4
350
19F1
  3
A5
350
19F2
  3
A6
350
19F3
  3
A7
350
19F4
  3
A8
350
19F5
  3
A9
350
19F6
  3
B0
350
19F7
  3
B1
350
19F8
  3
B2
350
19F9
  3
B3
350
19FA
  3
B4
350
19FB
  3
B5
350
19FC
  3
B6
350
19FD
  3
B7
350
19FE
  3
B8
350
19FF
  3
B9
350
1A00
  3
C0
350
1A01
  3
C1
350
1A02
  3
C2
350
1A03
  3
C3
350
1A04
  3
C4
350
1A05
  3
C5
350
1A06
  3
C6
350
1A07
  3
C7
350
1A08
  3
C8
350
1A09
  3
C9
350
1A0A
  3
D0
350
1A0B
  3
D1
350
1A0C
  3
D2
350
1A0D
  0
DICTIONARY
  5
19EA
102
{ACAD_REACTORS
330
C
102
}
330
C
100
AcDbDictionary
281
     1
  3
Standard
350
19EB
  0
DICTIONARY
  5
19D5
102
{ACAD_REACTORS
330
C
102
}
330
C
100
AcDbDictionary
281
     1
  3
2dWireframe
350
19DB
  3
3D Hidden
350
19DD
  3
3dWireframe
350
19DC
  3
Basic
350
19DA
  3
Brighten
350
19E1
  3
ColorChange
350
19E5
  3
Conceptual
350
19DE
  3
Dim
350
19E0
  3
EdgeColorOff
350
19E8
  3
Facepattern
350
19E4
  3
Flat
350
19D6
  3
FlatWithEdges
350
19D7
  3
Gouraud
350
19D8
  3
GouraudWithEdges
350
19D9
  3
JitterOff
350
19E6
  3
Linepattern
350
19E3
  3
OverhangOff
350
19E7
  3
Realistic
350
19DF
  3
Thicken
350
19E2
  0
XRECORD
  5
1A14
102
{ACAD_REACTORS
330
C
102
}
330
C
100
AcDbXrecord
280
     1
 90
        1
330
19EB
  0
DICTIONARY
  5
1A46
102
{ACAD_REACTORS
330
C
102
}
330
C
100
AcDbDictionary
281
     1
  3
CANNOSCALE
350
1A49
  3
CMLEADERSTYLE
350
1A48
  3
CTABLESTYLE
350
1A47
  3
DIMASSOC
350
1A4C
  3
INDEXCTL
350
1A4B
  3
LAYEREVAL
350
21AF
  3
LAYERNOTIFY
350
21B0
  3
LIGHTINGUNITS
350
21AE
  3
MSLTSCALE
350
21AD
  3
SORTENTS
350
1A4A
  3
XCLIPFRAME
350
1A4D
  0
XRECORD
  5
1A56
102
{ACAD_REACTORS
330
1A55
102
}
330
1A55
100
AcDbXrecord
280
     1
290
     1
  0
XRECORD
  5
1A58
102
{ACAD_REACTORS
330
1A57
102
}
330
1A57
100
AcDbXrecord
280
     1
290
     1
  0
XRECORD
  5
1A5A
102
{ACAD_REACTORS
330
1A59
102
}
330
1A59
100
AcDbXrecord
280
     1
290
     1
  0
XRECORD
  5
1A5C
102
{ACAD_REACTORS
330
1A5B
102
}
330
1A5B
100
AcDbXrecord
280
     1
290
     1
  0
XRECORD
  5
1A5E
102
{ACAD_REACTORS
330
1A5D
102
}
330
1A5D
100
AcDbXrecord
280
     1
290
     1
  0
XRECORD
  5
1A60
102
{ACAD_REACTORS
330
1A5F
102
}
330
1A5F
100
AcDbXrecord
280
     1
290
     1
  0
XRECORD
  5
1A62
102
{ACAD_REACTORS
330
1A61
102
}
330
1A61
100
AcDbXrecord
280
     1
290
     1
  0
XRECORD
  5
1A64
102
{ACAD_REACTORS
330
1A63
102
}
330
1A63
100
AcDbXrecord
280
     1
290
     1
  0
XRECORD
  5
1A66
102
{ACAD_REACTORS
330
1A65
102
}
330
1A65
100
AcDbXrecord
280
     1
290
     1
  0
XRECORD
  5
1A68
102
{ACAD_REACTORS
330
1A67
102
}
330
1A67
100
AcDbXrecord
280
     1
290
     1
  0
XRECORD
  5
1A6A
102
{ACAD_REACTORS
330
1A69
102
}
330
1A69
100
AcDbXrecord
280
     1
290
     1
  0
XRECORD
  5
1A6C
102
{ACAD_REACTORS
330
1A6B
102
}
330
1A6B
100
AcDbXrecord
280
     1
290
     1
  0
XRECORD
  5
1A6E
102
{ACAD_REACTORS
330
1A6D
102
}
330
1A6D
100
AcDbXrecord
280
     1
290
     1
  0
XRECORD
  5
1A70
102
{ACAD_REACTORS
330
1A6F
102
}
330
1A6F
100
AcDbXrecord
280
     1
290
     1
  0
XRECORD
  5
1A72
102
{ACAD_REACTORS
330
1A71
102
}
330
1A71
100
AcDbXrecord
280
     1
290
     1
  0
XRECORD
  5
1A74
102
{ACAD_REACTORS
330
1A73
102
}
330
1A73
100
AcDbXrecord
280
     1
290
     1
  0
XRECORD
  5
1A76
102
{ACAD_REACTORS
330
1A75
102
}
330
1A75
100
AcDbXrecord
280
     1
290
     1
  0
XRECORD
  5
1A78
102
{ACAD_REACTORS
330
1A77
102
}
330
1A77
100
AcDbXrecord
280
     1
290
     1
  0
LAYOUT
  5
19B8
102
{ACAD_REACTORS
330
1A
102
}
330
1A
100
AcDbPlotSettings
  1

  2
none_device
  4
ANSI_B_(17.00_x_11.00_Inches)
  6

 40
0.0
 41
0.0
 42
0.0
 43
0.0
 44
431.8
 45
279.4
 46
0.0
 47
0.0
 48
0.0
 49
0.0
140
0.0
141
0.0
142
1.0
143
1.0
 70
     0
 72
     0
 73
     0
 74
     0
  7

 75
     0
147
1.0
 76
     0
 77
     2
 78
   300
148
0.0
149
0.0
100
AcDbLayout
  1
Layout1
 70
     1
 71
     1
 10
0.0
 20
0.0
 11
12.0
 21
9.0
 12
0.0
 22
0.0
 32
0.0
 14
1.000000000000000E+20
 24
1.000000000000000E+20
 34
1.000000000000000E+20
 15
-1.000000000000000E+20
 25
-1.000000000000000E+20
 35
-1.000000000000000E+20
146
0.0
 13
0.0
 23
0.0
 33
0.0
 16
1.0
 26
0.0
 36
0.0
 17
0.0
 27
1.0
 37
0.0
 76
     0
330
214
  0
LAYOUT
  5
19B7
102
{ACAD_REACTORS
330
1A
102
}
330
1A
100
AcDbPlotSettings
  1

  2
none_device
  4
ANSI_B_(17.00_x_11.00_Inches)
  6

 40
0.0
 41
0.0
 42
0.0
 43
0.0
 44
431.8
 45
279.4
 46
0.0
 47
0.0
 48
0.0
 49
0.0
140
0.0
141
0.0
142
1.0
143
1.0
 70
  1024
 72
     0
 73
     0
 74
     0
  7

 75
     0
147
1.0
 76
     0
 77
     2
 78
   300
148
0.0
149
0.0
100
AcDbLayout
  1
Model
 70
     0
 71
     0
 10
0.0
 20
0.0
 11
17.0
 21
11.0
 12
0.0
 22
0.0
 32
0.0
 14
0.0
 24
0.0
 34
0.0
 15
0.0
 25
0.0
 35
0.0
146
0.0
 13
0.0
 23
0.0
 33
0.0
 16
1.0
 26
0.0
 36
0.0
 17
0.0
 27
1.0
 37
0.0
 76
     0
330
213
331
1F4
  0
MATERIAL
  5
19C5
102
{ACAD_XDICTIONARY
360
19C6
102
}
102
{ACAD_REACTORS
330
19BC
102
}
330
19BC
100
AcDbMaterial
  1
ByBlock
 72
     0
 43
0.0208333333333333
 43
0.0
 43
0.0
 43
0.0
 43
0.0
 43
0.0208333333333333
 43
0.0
 43
0.0
 43
0.0
 43
0.0
 43
1.0
 43
0.0
 43
0.0
 43
0.0
 43
0.0
 43
1.0
 77
     0
 47
0.0208333333333333
 47
0.0
 47
0.0
 47
0.0
 47
0.0
 47
0.0208333333333333
 47
0.0
 47
0.0
 47
0.0
 47
0.0
 47
1.0
 47
0.0
 47
0.0
 47
0.0
 47
0.0
 47
1.0
171
     0
 49
0.0208333333333333
 49
0.0
 49
0.0
 49
0.0
 49
0.0
 49
0.0208333333333333
 49
0.0
 49
0.0
 49
0.0
 49
0.0
 49
1.0
 49
0.0
 49
0.0
 49
0.0
 49
0.0
 49
1.0
175
     0
142
0.0208333333333333
142
0.0
142
0.0
142
0.0
142
0.0
142
0.0208333333333333
142
0.0
142
0.0
142
0.0
142
0.0
142
1.0
142
0.0
142
0.0
142
0.0
142
0.0
142
1.0
179
     0
144
0.0208333333333333
144
0.0
144
0.0
144
0.0
144
0.0
144
0.0208333333333333
144
0.0
144
0.0
144
0.0
144
0.0
144
1.0
144
0.0
144
0.0
144
0.0
144
0.0
144
1.0
147
0.0208333333333333
147
0.0
147
0.0
147
0.0
147
0.0
147
0.0208333333333333
147
0.0
147
0.0
147
0.0
147
0.0
147
1.0
147
0.0
147
0.0
147
0.0
147
0.0
147
1.0
  0
MATERIAL
  5
19BD
102
{ACAD_XDICTIONARY
360
19BE
102
}
102
{ACAD_REACTORS
330
19BC
102
}
330
19BC
100
AcDbMaterial
  1
ByLayer
 72
     0
 43
0.0208333333333333
 43
0.0
 43
0.0
 43
0.0
 43
0.0
 43
0.0208333333333333
 43
0.0
 43
0.0
 43
0.0
 43
0.0
 43
1.0
 43
0.0
 43
0.0
 43
0.0
 43
0.0
 43
1.0
 77
     0
 47
0.0208333333333333
 47
0.0
 47
0.0
 47
0.0
 47
0.0
 47
0.0208333333333333
 47
0.0
 47
0.0
 47
0.0
 47
0.0
 47
1.0
 47
0.0
 47
0.0
 47
0.0
 47
0.0
 47
1.0
171
     0
 49
0.0208333333333333
 49
0.0
 49
0.0
 49
0.0
 49
0.0
 49
0.0208333333333333
 49
0.0
 49
0.0
 49
0.0
 49
0.0
 49
1.0
 49
0.0
 49
0.0
 49
0.0
 49
0.0
 49
1.0
175
     0
142
0.0208333333333333
142
0.0
142
0.0
142
0.0
142
0.0
142
0.0208333333333333
142
0.0
142
0.0
142
0.0
142
0.0
142
1.0
142
0.0
142
0.0
142
0.0
142
0.0
142
1.0
179
     0
144
0.0208333333333333
144
0.0
144
0.0
144
0.0
144
0.0
144
0.0208333333333333
144
0.0
144
0.0
144
0.0
144
0.0
144
1.0
144
0.0
144
0.0
144
0.0
144
0.0
144
1.0
147
0.0208333333333333
147
0.0
147
0.0
147
0.0
147
0.0
147
0.0208333333333333
147
0.0
147
0.0
147
0.0
147
0.0
147
1.0
147
0.0
147
0.0
147
0.0
147
0.0
147
1.0
  0
MATERIAL
  5
19CD
102
{ACAD_XDICTIONARY
360
19CE
102
}
102
{ACAD_REACTORS
330
19BC
102
}
330
19BC
100
AcDbMaterial
  1
Global
 72
     0
 43
0.0208333333333333
 43
0.0
 43
0.0
 43
0.0
 43
0.0
 43
0.0208333333333333
 43
0.0
 43
0.0
 43
0.0
 43
0.0
 43
1.0
 43
0.0
 43
0.0
 43
0.0
 43
0.0
 43
1.0
 77
     0
 47
0.0208333333333333
 47
0.0
 47
0.0
 47
0.0
 47
0.0
 47
0.0208333333333333
 47
0.0
 47
0.0
 47
0.0
 47
0.0
 47
1.0
 47
0.0
 47
0.0
 47
0.0
 47
0.0
 47
1.0
171
     0
 49
0.0208333333333333
 49
0.0
 49
0.0
 49
0.0
 49
0.0
 49
0.0208333333333333
 49
0.0
 49
0.0
 49
0.0
 49
0.0
 49
1.0
 49
0.0
 49
0.0
 49
0.0
 49
0.0
 49
1.0
175
     0
142
0.0208333333333333
142
0.0
142
0.0
142
0.0
142
0.0
142
0.0208333333333333
142
0.0
142
0.0
142
0.0
142
0.0
142
1.0
142
0.0
142
0.0
142
0.0
142
0.0
142
1.0
179
     0
144
0.0208333333333333
144
0.0
144
0.0
144
0.0
144
0.0
144
0.0208333333333333
144
0.0
144
0.0
144
0.0
144
0.0
144
1.0
144
0.0
144
0.0
144
0.0
144
0.0
144
1.0
147
0.0208333333333333
147
0.0
147
0.0
147
0.0
147
0.0
147
0.0208333333333333
147
0.0
147
0.0
147
0.0
147
0.0
147
1.0
147
0.0
147
0.0
147
0.0
147
0.0
147
1.0
  0
MLEADERSTYLE
  5
1A0F
102
{ACAD_REACTORS
330
1A0E
102
}
330
1A0E
100
AcDbMLeaderStyle
170
     2
171
     1
172
     0
 90
        2
 40
0.0
 41
0.0
173
     1
 91
-1056964608
340
14
 92
       -2
290
     1
 42
0.09
291
     1
 43
0.36
  3
Standard
 44
0.18
300

342
11
174
     1
178
     6
175
     1
176
     0
 93
-1056964608
 45
0.18
292
     0
297
     0
 46
0.18
 94
-1056964608
 47
1.0
 49
1.0
140
1.0
293
     1
141
0.0
294
     1
177
     0
142
1.0
295
     0
296
     0
143
0.125
1001
ACAD_MLEADERVER
1070
     2
  0
MLINESTYLE
  5
18
102
{ACAD_REACTORS
330
17
102
}
330
17
100
AcDbMlineStyle
  2
STANDARD
 70
     0
  3

 62
   256
 51
90.0
 52
90.0
 71
     2
 49
0.5
 62
   256
  6
BYLAYER
 49
-0.5
 62
   256
  6
BYLAYER
  0
ACDBPLACEHOLDER
  5
F
102
{ACAD_REACTORS
330
E
102
}
330
E
  0
SCALE
  5
19ED
102
{ACAD_REACTORS
330
19EC
102
}
330
19EC
100
AcDbScale
 70
     0
300
1:1
140
1.0
141
1.0
290
     1
  0
SCALE
  5
19EE
102
{ACAD_REACTORS
330
19EC
102
}
330
19EC
100
AcDbScale
 70
     0
300
1:2
140
1.0
141
2.0
290
     0
  0
SCALE
  5
19EF
102
{ACAD_REACTORS
330
19EC
102
}
330
19EC
100
AcDbScale
 70
     0
300
1:4
140
1.0
141
4.0
290
     0
  0
SCALE
  5
19F0
102
{ACAD_REACTORS
330
19EC
102
}
330
19EC
100
AcDbScale
 70
     0
300
1:5
140
1.0
141
5.0
290
     0
  0
SCALE
  5
19F1
102
{ACAD_REACTORS
330
19EC
102
}
330
19EC
100
AcDbScale
 70
     0
300
1:8
140
1.0
141
8.0
290
     0
  0
SCALE
  5
19F2
102
{ACAD_REACTORS
330
19EC
102
}
330
19EC
100
AcDbScale
 70
     0
300
1:10
140
1.0
141
10.0
290
     0
  0
SCALE
  5
19F3
102
{ACAD_REACTORS
330
19EC
102
}
330
19EC
100
AcDbScale
 70
     0
300
1:16
140
1.0
141
16.0
290
     0
  0
SCALE
  5
19F4
102
{ACAD_REACTORS
330
19EC
102
}
330
19EC
100
AcDbScale
 70
     0
300
1:20
140
1.0
141
20.0
290
     0
  0
SCALE
  5
19F5
102
{ACAD_REACTORS
330
19EC
102
}
330
19EC
100
AcDbScale
 70
     0
300
1:30
140
1.0
141
30.0
290
     0
  0
SCALE
  5
19F6
102
{ACAD_REACTORS
330
19EC
102
}
330
19EC
100
AcDbScale
 70
     0
300
1:40
140
1.0
141
40.0
290
     0
  0
SCALE
  5
19F7
102
{ACAD_REACTORS
330
19EC
102
}
330
19EC
100
AcDbScale
 70
     0
300
1:50
140
1.0
141
50.0
290
     0
  0
SCALE
  5
19F8
102
{ACAD_REACTORS
330
19EC
102
}
330
19EC
100
AcDbScale
 70
     0
300
1:100
140
1.0
141
100.0
290
     0
  0
SCALE
  5
19F9
102
{ACAD_REACTORS
330
19EC
102
}
330
19EC
100
AcDbScale
 70
     0
300
2:1
140
2.0
141
1.0
290
     0
  0
SCALE
  5
19FA
102
{ACAD_REACTORS
330
19EC
102
}
330
19EC
100
AcDbScale
 70
     0
300
4:1
140
4.0
141
1.0
290
     0
  0
SCALE
  5
19FB
102
{ACAD_REACTORS
330
19EC
102
}
330
19EC
100
AcDbScale
 70
     0
300
8:1
140
8.0
141
1.0
290
     0
  0
SCALE
  5
19FC
102
{ACAD_REACTORS
330
19EC
102
}
330
19EC
100
AcDbScale
 70
     0
300
10:1
140
10.0
141
1.0
290
     0
  0
SCALE
  5
19FD
102
{ACAD_REACTORS
330
19EC
102
}
330
19EC
100
AcDbScale
 70
     0
300
100:1
140
100.0
141
1.0
290
     0
  0
SCALE
  5
19FE
102
{ACAD_REACTORS
330
19EC
102
}
330
19EC
100
AcDbScale
 70
     0
300
1/128" = 1'-0"
140
0.0078125
141
12.0
290
     0
  0
SCALE
  5
19FF
102
{ACAD_REACTORS
330
19EC
102
}
330
19EC
100
AcDbScale
 70
     0
300
1/64" = 1'-0"
140
0.015625
141
12.0
290
     0
  0
SCALE
  5
1A00
102
{ACAD_REACTORS
330
19EC
102
}
330
19EC
100
AcDbScale
 70
     0
300
1/32" = 1'-0"
140
0.03125
141
12.0
290
     0
  0
SCALE
  5
1A01
102
{ACAD_REACTORS
330
19EC
102
}
330
19EC
100
AcDbScale
 70
     0
300
1/16" = 1'-0"
140
0.0625
141
12.0
290
     0
  0
SCALE
  5
1A02
102
{ACAD_REACTORS
330
19EC
102
}
330
19EC
100
AcDbScale
 70
     0
300
3/32" = 1'-0"
140
0.09375
141
12.0
290
     0
  0
SCALE
  5
1A03
102
{ACAD_REACTORS
330
19EC
102
}
330
19EC
100
AcDbScale
 70
     0
300
1/8" = 1'-0"
140
0.125
141
12.0
290
     0
  0
SCALE
  5
1A04
102
{ACAD_REACTORS
330
19EC
102
}
330
19EC
100
AcDbScale
 70
     0
300
3/16" = 1'-0"
140
0.1875
141
12.0
290
     0
  0
SCALE
  5
1A05
102
{ACAD_REACTORS
330
19EC
102
}
330
19EC
100
AcDbScale
 70
     0
300
1/4" = 1'-0"
140
0.25
141
12.0
290
     0
  0
SCALE
  5
1A06
102
{ACAD_REACTORS
330
19EC
102
}
330
19EC
100
AcDbScale
 70
     0
300
3/8" = 1'-0"
140
0.375
141
12.0
290
     0
  0
SCALE
  5
1A07
102
{ACAD_REACTORS
330
19EC
102
}
330
19EC
100
AcDbScale
 70
     0
300
1/2" = 1'-0"
140
0.5
141
12.0
290
     0
  0
SCALE
  5
1A08
102
{ACAD_REACTORS
330
19EC
102
}
330
19EC
100
AcDbScale
 70
     0
300
3/4" = 1'-0"
140
0.75
141
12.0
290
     0
  0
SCALE
  5
1A09
102
{ACAD_REACTORS
330
19EC
102
}
330
19EC
100
AcDbScale
 70
     0
300
1" = 1'-0"
140
1.0
141
12.0
290
     0
  0
SCALE
  5
1A0A
102
{ACAD_REACTORS
330
19EC
102
}
330
19EC
100
AcDbScale
 70
     0
300
1-1/2" = 1'-0"
140
1.5
141
12.0
290
     0
  0
SCALE
  5
1A0B
102
{ACAD_REACTORS
330
19EC
102
}
330
19EC
100
AcDbScale
 70
     0
300
3" = 1'-0"
140
3.0
141
12.0
290
     0
  0
SCALE
  5
1A0C
102
{ACAD_REACTORS
330
19EC
102
}
330
19EC
100
AcDbScale
 70
     0
300
6" = 1'-0"
140
6.0
141
12.0
290
     0
  0
SCALE
  5
1A0D
102
{ACAD_REACTORS
330
19EC
102
}
330
19EC
100
AcDbScale
 70
     0
300
1'-0" = 1'-0"
140
12.0
141
12.0
290
     0
  0
TABLESTYLE
  5
19EB
102
{ACAD_XDICTIONARY
360
1A12
102
}
102
{ACAD_REACTORS
330
19EA
102
}
330
19EA
100
AcDbTableStyle
  3
Standard
 70
     0
 71
     0
 40
0.06
 41
0.06
280
     0
281
     0
  7
STANDARD
140
0.18
170
     2
 62
     0
 63
     7
283
     0
 90
      512
 91
        0
  1

274
    -2
284
     1
 64
     0
275
    -2
285
     1
 65
     0
276
    -2
286
     1
 66
     0
277
    -2
287
     1
 67
     0
278
    -2
288
     1
 68
     0
279
    -2
289
     1
 69
     0
  7
STANDARD
140
0.25
170
     5
 62
     0
 63
     7
283
     0
 90
      512
 91
        0
  1

274
    -2
284
     1
 64
     0
275
    -2
285
     1
 65
     0
276
    -2
286
     1
 66
     0
277
    -2
287
     1
 67
     0
278
    -2
288
     1
 68
     0
279
    -2
289
     1
 69
     0
  7
STANDARD
140
0.18
170
     5
 62
     0
 63
     7
283
     0
 90
      512
 91
        0
  1

274
    -2
284
     1
 64
     0
275
    -2
285
     1
 65
     0
276
    -2
286
     1
 66
     0
277
    -2
287
     1
 67
     0
278
    -2
288
     1
 68
     0
279
    -2
289
     1
 69
     0
  0
VISUALSTYLE
  5
19DB
102
{ACAD_XDICTIONARY
360
1A28
102
}
102
{ACAD_REACTORS
330
19D5
102
}
330
19D5
100
AcDbVisualStyle
  2
2dWireframe
 70
     4
 71
     0
 72
     2
 73
     0
 90
        0
 40
-0.6
 41
-30.0
 62
     5
 63
     7
 74
     1
 91
        4
 64
     7
 65
   257
 75
     1
175
     1
 42
1.0
 92
        0
 66
   257
 43
1.0
 76
     1
 77
     6
 78
     2
 67
     7
 79
     5
170
     0
171
     0
290
     0
174
     0
 93
        1
 44
0.0
173
     0
291
     0
 45
0.0
  0
VISUALSTYLE
  5
19DD
102
{ACAD_XDICTIONARY
360
1A2C
102
}
102
{ACAD_REACTORS
330
19D5
102
}
330
19D5
100
AcDbVisualStyle
  2
3D Hidden
 70
     6
 71
     1
 72
     2
 73
     2
 90
        0
 40
-0.6
 41
-30.0
 62
     5
 63
     7
 74
     2
 91
        2
 64
     7
 65
   257
 75
     2
175
     1
 42
179.0
 92
        0
 66
   257
 43
1.0
 76
     1
 77
     6
 78
     2
 67
     7
 79
     3
170
     0
171
     0
290
     0
174
     0
 93
        1
 44
0.0
173
     0
291
     0
 45
0.0
  0
VISUALSTYLE
  5
19DC
102
{ACAD_XDICTIONARY
360
1A2A
102
}
102
{ACAD_REACTORS
330
19D5
102
}
330
19D5
100
AcDbVisualStyle
  2
3dWireframe
 70
     5
 71
     0
 72
     2
 73
     0
 90
        0
 40
-0.6
 41
-30.0
 62
     5
 63
     7
 74
     1
 91
        4
 64
     7
 65
   257
 75
     1
175
     1
 42
1.0
 92
        0
 66
   257
 43
1.0
 76
     1
 77
     6
 78
     2
 67
     7
 79
     5
170
     0
171
     0
290
     0
174
     0
 93
        1
 44
0.0
173
     0
291
     0
 45
0.0
  0
VISUALSTYLE
  5
19DA
102
{ACAD_XDICTIONARY
360
1A26
102
}
102
{ACAD_REACTORS
330
19D5
102
}
330
19D5
100
AcDbVisualStyle
  2
Basic
 70
     7
 71
     1
 72
     0
 73
     1
 90
        0
 40
-0.6
 41
-30.0
 62
     5
 63
     7
 74
     0
 91
        4
 64
     7
 65
   257
 75
     1
175
     1
 42
1.0
 92
        8
 66
     7
 43
1.0
 76
     1
 77
     6
 78
     2
 67
     7
 79
     5
170
     0
171
     0
290
     0
174
     0
 93
        1
 44
0.0
173
     0
291
     1
 45
0.0
  0
VISUALSTYLE
  5
19E1
102
{ACAD_XDICTIONARY
360
1A34
102
}
102
{ACAD_REACTORS
330
19D5
102
}
330
19D5
100
AcDbVisualStyle
  2
Brighten
 70
    12
 71
     2
 72
     2
 73
     0
 90
        0
 40
-0.6
 41
-30.0
 62
     5
 63
     7
 74
     1
 91
        4
 64
     7
 65
   257
 75
     1
175
     1
 42
1.0
 92
        8
 66
     7
 43
1.0
 76
     1
 77
     6
 78
     2
 67
     7
 79
     5
170
     0
171
     0
290
     0
174
     0
 93
        1
 44
50.0
173
     0
291
     1
 45
0.0
  0
VISUALSTYLE
  5
19E5
102
{ACAD_XDICTIONARY
360
1A3C
102
}
102
{ACAD_REACTORS
330
19D5
102
}
330
19D5
100
AcDbVisualStyle
  2
ColorChange
 70
    16
 71
     2
 72
     2
 73
     3
 90
        0
 40
-0.6
 41
-30.0
 62
     5
 63
     8
 74
     1
 91
        4
 64
     7
 65
   257
 75
     1
175
     1
 42
1.0
 92
        8
 66
     8
 43
1.0
 76
     1
 77
     6
 78
     2
 67
     7
 79
     5
170
     0
171
     0
290
     0
174
     0
 93
        1
 44
0.0
173
     0
291
     1
 45
0.0
  0
VISUALSTYLE
  5
19DE
102
{ACAD_XDICTIONARY
360
1A2E
102
}
102
{ACAD_REACTORS
330
19D5
102
}
330
19D5
100
AcDbVisualStyle
  2
Conceptual
 70
     9
 71
     3
 72
     2
 73
     0
 90
        0
 40
-0.6
 41
-30.0
 62
     5
 63
     7
 74
     2
 91
        2
 64
     7
 65
   257
 75
     1
175
     1
 42
179.0
 92
        8
 66
     7
 43
1.0
 76
     1
 77
     6
 78
     2
 67
     7
 79
     3
170
     0
171
     0
290
     0
174
     0
 93
        1
 44
0.0
173
     0
291
     0
 45
0.0
  0
VISUALSTYLE
  5
19E0
102
{ACAD_XDICTIONARY
360
1A32
102
}
102
{ACAD_REACTORS
330
19D5
102
}
330
19D5
100
AcDbVisualStyle
  2
Dim
 70
    11
 71
     2
 72
     2
 73
     0
 90
        0
 40
-0.6
 41
-30.0
 62
     5
 63
     7
 74
     1
 91
        4
 64
     7
 65
   257
 75
     1
175
     1
 42
1.0
 92
        8
 66
     7
 43
1.0
 76
     1
 77
     6
 78
     2
 67
     7
 79
     5
170
     0
171
     0
290
     0
174
     0
 93
        1
 44
-50.0
173
     0
291
     1
 45
0.0
  0
VISUALSTYLE
  5
19E8
102
{ACAD_XDICTIONARY
360
1A42
102
}
102
{ACAD_REACTORS
330
19D5
102
}
330
19D5
100
AcDbVisualStyle
  2
EdgeColorOff
 70
    22
 71
     2
 72
     2
 73
     0
 90
        0
 40
-0.6
 41
-30.0
 62
     5
 63
     7
 74
     1
 91
        4
 64
     7
 65
   257
 75
     1
175
     1
 42
1.0
 92
        8
 66
     7
 43
1.0
 76
     1
 77
     6
 78
     2
 67
     7
 79
     5
170
     0
171
     0
290
     0
174
     0
 93
        1
 44
0.0
173
     0
291
     1
 45
0.0
  0
VISUALSTYLE
  5
19E4
102
{ACAD_XDICTIONARY
360
1A3A
102
}
102
{ACAD_REACTORS
330
19D5
102
}
330
19D5
100
AcDbVisualStyle
  2
Facepattern
 70
    15
 71
     2
 72
     2
 73
     0
 90
        0
 40
-0.6
 41
-30.0
 62
     5
 63
     7
 74
     1
 91
        4
 64
     7
 65
   257
 75
     1
175
     1
 42
1.0
 92
        8
 66
     7
 43
1.0
 76
     1
 77
     6
 78
     2
 67
     7
 79
     5
170
     0
171
     0
290
     0
174
     0
 93
        1
 44
0.0
173
     0
291
     1
 45
0.0
  0
VISUALSTYLE
  5
19D6
102
{ACAD_XDICTIONARY
360
1A1E
102
}
102
{ACAD_REACTORS
330
19D5
102
}
330
19D5
100
AcDbVisualStyle
  2
Flat
 70
     0
 71
     2
 72
     1
 73
     1
 90
        2
 40
-0.6
 41
30.0
 62
     5
 63
     7
 74
     0
 91
        4
 64
     7
 65
   257
 75
     1
175
     1
 42
1.0
 92
        8
 66
     7
 43
1.0
 76
     1
 77
     6
 78
     2
 67
     7
 79
     5
170
     0
171
     0
290
     0
174
     0
 93
       13
 44
0.0
173
     0
291
     1
 45
0.0
  0
VISUALSTYLE
  5
19D7
102
{ACAD_XDICTIONARY
360
1A20
102
}
102
{ACAD_REACTORS
330
19D5
102
}
330
19D5
100
AcDbVisualStyle
  2
FlatWithEdges
 70
     1
 71
     2
 72
     1
 73
     1
 90
        2
 40
-0.6
 41
30.0
 62
     5
 63
     7
 74
     1
 91
        4
 64
     7
 65
   257
 75
     1
175
     1
 42
1.0
 92
        0
 66
   257
 43
1.0
 76
     1
 77
     6
 78
     2
 67
     7
 79
     5
170
     0
171
     0
290
     0
174
     0
 93
       13
 44
0.0
173
     0
291
     1
 45
0.0
  0
VISUALSTYLE
  5
19D8
102
{ACAD_XDICTIONARY
360
1A22
102
}
102
{ACAD_REACTORS
330
19D5
102
}
330
19D5
100
AcDbVisualStyle
  2
Gouraud
 70
     2
 71
     2
 72
     2
 73
     1
 90
        2
 40
-0.6
 41
30.0
 62
     5
 63
     7
 74
     0
 91
        4
 64
     7
 65
   257
 75
     1
175
     1
 42
1.0
 92
        0
 66
     7
 43
1.0
 76
     1
 77
     6
 78
     2
 67
     7
 79
     5
170
     0
171
     0
290
     0
174
     0
 93
       13
 44
0.0
173
     0
291
     1
 45
0.0
  0
VISUALSTYLE
  5
19D9
102
{ACAD_XDICTIONARY
360
1A24
102
}
102
{ACAD_REACTORS
330
19D5
102
}
330
19D5
100
AcDbVisualStyle
  2
GouraudWithEdges
 70
     3
 71
     2
 72
     2
 73
     1
 90
        2
 40
-0.6
 41
30.0
 62
     5
 63
     7
 74
     1
 91
        4
 64
     7
 65
   257
 75
     1
175
     1
 42
1.0
 92
        0
 66
   257
 43
1.0
 76
     1
 77
     6
 78
     2
 67
     7
 79
     5
170
     0
171
     0
290
     0
174
     0
 93
       13
 44
0.0
173
     0
291
     1
 45
0.0
  0
VISUALSTYLE
  5
19E6
102
{ACAD_XDICTIONARY
360
1A3E
102
}
102
{ACAD_REACTORS
330
19D5
102
}
330
19D5
100
AcDbVisualStyle
  2
JitterOff
 70
    20
 71
     2
 72
     2
 73
     0
 90
        0
 40
-0.6
 41
-30.0
 62
     5
 63
     7
 74
     1
 91
        4
 64
     7
 65
   257
 75
     1
175
     1
 42
1.0
 92
       10
 66
     7
 43
1.0
 76
     1
 77
     6
 78
     2
 67
     7
 79
     5
170
     0
171
     0
290
     0
174
     0
 93
        1
 44
0.0
173
     0
291
     1
 45
0.0
  0
VISUALSTYLE
  5
19E3
102
{ACAD_XDICTIONARY
360
1A38
102
}
102
{ACAD_REACTORS
330
19D5
102
}
330
19D5
100
AcDbVisualStyle
  2
Linepattern
 70
    14
 71
     2
 72
     2
 73
     0
 90
        0
 40
-0.6
 41
-30.0
 62
     5
 63
     7
 74
     1
 91
        4
 64
     7
 65
   257
 75
     7
175
     7
 42
1.0
 92
        8
 66
     7
 43
1.0
 76
     1
 77
     6
 78
     2
 67
     7
 79
     5
170
     0
171
     0
290
     0
174
     0
 93
        1
 44
0.0
173
     0
291
     1
 45
0.0
  0
VISUALSTYLE
  5
19E7
102
{ACAD_XDICTIONARY
360
1A40
102
}
102
{ACAD_REACTORS
330
19D5
102
}
330
19D5
100
AcDbVisualStyle
  2
OverhangOff
 70
    21
 71
     2
 72
     2
 73
     0
 90
        0
 40
-0.6
 41
-30.0
 62
     5
 63
     7
 74
     1
 91
        4
 64
     7
 65
   257
 75
     1
175
     1
 42
1.0
 92
        9
 66
     7
 43
1.0
 76
     1
 77
     6
 78
     2
 67
     7
 79
     5
170
     0
171
     0
290
     0
174
     0
 93
        1
 44
0.0
173
     0
291
     1
 45
0.0
  0
VISUALSTYLE
  5
19DF
102
{ACAD_XDICTIONARY
360
1A30
102
}
102
{ACAD_REACTORS
330
19D5
102
}
330
19D5
100
AcDbVisualStyle
  2
Realistic
 70
     8
 71
     2
 72
     2
 73
     0
 90
        0
 40
-0.6
 41
-30.0
 62
     5
 63
     7
 74
     1
 91
        0
 64
     7
 65
   257
 75
     1
175
     1
 42
1.0
 92
        8
 66
     8
 43
1.0
 76
     1
 77
     6
 78
     2
 67
     7
 79
     5
170
     0
171
     0
290
     0
174
     0
 93
       13
 44
0.0
173
     0
291
     0
 45
0.0
  0
VISUALSTYLE
  5
19E2
102
{ACAD_XDICTIONARY
360
1A36
102
}
102
{ACAD_REACTORS
330
19D5
102
}
330
19D5
100
AcDbVisualStyle
  2
Thicken
 70
    13
 71
     2
 72
     2
 73
     0
 90
        0
 40
-0.6
 41
-30.0
 62
     5
 63
     7
 74
     1
 91
        4
 64
     7
 65
   257
 75
     1
175
     1
 42
1.0
 92
       12
 66
     7
 43
1.0
 76
     1
 77
     6
 78
     2
 67
     7
 79
     5
170
     0
171
     0
290
     0
174
     0
 93
        1
 44
0.0
173
     0
291
     1
 45
0.0
  0
DICTIONARYVAR
  5
1A49
102
{ACAD_REACTORS
330
1A46
102
}
330
1A46
100
DictionaryVariables
280
     0
  1
1:1
  0
DICTIONARYVAR
  5
1A48
102
{ACAD_REACTORS
330
1A46
102
}
330
1A46
100
DictionaryVariables
280
     0
  1
STANDARD
  0
DICTIONARYVAR
  5
1A47
102
{ACAD_REACTORS
330
1A46
102
}
330
1A46
100
DictionaryVariables
280
     0
  1
STANDARD
  0
DICTIONARYVAR
  5
1A4C
102
{ACAD_REACTORS
330
1A46
102
}
330
1A46
100
DictionaryVariables
280
     0
  1
1
  0
DICTIONARYVAR
  5
1A4B
102
{ACAD_REACTORS
330
1A46
102
}
330
1A46
100
DictionaryVariables
280
     0
  1
0
  0
DICTIONARYVAR
  5
21AF
102
{ACAD_REACTORS
330
1A46
102
}
330
1A46
100
DictionaryVariables
280
     0
  1
1
  0
DICTIONARYVAR
  5
21B0
102
{ACAD_REACTORS
330
1A46
102
}
330
1A46
100
DictionaryVariables
280
     0
  1
15
  0
DICTIONARYVAR
  5
21AE
102
{ACAD_REACTORS
330
1A46
102
}
330
1A46
100
DictionaryVariables
280
     0
  1
0
  0
DICTIONARYVAR
  5
21AD
102
{ACAD_REACTORS
330
1A46
102
}
330
1A46
100
DictionaryVariables
280
     0
  1
0
  0
DICTIONARYVAR
  5
1A4A
102
{ACAD_REACTORS
330
1A46
102
}
330
1A46
100
DictionaryVariables
280
     0
  1
127
  0
DICTIONARYVAR
  5
1A4D
102
{ACAD_REACTORS
330
1A46
102
}
330
1A46
100
DictionaryVariables
280
     0
  1
0
  0
DICTIONARY
  5
19C6
330
19C5
100
AcDbDictionary
280
     1
281
     1
  3
BUMPTILE
360
19C8
  3
DIFFUSETILE
360
19C7
  3
OPACITYTILE
360
19CB
  3
REFLECTIONTILE
360
19CA
  3
REFRACTIONTILE
360
19CC
  3
SPECULARTILE
360
19C9
  0
DICTIONARY
  5
19BE
330
19BD
100
AcDbDictionary
280
     1
281
     1
  3
BUMPTILE
360
19C0
  3
DIFFUSETILE
360
19BF
  3
OPACITYTILE
360
19C3
  3
REFLECTIONTILE
360
19C2
  3
REFRACTIONTILE
360
19C4
  3
SPECULARTILE
360
19C1
  0
DICTIONARY
  5
19CE
330
19CD
100
AcDbDictionary
280
     1
281
     1
  3
BUMPTILE
360
19D0
  3
DIFFUSETILE
360
19CF
  3
OPACITYTILE
360
19D3
  3
REFLECTIONTILE
360
19D2
  3
REFRACTIONTILE
360
19D4
  3
SPECULARTILE
360
19D1
  0
DICTIONARY
  5
1A12
330
19EB
100
AcDbDictionary
280
     1
281
     1
  3
ACAD_ROUNDTRIP_2008_TABLESTYLE_CELLSTYLEMAP
360
21B1
  0
DICTIONARY
  5
1A28
330
19DB
100
AcDbDictionary
280
     1
281
     1
  3
ACAD_XREC_ROUNDTRIP
360
1A29
  0
DICTIONARY
  5
1A2C
330
19DD
100
AcDbDictionary
280
     1
281
     1
  3
ACAD_XREC_ROUNDTRIP
360
1A2D
  0
DICTIONARY
  5
1A2A
330
19DC
100
AcDbDictionary
280
     1
281
     1
  3
ACAD_XREC_ROUNDTRIP
360
1A2B
  0
DICTIONARY
  5
1A26
330
19DA
100
AcDbDictionary
280
     1
281
     1
  3
ACAD_XREC_ROUNDTRIP
360
1A27
  0
DICTIONARY
  5
1A34
330
19E1
100
AcDbDictionary
280
     1
281
     1
  3
ACAD_XREC_ROUNDTRIP
360
1A35
  0
DICTIONARY
  5
1A3C
330
19E5
100
AcDbDictionary
280
     1
281
     1
  3
ACAD_XREC_ROUNDTRIP
360
1A3D
  0
DICTIONARY
  5
1A2E
330
19DE
100
AcDbDictionary
280
     1
281
     1
  3
ACAD_XREC_ROUNDTRIP
360
1A2F
  0
DICTIONARY
  5
1A32
330
19E0
100
AcDbDictionary
280
     1
281
     1
  3
ACAD_XREC_ROUNDTRIP
360
1A33
  0
DICTIONARY
  5
1A42
330
19E8
100
AcDbDictionary
280
     1
281
     1
  3
ACAD_XREC_ROUNDTRIP
360
1A43
  0
DICTIONARY
  5
1A3A
330
19E4
100
AcDbDictionary
280
     1
281
     1
  3
ACAD_XREC_ROUNDTRIP
360
1A3B
  0
DICTIONARY
  5
1A1E
330
19D6
100
AcDbDictionary
280
     1
281
     1
  3
ACAD_XREC_ROUNDTRIP
360
1A1F
  0
DICTIONARY
  5
1A20
330
19D7
100
AcDbDictionary
280
     1
281
     1
  3
ACAD_XREC_ROUNDTRIP
360
1A21
  0
DICTIONARY
  5
1A22
330
19D8
100
AcDbDictionary
280
     1
281
     1
  3
ACAD_XREC_ROUNDTRIP
360
1A23
  0
DICTIONARY
  5
1A24
330
19D9
100
AcDbDictionary
280
     1
281
     1
  3
ACAD_XREC_ROUNDTRIP
360
1A25
  0
DICTIONARY
  5
1A3E
330
19E6
100
AcDbDictionary
280
     1
281
     1
  3
ACAD_XREC_ROUNDTRIP
360
1A3F
  0
DICTIONARY
  5
1A38
330
19E3
100
AcDbDictionary
280
     1
281
     1
  3
ACAD_XREC_ROUNDTRIP
360
1A39
  0
DICTIONARY
  5
1A40
330
19E7
100
AcDbDictionary
280
     1
281
     1
  3
ACAD_XREC_ROUNDTRIP
360
1A41
  0
DICTIONARY
  5
1A30
330
19DF
100
AcDbDictionary
280
     1
281
     1
  3
ACAD_XREC_ROUNDTRIP
360
1A31
  0
DICTIONARY
  5
1A36
330
19E2
100
AcDbDictionary
280
     1
281
     1
  3
ACAD_XREC_ROUNDTRIP
360
1A37
  0
XRECORD
  5
19C8
102
{ACAD_REACTORS
330
19C6
102
}
330
19C6
100
AcDbXrecord
280
     1
270
     1
271
     1
  0
XRECORD
  5
19C7
102
{ACAD_REACTORS
330
19C6
102
}
330
19C6
100
AcDbXrecord
280
     1
270
     1
271
     1
  0
XRECORD
  5
19CB
102
{ACAD_REACTORS
330
19C6
102
}
330
19C6
100
AcDbXrecord
280
     1
270
     1
271
     1
  0
XRECORD
  5
19CA
102
{ACAD_REACTORS
330
19C6
102
}
330
19C6
100
AcDbXrecord
280
     1
270
     1
271
     1
  0
XRECORD
  5
19CC
102
{ACAD_REACTORS
330
19C6
102
}
330
19C6
100
AcDbXrecord
280
     1
270
     1
271
     1
  0
XRECORD
  5
19C9
102
{ACAD_REACTORS
330
19C6
102
}
330
19C6
100
AcDbXrecord
280
     1
270
     1
271
     1
  0
XRECORD
  5
19C0
102
{ACAD_REACTORS
330
19BE
102
}
330
19BE
100
AcDbXrecord
280
     1
270
     1
271
     1
  0
XRECORD
  5
19BF
102
{ACAD_REACTORS
330
19BE
102
}
330
19BE
100
AcDbXrecord
280
     1
270
     1
271
     1
  0
XRECORD
  5
19C3
102
{ACAD_REACTORS
330
19BE
102
}
330
19BE
100
AcDbXrecord
280
     1
270
     1
271
     1
  0
XRECORD
  5
19C2
102
{ACAD_REACTORS
330
19BE
102
}
330
19BE
100
AcDbXrecord
280
     1
270
     1
271
     1
  0
XRECORD
  5
19C4
102
{ACAD_REACTORS
330
19BE
102
}
330
19BE
100
AcDbXrecord
280
     1
270
     1
271
     1
  0
XRECORD
  5
19C1
102
{ACAD_REACTORS
330
19BE
102
}
330
19BE
100
AcDbXrecord
280
     1
270
     1
271
     1
  0
XRECORD
  5
19D0
102
{ACAD_REACTORS
330
19CE
102
}
330
19CE
100
AcDbXrecord
280
     1
270
     1
271
     1
  0
XRECORD
  5
19CF
102
{ACAD_REACTORS
330
19CE
102
}
330
19CE
100
AcDbXrecord
280
     1
270
     1
271
     1
  0
XRECORD
  5
19D3
102
{ACAD_REACTORS
330
19CE
102
}
330
19CE
100
AcDbXrecord
280
     1
270
     1
271
     1
  0
XRECORD
  5
19D2
102
{ACAD_REACTORS
330
19CE
102
}
330
19CE
100
AcDbXrecord
280
     1
270
     1
271
     1
  0
XRECORD
  5
19D4
102
{ACAD_REACTORS
330
19CE
102
}
330
19CE
100
AcDbXrecord
280
     1
270
     1
271
     1
  0
XRECORD
  5
19D1
102
{ACAD_REACTORS
330
19CE
102
}
330
19CE
100
AcDbXrecord
280
     1
270
     1
271
     1
  0
CELLSTYLEMAP
  5
21B1
102
{ACAD_REACTORS
330
1A12
102
}
330
1A12
100
AcDbCellStyleMap
 90
        3
300
CELLSTYLE
  1
TABLEFORMAT_BEGIN
 90
        5
170
     1
 91
        0
 92
    32768
 62
   257
 93
        1
300
CONTENTFORMAT
  1
CONTENTFORMAT_BEGIN
 90
        0
 91
        0
 92
      512
 93
        0
300

 40
0.0
140
1.0
 94
        5
 62
     0
340
11
144
0.25
309
CONTENTFORMAT_END
171
     0
 94
        0
309
TABLEFORMAT_END
  1
CELLSTYLE_BEGIN
 90
        1
 91
        1
300
_TITLE
309
CELLSTYLE_END
300
CELLSTYLE
  1
TABLEFORMAT_BEGIN
 90
        5
170
     1
 91
        0
 92
        0
 62
   257
 93
        1
300
CONTENTFORMAT
  1
CONTENTFORMAT_BEGIN
 90
        0
 91
        0
 92
      512
 93
        0
300

 40
0.0
140
1.0
 94
        5
 62
     0
340
11
144
0.18
309
CONTENTFORMAT_END
171
     0
 94
        0
309
TABLEFORMAT_END
  1
CELLSTYLE_BEGIN
 90
        2
 91
        1
300
_HEADER
309
CELLSTYLE_END
300
CELLSTYLE
  1
TABLEFORMAT_BEGIN
 90
        5
170
     1
 91
        0
 92
        0
 62
   257
 93
        1
300
CONTENTFORMAT
  1
CONTENTFORMAT_BEGIN
 90
        0
 91
        0
 92
      512
 93
        0
300

 40
0.0
140
1.0
 94
        2
 62
     0
340
11
144
0.18
309
CONTENTFORMAT_END
171
     0
 94
        0
309
TABLEFORMAT_END
  1
CELLSTYLE_BEGIN
 90
        3
 91
        2
300
_DATA
309
CELLSTYLE_END
  0
XRECORD
  5
1A29
102
{ACAD_REACTORS
330
1A28
102
}
330
1A28
100
AcDbXrecord
280
     1
102
RTVSPropertyOp0
 70
     1
102
RTVSPropertyOp1
 70
     1
102
RTVSPropertyOp2
 70
     1
102
RTVSPropertyOp3
 70
     1
102
RTVSPropertyOp4
 70
     1
102
RTVSPropertyOp5
 70
     1
102
RTVSPropertyOp6
 70
     1
102
RTVSPropertyOp7
 70
     1
102
RTVSPropertyOp8
 70
     1
102
RTVSPropertyOp9
 70
     1
102
RTVSPropertyOp10
 70
     1
102
RTVSPropertyOp11
 70
     1
102
RTVSPropertyOp12
 70
     1
102
RTVSPropertyOp13
 70
     1
102
RTVSPropertyOp14
 70
     1
102
RTVSPropertyOp15
 70
     1
102
RTVSPropertyOp16
 70
     1
102
RTVSPropertyOp17
 70
     1
102
RTVSPropertyOp18
 70
     1
102
RTVSPropertyOp19
 70
     1
102
RTVSPropertyOp20
 70
     1
102
RTVSPropertyOp21
 70
     1
102
RTVSPropertyOp22
 70
     1
102
RTVSPropertyOp23
 70
     1
102
RTVSPropertyOp24
 70
     1
102
RTVSPropertyOp25
 70
     1
102
RTVSPropertyOp26
 70
     1
102
RTVSPropertyOp27
 70
     1
  0
XRECORD
  5
1A2D
102
{ACAD_REACTORS
330
1A2C
102
}
330
1A2C
100
AcDbXrecord
280
     1
102
RTVSPropertyOp0
 70
     1
102
RTVSPropertyOp1
 70
     1
102
RTVSPropertyOp2
 70
     1
102
RTVSPropertyOp3
 70
     1
102
RTVSPropertyOp4
 70
     1
102
RTVSPropertyOp5
 70
     1
102
RTVSPropertyOp6
 70
     1
102
RTVSPropertyOp7
 70
     1
102
RTVSPropertyOp8
 70
     1
102
RTVSPropertyOp9
 70
     1
102
RTVSPropertyOp10
 70
     1
102
RTVSPropertyOp11
 70
     1
102
RTVSPropertyOp12
 70
     1
102
RTVSPropertyOp13
 70
     1
102
RTVSPropertyOp14
 70
     1
102
RTVSPropertyOp15
 70
     1
102
RTVSPropertyOp16
 70
     1
102
RTVSPropertyOp17
 70
     1
102
RTVSPropertyOp18
 70
     1
102
RTVSPropertyOp19
 70
     1
102
RTVSPropertyOp20
 70
     1
102
RTVSPropertyOp21
 70
     1
102
RTVSPropertyOp22
 70
     1
102
RTVSPropertyOp23
 70
     1
102
RTVSPropertyOp24
 70
     1
102
RTVSPropertyOp25
 70
     1
102
RTVSPropertyOp26
 70
     1
102
RTVSPropertyOp27
 70
     1
  0
XRECORD
  5
1A2B
102
{ACAD_REACTORS
330
1A2A
102
}
330
1A2A
100
AcDbXrecord
280
     1
102
RTVSPropertyOp0
 70
     1
102
RTVSPropertyOp1
 70
     1
102
RTVSPropertyOp2
 70
     1
102
RTVSPropertyOp3
 70
     1
102
RTVSPropertyOp4
 70
     1
102
RTVSPropertyOp5
 70
     1
102
RTVSPropertyOp6
 70
     1
102
RTVSPropertyOp7
 70
     1
102
RTVSPropertyOp8
 70
     1
102
RTVSPropertyOp9
 70
     1
102
RTVSPropertyOp10
 70
     1
102
RTVSPropertyOp11
 70
     1
102
RTVSPropertyOp12
 70
     1
102
RTVSPropertyOp13
 70
     1
102
RTVSPropertyOp14
 70
     1
102
RTVSPropertyOp15
 70
     1
102
RTVSPropertyOp16
 70
     1
102
RTVSPropertyOp17
 70
     1
102
RTVSPropertyOp18
 70
     1
102
RTVSPropertyOp19
 70
     1
102
RTVSPropertyOp20
 70
     1
102
RTVSPropertyOp21
 70
     1
102
RTVSPropertyOp22
 70
     1
102
RTVSPropertyOp23
 70
     1
102
RTVSPropertyOp24
 70
     1
102
RTVSPropertyOp25
 70
     1
102
RTVSPropertyOp26
 70
     1
102
RTVSPropertyOp27
 70
     1
  0
XRECORD
  5
1A27
102
{ACAD_REACTORS
330
1A26
102
}
330
1A26
100
AcDbXrecord
280
     1
102
RTVSPropertyOp0
 70
     1
102
RTVSPropertyOp1
 70
     1
102
RTVSPropertyOp2
 70
     1
102
RTVSPropertyOp3
 70
     1
102
RTVSPropertyOp4
 70
     1
102
RTVSPropertyOp5
 70
     1
102
RTVSPropertyOp6
 70
     1
102
RTVSPropertyOp7
 70
     1
102
RTVSPropertyOp8
 70
     1
102
RTVSPropertyOp9
 70
     1
102
RTVSPropertyOp10
 70
     1
102
RTVSPropertyOp11
 70
     1
102
RTVSPropertyOp12
 70
     1
102
RTVSPropertyOp13
 70
     1
102
RTVSPropertyOp14
 70
     1
102
RTVSPropertyOp15
 70
     1
102
RTVSPropertyOp16
 70
     1
102
RTVSPropertyOp17
 70
     1
102
RTVSPropertyOp18
 70
     1
102
RTVSPropertyOp19
 70
     1
102
RTVSPropertyOp20
 70
     1
102
RTVSPropertyOp21
 70
     1
102
RTVSPropertyOp22
 70
     1
102
RTVSPropertyOp23
 70
     1
102
RTVSPropertyOp24
 70
     1
102
RTVSPropertyOp25
 70
     1
102
RTVSPropertyOp26
 70
     1
102
RTVSPropertyOp27
 70
     1
  0
XRECORD
  5
1A35
102
{ACAD_REACTORS
330
1A34
102
}
330
1A34
100
AcDbXrecord
280
     1
102
RTVSPropertyOp0
 70
     1
102
RTVSPropertyOp1
 70
     1
102
RTVSPropertyOp2
 70
     1
102
RTVSPropertyOp3
 70
     1
102
RTVSPropertyOp4
 70
     1
102
RTVSPropertyOp5
 70
     1
102
RTVSPropertyOp6
 70
     1
102
RTVSPropertyOp7
 70
     1
102
RTVSPropertyOp8
 70
     1
102
RTVSPropertyOp9
 70
     1
102
RTVSPropertyOp10
 70
     1
102
RTVSPropertyOp11
 70
     1
102
RTVSPropertyOp12
 70
     1
102
RTVSPropertyOp13
 70
     1
102
RTVSPropertyOp14
 70
     1
102
RTVSPropertyOp15
 70
     1
102
RTVSPropertyOp16
 70
     1
102
RTVSPropertyOp17
 70
     1
102
RTVSPropertyOp18
 70
     1
102
RTVSPropertyOp19
 70
     1
102
RTVSPropertyOp20
 70
     1
102
RTVSPropertyOp21
 70
     1
102
RTVSPropertyOp22
 70
     1
102
RTVSPropertyOp23
 70
     1
102
RTVSPropertyOp24
 70
     1
102
RTVSPropertyOp25
 70
     1
102
RTVSPropertyOp26
 70
     1
102
RTVSPropertyOp27
 70
     1
  0
XRECORD
  5
1A3D
102
{ACAD_REACTORS
330
1A3C
102
}
330
1A3C
100
AcDbXrecord
280
     1
102
RTVSPropertyOp0
 70
     1
102
RTVSPropertyOp1
 70
     1
102
RTVSPropertyOp2
 70
     1
102
RTVSPropertyOp3
 70
     1
102
RTVSPropertyOp4
 70
     1
102
RTVSPropertyOp5
 70
     1
102
RTVSPropertyOp6
 70
     1
102
RTVSPropertyOp7
 70
     1
102
RTVSPropertyOp8
 70
     1
102
RTVSPropertyOp9
 70
     1
102
RTVSPropertyOp10
 70
     1
102
RTVSPropertyOp11
 70
     1
102
RTVSPropertyOp12
 70
     1
102
RTVSPropertyOp13
 70
     1
102
RTVSPropertyOp14
 70
     1
102
RTVSPropertyOp15
 70
     1
102
RTVSPropertyOp16
 70
     1
102
RTVSPropertyOp17
 70
     1
102
RTVSPropertyOp18
 70
     1
102
RTVSPropertyOp19
 70
     1
102
RTVSPropertyOp20
 70
     1
102
RTVSPropertyOp21
 70
     1
102
RTVSPropertyOp22
 70
     1
102
RTVSPropertyOp23
 70
     1
102
RTVSPropertyOp24
 70
     1
102
RTVSPropertyOp25
 70
     1
102
RTVSPropertyOp26
 70
     1
102
RTVSPropertyOp27
 70
     1
  0
XRECORD
  5
1A2F
102
{ACAD_REACTORS
330
1A2E
102
}
330
1A2E
100
AcDbXrecord
280
     1
102
RTVSPropertyOp0
 70
     1
102
RTVSPropertyOp1
 70
     1
102
RTVSPropertyOp2
 70
     1
102
RTVSPropertyOp3
 70
     1
102
RTVSPropertyOp4
 70
     1
102
RTVSPropertyOp5
 70
     1
102
RTVSPropertyOp6
 70
     1
102
RTVSPropertyOp7
 70
     1
102
RTVSPropertyOp8
 70
     1
102
RTVSPropertyOp9
 70
     1
102
RTVSPropertyOp10
 70
     1
102
RTVSPropertyOp11
 70
     1
102
RTVSPropertyOp12
 70
     1
102
RTVSPropertyOp13
 70
     1
102
RTVSPropertyOp14
 70
     1
102
RTVSPropertyOp15
 70
     1
102
RTVSPropertyOp16
 70
     1
102
RTVSPropertyOp17
 70
     1
102
RTVSPropertyOp18
 70
     1
102
RTVSPropertyOp19
 70
     1
102
RTVSPropertyOp20
 70
     1
102
RTVSPropertyOp21
 70
     1
102
RTVSPropertyOp22
 70
     1
102
RTVSPropertyOp23
 70
     1
102
RTVSPropertyOp24
 70
     1
102
RTVSPropertyOp25
 70
     1
102
RTVSPropertyOp26
 70
     1
102
RTVSPropertyOp27
 70
     1
  0
XRECORD
  5
1A33
102
{ACAD_REACTORS
330
1A32
102
}
330
1A32
100
AcDbXrecord
280
     1
102
RTVSPropertyOp0
 70
     1
102
RTVSPropertyOp1
 70
     1
102
RTVSPropertyOp2
 70
     1
102
RTVSPropertyOp3
 70
     1
102
RTVSPropertyOp4
 70
     1
102
RTVSPropertyOp5
 70
     1
102
RTVSPropertyOp6
 70
     1
102
RTVSPropertyOp7
 70
     1
102
RTVSPropertyOp8
 70
     1
102
RTVSPropertyOp9
 70
     1
102
RTVSPropertyOp10
 70
     1
102
RTVSPropertyOp11
 70
     1
102
RTVSPropertyOp12
 70
     1
102
RTVSPropertyOp13
 70
     1
102
RTVSPropertyOp14
 70
     1
102
RTVSPropertyOp15
 70
     1
102
RTVSPropertyOp16
 70
     1
102
RTVSPropertyOp17
 70
     1
102
RTVSPropertyOp18
 70
     1
102
RTVSPropertyOp19
 70
     1
102
RTVSPropertyOp20
 70
     1
102
RTVSPropertyOp21
 70
     1
102
RTVSPropertyOp22
 70
     1
102
RTVSPropertyOp23
 70
     1
102
RTVSPropertyOp24
 70
     1
102
RTVSPropertyOp25
 70
     1
102
RTVSPropertyOp26
 70
     1
102
RTVSPropertyOp27
 70
     1
  0
XRECORD
  5
1A43
102
{ACAD_REACTORS
330
1A42
102
}
330
1A42
100
AcDbXrecord
280
     1
102
RTVSPropertyOp0
 70
     0
102
RTVSPropertyOp1
 70
     0
102
RTVSPropertyOp2
 70
     0
102
RTVSPropertyOp3
 70
     0
102
RTVSPropertyOp4
 70
     0
102
RTVSPropertyOp5
 70
     0
102
RTVSPropertyOp6
 70
     0
102
RTVSPropertyOp7
 70
     0
102
RTVSPropertyOp8
 70
     0
102
RTVSPropertyOp9
 70
     0
102
RTVSPropertyOp10
 70
     0
102
RTVSPropertyOp11
 70
     0
102
RTVSPropertyOp12
 70
     0
102
RTVSPropertyOp13
 70
     0
102
RTVSPropertyOp14
 70
     2
102
RTVSPropertyOp15
 70
     0
102
RTVSPropertyOp16
 70
     0
102
RTVSPropertyOp17
 70
     0
102
RTVSPropertyOp18
 70
     0
102
RTVSPropertyOp19
 70
     0
102
RTVSPropertyOp20
 70
     0
102
RTVSPropertyOp21
 70
     0
102
RTVSPropertyOp22
 70
     0
102
RTVSPropertyOp23
 70
     0
102
RTVSPropertyOp24
 70
     0
102
RTVSPropertyOp25
 70
     0
102
RTVSPropertyOp26
 70
     0
102
RTVSPropertyOp27
 70
     0
  0
XRECORD
  5
1A3B
102
{ACAD_REACTORS
330
1A3A
102
}
330
1A3A
100
AcDbXrecord
280
     1
102
RTVSPropertyOp0
 70
     1
102
RTVSPropertyOp1
 70
     1
102
RTVSPropertyOp2
 70
     1
102
RTVSPropertyOp3
 70
     1
102
RTVSPropertyOp4
 70
     1
102
RTVSPropertyOp5
 70
     1
102
RTVSPropertyOp6
 70
     1
102
RTVSPropertyOp7
 70
     1
102
RTVSPropertyOp8
 70
     1
102
RTVSPropertyOp9
 70
     1
102
RTVSPropertyOp10
 70
     1
102
RTVSPropertyOp11
 70
     1
102
RTVSPropertyOp12
 70
     1
102
RTVSPropertyOp13
 70
     1
102
RTVSPropertyOp14
 70
     1
102
RTVSPropertyOp15
 70
     1
102
RTVSPropertyOp16
 70
     1
102
RTVSPropertyOp17
 70
     1
102
RTVSPropertyOp18
 70
     1
102
RTVSPropertyOp19
 70
     1
102
RTVSPropertyOp20
 70
     1
102
RTVSPropertyOp21
 70
     1
102
RTVSPropertyOp22
 70
     1
102
RTVSPropertyOp23
 70
     1
102
RTVSPropertyOp24
 70
     1
102
RTVSPropertyOp25
 70
     1
102
RTVSPropertyOp26
 70
     1
102
RTVSPropertyOp27
 70
     1
  0
XRECORD
  5
1A1F
102
{ACAD_REACTORS
330
1A1E
102
}
330
1A1E
100
AcDbXrecord
280
     1
102
RTVSPropertyOp0
 70
     1
102
RTVSPropertyOp1
 70
     1
102
RTVSPropertyOp2
 70
     1
102
RTVSPropertyOp3
 70
     1
102
RTVSPropertyOp4
 70
     1
102
RTVSPropertyOp5
 70
     1
102
RTVSPropertyOp6
 70
     1
102
RTVSPropertyOp7
 70
     1
102
RTVSPropertyOp8
 70
     1
102
RTVSPropertyOp9
 70
     1
102
RTVSPropertyOp10
 70
     1
102
RTVSPropertyOp11
 70
     1
102
RTVSPropertyOp12
 70
     1
102
RTVSPropertyOp13
 70
     1
102
RTVSPropertyOp14
 70
     1
102
RTVSPropertyOp15
 70
     1
102
RTVSPropertyOp16
 70
     1
102
RTVSPropertyOp17
 70
     1
102
RTVSPropertyOp18
 70
     1
102
RTVSPropertyOp19
 70
     1
102
RTVSPropertyOp20
 70
     1
102
RTVSPropertyOp21
 70
     1
102
RTVSPropertyOp22
 70
     1
102
RTVSPropertyOp23
 70
     1
102
RTVSPropertyOp24
 70
     1
102
RTVSPropertyOp25
 70
     1
102
RTVSPropertyOp26
 70
     1
102
RTVSPropertyOp27
 70
     1
  0
XRECORD
  5
1A21
102
{ACAD_REACTORS
330
1A20
102
}
330
1A20
100
AcDbXrecord
280
     1
102
RTVSPropertyOp0
 70
     1
102
RTVSPropertyOp1
 70
     1
102
RTVSPropertyOp2
 70
     1
102
RTVSPropertyOp3
 70
     1
102
RTVSPropertyOp4
 70
     1
102
RTVSPropertyOp5
 70
     1
102
RTVSPropertyOp6
 70
     1
102
RTVSPropertyOp7
 70
     1
102
RTVSPropertyOp8
 70
     1
102
RTVSPropertyOp9
 70
     1
102
RTVSPropertyOp10
 70
     1
102
RTVSPropertyOp11
 70
     1
102
RTVSPropertyOp12
 70
     1
102
RTVSPropertyOp13
 70
     1
102
RTVSPropertyOp14
 70
     1
102
RTVSPropertyOp15
 70
     1
102
RTVSPropertyOp16
 70
     1
102
RTVSPropertyOp17
 70
     1
102
RTVSPropertyOp18
 70
     1
102
RTVSPropertyOp19
 70
     1
102
RTVSPropertyOp20
 70
     1
102
RTVSPropertyOp21
 70
     1
102
RTVSPropertyOp22
 70
     1
102
RTVSPropertyOp23
 70
     1
102
RTVSPropertyOp24
 70
     1
102
RTVSPropertyOp25
 70
     1
102
RTVSPropertyOp26
 70
     1
102
RTVSPropertyOp27
 70
     1
  0
XRECORD
  5
1A23
102
{ACAD_REACTORS
330
1A22
102
}
330
1A22
100
AcDbXrecord
280
     1
102
RTVSPropertyOp0
 70
     1
102
RTVSPropertyOp1
 70
     1
102
RTVSPropertyOp2
 70
     1
102
RTVSPropertyOp3
 70
     1
102
RTVSPropertyOp4
 70
     1
102
RTVSPropertyOp5
 70
     1
102
RTVSPropertyOp6
 70
     1
102
RTVSPropertyOp7
 70
     1
102
RTVSPropertyOp8
 70
     1
102
RTVSPropertyOp9
 70
     1
102
RTVSPropertyOp10
 70
     1
102
RTVSPropertyOp11
 70
     1
102
RTVSPropertyOp12
 70
     1
102
RTVSPropertyOp13
 70
     1
102
RTVSPropertyOp14
 70
     1
102
RTVSPropertyOp15
 70
     1
102
RTVSPropertyOp16
 70
     1
102
RTVSPropertyOp17
 70
     1
102
RTVSPropertyOp18
 70
     1
102
RTVSPropertyOp19
 70
     1
102
RTVSPropertyOp20
 70
     1
102
RTVSPropertyOp21
 70
     1
102
RTVSPropertyOp22
 70
     1
102
RTVSPropertyOp23
 70
     1
102
RTVSPropertyOp24
 70
     1
102
RTVSPropertyOp25
 70
     1
102
RTVSPropertyOp26
 70
     1
102
RTVSPropertyOp27
 70
     1
  0
XRECORD
  5
1A25
102
{ACAD_REACTORS
330
1A24
102
}
330
1A24
100
AcDbXrecord
280
     1
102
RTVSPropertyOp0
 70
     1
102
RTVSPropertyOp1
 70
     1
102
RTVSPropertyOp2
 70
     1
102
RTVSPropertyOp3
 70
     1
102
RTVSPropertyOp4
 70
     1
102
RTVSPropertyOp5
 70
     1
102
RTVSPropertyOp6
 70
     1
102
RTVSPropertyOp7
 70
     1
102
RTVSPropertyOp8
 70
     1
102
RTVSPropertyOp9
 70
     1
102
RTVSPropertyOp10
 70
     1
102
RTVSPropertyOp11
 70
     1
102
RTVSPropertyOp12
 70
     1
102
RTVSPropertyOp13
 70
     1
102
RTVSPropertyOp14
 70
     1
102
RTVSPropertyOp15
 70
     1
102
RTVSPropertyOp16
 70
     1
102
RTVSPropertyOp17
 70
     1
102
RTVSPropertyOp18
 70
     1
102
RTVSPropertyOp19
 70
     1
102
RTVSPropertyOp20
 70
     1
102
RTVSPropertyOp21
 70
     1
102
RTVSPropertyOp22
 70
     1
102
RTVSPropertyOp23
 70
     1
102
RTVSPropertyOp24
 70
     1
102
RTVSPropertyOp25
 70
     1
102
RTVSPropertyOp26
 70
     1
102
RTVSPropertyOp27
 70
     1
  0
XRECORD
  5
1A3F
102
{ACAD_REACTORS
330
1A3E
102
}
330
1A3E
100
AcDbXrecord
280
     1
102
RTVSPropertyOp0
 70
     0
102
RTVSPropertyOp1
 70
     0
102
RTVSPropertyOp2
 70
     0
102
RTVSPropertyOp3
 70
     0
102
RTVSPropertyOp4
 70
     0
102
RTVSPropertyOp5
 70
     0
102
RTVSPropertyOp6
 70
     0
102
RTVSPropertyOp7
 70
     0
102
RTVSPropertyOp8
 70
     0
102
RTVSPropertyOp9
 70
     0
102
RTVSPropertyOp10
 70
     0
102
RTVSPropertyOp11
 70
     0
102
RTVSPropertyOp12
 70
     0
102
RTVSPropertyOp13
 70
     0
102
RTVSPropertyOp14
 70
     2
102
RTVSPropertyOp15
 70
     0
102
RTVSPropertyOp16
 70
     0
102
RTVSPropertyOp17
 70
     0
102
RTVSPropertyOp18
 70
     0
102
RTVSPropertyOp19
 70
     0
102
RTVSPropertyOp20
 70
     0
102
RTVSPropertyOp21
 70
     0
102
RTVSPropertyOp22
 70
     0
102
RTVSPropertyOp23
 70
     0
102
RTVSPropertyOp24
 70
     0
102
RTVSPropertyOp25
 70
     0
102
RTVSPropertyOp26
 70
     0
102
RTVSPropertyOp27
 70
     0
  0
XRECORD
  5
1A39
102
{ACAD_REACTORS
330
1A38
102
}
330
1A38
100
AcDbXrecord
280
     1
102
RTVSPropertyOp0
 70
     1
102
RTVSPropertyOp1
 70
     1
102
RTVSPropertyOp2
 70
     1
102
RTVSPropertyOp3
 70
     1
102
RTVSPropertyOp4
 70
     1
102
RTVSPropertyOp5
 70
     1
102
RTVSPropertyOp6
 70
     1
102
RTVSPropertyOp7
 70
     1
102
RTVSPropertyOp8
 70
     1
102
RTVSPropertyOp9
 70
     1
102
RTVSPropertyOp10
 70
     1
102
RTVSPropertyOp11
 70
     1
102
RTVSPropertyOp12
 70
     1
102
RTVSPropertyOp13
 70
     1
102
RTVSPropertyOp14
 70
     1
102
RTVSPropertyOp15
 70
     1
102
RTVSPropertyOp16
 70
     1
102
RTVSPropertyOp17
 70
     1
102
RTVSPropertyOp18
 70
     1
102
RTVSPropertyOp19
 70
     1
102
RTVSPropertyOp20
 70
     1
102
RTVSPropertyOp21
 70
     1
102
RTVSPropertyOp22
 70
     1
102
RTVSPropertyOp23
 70
     1
102
RTVSPropertyOp24
 70
     1
102
RTVSPropertyOp25
 70
     1
102
RTVSPropertyOp26
 70
     1
102
RTVSPropertyOp27
 70
     1
  0
XRECORD
  5
1A41
102
{ACAD_REACTORS
330
1A40
102
}
330
1A40
100
AcDbXrecord
280
     1
102
RTVSPropertyOp0
 70
     0
102
RTVSPropertyOp1
 70
     0
102
RTVSPropertyOp2
 70
     0
102
RTVSPropertyOp3
 70
     0
102
RTVSPropertyOp4
 70
     0
102
RTVSPropertyOp5
 70
     0
102
RTVSPropertyOp6
 70
     0
102
RTVSPropertyOp7
 70
     0
102
RTVSPropertyOp8
 70
     0
102
RTVSPropertyOp9
 70
     0
102
RTVSPropertyOp10
 70
     0
102
RTVSPropertyOp11
 70
     0
102
RTVSPropertyOp12
 70
     0
102
RTVSPropertyOp13
 70
     0
102
RTVSPropertyOp14
 70
     2
102
RTVSPropertyOp15
 70
     0
102
RTVSPropertyOp16
 70
     0
102
RTVSPropertyOp17
 70
     0
102
RTVSPropertyOp18
 70
     0
102
RTVSPropertyOp19
 70
     0
102
RTVSPropertyOp20
 70
     0
102
RTVSPropertyOp21
 70
     0
102
RTVSPropertyOp22
 70
     0
102
RTVSPropertyOp23
 70
     0
102
RTVSPropertyOp24
 70
     0
102
RTVSPropertyOp25
 70
     0
102
RTVSPropertyOp26
 70
     0
102
RTVSPropertyOp27
 70
     0
  0
XRECORD
  5
1A31
102
{ACAD_REACTORS
330
1A30
102
}
330
1A30
100
AcDbXrecord
280
     1
102
RTVSPropertyOp0
 70
     1
102
RTVSPropertyOp1
 70
     1
102
RTVSPropertyOp2
 70
     1
102
RTVSPropertyOp3
 70
     1
102
RTVSPropertyOp4
 70
     1
102
RTVSPropertyOp5
 70
     1
102
RTVSPropertyOp6
 70
     1
102
RTVSPropertyOp7
 70
     1
102
RTVSPropertyOp8
 70
     1
102
RTVSPropertyOp9
 70
     1
102
RTVSPropertyOp10
 70
     1
102
RTVSPropertyOp11
 70
     1
102
RTVSPropertyOp12
 70
     1
102
RTVSPropertyOp13
 70
     1
102
RTVSPropertyOp14
 70
     1
102
RTVSPropertyOp15
 70
     1
102
RTVSPropertyOp16
 70
     1
102
RTVSPropertyOp17
 70
     1
102
RTVSPropertyOp18
 70
     1
102
RTVSPropertyOp19
 70
     1
102
RTVSPropertyOp20
 70
     1
102
RTVSPropertyOp21
 70
     1
102
RTVSPropertyOp22
 70
     1
102
RTVSPropertyOp23
 70
     1
102
RTVSPropertyOp24
 70
     1
102
RTVSPropertyOp25
 70
     1
102
RTVSPropertyOp26
 70
     1
102
RTVSPropertyOp27
 70
     1
  0
XRECORD
  5
1A37
102
{ACAD_REACTORS
330
1A36
102
}
330
1A36
100
AcDbXrecord
280
     1
102
RTVSPropertyOp0
 70
     1
102
RTVSPropertyOp1
 70
     1
102
RTVSPropertyOp2
 70
     1
102
RTVSPropertyOp3
 70
     1
102
RTVSPropertyOp4
 70
     1
102
RTVSPropertyOp5
 70
     1
102
RTVSPropertyOp6
 70
     1
102
RTVSPropertyOp7
 70
     1
102
RTVSPropertyOp8
 70
     1
102
RTVSPropertyOp9
 70
     1
102
RTVSPropertyOp10
 70
     1
102
RTVSPropertyOp11
 70
     1
102
RTVSPropertyOp12
 70
     1
102
RTVSPropertyOp13
 70
     1
102
RTVSPropertyOp14
 70
     1
102
RTVSPropertyOp15
 70
     1
102
RTVSPropertyOp16
 70
     1
102
RTVSPropertyOp17
 70
     1
102
RTVSPropertyOp18
 70
     1
102
RTVSPropertyOp19
 70
     1
102
RTVSPropertyOp20
 70
     1
102
RTVSPropertyOp21
 70
     1
102
RTVSPropertyOp22
 70
     1
102
RTVSPropertyOp23
 70
     1
102
RTVSPropertyOp24
 70
     1
102
RTVSPropertyOp25
 70
     1
102
RTVSPropertyOp26
 70
     1
102
RTVSPropertyOp27
 70
     1
  0
ENDSEC
  0
EOF
