  0
SECTION
  2
HEADER
  9
$ACADVER
  1
AC1021
  9
$ACADMAINTVER
 70
    50
  9
$DWGCODEPAGE
  3
ANSI_1252
  9
$LASTSAVEDBY
  1
francoisbu
  9
$INSBASE
 10
0.0
 20
0.0
 30
0.0
  9
$EXTMIN
 10
96.9748335679
 20
25.6427825823
 30
0.0
  9
$EXTMAX
 10
127.9748335679
 20
46.51778258229999
 30
0.0
  9
$LIMMIN
 10
0.0
 20
0.0
  9
$LIMMAX
 10
181.3333333333
 20
117.3333333333
  9
$ORTHOMODE
 70
     1
  9
$REGENMODE
 70
     1
  9
$FILLMODE
 70
     1
  9
$QTEXTMODE
 70
     0
  9
$MIRRTEXT
 70
     0
  9
$LTSCALE
 40
9.973333333300001
  9
$ATTMODE
 70
     1
  9
$TEXTSIZE
 40
0.2
  9
$TRACEWID
 40
0.05
  9
$TEXTSTYLE
  7
STANDARD
  9
$CLAYER
  8
0
  9
$CELTYPE
  6
BYLAYER
  9
$CECOLOR
 62
   256
  9
$CELTSCALE
 40
1.0
  9
$DISPSILH
 70
     0
  9
$DIMSCALE
 40
1.0
  9
$DIMASZ
 40
2.0
  9
$DIMEXO
 40
0.0625
  9
$DIMDLI
 40
6.890666666699999
  9
$DIMRND
 40
0.0
  9
$DIMDLE
 40
0.0
  9
$DIMEXE
 40
0.125
  9
$DIMTP
 40
0.00001
  9
$DIMTM
 40
0.00001
  9
$DIMTXT
 40
1.333333333299999
  9
$DIMCEN
 40
1.631999999999999
  9
$DIMTSZ
 40
0.0
  9
$DIMTOL
 70
     1
  9
$DIMLIM
 70
     0
  9
$DIMTIH
 70
     1
  9
$DIMTOH
 70
     1
  9
$DIMSE1
 70
     0
  9
$DIMSE2
 70
     0
  9
$DIMTAD
 70
     0
  9
$DIMZIN
 70
     0
  9
$DIMBLK
  1
_FILLED
  9
$DIMASO
 70
     1
  9
$DIMSHO
 70
     1
  9
$DIMPOST
  1

  9
$DIMAPOST
  1

  9
$DIMALT
 70
     0
  9
$DIMALTD
 70
     2
  9
$DIMALTF
 40
25.4
  9
$DIMLFAC
 40
1.0
  9
$DIMTOFL
 70
     0
  9
$DIMTVP
 40
0.0
  9
$DIMTIX
 70
     0
  9
$DIMSOXD
 70
     0
  9
$DIMSAH
 70
     0
  9
$DIMBLK1
  1

  9
$DIMBLK2
  1

  9
$DIMSTYLE
  2
STANDARD
  9
$DIMCLRD
 70
     0
  9
$DIMCLRE
 70
     0
  9
$DIMCLRT
 70
     0
  9
$DIMTFAC
 40
1.0
  9
$DIMGAP
 40
0.09
  9
$DIMJUST
 70
     0
  9
$DIMSD1
 70
     0
  9
$DIMSD2
 70
     0
  9
$DIMTOLJ
 70
     1
  9
$DIMTZIN
 70
     0
  9
$DIMALTZ
 70
     0
  9
$DIMALTTZ
 70
     0
  9
$DIMUPT
 70
     0
  9
$DIMDEC
 70
     4
  9
$DIMTDEC
 70
     4
  9
$DIMALTU
 70
     2
  9
$DIMALTTD
 70
     2
  9
$DIMTXSTY
  7
STANDARD
  9
$DIMAUNIT
 70
     0
  9
$DIMADEC
 70
     0
  9
$DIMALTRND
 40
0.0
  9
$DIMAZIN
 70
     0
  9
$DIMDSEP
 70
    46
  9
$DIMATFIT
 70
     3
  9
$DIMFRAC
 70
     0
  9
$DIMLDRBLK
  1

  9
$DIMLUNIT
 70
     2
  9
$DIMLWD
 70
    -2
  9
$DIMLWE
 70
    -2
  9
$DIMTMOVE
 70
     0
  9
$DIMFXL
 40
1.0
  9
$DIMFXLON
 70
     0
  9
$DIMJOGANG
 40
0.7853981633974483
  9
$DIMTFILL
 70
     0
  9
$DIMTFILLCLR
 70
     0
  9
$DIMARCSYM
 70
     0
  9
$DIMLTYPE
  6

  9
$DIMLTEX1
  6

  9
$DIMLTEX2
  6

  9
$LUNITS
 70
     2
  9
$LUPREC
 70
     4
  9
$SKETCHINC
 40
0.1
  9
$FILLETRAD
 40
0.0
  9
$AUNITS
 70
     0
  9
$AUPREC
 70
     0
  9
$MENU
  1
.
  9
$ELEVATION
 40
0.0
  9
$PELEVATION
 40
0.0
  9
$THICKNESS
 40
0.0
  9
$LIMCHECK
 70
     0
  9
$CHAMFERA
 40
0.0
  9
$CHAMFERB
 40
0.0
  9
$CHAMFERC
 40
0.0
  9
$CHAMFERD
 40
0.0
  9
$SKPOLY
 70
     0
  9
$TDCREATE
 40
2456616.505667766
  9
$TDUCREATE
 40
2456616.672334433
  9
$TDUPDATE
 40
2456786.564832581
  9
$TDUUPDATE
 40
2456786.731499248
  9
$TDINDWG
 40
0.0385450926
  9
$TDUSRTIMER
 40
0.0385450926
  9
$USRTIMER
 70
     1
  9
$ANGBASE
 50
0.0
  9
$ANGDIR
 70
     0
  9
$PDMODE
 70
     3
  9
$PDSIZE
 40
0.03125
  9
$PLINEWID
 40
0.0
  9
$SPLFRAME
 70
     0
  9
$SPLINETYPE
 70
     6
  9
$SPLINESEGS
 70
     8
  9
$HANDSEED
  5
1AD8
  9
$SURFTAB1
 70
     6
  9
$SURFTAB2
 70
     6
  9
$SURFTYPE
 70
     6
  9
$SURFU
 70
     6
  9
$SURFV
 70
     6
  9
$UCSBASE
  2

  9
$UCSNAME
  2

  9
$UCSORG
 10
0.0
 20
0.0
 30
0.0
  9
$UCSXDIR
 10
1.0
 20
0.0
 30
0.0
  9
$UCSYDIR
 10
0.0
 20
1.0
 30
0.0
  9
$UCSORTHOREF
  2

  9
$UCSORTHOVIEW
 70
     0
  9
$UCSORGTOP
 10
0.0
 20
0.0
 30
0.0
  9
$UCSORGBOTTOM
 10
0.0
 20
0.0
 30
0.0
  9
$UCSORGLEFT
 10
0.0
 20
0.0
 30
0.0
  9
$UCSORGRIGHT
 10
0.0
 20
0.0
 30
0.0
  9
$UCSORGFRONT
 10
0.0
 20
0.0
 30
0.0
  9
$UCSORGBACK
 10
0.0
 20
0.0
 30
0.0
  9
$PUCSBASE
  2

  9
$PUCSNAME
  2

  9
$PUCSORG
 10
0.0
 20
0.0
 30
0.0
  9
$PUCSXDIR
 10
1.0
 20
0.0
 30
0.0
  9
$PUCSYDIR
 10
0.0
 20
1.0
 30
0.0
  9
$PUCSORTHOREF
  2

  9
$PUCSORTHOVIEW
 70
     0
  9
$PUCSORGTOP
 10
0.0
 20
0.0
 30
0.0
  9
$PUCSORGBOTTOM
 10
0.0
 20
0.0
 30
0.0
  9
$PUCSORGLEFT
 10
0.0
 20
0.0
 30
0.0
  9
$PUCSORGRIGHT
 10
0.0
 20
0.0
 30
0.0
  9
$PUCSORGFRONT
 10
0.0
 20
0.0
 30
0.0
  9
$PUCSORGBACK
 10
0.0
 20
0.0
 30
0.0
  9
$USERI1
 70
     0
  9
$USERI2
 70
     0
  9
$USERI3
 70
     0
  9
$USERI4
 70
     0
  9
$USERI5
 70
     0
  9
$USERR1
 40
0.0
  9
$USERR2
 40
0.0
  9
$USERR3
 40
0.0
  9
$USERR4
 40
0.0
  9
$USERR5
 40
0.0
  9
$WORLDVIEW
 70
     1
  9
$SHADEDGE
 70
     3
  9
$SHADEDIF
 70
    70
  9
$TILEMODE
 70
     1
  9
$MAXACTVP
 70
    64
  9
$PINSBASE
 10
0.0
 20
0.0
 30
0.0
  9
$PLIMCHECK
 70
     0
  9
$PEXTMIN
 10
1.000000000000000E+20
 20
1.000000000000000E+20
 30
1.000000000000000E+20
  9
$PEXTMAX
 10
-1.000000000000000E+20
 20
-1.000000000000000E+20
 30
-1.000000000000000E+20
  9
$PLIMMIN
 10
0.0
 20
0.0
  9
$PLIMMAX
 10
12.0
 20
9.0
  9
$UNITMODE
 70
     0
  9
$VISRETAIN
 70
     1
  9
$PLINEGEN
 70
     0
  9
$PSLTSCALE
 70
     1
  9
$TREEDEPTH
 70
  3020
  9
$CMLSTYLE
  2
Standard
  9
$CMLJUST
 70
     0
  9
$CMLSCALE
 40
1.0
  9
$PROXYGRAPHICS
 70
     1
  9
$MEASUREMENT
 70
     0
  9
$CELWEIGHT
370
    -1
  9
$ENDCAPS
280
     0
  9
$JOINSTYLE
280
     0
  9
$LWDISPLAY
290
     0
  9
$INSUNITS
 70
     1
  9
$HYPERLINKBASE
  1

  9
$STYLESHEET
  1

  9
$XEDIT
290
     1
  9
$CEPSNTYPE
380
     0
  9
$PSTYLEMODE
290
     1
  9
$FINGERPRINTGUID
  2
{2E8BB179-56D8-46A4-80C1-5C71BB4E597A}
  9
$VERSIONGUID
  2
{82E76604-F055-4436-BAB3-79C1CD8D4946}
  9
$EXTNAMES
290
     1
  9
$PSVPSCALE
 40
0.0
  9
$OLESTARTUP
290
     0
  9
$SORTENTS
280
   127
  9
$INDEXCTL
280
     0
  9
$HIDETEXT
280
     0
  9
$XCLIPFRAME
290
     0
  9
$HALOGAP
280
     0
  9
$OBSCOLOR
 70
   257
  9
$OBSLTYPE
280
     0
  9
$INTERSECTIONDISPLAY
280
     0
  9
$INTERSECTIONCOLOR
 70
   257
  9
$DIMASSOC
280
     1
  9
$PROJECTNAME
  1

  9
$CAMERADISPLAY
290
     0
  9
$LENSLENGTH
 40
50.0
  9
$CAMERAHEIGHT
 40
0.0
  9
$STEPSPERSEC
 40
2.0
  9
$STEPSIZE
 40
6.0
  9
$3DDWFPREC
 40
2.0
  9
$PSOLWIDTH
 40
0.25
  9
$PSOLHEIGHT
 40
4.0
  9
$LOFTANG1
 40
1.570796326794896
  9
$LOFTANG2
 40
1.570796326794896
  9
$LOFTMAG1
 40
0.0
  9
$LOFTMAG2
 40
0.0
  9
$LOFTPARAM
 70
     7
  9
$LOFTNORMALS
280
     1
  9
$LATITUDE
 40
37.795
  9
$LONGITUDE
 40
-122.394
  9
$NORTHDIRECTION
 40
0.0
  9
$TIMEZONE
 70
 -8000
  9
$LIGHTGLYPHDISPLAY
280
     1
  9
$TILEMODELIGHTSYNCH
280
     1
  9
$CMATERIAL
347
19BD
  9
$SOLIDHIST
280
     1
  9
$SHOWHIST
280
     1
  9
$DWFFRAME
280
     2
  9
$DGNFRAME
280
     0
  9
$REALWORLDSCALE
290
     1
  9
$INTERFERECOLOR
 62
     1
  9
$INTERFEREOBJVS
345
19DF
  9
$INTERFEREVPVS
346
19DC
  9
$CSHADOW
280
     0
  9
$SHADOWPLANELOCATION
 40
0.0
  0
ENDSEC
  0
SECTION
  2
CLASSES
  0
CLASS
  1
ACDBDICTIONARYWDFLT
  2
AcDbDictionaryWithDefault
  3
ObjectDBX Classes
 90
        0
 91
        1
280
     0
281
     0
  0
CLASS
  1
MATERIAL
  2
AcDbMaterial
  3
ObjectDBX Classes
 90
     1153
 91
        3
280
     0
281
     0
  0
CLASS
  1
VISUALSTYLE
  2
AcDbVisualStyle
  3
ObjectDBX Classes
 90
     4095
 91
       19
280
     0
281
     0
  0
CLASS
  1
TABLESTYLE
  2
AcDbTableStyle
  3
ObjectDBX Classes
 90
     4095
 91
        1
280
     0
281
     0
  0
CLASS
  1
SCALE
  2
AcDbScale
  3
ObjectDBX Classes
 90
     1153
 91
       33
280
     0
281
     0
  0
CLASS
  1
MLEADERSTYLE
  2
AcDbMLeaderStyle
  3
ACDB_MLEADERSTYLE_CLASS
 90
     4095
 91
        1
280
     0
281
     0
  0
CLASS
  1
CELLSTYLEMAP
  2
AcDbCellStyleMap
  3
ObjectDBX Classes
 90
     1152
 91
        3
280
     0
281
     0
  0
CLASS
  1
DICTIONARYVAR
  2
AcDbDictionaryVar
  3
ObjectDBX Classes
 90
        0
 91
       11
280
     0
281
     0
  0
ENDSEC
  0
SECTION
  2
TABLES
  0
TABLE
  2
VPORT
  5
8
102
{ACAD_XDICTIONARY
360
1A15
102
}
330
0
100
AcDbSymbolTable
 70
     1
  0
VPORT
  5
1F4
330
8
100
AcDbSymbolTableRecord
100
AcDbViewportTableRecord
  2
*ACTIVE
 70
     0
 10
0.0
 20
0.0
 11
1.0
 21
1.0
 12
115.7492074846217
 22
34.17157730844698
 13
0.0
 23
0.0
 14
1.0
 24
1.0
 15
0.0
 25
0.0
 16
0.0
 26
0.0
 36
1.0
 17
0.0
 27
0.0
 37
0.0
 40
33.65597466744684
 41
1.780711825487944
 42
50.0
 43
0.0
 44
0.0
 50
0.0
 51
0.0
 71
     0
 72
   100
 73
     1
 74
     1
 75
     0
 76
     0
 77
     0
 78
     0
281
     0
 65
     1
110
0.0
120
0.0
130
0.0
111
1.0
121
0.0
131
0.0
112
0.0
122
1.0
132
0.0
 79
     0
146
0.0
348
19DB
 60
     3
 61
     5
292
     1
282
     1
141
0.0
142
0.0
 63
   250
421
  3355443
  0
ENDTAB
  0
TABLE
  2
LTYPE
  5
5
330
0
100
AcDbSymbolTable
 70
     6
  0
LTYPE
  5
14
330
5
100
AcDbSymbolTableRecord
100
AcDbLinetypeTableRecord
  2
BYBLOCK
 70
     0
  3

 72
    65
 73
     0
 40
0.0
  0
LTYPE
  5
15
330
5
100
AcDbSymbolTableRecord
100
AcDbLinetypeTableRecord
  2
BYLAYER
 70
     0
  3

 72
    65
 73
     0
 40
0.0
  0
LTYPE
  5
16
330
5
100
AcDbSymbolTableRecord
100
AcDbLinetypeTableRecord
  2
CONTINUOUS
 70
     0
  3
Solid line
 72
    65
 73
     0
 40
0.0
  0
LTYPE
  5
1F5
330
5
100
AcDbSymbolTableRecord
100
AcDbLinetypeTableRecord
  2
CENTER
 70
     0
  3
____ _ ____ _ ____ _ ____ _ ____ _ ____ _ ____
 72
    65
 73
     4
 40
0.6
 49
0.375
 74
     0
 49
-0.075
 74
     0
 49
0.075
 74
     0
 49
-0.075
 74
     0
  0
LTYPE
  5
1F6
330
5
100
AcDbSymbolTableRecord
100
AcDbLinetypeTableRecord
  2
HIDDEN
 70
     0
  3
- - - - - - - - - - - - - - - - - - - -
 72
    65
 73
     2
 40
0.2
 49
0.1
 74
     0
 49
-0.1
 74
     0
  0
LTYPE
  5
1F7
330
5
100
AcDbSymbolTableRecord
100
AcDbLinetypeTableRecord
  2
PHANTOM
 70
     0
  3
_____ _ _ _____ _ _ _____ _ _ _____
 72
    65
 73
     6
 40
0.8
 49
0.45
 74
     0
 49
-0.05
 74
     0
 49
0.1
 74
     0
 49
-0.05
 74
     0
 49
0.1
 74
     0
 49
-0.05
 74
     0
  0
LTYPE
  5
1F8
330
5
100
AcDbSymbolTableRecord
100
AcDbLinetypeTableRecord
  2
DOT
 70
     0
  3
. . . . . . . . . . . . . . . . . . . .
 72
    65
 73
     2
 40
0.2
 49
0.1
 74
     0
 49
-0.1
 74
     0
  0
LTYPE
  5
1F9
330
5
100
AcDbSymbolTableRecord
100
AcDbLinetypeTableRecord
  2
DASHED
 70
     0
  3
- - - - - - - - - - - - - - - - - - - -
 72
    65
 73
     2
 40
0.2
 49
0.1
 74
     0
 49
-0.1
 74
     0
  0
ENDTAB
  0
TABLE
  2
LAYER
  5
2
330
0
100
AcDbSymbolTable
 70
    18
  0
LAYER
  5
10
102
{ACAD_XDICTIONARY
360
1A5C
102
}
330
2
100
AcDbSymbolTableRecord
100
AcDbLayerTableRecord
  2
0
 70
     0
 62
     7
  6
CONTINUOUS
370
    -3
390
F
347
19CD
  0
LAYER
  5
1FA
102
{ACAD_XDICTIONARY
360
1A5E
102
}
330
2
100
AcDbSymbolTableRecord
100
AcDbLayerTableRecord
  2
DEFAULT_1
 70
     0
 62
     7
  6
CENTER
370
    -3
390
F
347
19CD
  0
LAYER
  5
1FB
102
{ACAD_XDICTIONARY
360
1A60
102
}
330
2
100
AcDbSymbolTableRecord
100
AcDbLayerTableRecord
  2
DEFAULT_2
 70
     0
 62
     7
  6
HIDDEN
370
    -3
390
F
347
19CD
  0
LAYER
  5
1FC
102
{ACAD_XDICTIONARY
360
1A62
102
}
330
2
100
AcDbSymbolTableRecord
100
AcDbLayerTableRecord
  2
DEFAULT_3
 70
     0
 62
     7
  6
PHANTOM
370
    -3
390
F
347
19CD
  0
LAYER
  5
1FD
102
{ACAD_XDICTIONARY
360
1A64
102
}
330
2
100
AcDbSymbolTableRecord
100
AcDbLayerTableRecord
  2
1_CURVES
 70
     0
 62
     7
  6
CONTINUOUS
370
    -3
390
F
347
19CD
  0
LAYER
  5
1FE
102
{ACAD_XDICTIONARY
360
1A66
102
}
330
2
100
AcDbSymbolTableRecord
100
AcDbLayerTableRecord
  2
1_CURVES_SPEC
 70
     0
 62
     7
  6
CONTINUOUS
370
    -3
390
F
347
19CD
  0
LAYER
  5
1FF
102
{ACAD_XDICTIONARY
360
1A68
102
}
330
2
100
AcDbSymbolTableRecord
100
AcDbLayerTableRecord
  2
1_CURVES_ZONE-ROBINETERIE
 70
     0
 62
     7
  6
CONTINUOUS
370
    -3
390
F
347
19CD
  0
LAYER
  5
200
102
{ACAD_XDICTIONARY
360
1A6A
102
}
330
2
100
AcDbSymbolTableRecord
100
AcDbLayerTableRecord
  2
2_PLANES
 70
     0
 62
     7
  6
CONTINUOUS
370
    -3
390
F
347
19CD
  0
LAYER
  5
201
102
{ACAD_XDICTIONARY
360
1A6C
102
}
330
2
100
AcDbSymbolTableRecord
100
AcDbLayerTableRecord
  2
3_POINTS
 70
     0
 62
     7
  6
CONTINUOUS
370
    -3
390
F
347
19CD
  0
LAYER
  5
202
102
{ACAD_XDICTIONARY
360
1A6E
102
}
330
2
100
AcDbSymbolTableRecord
100
AcDbLayerTableRecord
  2
4_CSYS
 70
     0
 62
     7
  6
CONTINUOUS
370
    -3
390
F
347
19CD
  0
LAYER
  5
203
102
{ACAD_XDICTIONARY
360
1A70
102
}
330
2
100
AcDbSymbolTableRecord
100
AcDbLayerTableRecord
  2
5_AXIS
 70
     0
 62
     7
  6
CONTINUOUS
370
    -3
390
F
347
19CD
  0
LAYER
  5
204
102
{ACAD_XDICTIONARY
360
1A72
102
}
330
2
100
AcDbSymbolTableRecord
100
AcDbLayerTableRecord
  2
6_SURFACES
 70
     0
 62
     7
  6
CONTINUOUS
370
    -3
390
F
347
19CD
  0
LAYER
  5
205
102
{ACAD_XDICTIONARY
360
1A74
102
}
330
2
100
AcDbSymbolTableRecord
100
AcDbLayerTableRecord
  2
6_SURFACES_BAIN_DROIT
 70
     0
 62
     7
  6
CONTINUOUS
370
    -3
390
F
347
19CD
  0
LAYER
  5
206
102
{ACAD_XDICTIONARY
360
1A76
102
}
330
2
100
AcDbSymbolTableRecord
100
AcDbLayerTableRecord
  2
6_SURFACES_BAIN_GAUCHE
 70
     0
 62
     7
  6
CONTINUOUS
370
    -3
390
F
347
19CD
  0
LAYER
  5
207
102
{ACAD_XDICTIONARY
360
1A78
102
}
330
2
100
AcDbSymbolTableRecord
100
AcDbLayerTableRecord
  2
6_SURFACES_OFFSET-FIBRE
 70
     0
 62
     7
  6
CONTINUOUS
370
    -3
390
F
347
19CD
  0
LAYER
  5
208
102
{ACAD_XDICTIONARY
360
1A7A
102
}
330
2
100
AcDbSymbolTableRecord
100
AcDbLayerTableRecord
  2
6_SURFACES_TOOLING
 70
     0
 62
     7
  6
CONTINUOUS
370
    -3
390
F
347
19CD
  0
LAYER
  5
209
102
{ACAD_XDICTIONARY
360
1A7C
102
}
330
2
100
AcDbSymbolTableRecord
100
AcDbLayerTableRecord
  2
7_NOTES
 70
     0
 62
     7
  6
CONTINUOUS
370
    -3
390
F
347
19CD
  0
LAYER
  5
20A
102
{ACAD_XDICTIONARY
360
1A7E
102
}
330
2
100
AcDbSymbolTableRecord
100
AcDbLayerTableRecord
  2
XSEC_DATUMS
 70
     0
 62
     7
  6
CONTINUOUS
370
    -3
390
F
347
19CD
  0
ENDTAB
  0
TABLE
  2
STYLE
  5
3
330
0
100
AcDbSymbolTable
 70
     8
  0
STYLE
  5
11
330
3
100
AcDbSymbolTableRecord
100
AcDbTextStyleTableRecord
  2
STANDARD
 70
     0
 40
0.0
 41
0.8
 50
0.0
 71
     0
 42
0.2
  3
txt
  4

  0
STYLE
  5
20B
330
3
100
AcDbSymbolTableRecord
100
AcDbTextStyleTableRecord
  2
TEXTSTYLE_1
 70
     0
 40
0.0
 41
0.8
 50
0.0
 71
     0
 42
0.2
  3
gdt
  4

  0
STYLE
  5
20C
330
3
100
AcDbSymbolTableRecord
100
AcDbTextStyleTableRecord
  2
TEXTSTYLE_2
 70
     0
 40
0.0
 41
1.0
 50
0.0
 71
     0
 42
0.2
  3
trium.ttf
  4

  0
STYLE
  5
20D
330
3
100
AcDbSymbolTableRecord
100
AcDbTextStyleTableRecord
  2
TEXTSTYLE_3
 70
     0
 40
0.0
 41
1.0
 50
0.0
 71
     0
 42
0.2
  3
trium.ttf
  4

  0
STYLE
  5
20E
330
3
100
AcDbSymbolTableRecord
100
AcDbTextStyleTableRecord
  2
TEXTSTYLE_4
 70
     0
 40
0.0
 41
1.0
 50
0.0
 71
     0
 42
0.2
  3
txt_____.ttf
  4

1001
ACAD
1000
txt
1071
        2
  0
STYLE
  5
20F
330
3
100
AcDbSymbolTableRecord
100
AcDbTextStyleTableRecord
  2
TEXTSTYLE_5
 70
     0
 40
0.0
 41
1.0
 50
0.0
 71
     0
 42
0.2
  3
txt_____.ttf
  4

1001
ACAD
1000
txt
1071
        2
  0
STYLE
  5
210
330
3
100
AcDbSymbolTableRecord
100
AcDbTextStyleTableRecord
  2
TEXTSTYLE_6
 70
     0
 40
0.0
 41
1.0
 50
0.0
 71
     0
 42
0.2
  3
trium.ttf
  4

  0
STYLE
  5
211
330
3
100
AcDbSymbolTableRecord
100
AcDbTextStyleTableRecord
  2
TEXTSTYLE_7
 70
     0
 40
0.0
 41
0.8
 50
0.0
 71
     0
 42
0.2
  3
txt_____.ttf
  4

1001
ACAD
1000
txt
1071
        2
  0
ENDTAB
  0
TABLE
  2
VIEW
  5
6
330
0
100
AcDbSymbolTable
 70
     0
  0
ENDTAB
  0
TABLE
  2
UCS
  5
7
330
0
100
AcDbSymbolTable
 70
     0
  0
ENDTAB
  0
TABLE
  2
APPID
  5
9
330
0
100
AcDbSymbolTable
 70
     3
  0
APPID
  5
212
330
9
100
AcDbSymbolTableRecord
100
AcDbRegAppTableRecord
  2
ACAD
 70
     0
  0
APPID
  5
1A45
330
9
100
AcDbSymbolTableRecord
100
AcDbRegAppTableRecord
  2
ACAD_MLEADERVER
 70
     0
  0
APPID
  5
1A56
330
9
100
AcDbSymbolTableRecord
100
AcDbRegAppTableRecord
  2
ACAD_EXEMPT_FROM_CAD_STANDARDS
 70
     0
  0
ENDTAB
  0
TABLE
  2
DIMSTYLE
  5
A
330
0
100
AcDbSymbolTable
 70
     9
100
AcDbDimStyleTable
 71
     1
340
237
  0
DIMSTYLE
105
237
330
A
100
AcDbSymbolTableRecord
100
AcDbDimStyleTableRecord
  2
STANDARD
 70
     0
 41
2.0
 44
0.125
 47
0.00001
 48
0.00001
 71
     1
 78
     4
140
1.333333333299999
271
     5
272
     5
284
     4
340
11
341
215
342
215
343
215
344
215
  0
DIMSTYLE
105
238
330
A
100
AcDbSymbolTableRecord
100
AcDbDimStyleTableRecord
  2
DIMSTYLE_1
 70
     0
 41
2.0
 44
0.125
 47
0.00001
 48
0.00001
 78
     4
140
1.333333333299999
147
0.0625
271
     3
272
     3
284
     4
340
11
341
215
342
215
343
215
344
215
  0
DIMSTYLE
105
239
330
A
100
AcDbSymbolTableRecord
100
AcDbDimStyleTableRecord
  2
DIMSTYLE_2
 70
     0
 41
2.0
 44
0.125
 47
0.001
 48
0.001
 78
     4
140
1.333333333299999
147
0.0625
271
     3
272
     3
284
     4
340
11
341
215
342
215
343
215
344
215
  0
DIMSTYLE
105
23A
330
A
100
AcDbSymbolTableRecord
100
AcDbDimStyleTableRecord
  2
DIMSTYLE_3
 70
     0
 41
2.0
 44
0.125
 47
0.001
 48
0.001
 78
     4
140
1.333333333299999
147
0.0625
271
     2
272
     2
284
     4
340
11
341
215
342
215
343
215
344
215
  0
DIMSTYLE
105
23B
330
A
100
AcDbSymbolTableRecord
100
AcDbDimStyleTableRecord
  2
DIMSTYLE_4
 70
     0
 41
2.0
 44
0.125
 47
0.00001
 48
0.00001
 78
     4
140
1.333333333299999
147
0.0625
271
     2
272
     2
284
     4
340
11
341
215
342
215
343
215
344
215
  0
DIMSTYLE
105
23C
330
A
100
AcDbSymbolTableRecord
100
AcDbDimStyleTableRecord
  2
DIMSTYLE_5
 70
     0
 41
2.0
 44
0.125
 47
0.00001
 48
0.00001
 78
     4
140
1.333333333299999
147
0.0625
271
     6
272
     6
284
     4
340
11
341
215
342
215
343
215
344
215
  0
DIMSTYLE
105
23D
330
A
100
AcDbSymbolTableRecord
100
AcDbDimStyleTableRecord
  2
DIMSTYLE_6
 70
     0
 41
2.0
 44
0.125
 47
0.00001
 48
0.00001
 78
     4
140
1.333333333299999
147
0.0625
284
     4
340
11
341
215
342
215
343
215
344
215
  0
DIMSTYLE
105
23E
330
A
100
AcDbSymbolTableRecord
100
AcDbDimStyleTableRecord
  2
DIMSTYLE_7
 70
     0
 41
2.0
 44
0.125
 47
1.0
 48
1.0
 78
     4
140
1.333333333299999
271
     0
272
     0
284
     4
340
11
341
215
342
215
343
215
344
215
  0
DIMSTYLE
105
23F
330
A
100
AcDbSymbolTableRecord
100
AcDbDimStyleTableRecord
  2
DIMSTYLE_8
 70
     0
 41
2.0
 44
0.125
 47
0.00001
 48
0.00001
 78
     4
140
1.333333333299999
147
0.0625
271
     1
272
     1
284
     4
340
11
341
215
342
215
343
215
344
215
  0
ENDTAB
  0
TABLE
  2
BLOCK_RECORD
  5
1
330
0
100
AcDbSymbolTable
 70
    11
  0
BLOCK_RECORD
  5
213
330
1
100
AcDbSymbolTableRecord
100
AcDbBlockTableRecord
  2
*Model_Space
340
19B7
 70
     0
280
     1
281
     0
  0
BLOCK_RECORD
  5
214
330
1
100
AcDbSymbolTableRecord
100
AcDbBlockTableRecord
  2
*Paper_Space
340
19B8
 70
     0
280
     1
281
     0
  0
BLOCK_RECORD
  5
215
330
1
100
AcDbSymbolTableRecord
100
AcDbBlockTableRecord
  2
_FILLED
340
0
 70
     0
280
     1
281
     0
  0
BLOCK_RECORD
  5
22D
330
1
100
AcDbSymbolTableRecord
100
AcDbBlockTableRecord
  2
SYMBOL_14_BL9
340
0
 70
     0
280
     1
281
     0
  0
BLOCK_RECORD
  5
22E
330
1
100
AcDbSymbolTableRecord
100
AcDbBlockTableRecord
  2
SYMBOL_12_BL8
340
0
 70
     0
280
     1
281
     0
  0
BLOCK_RECORD
  5
22F
330
1
100
AcDbSymbolTableRecord
100
AcDbBlockTableRecord
  2
SYMBOL_10_BL7
340
0
 70
     0
280
     1
281
     0
  0
BLOCK_RECORD
  5
230
330
1
100
AcDbSymbolTableRecord
100
AcDbBlockTableRecord
  2
SYMBOL_9_BL6
340
0
 70
     0
280
     1
281
     0
  0
BLOCK_RECORD
  5
231
330
1
100
AcDbSymbolTableRecord
100
AcDbBlockTableRecord
  2
SYMBOL_15_BL5
340
0
 70
     0
280
     1
281
     0
  0
BLOCK_RECORD
  5
232
330
1
100
AcDbSymbolTableRecord
100
AcDbBlockTableRecord
  2
SYMBOL_8_BL4
340
0
 70
     0
280
     1
281
     0
  0
BLOCK_RECORD
  5
233
330
1
100
AcDbSymbolTableRecord
100
AcDbBlockTableRecord
  2
SYMBOL_7_BL3
340
0
 70
     0
280
     1
281
     0
  0
BLOCK_RECORD
  5
234
330
1
100
AcDbSymbolTableRecord
100
AcDbBlockTableRecord
  2
SYMBOL_6_BL2
340
0
 70
     0
280
     1
281
     0
  0
BLOCK_RECORD
  5
235
330
1
100
AcDbSymbolTableRecord
100
AcDbBlockTableRecord
  2
SYMBOL_18_BL1
340
0
 70
     0
280
     1
281
     0
  0
BLOCK_RECORD
  5
236
330
1
100
AcDbSymbolTableRecord
100
AcDbBlockTableRecord
  2
SYMBOL_3_BL0
340
0
 70
     0
280
     1
281
     0
  0
ENDTAB
  0
ENDSEC
  0
SECTION
  2
BLOCKS
  0
BLOCK
  5
20
330
213
100
AcDbEntity
  8
0
100
AcDbBlockBegin
  2
*Model_Space
 70
     0
 10
0.0
 20
0.0
 30
0.0
  3
*Model_Space
  1

  0
ENDBLK
  5
21
330
213
100
AcDbEntity
  8
0
100
AcDbBlockEnd
  0
BLOCK
  5
1C
330
214
100
AcDbEntity
 67
     1
  8
0
100
AcDbBlockBegin
  2
*Paper_Space
 70
     0
 10
0.0
 20
0.0
 30
0.0
  3
*Paper_Space
  1

  0
ENDBLK
  5
1D
330
214
100
AcDbEntity
 67
     1
  8
0
100
AcDbBlockEnd
  0
BLOCK
  5
333
330
215
100
AcDbEntity
  8
0
100
AcDbBlockBegin
  2
_FILLED
 70
     0
 10
0.0
 20
0.0
 30
0.0
  3
_FILLED
  1

  0
SOLID
  5
334
330
215
100
AcDbEntity
  8
0
  6
ByBlock
 62
     0
100
AcDbTrace
 10
0.0
 20
0.0
 30
0.0
 11
-1.0
 21
0.1666666667
 31
0.0
 12
-1.0
 22
-0.1666666667
 32
0.0
 13
-1.0
 23
-0.1666666667
 33
0.0
  0
ENDBLK
  5
335
330
215
100
AcDbEntity
  8
0
  6
ByBlock
 62
     0
100
AcDbBlockEnd
  0
BLOCK
  5
240
330
22D
100
AcDbEntity
  8
0
  6
Continuous
 62
     7
100
AcDbBlockBegin
  2
SYMBOL_14_BL9
 70
     0
 10
170.0027219488
 20
86.35944116040001
 30
0.0
  3
SYMBOL_14_BL9
  1

  0
TEXT
  5
241
330
22D
100
AcDbEntity
  8
0
  6
Continuous
 62
     7
100
AcDbText
 10
169.4397587668
 20
85.69277423429999
 30
0.0
 40
1.333333852099999
  1
T
  7
TEXTSTYLE_2
100
AcDbText
  0
ELLIPSE
  5
242
330
22D
100
AcDbEntity
  8
0
  6
Continuous
 62
     7
100
AcDbEllipse
 10
170.0027219488
 20
86.35944116040001
 30
0.0
 11
-1.942887567899999
 21
0.0
 31
0.0
210
0.0
220
0.0
230
1.0
 40
0.6606458385
 41
0.0
 42
6.283185307179586
  0
ENDBLK
  5
243
330
22D
100
AcDbEntity
  8
0
  6
ByBlock
 62
     0
100
AcDbBlockEnd
  0
BLOCK
  5
244
330
22E
100
AcDbEntity
  8
0
  6
Continuous
 62
     7
100
AcDbBlockBegin
  2
SYMBOL_12_BL8
 70
     0
 10
168.3447525658
 20
73.984601065
 30
0.0
  3
SYMBOL_12_BL8
  1

  0
TEXT
  5
245
330
22E
100
AcDbEntity
  8
0
  6
Continuous
 62
     7
100
AcDbText
 10
168.5887695966
 20
73.07391710819999
 30
0.0
 40
1.333333852099999
  1
C
 50
60.0
  7
TEXTSTYLE_2
100
AcDbText
  0
ELLIPSE
  5
246
330
22E
100
AcDbEntity
  8
0
  6
Continuous
 62
     7
100
AcDbEllipse
 10
168.3447525658
 20
73.984601065
 30
0.0
 11
-0.9714437840000002
 21
-1.682589990499999
 31
0.0
210
0.0
220
0.0
230
1.0
 40
0.6606458385
 41
0.0
 42
6.283185307179586
  0
ENDBLK
  5
247
330
22E
100
AcDbEntity
  8
0
  6
ByBlock
 62
     0
100
AcDbBlockEnd
  0
BLOCK
  5
248
330
22F
100
AcDbEntity
  8
0
  6
Continuous
 62
     7
100
AcDbBlockBegin
  2
SYMBOL_10_BL7
 70
     0
 10
128.8478955889
 20
78.1148537092
 30
0.0
  3
SYMBOL_10_BL7
  1

  0
TEXT
  5
249
330
22F
100
AcDbEntity
  8
0
  6
Continuous
 62
     7
100
AcDbText
 10
128.2984203889
 20
77.44198136920001
 30
0.0
 40
1.333333852099999
  1
L
  7
TEXTSTYLE_2
100
AcDbText
  0
TEXT
  5
24A
330
22F
100
AcDbEntity
  8
0
  6
Continuous
 62
     7
100
AcDbText
 10
124.6138341106
 20
77.45439219720001
 30
0.0
 40
1.333333852099999
  1
7
  7
TEXTSTYLE_2
100
AcDbText
  0
TEXT
  5
24B
330
22F
100
AcDbEntity
  8
0
  6
Continuous
 62
     7
100
AcDbText
 10
132.0597344473
 20
77.45439219720001
 30
0.0
 40
1.333333852099999
  1
8
  7
TEXTSTYLE_2
100
AcDbText
  0
ELLIPSE
  5
24C
330
22F
100
AcDbEntity
  8
0
  6
Continuous
 62
     7
100
AcDbEllipse
 10
128.8268156562
 20
78.10864829519999
 30
0.0
 11
-1.942887567899999
 21
0.0
 31
0.0
210
0.0
220
0.0
230
1.0
 40
0.6606458385
 41
0.0
 42
6.283185307179586
  0
ENDBLK
  5
24D
330
22F
100
AcDbEntity
  8
0
  6
ByBlock
 62
     0
100
AcDbBlockEnd
  0
BLOCK
  5
24E
330
230
100
AcDbEntity
  8
0
  6
Continuous
 62
     7
100
AcDbBlockBegin
  2
SYMBOL_9_BL6
 70
     0
 10
150.8946497458
 20
94.04864969170001
 30
0.0
  3
SYMBOL_9_BL6
  1

  0
TEXT
  5
24F
330
230
100
AcDbEntity
  8
0
  6
Continuous
 62
     7
100
AcDbText
 10
150.3451745458
 20
93.3757773516
 30
0.0
 40
1.333333852099999
  1
L
  7
TEXTSTYLE_2
100
AcDbText
  0
TEXT
  5
250
330
230
100
AcDbEntity
  8
0
  6
Continuous
 62
     7
100
AcDbText
 10
146.1494769576
 20
93.38818817969999
 30
0.0
 40
1.333333852099999
  1
12
  7
TEXTSTYLE_2
100
AcDbText
  0
TEXT
  5
251
330
230
100
AcDbEntity
  8
0
  6
Continuous
 62
     7
100
AcDbText
 10
153.5953772943
 20
93.38818817969999
 30
0.0
 40
1.333333852099999
  1
13
  7
TEXTSTYLE_2
100
AcDbText
  0
ELLIPSE
  5
252
330
230
100
AcDbEntity
  8
0
  6
Continuous
 62
     7
100
AcDbEllipse
 10
150.8735698131
 20
94.04244427770001
 30
0.0
 11
-1.942887567899999
 21
0.0
 31
0.0
210
0.0
220
0.0
230
1.0
 40
0.6606458385
 41
0.0
 42
6.283185307179586
  0
ENDBLK
  5
253
330
230
100
AcDbEntity
  8
0
  6
ByBlock
 62
     0
100
AcDbBlockEnd
  0
BLOCK
  5
254
330
231
100
AcDbEntity
  8
0
  6
Continuous
 62
     7
100
AcDbBlockBegin
  2
SYMBOL_15_BL5
 70
     0
 10
18.4129286005
 20
86.29296027209999
 30
0.0
  3
SYMBOL_15_BL5
  1

  0
TEXT
  5
255
330
231
100
AcDbEntity
  8
0
  6
Continuous
 62
     7
100
AcDbText
 10
17.8499654185
 20
85.626293346
 30
0.0
 40
1.333333852099999
  1
T
  7
TEXTSTYLE_2
100
AcDbText
  0
ELLIPSE
  5
256
330
231
100
AcDbEntity
  8
0
  6
Continuous
 62
     7
100
AcDbEllipse
 10
18.4129286005
 20
86.29296027209999
 30
0.0
 11
-1.942887567899999
 21
0.0
 31
0.0
210
0.0
220
0.0
230
1.0
 40
0.6606458385
 41
0.0
 42
6.283185307179586
  0
ENDBLK
  5
257
330
231
100
AcDbEntity
  8
0
  6
ByBlock
 62
     0
100
AcDbBlockEnd
  0
BLOCK
  5
258
330
232
100
AcDbEntity
  8
0
  6
Continuous
 62
     7
100
AcDbBlockBegin
  2
SYMBOL_8_BL4
 70
     0
 10
37.3483830056
 20
78.14656650329999
 30
0.0
  3
SYMBOL_8_BL4
  1

  0
TEXT
  5
259
330
232
100
AcDbEntity
  8
0
  6
Continuous
 62
     7
100
AcDbText
 10
36.7989078056
 20
77.47369416329999
 30
0.0
 40
1.333333852099999
  1
L
  7
TEXTSTYLE_2
100
AcDbText
  0
TEXT
  5
25A
330
232
100
AcDbEntity
  8
0
  6
Continuous
 62
     7
100
AcDbText
 10
32.6032102174
 20
77.48610499129999
 30
0.0
 40
1.333333852099999
  1
13
  7
TEXTSTYLE_2
100
AcDbText
  0
TEXT
  5
25B
330
232
100
AcDbEntity
  8
0
  6
Continuous
 62
     7
100
AcDbText
 10
40.0491105541
 20
77.48610499129999
 30
0.0
 40
1.333333852099999
  1
12
  7
TEXTSTYLE_2
100
AcDbText
  0
ELLIPSE
  5
25C
330
232
100
AcDbEntity
  8
0
  6
Continuous
 62
     7
100
AcDbEllipse
 10
37.3273030729
 20
78.1403610893
 30
0.0
 11
-1.942887567899999
 21
0.0
 31
0.0
210
0.0
220
0.0
230
1.0
 40
0.6606458385
 41
0.0
 42
6.283185307179586
  0
ENDBLK
  5
25D
330
232
100
AcDbEntity
  8
0
  6
ByBlock
 62
     0
100
AcDbBlockEnd
  0
BLOCK
  5
25E
330
233
100
AcDbEntity
  8
0
  6
Continuous
 62
     7
100
AcDbBlockBegin
  2
SYMBOL_7_BL3
 70
     0
 10
61.5848740751
 20
94.2961038414
 30
0.0
  3
SYMBOL_7_BL3
  1

  0
TEXT
  5
25F
330
233
100
AcDbEntity
  8
0
  6
Continuous
 62
     7
100
AcDbText
 10
61.0353988751
 20
93.6232315013
 30
0.0
 40
1.333333852099999
  1
L
  7
TEXTSTYLE_2
100
AcDbText
  0
TEXT
  5
260
330
233
100
AcDbEntity
  8
0
  6
Continuous
 62
     7
100
AcDbText
 10
57.35081259680001
 20
93.6356423293
 30
0.0
 40
1.333333852099999
  1
8
  7
TEXTSTYLE_2
100
AcDbText
  0
TEXT
  5
261
330
233
100
AcDbEntity
  8
0
  6
Continuous
 62
     7
100
AcDbText
 10
64.7967129335
 20
93.6356423293
 30
0.0
 40
1.333333852099999
  1
7
  7
TEXTSTYLE_2
100
AcDbText
  0
ELLIPSE
  5
262
330
233
100
AcDbEntity
  8
0
  6
Continuous
 62
     7
100
AcDbEllipse
 10
61.56379414239999
 20
94.2898984273
 30
0.0
 11
-1.942887567899999
 21
0.0
 31
0.0
210
0.0
220
0.0
230
1.0
 40
0.6606458385
 41
0.0
 42
6.283185307179586
  0
ENDBLK
  5
263
330
233
100
AcDbEntity
  8
0
  6
ByBlock
 62
     0
100
AcDbBlockEnd
  0
BLOCK
  5
264
330
234
100
AcDbEntity
  8
0
  6
Continuous
 62
     7
100
AcDbBlockBegin
  2
SYMBOL_6_BL2
 70
     0
 10
20.4561293901
 20
96.87836373299999
 30
0.0
  3
SYMBOL_6_BL2
  1

  0
TEXT
  5
265
330
234
100
AcDbEntity
  8
0
  6
Continuous
 62
     7
100
AcDbText
 10
20.7001464209
 20
95.96767977610001
 30
0.0
 40
1.333333852099999
  1
C
 50
60.0
  7
TEXTSTYLE_2
100
AcDbText
  0
ELLIPSE
  5
266
330
234
100
AcDbEntity
  8
0
  6
Continuous
 62
     7
100
AcDbEllipse
 10
20.4561293901
 20
96.87836373299999
 30
0.0
 11
-0.9714437840000002
 21
-1.682589990499999
 31
0.0
210
0.0
220
0.0
230
1.0
 40
0.6606458385
 41
0.0
 42
6.283185307179586
  0
ENDBLK
  5
267
330
234
100
AcDbEntity
  8
0
  6
ByBlock
 62
     0
100
AcDbBlockEnd
  0
BLOCK
  5
268
330
235
100
AcDbEntity
  8
0
  6
Continuous
 62
     7
100
AcDbBlockBegin
  2
SYMBOL_18_BL1
 70
     0
 10
160.6666666667
 20
55.33333333329999
 30
0.0
  3
SYMBOL_18_BL1
  1

  0
TEXT
  5
269
330
235
100
AcDbEntity
  8
0
  6
Continuous
 62
     7
100
AcDbText
 10
144.4188815905
 20
63.10676672439999
 30
0.0
 40
0.5
  1
Infomations Techniques/Technical Infomations
  7
TEXTSTYLE_2
100
AcDbText
  0
TEXT
  5
26A
330
235
100
AcDbEntity
  8
0
  6
Continuous
 62
     7
100
AcDbText
 10
144.6666666667
 20
61.6666666667
 30
0.0
 40
0.6666666667
  1
NOMBRE DE JETS:     
  7
TEXTSTYLE_2
100
AcDbText
  0
TEXT
  5
26B
330
235
100
AcDbEntity
  8
0
  6
Continuous
 62
     7
100
AcDbText
 10
154.5111111111
 20
61.6666666667
 30
0.0
 40
0.6666666667
  1
36
  7
TEXTSTYLE_2
100
AcDbText
  0
TEXT
  5
26C
330
235
100
AcDbEntity
  8
0
  6
Continuous
 62
     7
100
AcDbText
 10
144.6666666667
 20
60.6666666667
 30
0.0
 40
0.6666666667
  1
 
  7
TEXTSTYLE_2
100
AcDbText
  0
TEXT
  5
26D
330
235
100
AcDbEntity
  8
0
  6
Continuous
 62
     7
100
AcDbText
 10
144.6666666667
 20
59.66666666670001
 30
0.0
 40
0.6666666667
  1
NIVEAU D'EAU              GALLONS(US)        LITRES        GALLONS(UK)
  7
TEXTSTYLE_2
100
AcDbText
  0
TEXT
  5
26E
330
235
100
AcDbEntity
  8
0
  6
Continuous
 62
     7
100
AcDbText
 10
144.6666666667
 20
58.6666666667
 30
0.0
 40
0.6666666667
  1
PLEIN
  7
TEXTSTYLE_2
100
AcDbText
  0
TEXT
  5
26F
330
235
100
AcDbEntity
  8
0
  6
Continuous
 62
     7
100
AcDbText
 10
144.6666666667
 20
57.6666666667
 30
0.0
 40
0.6666666667
  1
HAUT T.PLEIN
  7
TEXTSTYLE_2
100
AcDbText
  0
TEXT
  5
270
330
235
100
AcDbEntity
  8
0
  6
Continuous
 62
     7
100
AcDbText
 10
144.6666666667
 20
56.6666666667
 30
0.0
 40
0.6666666667
  1
MILIEU T.PLEIN
  7
TEXTSTYLE_2
100
AcDbText
  0
TEXT
  5
271
330
235
100
AcDbEntity
  8
0
  6
Continuous
 62
     7
100
AcDbText
 10
144.6666666667
 20
55.6666666667
 30
0.0
 40
0.6666666667
  1
BAS T.PLEIN
  7
TEXTSTYLE_2
100
AcDbText
  0
TEXT
  5
272
330
235
100
AcDbEntity
  8
0
  6
Continuous
 62
     7
100
AcDbText
 10
144.6666666667
 20
54.66666666670001
 30
0.0
 40
0.6666666667
  1
3" EN BAS T.PLEIN
  7
TEXTSTYLE_2
100
AcDbText
  0
TEXT
  5
273
330
235
100
AcDbEntity
  8
0
  6
Continuous
 62
     7
100
AcDbText
 10
144.6666666667
 20
53.6666666667
 30
0.0
 40
0.6666666667
  1
 
  7
TEXTSTYLE_2
100
AcDbText
  0
TEXT
  5
274
330
235
100
AcDbEntity
  8
0
  6
Continuous
 62
     7
100
AcDbText
 10
144.4665051611
 20
53.1198797418
 30
0.0
 40
0.5
  1
Legende/Legend
  7
TEXTSTYLE_2
100
AcDbText
  0
TEXT
  5
275
330
235
100
AcDbEntity
  8
0
  6
Continuous
 62
     7
100
AcDbText
 10
150.9953401051
 20
51.6086147641
 30
0.0
 40
0.6666666667
  1
ZONE DE ROBINETTERIE
  7
TEXTSTYLE_2
100
AcDbText
  0
TEXT
  5
276
330
235
100
AcDbEntity
  8
0
  6
Continuous
 62
     7
100
AcDbText
 10
145.9156155382
 20
50.1133702497
 30
0.0
 40
0.6666666667
  1
L   :  SYSTEME LED       DC   :  DOUBLE DOSSIER CHAUFFANT
  7
TEXTSTYLE_2
100
AcDbText
  0
TEXT
  5
277
330
235
100
AcDbEntity
  8
0
  6
Continuous
 62
     7
100
AcDbText
 10
145.9156155382
 20
48.7800369164
 30
0.0
 40
0.6666666667
  1
C   :  CONTROLE
  7
TEXTSTYLE_2
100
AcDbText
  0
TEXT
  5
278
330
235
100
AcDbEntity
  8
0
  6
Continuous
 62
     7
100
AcDbText
 10
145.9156155382
 20
47.4467035831
 30
0.0
 40
0.6666666667
  1
T   :  MOTEUR
  7
TEXTSTYLE_2
100
AcDbText
  0
TEXT
  5
279
330
235
100
AcDbEntity
  8
0
  6
Continuous
 62
     7
100
AcDbText
 10
157.499363366
 20
58.6666666667
 30
0.0
 40
0.6666666667
  1
69
  7
TEXTSTYLE_2
100
AcDbText
  0
TEXT
  5
27A
330
235
100
AcDbEntity
  8
0
  6
Continuous
 62
     7
100
AcDbText
 10
157.499363366
 20
57.6666666667
 30
0.0
 40
0.6666666667
  1
59
  7
TEXTSTYLE_2
100
AcDbText
  0
TEXT
  5
27B
330
235
100
AcDbEntity
  8
0
  6
Continuous
 62
     7
100
AcDbText
 10
157.499363366
 20
56.6666666667
 30
0.0
 40
0.6666666667
  1
54
  7
TEXTSTYLE_2
100
AcDbText
  0
TEXT
  5
27C
330
235
100
AcDbEntity
  8
0
  6
Continuous
 62
     7
100
AcDbText
 10
157.499363366
 20
55.6666666667
 30
0.0
 40
0.6666666667
  1
48
  7
TEXTSTYLE_2
100
AcDbText
  0
TEXT
  5
27D
330
235
100
AcDbEntity
  8
0
  6
Continuous
 62
     7
100
AcDbText
 10
157.499363366
 20
54.66666666670001
 30
0.0
 40
0.6666666667
  1
35
  7
TEXTSTYLE_2
100
AcDbText
  0
TEXT
  5
27E
330
235
100
AcDbEntity
  8
0
  6
Continuous
 62
     7
100
AcDbText
 10
164.4195693097
 20
58.68374606879999
 30
0.0
 40
0.6666666667
  1
262
  7
TEXTSTYLE_2
100
AcDbText
  0
TEXT
  5
27F
330
235
100
AcDbEntity
  8
0
  6
Continuous
 62
     7
100
AcDbText
 10
164.4195693097
 20
57.6837460688
 30
0.0
 40
0.6666666667
  1
223
  7
TEXTSTYLE_2
100
AcDbText
  0
TEXT
  5
280
330
235
100
AcDbEntity
  8
0
  6
Continuous
 62
     7
100
AcDbText
 10
164.4195693097
 20
56.6837460688
 30
0.0
 40
0.6666666667
  1
203
  7
TEXTSTYLE_2
100
AcDbText
  0
TEXT
  5
281
330
235
100
AcDbEntity
  8
0
  6
Continuous
 62
     7
100
AcDbText
 10
164.4195693097
 20
55.68374606879999
 30
0.0
 40
0.6666666667
  1
183
  7
TEXTSTYLE_2
100
AcDbText
  0
TEXT
  5
282
330
235
100
AcDbEntity
  8
0
  6
Continuous
 62
     7
100
AcDbText
 10
164.4195693097
 20
54.6837460688
 30
0.0
 40
0.6666666667
  1
134
  7
TEXTSTYLE_2
100
AcDbText
  0
TEXT
  5
283
330
235
100
AcDbEntity
  8
0
  6
Continuous
 62
     7
100
AcDbText
 10
171.3642082472
 20
58.6666666667
 30
0.0
 40
0.6666666667
  1
58
  7
TEXTSTYLE_2
100
AcDbText
  0
TEXT
  5
284
330
235
100
AcDbEntity
  8
0
  6
Continuous
 62
     7
100
AcDbText
 10
171.3642082472
 20
57.6666666667
 30
0.0
 40
0.6666666667
  1
49
  7
TEXTSTYLE_2
100
AcDbText
  0
TEXT
  5
285
330
235
100
AcDbEntity
  8
0
  6
Continuous
 62
     7
100
AcDbText
 10
171.3642082472
 20
56.6666666667
 30
0.0
 40
0.6666666667
  1
45
  7
TEXTSTYLE_2
100
AcDbText
  0
TEXT
  5
286
330
235
100
AcDbEntity
  8
0
  6
Continuous
 62
     7
100
AcDbText
 10
171.3642082472
 20
55.6666666667
 30
0.0
 40
0.6666666667
  1
40
  7
TEXTSTYLE_2
100
AcDbText
  0
TEXT
  5
287
330
235
100
AcDbEntity
  8
0
  6
Continuous
 62
     7
100
AcDbText
 10
171.3642082472
 20
54.66666666670001
 30
0.0
 40
0.6666666667
  1
29
  7
TEXTSTYLE_2
100
AcDbText
  0
LINE
  5
288
330
235
100
AcDbEntity
  8
0
  6
Continuous
 62
     7
100
AcDbLine
 10
144.0
 20
64.0
 30
0.0
 11
144.0
 21
46.6666666667
 31
0.0
  0
LINE
  5
289
330
235
100
AcDbEntity
  8
0
  6
Continuous
 62
     7
100
AcDbLine
 10
144.0
 20
64.0
 30
0.0
 11
177.3333333333
 21
64.0
 31
0.0
  0
LINE
  5
28A
330
235
100
AcDbEntity
  8
0
  6
Continuous
 62
     7
100
AcDbLine
 10
177.3333333333
 20
64.0
 30
0.0
 11
177.3333333333
 21
46.6666666667
 31
0.0
  0
LINE
  5
28B
330
235
100
AcDbEntity
  8
0
  6
Continuous
 62
     7
100
AcDbLine
 10
144.0
 20
46.6666666667
 30
0.0
 11
177.3333333333
 21
46.6666666667
 31
0.0
  0
LINE
  5
28C
330
235
100
AcDbEntity
  8
0
  6
Continuous
 62
     7
100
AcDbLine
 10
145.3333333333
 20
54.0
 30
0.0
 11
176.0
 21
54.0
 31
0.0
  0
LINE
  5
28D
330
235
100
AcDbEntity
  8
0
  6
Continuous
 62
     7
100
AcDbLine
 10
145.3333333333
 20
61.0
 30
0.0
 11
176.0
 21
61.0
 31
0.0
  0
LINE
  5
28E
330
235
100
AcDbEntity
  8
0
  6
Continuous
 62
     7
100
AcDbLine
 10
144.8089065593
 20
52.3781645044
 30
0.0
 11
144.4398858169
 21
52.009143762
 31
0.0
  0
LINE
  5
28F
330
235
100
AcDbEntity
  8
0
  6
Continuous
 62
     7
100
AcDbLine
 10
145.4755732259
 20
52.3781645044
 30
0.0
 11
144.6775574355
 21
51.5801487139
 31
0.0
  0
LINE
  5
290
330
235
100
AcDbEntity
  8
0
  6
Continuous
 62
     7
100
AcDbLine
 10
146.1422398926
 20
52.3781645044
 30
0.0
 11
145.3442241022
 21
51.5801487139
 31
0.0
  0
LINE
  5
291
330
235
100
AcDbEntity
  8
0
  6
Continuous
 62
     7
100
AcDbLine
 10
146.8089065593
 20
52.3781645044
 30
0.0
 11
146.0108907688
 21
51.5801487139
 31
0.0
  0
LINE
  5
292
330
235
100
AcDbEntity
  8
0
  6
Continuous
 62
     7
100
AcDbLine
 10
147.4755732259
 20
52.3781645044
 30
0.0
 11
146.6775574355
 21
51.5801487139
 31
0.0
  0
LINE
  5
293
330
235
100
AcDbEntity
  8
0
  6
Continuous
 62
     7
100
AcDbLine
 10
148.1422398926
 20
52.3781645044
 30
0.0
 11
147.3442241022
 21
51.5801487139
 31
0.0
  0
LINE
  5
294
330
235
100
AcDbEntity
  8
0
  6
Continuous
 62
     7
100
AcDbLine
 10
148.8089065593
 20
52.3781645044
 30
0.0
 11
148.0108907688
 21
51.5801487139
 31
0.0
  0
LINE
  5
295
330
235
100
AcDbEntity
  8
0
  6
Continuous
 62
     7
100
AcDbLine
 10
149.4755732259
 20
52.3781645044
 30
0.0
 11
148.6775574355
 21
51.5801487139
 31
0.0
  0
LINE
  5
296
330
235
100
AcDbEntity
  8
0
  6
Continuous
 62
     7
100
AcDbLine
 10
150.1422398926
 20
52.3781645044
 30
0.0
 11
149.3442241022
 21
51.5801487139
 31
0.0
  0
LINE
  5
297
330
235
100
AcDbEntity
  8
0
  6
Continuous
 62
     7
100
AcDbLine
 10
150.5857273268
 20
52.1549852718
 30
0.0
 11
150.0108907688
 21
51.5801487139
 31
0.0
  0
ELLIPSE
  5
298
330
235
100
AcDbEntity
  8
0
  6
Continuous
 62
     7
100
AcDbEllipse
 10
146.1454024822
 20
50.43094770689999
 30
0.0
 11
1.0473539356
 21
0.0
 31
0.0
210
0.0
220
0.0
230
1.0
 40
0.4938647983
 41
0.0
 42
6.283185307179586
  0
ELLIPSE
  5
299
330
235
100
AcDbEntity
  8
0
  6
Continuous
 62
     7
100
AcDbEllipse
 10
146.1454024822
 20
49.0976143736
 30
0.0
 11
1.0473539356
 21
0.0
 31
0.0
210
0.0
220
0.0
230
1.0
 40
0.4938647983
 41
0.0
 42
6.283185307179586
  0
ELLIPSE
  5
29A
330
235
100
AcDbEntity
  8
0
  6
Continuous
 62
     7
100
AcDbEllipse
 10
146.1454024822
 20
47.76428104029999
 30
0.0
 11
1.0473539356
 21
0.0
 31
0.0
210
0.0
220
0.0
230
1.0
 40
0.4938647983
 41
0.0
 42
6.283185307179586
  0
ELLIPSE
  5
29B
330
235
100
AcDbEntity
  8
0
  6
Continuous
 62
     7
100
AcDbEllipse
 10
157.1640380633
 20
50.45046906399999
 30
0.0
 11
1.0473539356
 21
0.0
 31
0.0
210
0.0
220
0.0
230
1.0
 40
0.4938647983
 41
0.0
 42
6.283185307179586
  0
ENDBLK
  5
29C
330
235
100
AcDbEntity
  8
0
  6
ByBlock
 62
     0
100
AcDbBlockEnd
  0
BLOCK
  5
29D
330
236
100
AcDbEntity
  8
0
  6
Continuous
 62
     7
100
AcDbBlockBegin
  2
SYMBOL_3_BL0
 70
     0
 10
114.4882002152
 20
52.29659140239999
 30
0.0
  3
SYMBOL_3_BL0
  1

  0
TEXT
  5
29E
330
236
100
AcDbEntity
  8
0
  6
Continuous
 62
     7
100
AcDbText
 10
108.1741399134
 20
54.5416253882
 30
0.0
 40
1.1626666667
  1
INTERNAL USE 
 50
10.0
  7
TEXTSTYLE_3
100
AcDbText
  0
TEXT
  5
29F
330
236
100
AcDbEntity
  8
0
  6
Continuous
 62
     7
100
AcDbText
 10
107.4304557094
 20
52.54010421050001
 30
0.0
 40
1.1626666667
  1
DOCUMENT ONLY
 50
10.0
  7
TEXTSTYLE_3
100
AcDbText
  0
TEXT
  5
2A0
330
236
100
AcDbEntity
  8
0
  6
Continuous
 62
     7
100
AcDbText
 10
113.2151832727
 20
52.29167616
 30
0.0
 40
1.1626666667
  1
 
 50
10.0
  7
TEXTSTYLE_5
100
AcDbText
  0
TEXT
  5
2A1
330
236
100
AcDbEntity
  8
0
  6
Continuous
 62
     7
100
AcDbText
 10
104.7705353897
 20
48.1145817537
 30
0.0
 40
1.1626666667
  1
DOCUMENT POUR USAGE
 50
10.0
  7
TEXTSTYLE_3
100
AcDbText
  0
TEXT
  5
2A2
330
236
100
AcDbEntity
  8
0
  6
Continuous
 62
     7
100
AcDbText
 10
105.1996348357
 20
46.09783329329999
 30
0.0
 40
1.1626666667
  1
A L'INTERNE SEULEMENT
 50
10.0
  7
TEXTSTYLE_3
100
AcDbText
  0
LINE
  5
2A3
330
236
100
AcDbEntity
  8
0
  6
Continuous
 62
     7
100
AcDbLine
 10
128.3447519385
 20
47.95305778439999
 30
0.0
 11
128.3515108712
 21
47.95981671709999
 31
0.0
  0
LINE
  5
2A4
330
236
100
AcDbEntity
  8
0
  6
Continuous
 62
     7
100
AcDbLine
 10
127.6121823721
 20
47.8238860046
 30
0.0
 11
128.2610638172
 21
48.4727674497
 31
0.0
  0
LINE
  5
2A5
330
236
100
AcDbEntity
  8
0
  6
Continuous
 62
     7
100
AcDbLine
 10
126.8796128057
 20
47.69471422479999
 30
0.0
 11
128.1706167633
 21
48.9857181824
 31
0.0
  0
LINE
  5
2A6
330
236
100
AcDbEntity
  8
0
  6
Continuous
 62
     7
100
AcDbLine
 10
126.1470432393
 20
47.565542445
 30
0.0
 11
128.0801697093
 21
49.49866891510001
 31
0.0
  0
LINE
  5
2A7
330
236
100
AcDbEntity
  8
0
  6
Continuous
 62
     7
100
AcDbLine
 10
125.4144736729
 20
47.4363706652
 30
0.0
 11
127.9897226554
 21
50.0116196477
 31
0.0
  0
LINE
  5
2A8
330
236
100
AcDbEntity
  8
0
  6
Continuous
 62
     7
100
AcDbLine
 10
124.6819041064
 20
47.3071988854
 30
0.0
 11
126.2229079212
 21
48.8482027002
 31
0.0
  0
LINE
  5
2A9
330
236
100
AcDbEntity
  8
0
  6
Continuous
 62
     7
100
AcDbLine
 10
126.8202531139
 20
49.4455478929
 30
0.0
 11
127.8992756015
 21
50.5245703804
 31
0.0
  0
LINE
  5
2AA
330
236
100
AcDbEntity
  8
0
  6
Continuous
 62
     7
100
AcDbLine
 10
123.94933454
 20
47.1780271056
 30
0.0
 11
125.4903383548
 21
48.7190309204
 31
0.0
  0
LINE
  5
2AB
330
236
100
AcDbEntity
  8
0
  6
Continuous
 62
     7
100
AcDbLine
 10
126.72980606
 20
49.9584986256
 30
0.0
 11
127.8088285475
 21
51.03752111310001
 31
0.0
  0
LINE
  5
2AC
330
236
100
AcDbEntity
  8
0
  6
Continuous
 62
     7
100
AcDbLine
 10
123.2167649736
 20
47.04885532579999
 30
0.0
 11
124.7577687884
 21
48.5898591406
 31
0.0
  0
LINE
  5
2AD
330
236
100
AcDbEntity
  8
0
  6
Continuous
 62
     7
100
AcDbLine
 10
126.639359006
 20
50.4714493582
 30
0.0
 11
127.7183814936
 21
51.55047184569999
 31
0.0
  0
LINE
  5
2AE
330
236
100
AcDbEntity
  8
0
  6
Continuous
 62
     7
100
AcDbLine
 10
122.4841954072
 20
46.919683546
 30
0.0
 11
124.025199222
 21
48.4606873608
 31
0.0
  0
LINE
  5
2AF
330
236
100
AcDbEntity
  8
0
  6
Continuous
 62
     7
100
AcDbLine
 10
126.5489119521
 20
50.9844000909
 30
0.0
 11
127.6279344396
 21
52.0634225784
 31
0.0
  0
LINE
  5
2B0
330
236
100
AcDbEntity
  8
0
  6
Continuous
 62
     7
100
AcDbLine
 10
121.7516258408
 20
46.79051176619999
 30
0.0
 11
123.2926296555
 21
48.3315155809
 31
0.0
  0
LINE
  5
2B1
330
236
100
AcDbEntity
  8
0
  6
Continuous
 62
     7
100
AcDbLine
 10
126.4584648982
 20
51.49735082359999
 30
0.0
 11
127.5374873857
 21
52.5763733111
 31
0.0
  0
LINE
  5
2B2
330
236
100
AcDbEntity
  8
0
  6
Continuous
 62
     7
100
AcDbLine
 10
121.0190562743
 20
46.6613399864
 30
0.0
 11
122.5600600891
 21
48.2023438011
 31
0.0
  0
LINE
  5
2B3
330
236
100
AcDbEntity
  8
0
  6
Continuous
 62
     7
100
AcDbLine
 10
126.3680178442
 20
52.01030155619999
 30
0.0
 11
127.4470403317
 21
53.0893240438
 31
0.0
  0
LINE
  5
2B4
330
236
100
AcDbEntity
  8
0
  6
Continuous
 62
     7
100
AcDbLine
 10
120.2864867079
 20
46.53216820659999
 30
0.0
 11
121.8274905227
 21
48.07317202130001
 31
0.0
  0
LINE
  5
2B5
330
236
100
AcDbEntity
  8
0
  6
Continuous
 62
     7
100
AcDbLine
 10
126.2775707903
 20
52.52325228890001
 30
0.0
 11
127.3565932778
 21
53.6022747764
 31
0.0
  0
LINE
  5
2B6
330
236
100
AcDbEntity
  8
0
  6
Continuous
 62
     7
100
AcDbLine
 10
119.5539171415
 20
46.4029964268
 30
0.0
 11
121.0949209563
 21
47.94400024149999
 31
0.0
  0
LINE
  5
2B7
330
236
100
AcDbEntity
  8
0
  6
Continuous
 62
     7
100
AcDbLine
 10
126.1871237363
 20
53.03620302159999
 30
0.0
 11
127.2661462238
 21
54.1152255091
 31
0.0
  0
LINE
  5
2B8
330
236
100
AcDbEntity
  8
0
  6
Continuous
 62
     7
100
AcDbLine
 10
118.8213475751
 20
46.2738246469
 30
0.0
 11
120.3623513899
 21
47.8148284617
 31
0.0
  0
LINE
  5
2B9
330
236
100
AcDbEntity
  8
0
  6
Continuous
 62
     7
100
AcDbLine
 10
126.0966766824
 20
53.5491537542
 30
0.0
 11
127.1756991699
 21
54.62817624180001
 31
0.0
  0
LINE
  5
2BA
330
236
100
AcDbEntity
  8
0
  6
Continuous
 62
     7
100
AcDbLine
 10
118.0887780087
 20
46.14465286709999
 30
0.0
 11
119.6297818234
 21
47.68565668189999
 31
0.0
  0
LINE
  5
2BB
330
236
100
AcDbEntity
  8
0
  6
Continuous
 62
     7
100
AcDbLine
 10
125.7937970826
 20
53.849671941
 30
0.0
 11
127.085252116
 21
55.14112697439999
 31
0.0
  0
LINE
  5
2BC
330
236
100
AcDbEntity
  8
0
  6
Continuous
 62
     7
100
AcDbLine
 10
117.3562084423
 20
46.01548108729999
 30
0.0
 11
118.897212257
 21
47.5564849021
 31
0.0
  0
LINE
  5
2BD
330
236
100
AcDbEntity
  8
0
  6
Continuous
 62
     7
100
AcDbLine
 10
125.0612275161
 20
53.7205001612
 30
0.0
 11
126.994805062
 21
55.6540777071
 31
0.0
  0
LINE
  5
2BE
330
236
100
AcDbEntity
  8
0
  6
Continuous
 62
     7
100
AcDbLine
 10
116.6236388758
 20
45.88630930749999
 30
0.0
 11
118.1646426906
 21
47.42731312229999
 31
0.0
  0
LINE
  5
2BF
330
236
100
AcDbEntity
  8
0
  6
Continuous
 62
     7
100
AcDbLine
 10
124.3286579497
 20
53.5913283814
 30
0.0
 11
125.356000248
 21
54.6186706797
 31
0.0
  0
LINE
  5
2C0
330
236
100
AcDbEntity
  8
0
  6
Continuous
 62
     7
100
AcDbLine
 10
125.8253355206
 20
55.08800595229999
 30
0.0
 11
126.9043580081
 21
56.16702843979999
 31
0.0
  0
LINE
  5
2C1
330
236
100
AcDbEntity
  8
0
  6
Continuous
 62
     7
100
AcDbLine
 10
115.8910693094
 20
45.7571375277
 30
0.0
 11
117.4320731242
 21
47.2981413425
 31
0.0
  0
LINE
  5
2C2
330
236
100
AcDbEntity
  8
0
  6
Continuous
 62
     7
100
AcDbLine
 10
123.5960883833
 20
53.4621566016
 30
0.0
 11
124.623430472
 21
54.48949869029999
 31
0.0
  0
LINE
  5
2C3
330
236
100
AcDbEntity
  8
0
  6
Continuous
 62
     7
100
AcDbLine
 10
125.7348884666
 20
55.60095668489999
 30
0.0
 11
126.8139109541
 21
56.6799791724
 31
0.0
  0
LINE
  5
2C4
330
236
100
AcDbEntity
  8
0
  6
Continuous
 62
     7
100
AcDbLine
 10
115.158499743
 20
45.6279657479
 30
0.0
 11
116.6995035578
 21
47.16896956270001
 31
0.0
  0
LINE
  5
2C5
330
236
100
AcDbEntity
  8
0
  6
Continuous
 62
     7
100
AcDbLine
 10
122.8635188169
 20
53.3329848218
 30
0.0
 11
123.8908606959
 21
54.3603267008
 31
0.0
  0
LINE
  5
2C6
330
236
100
AcDbEntity
  8
0
  6
Continuous
 62
     7
100
AcDbLine
 10
125.6444414127
 20
56.11390741760001
 30
0.0
 11
126.7234639002
 21
57.1929299051
 31
0.0
  0
LINE
  5
2C7
330
236
100
AcDbEntity
  8
0
  6
Continuous
 62
     7
100
AcDbLine
 10
114.4259301766
 20
45.4987939681
 30
0.0
 11
115.9669339914
 21
47.0397977829
 31
0.0
  0
LINE
  5
2C8
330
236
100
AcDbEntity
  8
0
  6
Continuous
 62
     7
100
AcDbLine
 10
122.1309492505
 20
53.203813042
 30
0.0
 11
123.1582909199
 21
54.2311547114
 31
0.0
  0
LINE
  5
2C9
330
236
100
AcDbEntity
  8
0
  6
Continuous
 62
     7
100
AcDbLine
 10
125.5539943587
 20
56.62685815029999
 30
0.0
 11
126.6330168462
 21
57.70588063779999
 31
0.0
  0
LINE
  5
2CA
330
236
100
AcDbEntity
  8
0
  6
Continuous
 62
     7
100
AcDbLine
 10
113.6933606102
 20
45.3696221883
 30
0.0
 11
115.2343644249
 21
46.9106260031
 31
0.0
  0
LINE
  5
2CB
330
236
100
AcDbEntity
  8
0
  6
Continuous
 62
     7
100
AcDbLine
 10
121.398379684
 20
53.07464126220001
 30
0.0
 11
122.4257211439
 21
54.10198272199999
 31
0.0
  0
LINE
  5
2CC
330
236
100
AcDbEntity
  8
0
  6
Continuous
 62
     7
100
AcDbLine
 10
125.4635473048
 20
57.1398088829
 30
0.0
 11
126.5425697923
 21
58.2188313704
 31
0.0
  0
LINE
  5
2CD
330
236
100
AcDbEntity
  8
0
  6
Continuous
 62
     7
100
AcDbLine
 10
112.9607910437
 20
45.2404504085
 30
0.0
 11
114.5017948585
 21
46.7814542233
 31
0.0
  0
LINE
  5
2CE
330
236
100
AcDbEntity
  8
0
  6
Continuous
 62
     7
100
AcDbLine
 10
120.6658101176
 20
52.9454694824
 30
0.0
 11
121.6931513678
 21
53.9728107326
 31
0.0
  0
LINE
  5
2CF
330
236
100
AcDbEntity
  8
0
  6
Continuous
 62
     7
100
AcDbLine
 10
125.3731002508
 20
57.6527596156
 30
0.0
 11
126.4521227384
 21
58.7317821031
 31
0.0
  0
LINE
  5
2D0
330
236
100
AcDbEntity
  8
0
  6
Continuous
 62
     7
100
AcDbLine
 10
112.2282214773
 20
45.1112786287
 30
0.0
 11
113.7692252921
 21
46.6522824435
 31
0.0
  0
LINE
  5
2D1
330
236
100
AcDbEntity
  8
0
  6
Continuous
 62
     7
100
AcDbLine
 10
119.9332405512
 20
52.8162977026
 30
0.0
 11
120.9605815918
 21
53.84363874319999
 31
0.0
  0
LINE
  5
2D2
330
236
100
AcDbEntity
  8
0
  6
Continuous
 62
     7
100
AcDbLine
 10
125.2826531969
 20
58.16571034829999
 30
0.0
 11
126.3616756844
 21
59.2447328358
 31
0.0
  0
LINE
  5
2D3
330
236
100
AcDbEntity
  8
0
  6
Continuous
 62
     7
100
AcDbLine
 10
111.4956519109
 20
44.9821068489
 30
0.0
 11
113.0366557257
 21
46.52311066369999
 31
0.0
  0
LINE
  5
2D4
330
236
100
AcDbEntity
  8
0
  6
Continuous
 62
     7
100
AcDbLine
 10
119.2006709848
 20
52.68712592279999
 30
0.0
 11
120.2280118158
 21
53.7144667538
 31
0.0
  0
LINE
  5
2D5
330
236
100
AcDbEntity
  8
0
  6
Continuous
 62
     7
100
AcDbLine
 10
125.1922061429
 20
58.6786610809
 30
0.0
 11
126.2712286305
 21
59.7576835684
 31
0.0
  0
LINE
  5
2D6
330
236
100
AcDbEntity
  8
0
  6
Continuous
 62
     7
100
AcDbLine
 10
110.7630823445
 20
44.85293506909999
 30
0.0
 11
112.3040861593
 21
46.3939388839
 31
0.0
  0
LINE
  5
2D7
330
236
100
AcDbEntity
  8
0
  6
Continuous
 62
     7
100
AcDbLine
 10
118.4681014184
 20
52.557954143
 30
0.0
 11
119.4954420398
 21
53.5852947644
 31
0.0
  0
LINE
  5
2D8
330
236
100
AcDbEntity
  8
0
  6
Continuous
 62
     7
100
AcDbLine
 10
125.101759089
 20
59.19161181359999
 30
0.0
 11
126.1807815765
 21
60.2706343011
 31
0.0
  0
LINE
  5
2D9
330
236
100
AcDbEntity
  8
0
  6
Continuous
 62
     7
100
AcDbLine
 10
110.0305127781
 20
44.7237632893
 30
0.0
 11
111.5715165929
 21
46.26476710409999
 31
0.0
  0
LINE
  5
2DA
330
236
100
AcDbEntity
  8
0
  6
Continuous
 62
     7
100
AcDbLine
 10
117.735531852
 20
52.4287823632
 30
0.0
 11
118.7628722637
 21
53.45612277489999
 31
0.0
  0
LINE
  5
2DB
330
236
100
AcDbEntity
  8
0
  6
Continuous
 62
     7
100
AcDbLine
 10
124.9268829876
 20
59.6201334988
 30
0.0
 11
126.0903345226
 21
60.7835850338
 31
0.0
  0
LINE
  5
2DC
330
236
100
AcDbEntity
  8
0
  6
Continuous
 62
     7
100
AcDbLine
 10
109.2979432117
 20
44.59459150949999
 30
0.0
 11
110.8389470264
 21
46.1355953243
 31
0.0
  0
LINE
  5
2DD
330
236
100
AcDbEntity
  8
0
  6
Continuous
 62
     7
100
AcDbLine
 10
117.0029622855
 20
52.2996105834
 30
0.0
 11
118.0303024877
 21
53.3269507855
 31
0.0
  0
LINE
  5
2DE
330
236
100
AcDbEntity
  8
0
  6
Continuous
 62
     7
100
AcDbLine
 10
124.1943134212
 20
59.49096171899999
 30
0.0
 11
125.7353172359
 21
61.0319655338
 31
0.0
  0
LINE
  5
2DF
330
236
100
AcDbEntity
  8
0
  6
Continuous
 62
     7
100
AcDbLine
 10
108.5653736452
 20
44.4654197297
 30
0.0
 11
110.10637746
 21
46.00642354449999
 31
0.0
  0
LINE
  5
2E0
330
236
100
AcDbEntity
  8
0
  6
Continuous
 62
     7
100
AcDbLine
 10
116.2703927191
 20
52.1704388036
 30
0.0
 11
117.2977327117
 21
53.1977787961
 31
0.0
  0
LINE
  5
2E1
330
236
100
AcDbEntity
  8
0
  6
Continuous
 62
     7
100
AcDbLine
 10
123.4617438548
 20
59.3617899392
 30
0.0
 11
125.0027476695
 21
60.90279375399999
 31
0.0
  0
LINE
  5
2E2
330
236
100
AcDbEntity
  8
0
  6
Continuous
 62
     7
100
AcDbLine
 10
107.8328040788
 20
44.3362479499
 30
0.0
 11
109.3738078936
 21
45.8772517646
 31
0.0
  0
LINE
  5
2E3
330
236
100
AcDbEntity
  8
0
  6
Continuous
 62
     7
100
AcDbLine
 10
115.5378231527
 20
52.0412670238
 30
0.0
 11
116.5651629356
 21
53.0686068067
 31
0.0
  0
LINE
  5
2E4
330
236
100
AcDbEntity
  8
0
  6
Continuous
 62
     7
100
AcDbLine
 10
122.7291742883
 20
59.2326181594
 30
0.0
 11
124.2701781031
 21
60.7736219742
 31
0.0
  0
LINE
  5
2E5
330
236
100
AcDbEntity
  8
0
  6
Continuous
 62
     7
100
AcDbLine
 10
107.1002345124
 20
44.2070761701
 30
0.0
 11
108.6412383272
 21
45.74807998479999
 31
0.0
  0
LINE
  5
2E6
330
236
100
AcDbEntity
  8
0
  6
Continuous
 62
     7
100
AcDbLine
 10
114.8052535863
 20
51.9120952439
 30
0.0
 11
115.8325931596
 21
52.9394348173
 31
0.0
  0
LINE
  5
2E7
330
236
100
AcDbEntity
  8
0
  6
Continuous
 62
     7
100
AcDbLine
 10
121.9966047219
 20
59.1034463796
 30
0.0
 11
123.5376085367
 21
60.64445019439999
 31
0.0
  0
LINE
  5
2E8
330
236
100
AcDbEntity
  8
0
  6
Continuous
 62
     7
100
AcDbLine
 10
106.367664946
 20
44.0779043903
 30
0.0
 11
107.9086687608
 21
45.61890820499999
 31
0.0
  0
LINE
  5
2E9
330
236
100
AcDbEntity
  8
0
  6
Continuous
 62
     7
100
AcDbLine
 10
114.0726840199
 20
51.7829234641
 30
0.0
 11
115.1000233836
 21
52.8102628279
 31
0.0
  0
LINE
  5
2EA
330
236
100
AcDbEntity
  8
0
  6
Continuous
 62
     7
100
AcDbLine
 10
121.2640351555
 20
58.9742745998
 30
0.0
 11
122.8050389703
 21
60.51527841449999
 31
0.0
  0
LINE
  5
2EB
330
236
100
AcDbEntity
  8
0
  6
Continuous
 62
     7
100
AcDbLine
 10
105.6350953796
 20
43.9487326105
 30
0.0
 11
107.1760991943
 21
45.4897364252
 31
0.0
  0
LINE
  5
2EC
330
236
100
AcDbEntity
  8
0
  6
Continuous
 62
     7
100
AcDbLine
 10
113.3401144535
 20
51.6537516843
 30
0.0
 11
114.3674536076
 21
52.6810908384
 31
0.0
  0
LINE
  5
2ED
330
236
100
AcDbEntity
  8
0
  6
Continuous
 62
     7
100
AcDbLine
 10
120.5314655891
 20
58.84510282
 30
0.0
 11
122.0724694039
 21
60.3861066347
 31
0.0
  0
LINE
  5
2EE
330
236
100
AcDbEntity
  8
0
  6
Continuous
 62
     7
100
AcDbLine
 10
104.9025258131
 20
43.8195608306
 30
0.0
 11
106.4435296279
 21
45.36056464539999
 31
0.0
  0
LINE
  5
2EF
330
236
100
AcDbEntity
  8
0
  6
Continuous
 62
     7
100
AcDbLine
 10
112.607544887
 20
51.5245799045
 30
0.0
 11
113.6348838315
 21
52.551918849
 31
0.0
  0
LINE
  5
2F0
330
236
100
AcDbEntity
  8
0
  6
Continuous
 62
     7
100
AcDbLine
 10
119.7988960227
 20
58.7159310402
 30
0.0
 11
121.3398998374
 21
60.25693485489999
 31
0.0
  0
LINE
  5
2F1
330
236
100
AcDbEntity
  8
0
  6
Continuous
 62
     7
100
AcDbLine
 10
104.1699562467
 20
43.6903890508
 30
0.0
 11
105.7109600615
 21
45.23139286560001
 31
0.0
  0
LINE
  5
2F2
330
236
100
AcDbEntity
  8
0
  6
Continuous
 62
     7
100
AcDbLine
 10
111.8749753206
 20
51.3954081247
 30
0.0
 11
112.9023140555
 21
52.4227468596
 31
0.0
  0
LINE
  5
2F3
330
236
100
AcDbEntity
  8
0
  6
Continuous
 62
     7
100
AcDbLine
 10
119.0663264562
 20
58.5867592604
 30
0.0
 11
120.607330271
 21
60.1277630751
 31
0.0
  0
LINE
  5
2F4
330
236
100
AcDbEntity
  8
0
  6
Continuous
 62
     7
100
AcDbLine
 10
103.4373866803
 20
43.561217271
 30
0.0
 11
104.9783904951
 21
45.10222108579999
 31
0.0
  0
LINE
  5
2F5
330
236
100
AcDbEntity
  8
0
  6
Continuous
 62
     7
100
AcDbLine
 10
111.1424057542
 20
51.2662363449
 30
0.0
 11
112.1697442795
 21
52.2935748702
 31
0.0
  0
LINE
  5
2F6
330
236
100
AcDbEntity
  8
0
  6
Continuous
 62
     7
100
AcDbLine
 10
118.3337568898
 20
58.4575874805
 30
0.0
 11
119.8747607046
 21
59.99859129529999
 31
0.0
  0
LINE
  5
2F7
330
236
100
AcDbEntity
  8
0
  6
Continuous
 62
     7
100
AcDbLine
 10
102.8860659078
 20
43.6132942851
 30
0.0
 11
104.2458209287
 21
44.97304930600001
 31
0.0
  0
LINE
  5
2F8
330
236
100
AcDbEntity
  8
0
  6
Continuous
 62
     7
100
AcDbLine
 10
110.4098361878
 20
51.1370645651
 30
0.0
 11
111.4371745034
 21
52.1644028808
 31
0.0
  0
LINE
  5
2F9
330
236
100
AcDbEntity
  8
0
  6
Continuous
 62
     7
100
AcDbLine
 10
117.6011873234
 20
58.3284157007
 30
0.0
 11
119.1421911382
 21
59.8694195155
 31
0.0
  0
LINE
  5
2FA
330
236
100
AcDbEntity
  8
0
  6
Continuous
 62
     7
100
AcDbLine
 10
102.7956188538
 20
44.12624501779999
 30
0.0
 11
103.8746413414
 21
45.2052675053
 31
0.0
  0
LINE
  5
2FB
330
236
100
AcDbEntity
  8
0
  6
Continuous
 62
     7
100
AcDbLine
 10
109.6772666214
 20
51.00789278529999
 30
0.0
 11
110.7046047274
 21
52.0352308914
 31
0.0
  0
LINE
  5
2FC
330
236
100
AcDbEntity
  8
0
  6
Continuous
 62
     7
100
AcDbLine
 10
116.868617757
 20
58.1992439209
 30
0.0
 11
118.4096215718
 21
59.7402477357
 31
0.0
  0
LINE
  5
2FD
330
236
100
AcDbEntity
  8
0
  6
Continuous
 62
     7
100
AcDbLine
 10
102.7051717999
 20
44.6391957505
 30
0.0
 11
103.7841942874
 21
45.71821823799999
 31
0.0
  0
LINE
  5
2FE
330
236
100
AcDbEntity
  8
0
  6
Continuous
 62
     7
100
AcDbLine
 10
108.9446970549
 20
50.87872100550001
 30
0.0
 11
109.9720349514
 21
51.90605890189999
 31
0.0
  0
LINE
  5
2FF
330
236
100
AcDbEntity
  8
0
  6
Continuous
 62
     7
100
AcDbLine
 10
116.1360481906
 20
58.0700721411
 30
0.0
 11
117.6770520053
 21
59.6110759559
 31
0.0
  0
LINE
  5
300
330
236
100
AcDbEntity
  8
0
  6
Continuous
 62
     7
100
AcDbLine
 10
102.614724746
 20
45.1521464831
 30
0.0
 11
103.6937472335
 21
46.2311689707
 31
0.0
  0
LINE
  5
301
330
236
100
AcDbEntity
  8
0
  6
Continuous
 62
     7
100
AcDbLine
 10
108.2121274885
 20
50.74954922569999
 30
0.0
 11
109.2394651754
 21
51.7768869125
 31
0.0
  0
LINE
  5
302
330
236
100
AcDbEntity
  8
0
  6
Continuous
 62
     7
100
AcDbLine
 10
115.4034786242
 20
57.9409003613
 30
0.0
 11
116.9444824389
 21
59.4819041761
 31
0.0
  0
LINE
  5
303
330
236
100
AcDbEntity
  8
0
  6
Continuous
 62
     7
100
AcDbLine
 10
102.524277692
 20
45.6650972158
 30
0.0
 11
103.6033001795
 21
46.7441197033
 31
0.0
  0
LINE
  5
304
330
236
100
AcDbEntity
  8
0
  6
Continuous
 62
     7
100
AcDbLine
 10
107.4795579220999
 20
50.6203774459
 30
0.0
 11
108.5068953993
 21
51.6477149231
 31
0.0
  0
LINE
  5
305
330
236
100
AcDbEntity
  8
0
  6
Continuous
 62
     7
100
AcDbLine
 10
114.6709090577
 20
57.8117285815
 30
0.0
 11
116.2119128725
 21
59.35273239629999
 31
0.0
  0
LINE
  5
306
330
236
100
AcDbEntity
  8
0
  6
Continuous
 62
     7
100
AcDbLine
 10
102.4338306381
 20
46.1780479485
 30
0.0
 11
103.5128531256
 21
47.257070436
 31
0.0
  0
LINE
  5
307
330
236
100
AcDbEntity
  8
0
  6
Continuous
 62
     7
100
AcDbLine
 10
106.7469883557
 20
50.4912056661
 30
0.0
 11
107.7743256233
 21
51.5185429337
 31
0.0
  0
LINE
  5
308
330
236
100
AcDbEntity
  8
0
  6
Continuous
 62
     7
100
AcDbLine
 10
113.9383394913
 20
57.6825568017
 30
0.0
 11
115.4793433061
 21
59.22356061649999
 31
0.0
  0
LINE
  5
309
330
236
100
AcDbEntity
  8
0
  6
Continuous
 62
     7
100
AcDbLine
 10
102.3433835841
 20
46.69099868109999
 30
0.0
 11
103.4224060716
 21
47.7700211687
 31
0.0
  0
LINE
  5
30A
330
236
100
AcDbEntity
  8
0
  6
Continuous
 62
     7
100
AcDbLine
 10
106.0144187893
 20
50.3620338863
 30
0.0
 11
107.0417558473
 21
51.38937094430001
 31
0.0
  0
LINE
  5
30B
330
236
100
AcDbEntity
  8
0
  6
Continuous
 62
     7
100
AcDbLine
 10
113.2057699249
 20
57.55338502189999
 30
0.0
 11
114.7467737397
 21
59.0943888367
 31
0.0
  0
LINE
  5
30C
330
236
100
AcDbEntity
  8
0
  6
Continuous
 62
     7
100
AcDbLine
 10
102.2529365302
 20
47.2039494138
 30
0.0
 11
103.3319590177
 21
48.2829719013
 31
0.0
  0
LINE
  5
30D
330
236
100
AcDbEntity
  8
0
  6
Continuous
 62
     7
100
AcDbLine
 10
105.2818492229
 20
50.23286210649999
 30
0.0
 11
106.3091860712
 21
51.26019895489999
 31
0.0
  0
LINE
  5
30E
330
236
100
AcDbEntity
  8
0
  6
Continuous
 62
     7
100
AcDbLine
 10
112.4732003585
 20
57.4242132421
 30
0.0
 11
114.0142041733
 21
58.96521705689999
 31
0.0
  0
LINE
  5
30F
330
236
100
AcDbEntity
  8
0
  6
Continuous
 62
     7
100
AcDbLine
 10
102.1624894762
 20
47.71690014649999
 30
0.0
 11
103.2415119638
 21
48.79592263399999
 31
0.0
  0
LINE
  5
310
330
236
100
AcDbEntity
  8
0
  6
Continuous
 62
     7
100
AcDbLine
 10
104.5492796564
 20
50.1036903267
 30
0.0
 11
105.5766162952
 21
51.1310269654
 31
0.0
  0
LINE
  5
311
330
236
100
AcDbEntity
  8
0
  6
Continuous
 62
     7
100
AcDbLine
 10
111.7406307921
 20
57.2950414623
 30
0.0
 11
113.2816346068
 21
58.8360452771
 31
0.0
  0
LINE
  5
312
330
236
100
AcDbEntity
  8
0
  6
Continuous
 62
     7
100
AcDbLine
 10
102.0720424223
 20
48.2298508791
 30
0.0
 11
103.1510649098
 21
49.3088733667
 31
0.0
  0
LINE
  5
313
330
236
100
AcDbEntity
  8
0
  6
Continuous
 62
     7
100
AcDbLine
 10
103.81671009
 20
49.97451854689999
 30
0.0
 11
104.8440465192
 21
51.001854976
 31
0.0
  0
LINE
  5
314
330
236
100
AcDbEntity
  8
0
  6
Continuous
 62
     7
100
AcDbLine
 10
111.0080612256
 20
57.1658696825
 30
0.0
 11
112.5490650404
 21
58.70687349729999
 31
0.0
  0
LINE
  5
315
330
236
100
AcDbEntity
  8
0
  6
Continuous
 62
     7
100
AcDbLine
 10
101.9815953684
 20
48.7428016118
 30
0.0
 11
103.0606178559
 21
49.8218240993
 31
0.0
  0
LINE
  5
316
330
236
100
AcDbEntity
  8
0
  6
Continuous
 62
     7
100
AcDbLine
 10
103.0841405236
 20
49.8453467671
 30
0.0
 11
104.1114767432
 21
50.87268298659999
 31
0.0
  0
LINE
  5
317
330
236
100
AcDbEntity
  8
0
  6
Continuous
 62
     7
100
AcDbLine
 10
110.2754916592
 20
57.03669790270001
 30
0.0
 11
111.816495474
 21
58.5777017175
 31
0.0
  0
LINE
  5
318
330
236
100
AcDbEntity
  8
0
  6
Continuous
 62
     7
100
AcDbLine
 10
101.8911483144
 20
49.2557523445
 30
0.0
 11
103.3789069671
 21
50.74351099720001
 31
0.0
  0
LINE
  5
319
330
236
100
AcDbEntity
  8
0
  6
Continuous
 62
     7
100
AcDbLine
 10
109.5429220928
 20
56.9075261229
 30
0.0
 11
111.0839259076
 21
58.4485299377
 31
0.0
  0
LINE
  5
31A
330
236
100
AcDbEntity
  8
0
  6
Continuous
 62
     7
100
AcDbLine
 10
101.8007012605
 20
49.7687030772
 30
0.0
 11
102.879723748
 21
50.84772556469999
 31
0.0
  0
LINE
  5
31B
330
236
100
AcDbEntity
  8
0
  6
Continuous
 62
     7
100
AcDbLine
 10
108.8103525264
 20
56.77835434310001
 30
0.0
 11
110.3513563412
 21
58.3193581579
 31
0.0
  0
LINE
  5
31C
330
236
100
AcDbEntity
  8
0
  6
Continuous
 62
     7
100
AcDbLine
 10
101.7102542065
 20
50.28165380979999
 30
0.0
 11
102.789276694
 21
51.3606762973
 31
0.0
  0
LINE
  5
31D
330
236
100
AcDbEntity
  8
0
  6
Continuous
 62
     7
100
AcDbLine
 10
108.07778296
 20
56.6491825633
 30
0.0
 11
109.6187867748
 21
58.1901863781
 31
0.0
  0
LINE
  5
31E
330
236
100
AcDbEntity
  8
0
  6
Continuous
 62
     7
100
AcDbLine
 10
101.6198071526
 20
50.7946045425
 30
0.0
 11
102.6988296401
 21
51.87362703
 31
0.0
  0
LINE
  5
31F
330
236
100
AcDbEntity
  8
0
  6
Continuous
 62
     7
100
AcDbLine
 10
107.3452133936
 20
56.5200107835
 30
0.0
 11
108.8862172083
 21
58.06101459819999
 31
0.0
  0
LINE
  5
320
330
236
100
AcDbEntity
  8
0
  6
Continuous
 62
     7
100
AcDbLine
 10
101.5293600986
 20
51.3075552752
 30
0.0
 11
102.6083825862
 21
52.38657776270001
 31
0.0
  0
LINE
  5
321
330
236
100
AcDbEntity
  8
0
  6
Continuous
 62
     7
100
AcDbLine
 10
106.6126438271
 20
56.3908390037
 30
0.0
 11
108.1536476419
 21
57.9318428184
 31
0.0
  0
LINE
  5
322
330
236
100
AcDbEntity
  8
0
  6
Continuous
 62
     7
100
AcDbLine
 10
101.4389130447
 20
51.8205060078
 30
0.0
 11
102.5179355322
 21
52.89952849529999
 31
0.0
  0
LINE
  5
323
330
236
100
AcDbEntity
  8
0
  6
Continuous
 62
     7
100
AcDbLine
 10
105.8800742607
 20
56.2616672239
 30
0.0
 11
107.4210780755
 21
57.80267103859999
 31
0.0
  0
LINE
  5
324
330
236
100
AcDbEntity
  8
0
  6
Continuous
 62
     7
100
AcDbLine
 10
101.3484659907
 20
52.3334567405
 30
0.0
 11
102.4274884783
 21
53.412479228
 31
0.0
  0
LINE
  5
325
330
236
100
AcDbEntity
  8
0
  6
Continuous
 62
     7
100
AcDbLine
 10
105.1475046943
 20
56.1324954441
 30
0.0
 11
106.6885085091
 21
57.6734992588
 31
0.0
  0
LINE
  5
326
330
236
100
AcDbEntity
  8
0
  6
Continuous
 62
     7
100
AcDbLine
 10
101.2580189368
 20
52.8464074732
 30
0.0
 11
102.3370414243
 21
53.92542996069999
 31
0.0
  0
LINE
  5
327
330
236
100
AcDbEntity
  8
0
  6
Continuous
 62
     7
100
AcDbLine
 10
104.4149351279
 20
56.0033236642
 30
0.0
 11
105.9559389427
 21
57.544327479
 31
0.0
  0
LINE
  5
328
330
236
100
AcDbEntity
  8
0
  6
Continuous
 62
     7
100
AcDbLine
 10
101.1675718829
 20
53.3593582058
 30
0.0
 11
102.2465943704
 21
54.43838069339999
 31
0.0
  0
LINE
  5
329
330
236
100
AcDbEntity
  8
0
  6
Continuous
 62
     7
100
AcDbLine
 10
103.6823655615
 20
55.87415188439999
 30
0.0
 11
105.2233693762
 21
57.4151556992
 31
0.0
  0
LINE
  5
32A
330
236
100
AcDbEntity
  8
0
  6
Continuous
 62
     7
100
AcDbLine
 10
101.0771248289
 20
53.8723089385
 30
0.0
 11
102.1561473164
 21
54.951331426
 31
0.0
  0
LINE
  5
32B
330
236
100
AcDbEntity
  8
0
  6
Continuous
 62
     7
100
AcDbLine
 10
102.949795995
 20
55.74498010460001
 30
0.0
 11
104.4907998098
 21
57.2859839194
 31
0.0
  0
LINE
  5
32C
330
236
100
AcDbEntity
  8
0
  6
Continuous
 62
     7
100
AcDbLine
 10
100.986677775
 20
54.3852596712
 30
0.0
 11
102.0657002625
 21
55.4642821587
 31
0.0
  0
LINE
  5
32D
330
236
100
AcDbEntity
  8
0
  6
Continuous
 62
     7
100
AcDbLine
 10
102.2172264286
 20
55.61580832479999
 30
0.0
 11
103.7582302434
 21
57.15681213959999
 31
0.0
  0
LINE
  5
32E
330
236
100
AcDbEntity
  8
0
  6
Continuous
 62
     7
100
AcDbLine
 10
100.896230721
 20
54.8982104038
 30
0.0
 11
103.025660677
 21
57.02764035979999
 31
0.0
  0
LINE
  5
32F
330
236
100
AcDbEntity
  8
0
  6
Continuous
 62
     7
100
AcDbLine
 10
100.8057836671
 20
55.4111611365
 30
0.0
 11
102.2930911106
 21
56.89846858
 31
0.0
  0
LINE
  5
330
330
236
100
AcDbEntity
  8
0
  6
Continuous
 62
     7
100
AcDbLine
 10
100.7153366131
 20
55.92411186919999
 30
0.0
 11
101.5605215442
 21
56.7692968002
 31
0.0
  0
LINE
  5
331
330
236
100
AcDbEntity
  8
0
  6
Continuous
 62
     7
100
AcDbLine
 10
100.6248895592
 20
56.4370626018
 30
0.0
 11
100.8279519777
 21
56.6401250204
 31
0.0
  0
ENDBLK
  5
332
330
236
100
AcDbEntity
  8
0
  6
ByBlock
 62
     0
100
AcDbBlockEnd
  0
ENDSEC
  0
SECTION
  2
ENTITIES
  0
LINE
  5
1584
330
213
100
AcDbEntity
  8
0
  6
Continuous
 62
     7
100
AcDbLine
 10
96.97483356790002
 20
45.26778258229999
 30
0.0
 11
96.97483356790002
 21
45.62467536039999
 31
0.0
  0
LINE
  5
1585
330
213
100
AcDbEntity
  8
0
  6
Continuous
 62
     7
100
AcDbLine
 10
97.09983356790001
 20
45.26778258229999
 30
0.0
 11
97.09983356790001
 21
45.62467536039999
 31
0.0
  0
LWPOLYLINE
  5
1589
330
213
100
AcDbEntity
  8
0
  6
Continuous
 62
     7
100
AcDbPolyline
 90
        4
 70
     0
 43
0.0
 10
96.97483356790002
 20
45.62467536039999
 10
96.97498012229999
 20
45.6582655665
 10
96.97528156790001
 20
45.6919963521
 10
96.9755632743
 20
45.72586826899999
  0
LWPOLYLINE
  5
158A
330
213
100
AcDbEntity
  8
0
  6
Continuous
 62
     7
100
AcDbPolyline
 90
        4
 70
     0
 43
0.0
 10
97.10129944610001
 20
45.72586826899999
 10
97.1007299298
 20
45.6918867822
 10
97.1001252603
 20
45.65815596479999
 10
97.09983356790001
 20
45.62467536039999
  0
LWPOLYLINE
  5
1592
330
213
100
AcDbEntity
  8
0
  6
Continuous
 62
     7
100
AcDbPolyline
 90
        4
 70
     0
 43
0.0
 10
118.8213816037
 20
26.1454734252
 10
118.9024555107
 20
26.1589844791
 10
118.9739968655
 20
26.1974618551
 10
119.0292789532
 20
26.2566256953
  0
LINE
  5
1594
330
213
100
AcDbEntity
  8
0
  6
Continuous
 62
     7
100
AcDbLine
 10
118.9748335679
 20
25.6427825823
 30
0.0
 11
105.9748335679
 21
25.6427825823
 31
0.0
  0
LINE
  5
1595
330
213
100
AcDbEntity
  8
0
  6
Continuous
 62
     7
100
AcDbLine
 10
118.9748335679
 20
26.1427825823
 30
0.0
 11
105.9748335679
 21
26.1427825823
 31
0.0
  0
LINE
  5
1597
330
213
100
AcDbEntity
  8
0
  6
Continuous
 62
     7
100
AcDbLine
 10
118.8213816037
 20
26.1454734252
 30
0.0
 11
106.1282855321
 21
26.1454734252
 31
0.0
  0
LWPOLYLINE
  5
159C
330
213
100
AcDbEntity
  8
0
  6
Continuous
 62
     7
100
AcDbPolyline
 90
        5
 70
     0
 43
0.0
 10
106.1282855321
 20
26.1454734252
 10
106.0472116251
 20
26.1589844791
 10
105.9756702703
 20
26.1974618551
 10
105.9203881826
 20
26.2566256953
 10
105.9194924953
 20
26.2586030863
  0
LWPOLYLINE
  5
159D
330
213
100
AcDbEntity
  8
0
  6
Continuous
 62
     7
100
AcDbPolyline
 90
        9
 70
     0
 43
0.0
 10
105.7770831888
 20
28.0729470385
 10
105.7765352186
 20
28.073161144
 10
105.775223309
 20
28.073389901
 10
105.7733834968
 20
28.0736110535
 10
105.7709201676
 20
28.0738377689
 10
105.7673143476
 20
28.0741139792
 10
105.7623759473
 20
28.074445357
 10
105.7563387237
 20
28.0748036732
 10
105.7489698773
 20
28.0751940904
  0
LINE
  5
15A3
330
213
100
AcDbEntity
  8
0
  6
Continuous
 62
     7
100
AcDbLine
 10
100.0021057222
 20
45.3007412317
 30
0.0
 11
100.0025784788
 21
45.29903241109999
 31
0.0
  0
LWPOLYLINE
  5
15A9
330
213
100
AcDbEntity
  8
0
  6
Continuous
 62
     7
100
AcDbPolyline
 90
      126
 70
     0
 43
0.0
 10
100.0025799006
 20
45.2990322885
 10
100.0040341768
 20
45.2934752952
 10
100.0060960942
 20
45.28584012329999
 10
100.0082165095
 20
45.2782605337
 10
100.0103943319
 20
45.27073662350001
 10
100.0126284833
 20
45.26326847439999
 10
100.0149178986
 20
45.2558561531
 10
100.0172615258
 20
45.2484997116
 10
100.0196583258
 20
45.2411991879
 10
100.0221072725
 20
45.2339546064
 10
100.024607353
 20
45.2267659778
 10
100.0271575676
 20
45.2196332999
 10
100.0297569294
 20
45.2125565577
 10
100.032404465
 20
45.2055357242
 10
100.0350992138
 20
45.1985707601
 10
100.0378402287
 20
45.1916616148
 10
100.0406265755
 20
45.18480822619999
 10
100.0434573331
 20
45.1780105215
 10
100.0463315936
 20
45.17126841729999
 10
100.0492484622
 20
45.1645818196
 10
100.0522070571
 20
45.1579506251
 10
100.0552065094
 20
45.1513747202
 10
100.0582459635
 20
45.1448539826
 10
100.0613245766
 20
45.1383882806
 10
100.0644415187
 20
45.13197747409999
 10
100.0675959728
 20
45.12562141430001
 10
100.0707871347
 20
45.1193199446
 10
100.0740142131
 20
45.1130729004
 10
100.0772764291
 20
45.1068801097
 10
100.0805730167
 20
45.1007413931
 10
100.0839032225
 20
45.0946565643
 10
100.0872663055
 20
45.0886254303
 10
100.0906615372
 20
45.0826477917
 10
100.0940882016
 20
45.07672344270001
 10
100.0975455948
 20
45.0708521717
 10
100.1010330254
 20
45.06503376149999
 10
100.104549814
 20
45.0592679893
 10
100.1080952933
 20
45.05355462699999
 10
100.111668808
 20
45.0478934418
 10
100.1152697148
 20
45.0422841958
 10
100.1188973822
 20
45.0367266468
 10
100.1225511904
 20
45.0312205483
 10
100.1262305313
 20
45.0257656496
 10
100.1299348085
 20
45.0203616961
 10
100.1336634367
 20
45.0150084296
 10
100.1374158425
 20
45.0097055885
 10
100.1411914634
 20
45.0044529076
 10
100.1449897482
 20
44.9992501191
 10
100.1488101569
 20
44.9940969518
 10
100.1526521604
 20
44.98899313219999
 10
100.1565152404
 20
44.9839383841
 10
100.1603988897
 20
44.9789324289
 10
100.1643026116
 20
44.973974986
 10
100.1682259199
 20
44.9690657726
 10
100.1721683391
 20
44.96420450419999
 10
100.1761294041
 20
44.9593908946
 10
100.1801086598
 20
44.9546246562
 10
100.1841056617
 20
44.94990549979999
 10
100.1881199751
 20
44.94523313520001
 10
100.1921511754
 20
44.940607271
 10
100.1961988477
 20
44.9360276152
 10
100.2002625871
 20
44.93149387459999
 10
100.2043419962
 20
44.92700575799999
 10
100.208436648
 20
44.9225630155
 10
100.2125460889
 20
44.91816543289999
 10
100.2166698711
 20
44.9138127952
 10
100.2208075536
 20
44.909504885
 10
100.2249587029
 20
44.90524148279999
 10
100.229122892
 20
44.90102236689999
 10
100.2332997011
 20
44.8968473141
 10
100.237488717
 20
44.8927160988
 10
100.2416895336
 20
44.88862849399999
 10
100.2459017514
 20
44.884584271
 10
100.2501249776
 20
44.8805831997
 10
100.254358826
 20
44.8766250481
 10
100.258602917
 20
44.8727095834
 10
100.2628568777
 20
44.86883657119999
 10
100.2671203415
 20
44.865005776
 10
100.2713929483
 20
44.8612169612
 10
100.2756743444
 20
44.85746988919999
 10
100.2799641822
 20
44.85376432149999
 10
100.2842621207
 20
44.8501000188
 10
100.2885678249
 20
44.846476741
 10
100.292880966
 20
44.8428942473
 10
100.2972012212
 20
44.8393522962
 10
100.3015282739
 20
44.835850646
 10
100.3058618134
 20
44.8323890542
 10
100.3102015348
 20
44.8289672781
 10
100.3145471391
 20
44.8255850746
 10
100.3188983334
 20
44.82224220059999
 10
100.3232548302
 20
44.8189384125
 10
100.3276163478
 20
44.8156734668
 10
100.3319826101
 20
44.8124471199
 10
100.3363533467
 20
44.8092591283
 10
100.3407282926
 20
44.80610924839999
 10
100.3451071882
 20
44.80299723699999
 10
100.3494897795
 20
44.7999228509
 10
100.3538758177
 20
44.79688584739999
 10
100.3582650592
 20
44.7938859838
 10
100.362657266
 20
44.790923018
 10
100.3670522048
 20
44.7879967085
 10
100.3714496455
 20
44.7851068152
 10
100.3758493561
 20
44.7822531035
 10
100.3802511082
 20
44.77943533949999
 10
100.3846546782
 20
44.7766532901
 10
100.389059847
 20
44.7739067224
 10
100.3934664004
 20
44.7711954041
 10
100.397874129
 20
44.7685191033
 10
100.4022828276
 20
44.7658775888
 10
100.4066922957
 20
44.76327063
 10
100.4111023375
 20
44.76069799689999
 10
100.4155127612
 20
44.75815946039999
 10
100.4199233798
 20
44.75565479180001
 10
100.4243340103
 20
44.7531837635
 10
100.4287444743
 20
44.75074614859999
 10
100.4331545973
 20
44.74834172109999
 10
100.4375642092
 20
44.7459702559
 10
100.4419731439
 20
44.7436315287
 10
100.4463812395
 20
44.7413253163
 10
100.4507883381
 20
44.7390513966
 10
100.4551942856
 20
44.7368095484
 10
100.4595989321
 20
44.7345995516
 10
100.4640021315
 20
44.7324211872
 10
100.4684037413
 20
44.73027423729999
 10
100.4728036231
 20
44.72815848529999
 10
100.4770478144
 20
44.72616664979999
  0
LWPOLYLINE
  5
15AA
330
213
100
AcDbEntity
  8
0
  6
Continuous
 62
     7
100
AcDbPolyline
 90
       66
 70
     0
 43
0.0
 10
102.8402636363
 20
30.0053358646
 10
102.8509866264
 20
29.93543082989999
 10
102.8730629417
 20
29.8239641467
 10
102.8995154376
 20
29.7193180749
 10
102.9297860249
 20
29.6205084823
 10
102.9636906058
 20
29.5262083394
 10
103.0012089542
 20
29.4354063696
 10
103.0420317358
 20
29.3481481437
 10
103.0857696643
 20
29.2646294415
 10
103.1320189601
 20
29.1850109278
 10
103.1803733194
 20
29.1094062275
 10
103.2304457442
 20
29.03786295
 10
103.2819819611
 20
28.9702374337
 10
103.3347957736
 20
28.9063361921
 10
103.3887368693
 20
28.8459675442
 10
103.4436878906
 20
28.7889446409
 10
103.4995617712
 20
28.7350877778
 10
103.5562857761
 20
28.6842379356
 10
103.6137003838
 20
28.6363338609
 10
103.6716013935
 20
28.5913496462
 10
103.7297884781
 20
28.549247515
 10
103.7880662785
 20
28.5099781874
 10
103.8462448034
 20
28.4734817829
 10
103.9041383987
 20
28.4396893871
 10
103.9615686075
 20
28.4085222605
 10
104.0183678862
 20
28.3798913241
 10
104.0743775124
 20
28.35369982719999
 10
104.1294473069
 20
28.3298446238
 10
104.1834352165
 20
28.3082173334
 10
104.2362163769
 20
28.2887019599
 10
104.2876371892
 20
28.27119187780001
 10
104.3375892028
 20
28.2555634501
 10
104.3860053987
 20
28.2416834588
 10
104.4328094657
 20
28.2294262678
 10
104.477948698
 20
28.2186647364
 10
104.5212230758
 20
28.2093071361
 10
104.5623822961
 20
28.201262885
 10
104.6008168346
 20
28.1944907064
 10
104.6361373662
 20
28.1888844129
 10
104.6680224503
 20
28.1843199356
 10
104.6965591595
 20
28.1806236394
 10
104.7225100322
 20
28.1775702393
 10
104.7467467884
 20
28.1749718793
 10
104.7698483866
 20
28.1727098753
 10
104.7920485802
 20
28.1707185325
 10
104.8137705994
 20
28.1689273524
 10
104.8352224587
 20
28.1672950561
 10
104.857144711
 20
28.1657514509
 10
104.8804138796
 20
28.1642392822
 10
104.9040629547
 20
28.162821763
 10
104.9282544917
 20
28.1614759927
 10
104.953421499
 20
28.16016878300001
 10
104.979903442
 20
28.1588779582
 10
105.0079940197
 20
28.1575868721
 10
105.0378853611
 20
28.156284679
 10
105.069711042
 20
28.1549642395
 10
105.1037810117
 20
28.1536124216
 10
105.1404321688
 20
28.1522160037
 10
105.1799940047
 20
28.1507630112
 10
105.2226869868
 20
28.1492457791
 10
105.2686944633
 20
28.1476581065
 10
105.3185664445
 20
28.1459815209
 10
105.372778312
 20
28.1441996744
 10
105.4313107366
 20
28.14231266
 10
105.4951449368
 20
28.140287987
 10
107.6811116778
 20
28.0720016318
  0
LINE
  5
15AB
330
213
100
AcDbEntity
  8
0
  6
Continuous
 62
     7
100
AcDbLine
 10
102.8389291794
 20
30.0156831921
 30
0.0
 11
102.8394996332
 21
30.0115245827
 31
0.0
  0
LINE
  5
15AC
330
213
100
AcDbEntity
  8
0
  6
Continuous
 62
     7
100
AcDbLine
 10
100.8567902932
 20
44.54158970329999
 30
0.0
 11
102.8402723437
 21
30.0052523867
 31
0.0
  0
LWPOLYLINE
  5
15B2
330
213
100
AcDbEntity
  8
0
  6
Continuous
 62
     7
100
AcDbPolyline
 90
       18
 70
     0
 43
0.0
 10
112.6119898909
 20
27.3438720038
 10
112.5770537008
 20
27.3401825412
 10
112.543859252
 20
27.3379760212
 10
112.5144355865
 20
27.3369655731
 10
112.4813569053
 20
27.3365764617
 10
112.4486237797
 20
27.3367329131
 10
112.4211793754
 20
27.3373507491
 10
112.3947754291
 20
27.3385741121
 10
112.3648988228
 20
27.340874198
 10
112.3327024127
 20
27.3445148117
 10
112.2957538496
 20
27.3502225887
 10
112.2637789563
 20
27.3565132463
 10
112.2085459004
 20
27.3704302598
 10
112.1653817676
 20
27.3841102468
 10
112.1134669905
 20
27.4040212975
 10
112.0486896674
 20
27.4346016375
 10
112.0118581538
 20
27.4551070589
 10
112.0115817758
 20
27.4552825823
  0
LWPOLYLINE
  5
15B5
330
213
100
AcDbEntity
  8
0
  6
Continuous
 62
     7
100
AcDbPolyline
 90
        6
 70
     0
 43
0.0
 10
118.9416977237
 20
28.0168385766
 10
119.0164975633
 20
28.0207482581
 10
119.0767594982
 20
28.0243666038
 10
119.1208608402
 20
28.0276072878
 10
119.1479918455
 20
28.0304396488
 10
119.1579098349
 20
28.0328698598
  0
LINE
  5
15B6
330
213
100
AcDbEntity
  8
0
  6
Continuous
 62
     7
100
AcDbLine
 10
113.7462801773
 20
27.4552825823
 30
0.0
 11
111.2033869585
 21
27.4552825823
 31
0.0
  0
LWPOLYLINE
  5
15B7
330
213
100
AcDbEntity
  8
0
  6
Continuous
 62
     7
100
AcDbPolyline
 90
        6
 70
     0
 43
0.0
 10
106.0079694121
 20
28.0168385766
 10
105.9331695725
 20
28.0207482581
 10
105.8729076376
 20
28.0243666038
 10
105.8288062956
 20
28.0276072878
 10
105.8016752903
 20
28.0304396488
 10
105.7917573009
 20
28.0328698598
  0
LINE
  5
15B8
330
213
100
AcDbEntity
  8
0
  6
Continuous
 62
     7
100
AcDbLine
 10
105.1098718803
 20
28.1530923012
 30
0.0
 11
105.099841012
 21
28.1537687517
 31
0.0
  0
LWPOLYLINE
  5
15BD
330
213
100
AcDbEntity
  8
0
  6
Continuous
 62
     7
100
AcDbPolyline
 90
        7
 70
     0
 43
0.0
 10
105.9918872745
 20
28.0176791672
 10
105.9977456742
 20
28.0163984569
 10
106.0397759068
 20
28.0026688779
 10
106.0901115823
 20
27.9782544114
 10
106.1413436206
 20
27.9423951075
 10
106.1882018861
 20
27.8957724841
 10
106.2271693876
 20
27.83982372280001
  0
LWPOLYLINE
  5
15BE
330
213
100
AcDbEntity
  8
0
  6
Continuous
 62
     7
100
AcDbPolyline
 90
        9
 70
     0
 43
0.0
 10
105.208385141
 20
28.0949670021
 10
105.2242532299
 20
28.0913489393
 10
105.2627404998
 20
28.0784506729
 10
105.3046062995
 20
28.0587023047
 10
105.346861715
 20
28.0316073724
 10
105.3866185304
 20
27.9976203993
 10
105.4222642511
 20
27.9570963771
 10
105.4522072976
 20
27.9109810925
 10
105.4751963309
 20
27.8606654123
  0
LINE
  5
15C1
330
213
100
AcDbEntity
  8
0
  6
Continuous
 62
     7
100
AcDbLine
 10
106.2271693876
 20
27.83982372280001
 30
0.0
 11
106.2535838129
 21
27.78270296840001
 31
0.0
  0
LINE
  5
15C7
330
213
100
AcDbEntity
  8
0
  6
Continuous
 62
     7
100
AcDbLine
 10
106.2535836966
 20
27.7827030473
 30
0.0
 11
106.3438717359
 21
27.534638698
 31
0.0
  0
LWPOLYLINE
  5
15CD
330
213
100
AcDbEntity
  8
0
  6
Continuous
 62
     7
100
AcDbPolyline
 90
        5
 70
     0
 43
0.0
 10
105.7911343765
 20
28.0328883091
 10
105.7881025317
 20
28.041731782
 10
105.7850249005
 20
28.0513108317
 10
105.7818932215
 20
28.06168055030001
 10
105.7786992365
 20
28.0728991755
  0
LINE
  5
15D1
330
213
100
AcDbEntity
  8
0
  6
Continuous
 62
     7
100
AcDbLine
 10
99.9992667575
 20
45.30982096439999
 30
0.0
 11
100.0009256299
 21
45.30484889399999
 31
0.0
  0
LINE
  5
15D3
330
213
100
AcDbEntity
  8
0
  6
Continuous
 62
     7
100
AcDbLine
 10
105.4751963309
 20
27.8606654123
 30
0.0
 11
105.4857559721
 21
27.8275005621
 31
0.0
  0
LINE
  5
15DA
330
213
100
AcDbEntity
  8
0
  6
Continuous
 62
     7
100
AcDbLine
 10
105.0261724762
 20
28.1537552164
 30
0.0
 11
105.0261379316
 21
28.1538709206
 31
0.0
  0
LINE
  5
15DD
330
213
100
AcDbEntity
  8
0
  6
Continuous
 62
     7
100
AcDbLine
 10
100.0009256299
 20
45.30484889399999
 30
0.0
 11
100.0021057222
 21
45.3007412317
 31
0.0
  0
LINE
  5
15E1
330
213
100
AcDbEntity
  8
0
  6
Continuous
 62
     7
100
AcDbLine
 10
105.0389285015
 20
28.1068124211
 30
0.0
 11
105.0261724762
 21
28.1537552164
 31
0.0
  0
LINE
  5
15E2
330
213
100
AcDbEntity
  8
0
  6
Continuous
 62
     7
100
AcDbLine
 10
105.9203881826
 20
26.2566256953
 30
0.0
 11
105.4857559812
 21
27.8275005282
 31
0.0
  0
LINE
  5
15E6
330
213
100
AcDbEntity
  8
0
  6
Continuous
 62
     7
100
AcDbLine
 10
108.8406964989
 20
27.977654741
 30
0.0
 11
108.8392090125
 21
27.9774314864
 31
0.0
  0
LWPOLYLINE
  5
15E8
330
213
100
AcDbEntity
  8
0
  6
Continuous
 62
     7
100
AcDbPolyline
 90
        5
 70
     0
 43
0.0
 10
108.8103795804
 20
27.936393569
 10
108.7979515181
 20
27.9347527822
 10
108.761892804
 20
27.9340217937
 10
108.6985754329
 20
27.9342809954
 10
108.6093664817
 20
27.9355441405
  0
LINE
  5
15EC
330
213
100
AcDbEntity
  8
0
  6
Continuous
 62
     7
100
AcDbLine
 10
114.4468686768
 20
27.9622001612
 30
0.0
 11
114.4885794647
 21
27.96526599
 31
0.0
  0
LINE
  5
15ED
330
213
100
AcDbEntity
  8
0
  6
Continuous
 62
     7
100
AcDbLine
 10
114.4885794647
 20
27.96526599
 30
0.0
 11
114.5249618692
 21
27.967907677
 31
0.0
  0
LINE
  5
15EE
330
213
100
AcDbEntity
  8
0
  6
Continuous
 62
     7
100
AcDbLine
 10
114.5249618692
 20
27.967907677
 30
0.0
 11
114.5613328701
 21
27.9705169313
 31
0.0
  0
LINE
  5
15EF
330
213
100
AcDbEntity
  8
0
  6
Continuous
 62
     7
100
AcDbLine
 10
114.5613328701
 20
27.9705169313
 30
0.0
 11
114.5978963973
 21
27.9731067927
 31
0.0
  0
LINE
  5
15F0
330
213
100
AcDbEntity
  8
0
  6
Continuous
 62
     7
100
AcDbLine
 10
114.5978963973
 20
27.9731067927
 30
0.0
 11
114.6347610202
 21
27.9756827411
 31
0.0
  0
LINE
  5
15F1
330
213
100
AcDbEntity
  8
0
  6
Continuous
 62
     7
100
AcDbLine
 10
114.6347610202
 20
27.9756827411
 30
0.0
 11
114.6723083097
 21
27.9782682451
 31
0.0
  0
LINE
  5
15F2
330
213
100
AcDbEntity
  8
0
  6
Continuous
 62
     7
100
AcDbLine
 10
114.6723083097
 20
27.9782682451
 30
0.0
 11
114.7108098341
 21
27.980877369
 31
0.0
  0
LINE
  5
15F3
330
213
100
AcDbEntity
  8
0
  6
Continuous
 62
     7
100
AcDbLine
 10
114.7108098341
 20
27.980877369
 30
0.0
 11
114.7501872278
 21
27.9834991709
 31
0.0
  0
LINE
  5
15F4
330
213
100
AcDbEntity
  8
0
  6
Continuous
 62
     7
100
AcDbLine
 10
114.7501872278
 20
27.9834991709
 30
0.0
 11
114.7904875496
 21
27.9861302346
 31
0.0
  0
LINE
  5
15F5
330
213
100
AcDbEntity
  8
0
  6
Continuous
 62
     7
100
AcDbLine
 10
114.7904875496
 20
27.9861302346
 30
0.0
 11
114.8313287635
 21
27.9887384281
 31
0.0
  0
LINE
  5
15F6
330
213
100
AcDbEntity
  8
0
  6
Continuous
 62
     7
100
AcDbLine
 10
114.8313287635
 20
27.9887384281
 30
0.0
 11
114.8713927167
 21
27.991235036
 31
0.0
  0
LINE
  5
15F7
330
213
100
AcDbEntity
  8
0
  6
Continuous
 62
     7
100
AcDbLine
 10
114.8713927167
 20
27.991235036
 30
0.0
 11
114.9070542218
 21
27.9934007495
 31
0.0
  0
LINE
  5
15F8
330
213
100
AcDbEntity
  8
0
  6
Continuous
 62
     7
100
AcDbLine
 10
114.9070542218
 20
27.9934007495
 30
0.0
 11
114.9366419377
 21
27.995153103
 31
0.0
  0
LINE
  5
15F9
330
213
100
AcDbEntity
  8
0
  6
Continuous
 62
     7
100
AcDbLine
 10
114.9366419377
 20
27.995153103
 30
0.0
 11
114.9606449605
 21
27.9965420023
 31
0.0
  0
LINE
  5
15FB
330
213
100
AcDbEntity
  8
0
  6
Continuous
 62
     7
100
AcDbLine
 10
114.9606449605
 20
27.9965420023
 30
0.0
 11
114.9883266236
 21
27.998103344
 31
0.0
  0
LINE
  5
15FC
330
213
100
AcDbEntity
  8
0
  6
Continuous
 62
     7
100
AcDbLine
 10
114.9883266236
 20
27.998103344
 30
0.0
 11
115.0143847325
 21
27.9995284299
 31
0.0
  0
LINE
  5
15FE
330
213
100
AcDbEntity
  8
0
  6
Continuous
 62
     7
100
AcDbLine
 10
115.0143847325
 20
27.9995284299
 30
0.0
 11
115.0364814158
 21
28.0006973186
 31
0.0
  0
LINE
  5
15FF
330
213
100
AcDbEntity
  8
0
  6
Continuous
 62
     7
100
AcDbLine
 10
115.0364814158
 20
28.0006973186
 30
0.0
 11
115.05658689
 21
28.0017228376
 31
0.0
  0
LINE
  5
1600
330
213
100
AcDbEntity
  8
0
  6
Continuous
 62
     7
100
AcDbLine
 10
119.2006972585
 20
28.0751940904
 30
0.0
 11
119.2096224283
 21
28.0756278797
 31
0.0
  0
LINE
  5
1601
330
213
100
AcDbEntity
  8
0
  6
Continuous
 62
     7
100
AcDbLine
 10
115.05658689
 20
28.0017228376
 30
0.0
 11
115.0734736927
 21
28.0025485506
 31
0.0
  0
LINE
  5
1603
330
213
100
AcDbEntity
  8
0
  6
Continuous
 62
     7
100
AcDbLine
 10
115.0734736927
 20
28.0025485506
 30
0.0
 11
115.0851783125
 21
28.00309409489999
 31
0.0
  0
LWPOLYLINE
  5
1604
330
213
100
AcDbEntity
  8
0
  6
Continuous
 62
     7
100
AcDbPolyline
 90
        6
 70
     0
 43
0.0
 10
119.2096224283
 20
28.0756278797
 10
119.2198667866
 20
28.0760906596
 10
119.2313245039
 20
28.0765741872
 10
119.243853443
 20
28.0770717878
 10
119.2573627287
 20
28.0775810352
 10
119.2717424421
 20
28.0780981851
  0
LWPOLYLINE
  5
1605
330
213
100
AcDbEntity
  8
0
  6
Continuous
 62
     7
100
AcDbPolyline
 90
        7
 70
     0
 43
0.0
 10
119.6817011776
 20
28.0923431996
 10
119.7492375592
 20
28.0953173469
 10
119.8060689577
 20
28.0981325455
 10
119.8511729766
 20
28.1007312267
 10
119.8838302208
 20
28.10306255590001
 10
119.903744348
 20
28.1050976314
 10
119.9107386342
 20
28.1068124211
  0
LINE
  5
1607
330
213
100
AcDbEntity
  8
0
  6
Continuous
 62
     7
100
AcDbLine
 10
115.6021543394
 20
27.9591685961
 30
0.0
 11
115.9258147845
 21
27.972249721
 31
0.0
  0
LINE
  5
160A
330
213
100
AcDbEntity
  8
0
  6
Continuous
 62
     7
100
AcDbLine
 10
115.9258147845
 20
27.972249721
 30
0.0
 11
115.955299944
 21
27.9733855864
 31
0.0
  0
LINE
  5
160C
330
213
100
AcDbEntity
  8
0
  6
Continuous
 62
     7
100
AcDbLine
 10
115.955299944
 20
27.9733855864
 30
0.0
 11
115.9756591703
 21
27.9741404226
 31
0.0
  0
LINE
  5
1610
330
213
100
AcDbEntity
  8
0
  6
Continuous
 62
     7
100
AcDbLine
 10
115.9756591703
 20
27.9741404226
 30
0.0
 11
115.9976438232
 21
27.974924554
 31
0.0
  0
LWPOLYLINE
  5
1611
330
213
100
AcDbEntity
  8
0
  6
Continuous
 62
     7
100
AcDbPolyline
 90
        5
 70
     0
 43
0.0
 10
119.2717424421
 20
28.0780981851
 10
119.2867770277
 20
28.0786154668
 10
119.3022543872
 20
28.0791261629
 10
119.3179887959
 20
28.0796252198
 10
119.431310996
 20
28.0831584781
  0
LWPOLYLINE
  5
1613
330
213
100
AcDbEntity
  8
0
  6
Continuous
 62
     7
100
AcDbPolyline
 90
        4
 70
     0
 43
0.0
 10
119.431310996
 20
28.0831584781
 10
119.5221826018
 20
28.0862374544
 10
119.6054860825
 20
28.08929532030001
 10
119.6817011776
 20
28.0923431996
  0
LWPOLYLINE
  5
1615
330
213
100
AcDbEntity
  8
0
  6
Continuous
 62
     7
100
AcDbPolyline
 90
       10
 70
     0
 43
0.0
 10
115.9976438232
 20
27.974924554
 10
116.021904771
 20
27.9757464653
 10
116.0348679613
 20
27.9761632647
 10
116.0481384146
 20
27.9765695951
 10
116.0613734444
 20
27.9769485917
 10
116.0739586065
 20
27.9772772071
 10
116.0859589292
 20
27.9775468902
 10
116.097026412
 20
27.9777271982
 10
116.1047273213
 20
27.9777582763
 10
116.1089706369
 20
27.977654741
  0
LINE
  5
1616
330
213
100
AcDbEntity
  8
0
  6
Continuous
 62
     7
100
AcDbLine
 10
115.0695790636
 20
28.0025893725
 30
0.0
 11
115.0779078543
 21
28.0028590659
 31
0.0
  0
LWPOLYLINE
  5
1618
330
213
100
AcDbEntity
  8
0
  6
Continuous
 62
     7
100
AcDbPolyline
 90
       66
 70
     0
 43
0.0
 10
119.4859265949
 20
28.1412803777
 10
119.5456250828
 20
28.1431875928
 10
119.6011071967
 20
28.1449911208
 10
119.6526813138
 20
28.146702021
 10
119.7003749906
 20
28.1483223176
 10
119.7447166053
 20
28.1498704115
 10
119.7859824501
 20
28.1513559164
 10
119.8243331236
 20
28.152784771
 10
119.8600576063
 20
28.154167761
 10
119.8933985265
 20
28.1555144923
 10
119.924594827
 20
28.15683474510001
 10
119.9538118223
 20
28.1581359327
 10
119.9812118362
 20
28.1594265045
 10
120.0070619184
 20
28.1607199796
 10
120.0317931252
 20
28.162041081
 10
120.0558522856
 20
28.1634227905
 10
120.0789833087
 20
28.1648584266
 10
120.1010288656
 20
28.1663368479
 10
120.1223539314
 20
28.1678811842
 10
120.1434928333
 20
28.1695362698
 10
120.1649852404
 20
28.1713605722
 10
120.1872082266
 20
28.1734127382
 10
120.2100748472
 20
28.1757160296
 10
120.2332557346
 20
28.1782631951
 10
120.257151326
 20
28.1811243049
 10
120.2833625023
 20
28.184549491
 10
120.3128560018
 20
28.1887751878
 10
120.345811578
 20
28.1939750502
 10
120.3817267006
 20
28.2002290916
 10
120.4199575019
 20
28.207571897
 10
120.4600038908
 20
28.2160344742
 10
120.5017164581
 20
28.2257020211
 10
120.5449378251
 20
28.2366529939
 10
120.5895102517
 20
28.2489594029
 10
120.6353361805
 20
28.262705136
 10
120.6823136358
 20
28.2779712898
 10
120.7303397546
 20
28.294836883
 10
120.7793063865
 20
28.3133770197
 10
120.8291142942
 20
28.333668168
 10
120.8797371781
 20
28.3558185894
 10
120.9311651169
 20
28.3799529595
 10
120.983378417
 20
28.4062031691
 10
121.0363459198
 20
28.4347078817
 10
121.0900092992
 20
28.465603574
 10
121.1442661091
 20
28.4990111014
 10
121.198998859
 20
28.5350487093
 10
121.2540788397
 20
28.5738336008
 10
121.3093655113
 20
28.6154810864
 10
121.364730266
 20
28.6601239375
 10
121.4201283215
 20
28.7079834
 10
121.4755109781
 20
28.759317431
 10
121.5307934974
 20
28.81439857050001
 10
121.585849038
 20
28.8735097746
 10
121.6404425369
 20
28.9368663857
 10
121.6942300112
 20
29.0045841725
 10
121.7468416979
 20
29.0767541651
 10
121.7978884814
 20
29.1534460852
 10
121.8469799019
 20
29.2347356127
 10
121.893723743
 20
29.320716233
 10
121.93770575
 20
29.4114779238
 10
121.9784673696
 20
29.5070612218
 10
122.0155198774
 20
29.607474249
 10
122.0483421382
 20
29.7126774645
 10
122.0763870425
 20
29.822588449
 10
122.0990832867
 20
29.9370753741
 10
122.1096348387
 20
30.0060251287
  0
LINE
  5
1619
330
213
100
AcDbEntity
  8
0
  6
Continuous
 62
     7
100
AcDbLine
 10
115.0779078543
 20
28.0028590659
 30
0.0
 11
115.2323624004
 21
28.0078249998
 31
0.0
  0
LINE
  5
161B
330
213
100
AcDbEntity
  8
0
  6
Continuous
 62
     7
100
AcDbLine
 10
115.2323624004
 20
28.0078249998
 30
0.0
 11
115.4330869384
 21
28.0142344302
 31
0.0
  0
LINE
  5
161C
330
213
100
AcDbEntity
  8
0
  6
Continuous
 62
     7
100
AcDbLine
 10
115.4330869384
 20
28.0142344302
 30
0.0
 11
115.6667678431
 21
28.021654506
 31
0.0
  0
LWPOLYLINE
  5
161D
330
213
100
AcDbEntity
  8
0
  6
Continuous
 62
     7
100
AcDbPolyline
 90
       10
 70
     0
 43
0.0
 10
117.7293604673
 20
27.9723024609
 10
117.8982859222
 20
27.9776174497
 10
118.0694308258
 20
27.9831918471
 10
118.2316498678
 20
27.9886796414
 10
118.37603463
 20
27.9937599806
 10
118.5052945537
 20
27.9985007142
 10
118.6293924191
 20
28.0032676109
 10
118.7470460623
 20
28.0080450509
 10
118.8522325239
 20
28.0126153308
 10
118.9416977237
 20
28.0168385766
  0
LINE
  5
161E
330
213
100
AcDbEntity
  8
0
  6
Continuous
 62
     7
100
AcDbLine
 10
115.6667678431
 20
28.021654506
 30
0.0
 11
115.9614500776
 21
28.0309677484
 31
0.0
  0
LINE
  5
161F
330
213
100
AcDbEntity
  8
0
  6
Continuous
 62
     7
100
AcDbLine
 10
115.9614500776
 20
28.0309677484
 30
0.0
 11
116.3332347329
 21
28.0426731951
 31
0.0
  0
LINE
  5
1621
330
213
100
AcDbEntity
  8
0
  6
Continuous
 62
     7
100
AcDbLine
 10
116.3332347329
 20
28.0426731951
 30
0.0
 11
116.8035255996
 21
28.0574355231
 31
0.0
  0
LINE
  5
1622
330
213
100
AcDbEntity
  8
0
  6
Continuous
 62
     7
100
AcDbLine
 10
116.8035255996
 20
28.0574355231
 30
0.0
 11
117.405388879
 21
28.0762833132
 31
0.0
  0
LINE
  5
1623
330
213
100
AcDbEntity
  8
0
  6
Continuous
 62
     7
100
AcDbLine
 10
117.405388879
 20
28.0762833132
 30
0.0
 11
118.2136497334
 21
28.1015482193
 31
0.0
  0
LINE
  5
1624
330
213
100
AcDbEntity
  8
0
  6
Continuous
 62
     7
100
AcDbLine
 10
118.2136497334
 20
28.1015482193
 30
0.0
 11
119.4859265949
 21
28.1412803777
 31
0.0
  0
LWPOLYLINE
  5
1627
330
213
100
AcDbEntity
  8
0
  6
Continuous
 62
     7
100
AcDbPolyline
 90
        8
 70
     0
 43
0.0
 10
116.4543976155
 20
27.9377460784
 10
116.5911509351
 20
27.9407981037
 10
116.7471756103
 20
27.9445948055
 10
116.920707905
 20
27.9490734215
 10
117.1104307746
 20
27.9541997893
 10
117.3136204951
 20
27.9599154689
 10
117.5219832733
 20
27.9660041611
 10
117.7293604673
 20
27.9723024609
  0
LWPOLYLINE
  5
1628
330
213
100
AcDbEntity
  8
0
  6
Continuous
 62
     7
100
AcDbPolyline
 90
        7
 70
     0
 43
0.0
 10
114.3638572837
 20
27.9175296029
 10
114.4381088953
 20
27.9189852308
 10
114.6291172182
 20
27.9243052329
 10
114.8359240036
 20
27.9307962393
 10
115.0662073082
 20
27.9386655623
 10
115.3216961259
 20
27.9481205287
 10
115.6021543394
 20
27.9591685961
  0
LINE
  5
162A
330
213
100
AcDbEntity
  8
0
  6
Continuous
 62
     7
100
AcDbLine
 10
116.340300654
 20
27.9355441405
 30
0.0
 11
116.4543976155
 21
27.9377460784
 31
0.0
  0
LWPOLYLINE
  5
162C
330
213
100
AcDbEntity
  8
0
  6
Continuous
 62
     7
100
AcDbPolyline
 90
       12
 70
     0
 43
0.0
 10
113.9696809998
 20
27.9286588593
 10
114.0394233795
 20
27.9294676099
 10
114.1020191269
 20
27.9301272457
 10
114.1568384551
 20
27.9305902382
 10
114.2069903252
 20
27.9308378471
 10
114.2518607704
 20
27.9308122522
 10
114.2901714135
 20
27.930485708
 10
114.3213912198
 20
27.9298890648
 10
114.3454821338
 20
27.92909980760001
 10
114.362208817
 20
27.9282209543
 10
114.371290102
 20
27.9273488948
 10
114.373036665
 20
27.9267089842
  0
LWPOLYLINE
  5
162F
330
213
100
AcDbEntity
  8
0
  6
Continuous
 62
     7
100
AcDbPolyline
 90
        6
 70
     0
 43
0.0
 10
111.8939215364
 20
27.9268144253
 10
112.0071626642
 20
27.9272826258
 10
112.1227902472
 20
27.9276975404
 10
112.2396246007
 20
27.9280236068
 10
112.3571005534
 20
27.9282318889
 10
112.4748335679
 20
27.9283036954
  0
LINE
  5
1630
330
213
100
AcDbEntity
  8
0
  6
Continuous
 62
     7
100
AcDbLine
 10
111.5569080565
 20
27.9617953511
 30
0.0
 11
111.8584448748
 21
27.9629696502
 31
0.0
  0
LWPOLYLINE
  5
1631
330
213
100
AcDbEntity
  8
0
  6
Continuous
 62
     7
100
AcDbPolyline
 90
        6
 70
     0
 43
0.0
 10
111.8584448748
 20
27.9629696502
 10
111.9784037241
 20
27.9634027336
 10
112.1011451639
 20
27.9637883537
 10
112.225183949
 20
27.9640924307
 10
112.3499038779
 20
27.9642872498
 10
112.4748335673
 20
27.9643543324
  0
LWPOLYLINE
  5
1634
330
213
100
AcDbEntity
  8
0
  6
Continuous
 62
     7
100
AcDbPolyline
 90
        6
 70
     0
 43
0.0
 10
112.4748335686
 20
27.9643543325
 10
112.5991308247
 20
27.9642879228
 10
112.7232076426
 20
27.9640950273
 10
112.8466092878
 20
27.9637937505
 10
112.9686501368
 20
27.9634116777
 10
113.088340607
 20
27.9629804466
  0
LWPOLYLINE
  5
1635
330
213
100
AcDbEntity
  8
0
  6
Continuous
 62
     7
100
AcDbPolyline
 90
        8
 70
     0
 43
0.0
 10
112.4748335679
 20
27.9283036954
 10
112.5942221028
 20
27.9282298905
 10
112.7133249928
 20
27.9280159742
 10
112.8317550009
 20
27.9276816861
 10
112.9488477048
 20
27.9272577629
 10
113.0636443919
 20
27.9267801549
 10
113.1746905382
 20
27.9262865686
 10
113.3594195494
 20
27.9254548057
  0
LWPOLYLINE
  5
1636
330
213
100
AcDbEntity
  8
0
  6
Continuous
 62
     7
100
AcDbPolyline
 90
       22
 70
     0
 43
0.0
 10
113.088340607
 20
27.9629804466
 10
113.3971115105
 20
27.9617769021
 10
113.4759982008
 20
27.96150458670001
 10
113.5515436964
 20
27.9613964461
 10
113.6307668376
 20
27.9615284815
 10
113.7125832026
 20
27.9618981247
 10
113.7987569584
 20
27.9625488634
 10
113.8775473664
 20
27.9633251704
 10
113.9549184477
 20
27.9641608573
 10
114.0323034756
 20
27.9650024961
 10
114.1045284723
 20
27.9657671989
 10
114.1692329688
 20
27.9663764621
 10
114.2257860214
 20
27.9667829989
 10
114.2774132964
 20
27.9669652387
 10
114.3235236517
 20
27.9668698844
 10
114.36289741
 20
27.9664858605
 10
114.3951813223
 20
27.965865811
 10
114.4204713089
 20
27.9650986564
 10
114.4384756546
 20
27.9642797866
 10
114.4487519168
 20
27.9634849908
 10
114.4511257472
 20
27.962761676
 10
114.4468751064
 20
27.9622005857
  0
LWPOLYLINE
  5
1637
330
213
100
AcDbEntity
  8
0
  6
Continuous
 62
     7
100
AcDbPolyline
 90
        8
 70
     0
 43
0.0
 10
113.3594195494
 20
27.9254548057
 10
113.4350959346
 20
27.9251459076
 10
113.5073967013
 20
27.9249989777
 10
113.5833673481
 20
27.9251071805
 10
113.6618899084
 20
27.9254657239
 10
113.7445960859
 20
27.9261149094
 10
113.8205457044
 20
27.9269123618
 10
113.9696809998
 20
27.9286588593
  0
LWPOLYLINE
  5
163A
330
213
100
AcDbEntity
  8
0
  6
Continuous
 62
     7
100
AcDbPolyline
 90
        7
 70
     0
 43
0.0
 10
111.0876778081
 20
27.9631644956
 10
111.1690407356
 20
27.9623890334
 10
111.2548358772
 20
27.9617976515
 10
111.3340675159
 20
27.9614863222
 10
111.4085733149
 20
27.961397339
 10
111.4805195165
 20
27.9615207826
 10
111.5569080565
 20
27.9617953511
  0
LINE
  5
163B
330
213
100
AcDbEntity
  8
0
  6
Continuous
 62
     7
100
AcDbLine
 10
110.8560934185
 20
27.9656551027
 30
0.0
 11
111.0876778081
 21
27.9631644956
 31
0.0
  0
LWPOLYLINE
  5
163C
330
213
100
AcDbEntity
  8
0
  6
Continuous
 62
     7
100
AcDbPolyline
 90
        8
 70
     0
 43
0.0
 10
111.0894348656
 20
27.9273721245
 10
111.1642112007
 20
27.9265255574
 10
111.2428891527
 20
27.9257835836
 10
111.3224970339
 20
27.92527648550001
 10
111.3961114051
 20
27.9250363996
 10
111.4654606485
 20
27.9250180613
 10
111.5328073666
 20
27.9252120036
 10
111.8939215364
 20
27.9268144253
  0
LINE
  5
163D
330
213
100
AcDbEntity
  8
0
  6
Continuous
 62
     7
100
AcDbLine
 10
108.6093664817
 20
27.9355441405
 30
0.0
 11
108.4952695203
 21
27.9377460784
 31
0.0
  0
LWPOLYLINE
  5
163F
330
213
100
AcDbEntity
  8
0
  6
Continuous
 62
     7
100
AcDbPolyline
 90
        8
 70
     0
 43
0.0
 10
110.5858098521
 20
27.9175296029
 10
110.5115582405
 20
27.9189852308
 10
110.3205499176
 20
27.9243052329
 10
110.1137431322
 20
27.9307962393
 10
109.8834598276
 20
27.9386655623
 10
109.6279710099
 20
27.9481205287
 10
109.3475127964
 20
27.9591685961
 10
109.0437158459
 20
27.9714590166
  0
LWPOLYLINE
  5
1640
330
213
100
AcDbEntity
  8
0
  6
Continuous
 62
     7
100
AcDbPolyline
 90
        8
 70
     0
 43
0.0
 10
108.4952695203
 20
27.9377460784
 10
108.3585162006
 20
27.9407981037
 10
108.2024915255
 20
27.9445948055
 10
108.0289592308
 20
27.9490734215
 10
107.8392363612
 20
27.9541997893
 10
107.6360466406
 20
27.9599154689
 10
107.4276838625
 20
27.9660041611
 10
107.2203066685
 20
27.9723024609
  0
LWPOLYLINE
  5
1643
330
213
100
AcDbEntity
  8
0
  6
Continuous
 62
     7
100
AcDbPolyline
 90
        8
 70
     0
 43
0.0
 10
108.9147991745
 20
27.9761632647
 10
108.9015287211
 20
27.9765695951
 10
108.8882936914
 20
27.9769485917
 10
108.8757085293
 20
27.9772772071
 10
108.8637082066
 20
27.9775468902
 10
108.8526407238
 20
27.9777271982
 10
108.8449398145
 20
27.9777582763
 10
108.8406964989
 20
27.977654741
  0
LWPOLYLINE
  5
1646
330
213
100
AcDbEntity
  8
0
  6
Continuous
 62
     7
100
AcDbPolyline
 90
        5
 70
     0
 43
0.0
 10
105.6316783399
 20
28.0796252198
 10
105.5183561398
 20
28.0831584781
 10
105.427484534
 20
28.0862374544
 10
105.3441810532
 20
28.08929532030001
 10
105.2679659582
 20
28.0923431996
  0
LWPOLYLINE
  5
1647
330
213
100
AcDbEntity
  8
0
  6
Continuous
 62
     7
100
AcDbPolyline
 90
       10
 70
     0
 43
0.0
 10
107.2203066685
 20
27.9723024609
 10
107.0513812136
 20
27.9776174497
 10
106.88023631
 20
27.9831918471
 10
106.718017268
 20
27.9886796414
 10
106.5736325058
 20
27.9937599806
 10
106.444372582
 20
27.9985007142
 10
106.3202747166
 20
28.0032676109
 10
106.2026210735
 20
28.0080450509
 10
106.0974346119
 20
28.0126153308
 10
106.0079694121
 20
28.0168385766
  0
LINE
  5
1648
330
213
100
AcDbEntity
  8
0
  6
Continuous
 62
     7
100
AcDbLine
 10
107.6811116778
 20
28.0720016318
 30
0.0
 11
108.763080791
 21
28.0380606805
 31
0.0
  0
LINE
  5
164A
330
213
100
AcDbEntity
  8
0
  6
Continuous
 62
     7
100
AcDbLine
 10
108.763080791
 20
28.0380606805
 30
0.0
 11
109.2309843368
 21
28.0232981682
 31
0.0
  0
LINE
  5
164B
330
213
100
AcDbEntity
  8
0
  6
Continuous
 62
     7
100
AcDbLine
 10
109.2309843368
 20
28.0232981682
 30
0.0
 11
109.5001584303
 21
28.0147573448
 31
0.0
  0
LINE
  5
164E
330
213
100
AcDbEntity
  8
0
  6
Continuous
 62
     7
100
AcDbLine
 10
109.5001584303
 20
28.0147573448
 30
0.0
 11
109.8107148754
 21
28.0048266073
 31
0.0
  0
LINE
  5
164F
330
213
100
AcDbEntity
  8
0
  6
Continuous
 62
     7
100
AcDbLine
 10
109.8107148754
 20
28.0048266073
 30
0.0
 11
109.8840478368
 21
28.0024608393
 31
0.0
  0
LINE
  5
1650
330
213
100
AcDbEntity
  8
0
  6
Continuous
 62
     7
100
AcDbLine
 10
108.9401850599
 20
27.975331824
 30
0.0
 11
108.9147991745
 21
27.9761632647
 31
0.0
  0
LWPOLYLINE
  5
1652
330
213
100
AcDbEntity
  8
0
  6
Continuous
 62
     7
100
AcDbPolyline
 90
        4
 70
     0
 43
0.0
 10
105.6779246936
 20
28.0780981851
 10
105.6628901081
 20
28.0786154668
 10
105.6474127486
 20
28.0791261629
 10
105.6316783399
 20
28.0796252198
  0
LINE
  5
1655
330
213
100
AcDbEntity
  8
0
  6
Continuous
 62
     7
100
AcDbLine
 10
108.9740079654
 20
27.9741404226
 30
0.0
 11
108.9401850599
 21
27.975331824
 31
0.0
  0
LINE
  5
1657
330
213
100
AcDbEntity
  8
0
  6
Continuous
 62
     7
100
AcDbLine
 10
109.0140178615
 20
27.97263382360001
 30
0.0
 11
108.9740079654
 21
27.9741404226
 31
0.0
  0
LINE
  5
1659
330
213
100
AcDbEntity
  8
0
  6
Continuous
 62
     7
100
AcDbLine
 10
109.0437158459
 20
27.9714590166
 30
0.0
 11
109.0140178615
 21
27.97263382360001
 31
0.0
  0
LWPOLYLINE
  5
165B
330
213
100
AcDbEntity
  8
0
  6
Continuous
 62
     7
100
AcDbPolyline
 90
        7
 70
     0
 43
0.0
 10
105.2679659582
 20
28.0923431996
 10
105.2004295766
 20
28.0953173469
 10
105.1435981781
 20
28.0981325455
 10
105.0984941592
 20
28.1007312267
 10
105.065836915
 20
28.10306255590001
 10
105.0459227878
 20
28.1050976314
 10
105.0389285015
 20
28.1068124211
  0
LWPOLYLINE
  5
165C
330
213
100
AcDbEntity
  8
0
  6
Continuous
 62
     7
100
AcDbPolyline
 90
        6
 70
     0
 43
0.0
 10
105.7400447075
 20
28.0756278797
 10
105.7298003492
 20
28.0760906596
 10
105.7183426319
 20
28.0765741872
 10
105.7058136928
 20
28.0770717878
 10
105.6923044071
 20
28.0775810352
 10
105.6779246936
 20
28.0780981851
  0
LINE
  5
165E
330
213
100
AcDbEntity
  8
0
  6
Continuous
 62
     7
100
AcDbLine
 10
109.8645352551
 20
28.0030919604
 30
0.0
 11
109.8812309994
 21
28.0023062917
 31
0.0
  0
LINE
  5
165F
330
213
100
AcDbEntity
  8
0
  6
Continuous
 62
     7
100
AcDbLine
 10
105.7489698773
 20
28.0751940904
 30
0.0
 11
105.7400447075
 21
28.0756278797
 31
0.0
  0
LINE
  5
1660
330
213
100
AcDbEntity
  8
0
  6
Continuous
 62
     7
100
AcDbLine
 10
109.8812309994
 20
28.0023062917
 30
0.0
 11
109.897222635
 21
28.0015149251
 31
0.0
  0
LINE
  5
1662
330
213
100
AcDbEntity
  8
0
  6
Continuous
 62
     7
100
AcDbLine
 10
109.897222635
 20
28.0015149251
 30
0.0
 11
109.919084466
 21
28.0003892162
 31
0.0
  0
LINE
  5
1663
330
213
100
AcDbEntity
  8
0
  6
Continuous
 62
     7
100
AcDbLine
 10
109.919084466
 20
28.0003892162
 30
0.0
 11
109.9378893128
 21
27.9993880037
 31
0.0
  0
LINE
  5
1664
330
213
100
AcDbEntity
  8
0
  6
Continuous
 62
     7
100
AcDbLine
 10
109.9378893128
 20
27.9993880037
 30
0.0
 11
109.9610965734
 21
27.9981168954
 31
0.0
  0
LINE
  5
1666
330
213
100
AcDbEntity
  8
0
  6
Continuous
 62
     7
100
AcDbLine
 10
109.9610965734
 20
27.9981168954
 30
0.0
 11
109.9891476737
 21
27.9965348219
 31
0.0
  0
LINE
  5
1667
330
213
100
AcDbEntity
  8
0
  6
Continuous
 62
     7
100
AcDbLine
 10
109.9891476737
 20
27.9965348219
 30
0.0
 11
110.0215441336
 21
27.9946529499
 31
0.0
  0
LINE
  5
1668
330
213
100
AcDbEntity
  8
0
  6
Continuous
 62
     7
100
AcDbLine
 10
110.0215441336
 20
27.9946529499
 30
0.0
 11
110.0564299734
 21
27.9925683056
 31
0.0
  0
LWPOLYLINE
  5
1669
330
213
100
AcDbEntity
  8
0
  6
Continuous
 62
     7
100
AcDbPolyline
 90
        5
 70
     0
 43
0.0
 10
110.0564299734
 20
27.9925683056
 10
110.0958957223
 20
27.9901448749
 10
110.1176756123
 20
27.9887802427
 10
110.140189533
 20
27.9873505537
 10
110.163031257
 20
27.9858811636
  0
LINE
  5
166A
330
213
100
AcDbEntity
  8
0
  6
Continuous
 62
     7
100
AcDbLine
 10
110.163031257
 20
27.9858811636
 30
0.0
 11
110.2087243035
 21
27.9828880623
 31
0.0
  0
LINE
  5
166B
330
213
100
AcDbEntity
  8
0
  6
Continuous
 62
     7
100
AcDbLine
 10
110.2087243035
 20
27.9828880623
 30
0.0
 11
110.2535793663
 21
27.9798848834
 31
0.0
  0
LINE
  5
166C
330
213
100
AcDbEntity
  8
0
  6
Continuous
 62
     7
100
AcDbLine
 10
110.2535793663
 20
27.9798848834
 30
0.0
 11
110.2974855702
 21
27.9768872216
 31
0.0
  0
LINE
  5
166D
330
213
100
AcDbEntity
  8
0
  6
Continuous
 62
     7
100
AcDbLine
 10
110.2974855702
 20
27.9768872216
 30
0.0
 11
110.3406724482
 21
27.9738860933
 31
0.0
  0
LINE
  5
166E
330
213
100
AcDbEntity
  8
0
  6
Continuous
 62
     7
100
AcDbLine
 10
110.3406724482
 20
27.9738860933
 30
0.0
 11
110.3831813685
 21
27.9708839685
 31
0.0
  0
LINE
  5
166F
330
213
100
AcDbEntity
  8
0
  6
Continuous
 62
     7
100
AcDbLine
 10
110.3831813685
 20
27.9708839685
 30
0.0
 11
110.4253444089
 21
27.9678615386
 31
0.0
  0
LINE
  5
1670
330
213
100
AcDbEntity
  8
0
  6
Continuous
 62
     7
100
AcDbLine
 10
110.4253444089
 20
27.9678615386
 30
0.0
 11
110.4676268583
 21
27.9647879313
 31
0.0
  0
LWPOLYLINE
  5
1671
330
213
100
AcDbEntity
  8
0
  6
Continuous
 62
     7
100
AcDbPolyline
 90
       16
 70
     0
 43
0.0
 10
110.4676268583
 20
27.9647879313
 10
110.502847043
 20
27.9621963299
 10
110.5032576189
 20
27.962161189
 10
110.5042023058
 20
27.962068039
 10
110.5058044156
 20
27.9618828924
 10
110.5082505485
 20
27.9615461936
 10
110.5117599062
 20
27.96096111300001
 10
110.5165358363
 20
27.9599820323
 10
110.522627301
 20
27.958431876
 10
110.5297994019
 20
27.95616593530001
 10
110.537696194
 20
27.9530935506
 10
110.5460494375
 20
27.9491342642
 10
110.5547718009
 20
27.9441367917
 10
110.5639424908
 20
27.9377887337
 10
110.5735822894
 20
27.9296554256
 10
110.5766306951
 20
27.9267088858
  0
LWPOLYLINE
  5
1675
330
213
100
AcDbEntity
  8
0
  6
Continuous
 62
     7
100
AcDbPolyline
 90
        5
 70
     0
 43
0.0
 10
116.1392875554
 20
27.936393569
 10
116.1517156177
 20
27.9347527822
 10
116.1877743318
 20
27.9340217937
 10
116.2510917029
 20
27.9342809954
 10
116.340300654
 20
27.9355441405
  0
LWPOLYLINE
  5
1677
330
213
100
AcDbEntity
  8
0
  6
Continuous
 62
     7
100
AcDbPolyline
 90
       12
 70
     0
 43
0.0
 10
110.5027930733
 20
27.9622004329
 10
110.4984184631
 20
27.9628381665
 10
110.5017083274
 20
27.9635748838
 10
110.5129811113
 20
27.9643796691
 10
110.5320135287
 20
27.9652008668
 10
110.5583602527
 20
27.96595845820001
 10
110.5917566302
 20
27.9665543445
 10
110.6323672605
 20
27.9669018061
 10
110.679493773
 20
27.9669548159
 10
110.7320394628
 20
27.9667349915
 10
110.7899208927
 20
27.9662944597
 10
110.8560934185
 20
27.9656551027
  0
LINE
  5
1678
330
213
100
AcDbEntity
  8
0
  6
Continuous
 62
     7
100
AcDbLine
 10
116.1089706369
 20
27.977654741
 30
0.0
 11
116.1104581233
 21
27.9774314864
 31
0.0
  0
LWPOLYLINE
  5
167F
330
213
100
AcDbEntity
  8
0
  6
Continuous
 62
     7
100
AcDbPolyline
 90
        4
 70
     0
 43
0.0
 10
99.99341540919999
 20
45.3235420804
 10
99.9954313257
 20
45.319314351
 10
99.99743142360001
 20
45.3146437099
 10
99.9992667575
 20
45.30982096439999
  0
LINE
  5
1692
330
213
100
AcDbEntity
  8
0
  6
Continuous
 62
     7
100
AcDbLine
 10
105.9748335679
 20
26.1427825823
 30
0.0
 11
105.9748335679
 21
25.6427825823
 31
0.0
  0
LINE
  5
1696
330
213
100
AcDbEntity
  8
0
  6
Continuous
 62
     7
100
AcDbLine
 10
105.7786992365
 20
28.0728991755
 30
0.0
 11
105.7804541366355
 21
28.13137535123277
 31
0.0
  0
LINE
  5
1699
330
213
100
AcDbEntity
  8
0
  6
Continuous
 62
     7
100
AcDbLine
 10
124.3627684202
 20
44.683222581
 30
0.0
 11
124.3697971722
 21
44.68546966739999
 31
0.0
  0
LINE
  5
169B
330
213
100
AcDbEntity
  8
0
  6
Continuous
 62
     7
100
AcDbLine
 10
124.3552064877
 20
44.68087776479999
 30
0.0
 11
124.3627684202
 21
44.683222581
 31
0.0
  0
LINE
  5
169D
330
213
100
AcDbEntity
  8
0
  6
Continuous
 62
     7
100
AcDbLine
 10
124.3471840703
 20
44.6784716427
 30
0.0
 11
124.3552064877
 21
44.68087776479999
 31
0.0
  0
LINE
  5
169F
330
213
100
AcDbEntity
  8
0
  6
Continuous
 62
     7
100
AcDbLine
 10
124.3410967946
 20
44.6767016251
 30
0.0
 11
124.3471840703
 21
44.6784716427
 31
0.0
  0
LWPOLYLINE
  5
16A1
330
213
100
AcDbEntity
  8
0
  6
Continuous
 62
     7
100
AcDbPolyline
 90
        5
 70
     0
 43
0.0
 10
116.3895487602
 20
27.9364945713
 10
116.4276265086
 20
27.9281103104
 10
116.4805409628
 20
27.9085293124
 10
116.5332023774
 20
27.8789834089
 10
116.5831188355
 20
27.8387920076
  0
LINE
  5
16A3
330
213
100
AcDbEntity
  8
0
  6
Continuous
 62
     7
100
AcDbLine
 10
110.5766206386
 20
27.9267188163
 30
0.0
 11
110.9382219155
 21
27.5651175394
 31
0.0
  0
LINE
  5
16B4
330
213
100
AcDbEntity
  8
0
  6
Continuous
 62
     7
100
AcDbLine
 10
99.99298040760001
 20
45.3243954619
 30
0.0
 11
99.99341540919999
 21
45.3235420804
 31
0.0
  0
LINE
  5
16BC
330
213
100
AcDbEntity
  8
0
  6
Continuous
 62
     7
100
AcDbLine
 10
124.1667954947
 20
44.63921278409999
 30
0.0
 11
124.1740141904
 21
44.64209209779999
 31
0.0
  0
LINE
  5
16BD
330
213
100
AcDbEntity
  8
0
  6
Continuous
 62
     7
100
AcDbLine
 10
124.4334219114
 20
44.70886737079999
 30
0.0
 11
124.4450951941
 21
44.7137803535
 31
0.0
  0
LINE
  5
16C0
330
213
100
AcDbEntity
  8
0
  6
Continuous
 62
     7
100
AcDbLine
 10
124.4262594395
 20
44.7059500778
 30
0.0
 11
124.4334219114
 21
44.70886737079999
 31
0.0
  0
LINE
  5
16C4
330
213
100
AcDbEntity
  8
0
  6
Continuous
 62
     7
100
AcDbLine
 10
124.4178246384
 20
44.7026092745
 30
0.0
 11
124.4262594395
 21
44.7059500778
 31
0.0
  0
LINE
  5
16C6
330
213
100
AcDbEntity
  8
0
  6
Continuous
 62
     7
100
AcDbLine
 10
124.4096982548
 20
44.69948616159999
 30
0.0
 11
124.4178246384
 21
44.7026092745
 31
0.0
  0
LINE
  5
16C9
330
213
100
AcDbEntity
  8
0
  6
Continuous
 62
     7
100
AcDbLine
 10
124.4029216637
 20
44.69695214409999
 30
0.0
 11
124.4096982548
 21
44.69948616159999
 31
0.0
  0
LINE
  5
16CB
330
213
100
AcDbEntity
  8
0
  6
Continuous
 62
     7
100
AcDbLine
 10
124.1740141904
 20
44.64209209779999
 30
0.0
 11
124.1768205484
 21
44.64308225409999
 31
0.0
  0
LINE
  5
16CC
330
213
100
AcDbEntity
  8
0
  6
Continuous
 62
     7
100
AcDbLine
 10
124.3945493555
 20
44.69390904429999
 30
0.0
 11
124.4029216637
 21
44.69695214409999
 31
0.0
  0
LINE
  5
16CF
330
213
100
AcDbEntity
  8
0
  6
Continuous
 62
     7
100
AcDbLine
 10
124.3841449482
 20
44.69026087119999
 30
0.0
 11
124.3945493555
 21
44.69390904429999
 31
0.0
  0
LWPOLYLINE
  5
16D2
330
213
100
AcDbEntity
  8
0
  6
Continuous
 62
     7
100
AcDbPolyline
 90
        5
 70
     0
 43
0.0
 10
124.1768205484
 20
44.64308225409999
 10
124.1783775745
 20
44.6436052106
 10
124.1806602729
 20
44.644319583
 10
124.1823578669
 20
44.6448198686
 10
124.1835992721
 20
44.64516914409999
  0
LINE
  5
16D3
330
213
100
AcDbEntity
  8
0
  6
Continuous
 62
     7
100
AcDbLine
 10
124.3773949353
 20
44.6879725503
 30
0.0
 11
124.3841449482
 21
44.69026087119999
 31
0.0
  0
LINE
  5
16D5
330
213
100
AcDbEntity
  8
0
  6
Continuous
 62
     7
100
AcDbLine
 10
124.3697971722
 20
44.68546966739999
 30
0.0
 11
124.3773949353
 21
44.6879725503
 31
0.0
  0
LWPOLYLINE
  5
16E2
330
213
100
AcDbEntity
  8
0
  6
Continuous
 62
     7
100
AcDbPolyline
 90
        5
 70
     0
 43
0.0
 10
99.983338394
 20
45.3403336882
 10
99.98600213549998
 20
45.3364431831
 10
99.98855299030001
 20
45.3323958469
 10
99.9909814993
 20
45.3281915939
 10
99.99298040760001
 20
45.3243954619
  0
LINE
  5
16EE
330
213
100
AcDbEntity
  8
0
  6
Continuous
 62
     7
100
AcDbLine
 10
108.8392090125
 20
27.9774314864
 30
0.0
 11
108.8414720552603
 21
28.03558741007228
 31
0.0
  0
LWPOLYLINE
  5
16F0
330
213
100
AcDbEntity
  8
0
  6
Continuous
 62
     7
100
AcDbPolyline
 90
       16
 70
     0
 43
0.0
 10
111.359513967
 20
42.55138571159999
 10
111.3796150431
 20
42.59937516399999
 10
111.4227794305
 20
42.6862514126
 10
111.4730716454
 20
42.76923748059999
 10
111.5302812277
 20
42.8479679388
 10
111.5938925408
 20
42.9217215298
 10
111.6636374789
 20
42.9901730287
 10
111.7388780435
 20
43.0526879873
 10
111.8192899182
 20
43.1089865563
 10
111.9041412226
 20
43.15854953649999
 10
111.9930451562
 20
43.20114296829999
 10
112.0851830379
 20
43.2363719171
 10
112.1801109016
 20
43.26406565350001
 10
112.2770483774
 20
43.28398883659999
 10
112.3755563199
 20
43.29602976229999
 10
112.4748335679
 20
43.3000570264
  0
LINE
  5
16F3
330
213
100
AcDbEntity
  8
0
  6
Continuous
 62
     7
100
AcDbLine
 10
124.5006296829
 20
44.7399730444
 30
0.0
 11
124.5101048759
 21
44.74492899869999
 31
0.0
  0
LINE
  5
16F5
330
213
100
AcDbEntity
  8
0
  6
Continuous
 62
     7
100
AcDbLine
 10
124.4935971003
 20
44.736388746
 30
0.0
 11
124.5006296829
 21
44.7399730444
 31
0.0
  0
LINE
  5
16F7
330
213
100
AcDbEntity
  8
0
  6
Continuous
 62
     7
100
AcDbLine
 10
124.4848651797
 20
44.7320500193
 30
0.0
 11
124.4935971003
 21
44.736388746
 31
0.0
  0
LINE
  5
16F9
330
213
100
AcDbEntity
  8
0
  6
Continuous
 62
     7
100
AcDbLine
 10
124.4783653116
 20
44.72889810299999
 30
0.0
 11
124.4848651797
 21
44.7320500193
 31
0.0
  0
LINE
  5
16FB
330
213
100
AcDbEntity
  8
0
  6
Continuous
 62
     7
100
AcDbLine
 10
124.4709642289
 20
44.7253892328
 30
0.0
 11
124.4783653116
 21
44.72889810299999
 31
0.0
  0
LINE
  5
16FD
330
213
100
AcDbEntity
  8
0
  6
Continuous
 62
     7
100
AcDbLine
 10
124.4602617463
 20
44.7204641324
 30
0.0
 11
124.4709642289
 21
44.7253892328
 31
0.0
  0
LINE
  5
16FF
330
213
100
AcDbEntity
  8
0
  6
Continuous
 62
     7
100
AcDbLine
 10
124.4524939297
 20
44.7169981721
 30
0.0
 11
124.4602617463
 21
44.7204641324
 31
0.0
  0
LINE
  5
1701
330
213
100
AcDbEntity
  8
0
  6
Continuous
 62
     7
100
AcDbLine
 10
124.4450951941
 20
44.7137803535
 30
0.0
 11
124.4524939297
 21
44.7169981721
 31
0.0
  0
LINE
  5
1715
330
213
100
AcDbEntity
  8
0
  6
Continuous
 62
     7
100
AcDbLine
 10
124.5667301826663
 20
44.777730889
 30
0.0
 11
124.5764521078
 21
44.7839844011
 31
0.0
  0
LINE
  5
1719
330
213
100
AcDbEntity
  8
0
  6
Continuous
 62
     7
100
AcDbLine
 10
124.5570903698
 20
44.7717655254
 30
0.0
 11
124.5667301826663
 21
44.777730889
 31
0.0
  0
LINE
  5
171B
330
213
100
AcDbEntity
  8
0
  6
Continuous
 62
     7
100
AcDbLine
 10
124.5501151492
 20
44.76753495609999
 30
0.0
 11
124.5570903698
 21
44.7717655254
 31
0.0
  0
LINE
  5
171D
330
213
100
AcDbEntity
  8
0
  6
Continuous
 62
     7
100
AcDbLine
 10
124.5420103613
 20
44.7627296652
 30
0.0
 11
124.5501151492
 21
44.76753495609999
 31
0.0
  0
LINE
  5
1720
330
213
100
AcDbEntity
  8
0
  6
Continuous
 62
     7
100
AcDbLine
 10
124.5305187765
 20
44.7561164782
 30
0.0
 11
124.5420103613
 21
44.7627296652
 31
0.0
  0
LINE
  5
1722
330
213
100
AcDbEntity
  8
0
  6
Continuous
 62
     7
100
AcDbLine
 10
124.5210044617
 20
44.7508144727
 30
0.0
 11
124.5305187765
 21
44.7561164782
 31
0.0
  0
LINE
  5
1725
330
213
100
AcDbEntity
  8
0
  6
Continuous
 62
     7
100
AcDbLine
 10
124.5101048759
 20
44.74492899869999
 30
0.0
 11
124.5210044617
 21
44.7508144727
 31
0.0
  0
LWPOLYLINE
  5
1736
330
213
100
AcDbEntity
  8
0
  6
Continuous
 62
     7
100
AcDbPolyline
 90
        5
 70
     0
 43
0.0
 10
99.971727505
 20
45.3543424825
 10
99.97475747110001
 20
45.3510709414
 10
99.97770776180001
 20
45.3476465502
 10
99.98057075959998
 20
45.34406785779999
 10
99.983338394
 20
45.3403336882
  0
LWPOLYLINE
  5
173B
330
213
100
AcDbEntity
  8
0
  6
Continuous
 62
     7
100
AcDbPolyline
 90
        6
 70
     0
 43
0.0
 10
100.8261893411
 20
44.60726250169991
 10
100.8322802476
 20
44.6003757217
 10
100.842319916
 20
44.58494598149999
 10
100.8499908761
 20
44.56819307149999
 10
100.8551194364
 20
44.5504788679
 10
100.8566678992
 20
44.54155155939999
  0
LINE
  5
173C
330
213
100
AcDbEntity
  8
0
  6
Continuous
 62
     7
100
AcDbLine
 10
116.5831188355
 20
27.8387920076
 30
0.0
 11
116.6309286921
 21
27.7830593156
 31
0.0
  0
LWPOLYLINE
  5
173E
330
213
100
AcDbEntity
  8
0
  6
Continuous
 62
     7
100
AcDbPolyline
 90
        6
 70
     0
 43
0.0
 10
111.2797565656
 20
42.1300051845
 10
111.2837848112
 20
42.2262972003
 10
111.295873775
 20
42.3221375843
 10
111.3159637252
 20
42.4166976389
 10
111.3439543015
 20
42.5093752634
 10
111.359513967
 20
42.55138571159999
  0
LINE
  5
1740
330
213
100
AcDbEntity
  8
0
  6
Continuous
 62
     7
100
AcDbLine
 10
124.6264030506
 20
44.81896225669999
 30
0.0
 11
124.6361536728
 21
44.82641641569999
 31
0.0
  0
LINE
  5
1746
330
213
100
AcDbEntity
  8
0
  6
Continuous
 62
     7
100
AcDbLine
 10
124.6100869548
 20
44.806961409
 30
0.0
 11
124.6264030506
 21
44.81896225669999
 31
0.0
  0
LINE
  5
1748
330
213
100
AcDbEntity
  8
0
  6
Continuous
 62
     7
100
AcDbLine
 10
124.6021940038
 20
44.80136161949999
 30
0.0
 11
124.6100869548
 21
44.806961409
 31
0.0
  0
LINE
  5
174A
330
213
100
AcDbEntity
  8
0
  6
Continuous
 62
     7
100
AcDbLine
 10
124.5959422581
 20
44.797018286
 30
0.0
 11
124.6021940038
 21
44.80136161949999
 31
0.0
  0
LINE
  5
174C
330
213
100
AcDbEntity
  8
0
  6
Continuous
 62
     7
100
AcDbLine
 10
124.5892178101
 20
44.7924357226
 30
0.0
 11
124.5959422581
 21
44.797018286
 31
0.0
  0
LINE
  5
174D
330
213
100
AcDbEntity
  8
0
  6
Continuous
 62
     7
100
AcDbLine
 10
124.5840340077
 20
44.7889649234
 30
0.0
 11
124.5892178101
 21
44.7924357226
 31
0.0
  0
LINE
  5
174E
330
213
100
AcDbEntity
  8
0
  6
Continuous
 62
     7
100
AcDbLine
 10
124.5764521078
 20
44.7839844011
 30
0.0
 11
124.5840340077
 21
44.7889649234
 31
0.0
  0
LWPOLYLINE
  5
1765
330
213
100
AcDbEntity
  8
0
  6
Continuous
 62
     7
100
AcDbPolyline
 90
        4
 70
     0
 43
0.0
 10
116.1104581233
 20
27.9774314864
 10
116.1191670715
 20
27.9654142883
 10
116.1268459919
 20
27.9541450064
 10
116.1335093104
 20
27.9445085595
  0
LINE
  5
1766
330
213
100
AcDbEntity
  8
0
  6
Continuous
 62
     7
100
AcDbLine
 10
116.1335093104
 20
27.9445085595
 30
0.0
 11
116.1392875554
 21
27.936393569
 31
0.0
  0
LINE
  5
1769
330
213
100
AcDbEntity
  8
0
  6
Continuous
 62
     7
100
AcDbLine
 10
116.9568785264
 20
27.3175546732
 30
0.0
 11
116.6309286879
 21
27.7830592854
 31
0.0
  0
LWPOLYLINE
  5
1776
330
213
100
AcDbEntity
  8
0
  6
Continuous
 62
     7
100
AcDbPolyline
 90
       20
 70
     0
 43
0.0
 10
113.6699105702
 20
42.1300051845
 10
113.6657603947
 20
42.0320381781
 10
113.6533393159
 20
41.9347649983
 10
113.6328164292
 20
41.83909855769999
 10
113.6043753264
 20
41.7455743008
 10
113.568350082
 20
41.6550201035
 10
113.524993981
 20
41.5678559527
 10
113.4747557586
 20
41.4848059054
 10
113.4178730296
 20
41.4061436364
 10
113.3548209101
 20
41.3324619677
 10
113.2858060578
 20
41.2639946656
 10
113.2113742058
 20
41.20130968459999
 10
113.1317528453
 20
41.1446577613
 10
113.0475645751
 20
41.09456022089999
 10
112.9591009724
 20
41.0512867137
 10
112.8671001986
 20
41.0152987982
 10
112.7719637287
 20
40.9868550715
 10
112.6744908417
 20
40.9662949363
 10
112.5751551457
 20
40.9538193082
 10
112.4748335679
 20
40.9496349827
  0
LINE
  5
1779
330
213
100
AcDbEntity
  8
0
  6
Continuous
 62
     7
100
AcDbLine
 10
107.9927886094
 20
27.3175546732
 30
0.0
 11
108.3187383969
 21
27.7830592125
 31
0.0
  0
LINE
  5
177C
330
213
100
AcDbEntity
  8
0
  6
Continuous
 62
     7
100
AcDbLine
 10
124.6854154453
 20
44.86761401729999
 30
0.0
 11
124.6917344713
 21
44.8733614297
 31
0.0
  0
LINE
  5
177F
330
213
100
AcDbEntity
  8
0
  6
Continuous
 62
     7
100
AcDbLine
 10
124.6775067284
 20
44.8605761749
 30
0.0
 11
124.6854154453
 21
44.86761401729999
 31
0.0
  0
LINE
  5
1784
330
213
100
AcDbEntity
  8
0
  6
Continuous
 62
     7
100
AcDbLine
 10
124.6615364257
 20
44.84687543609999
 30
0.0
 11
124.6775067284
 21
44.8605761749
 31
0.0
  0
LINE
  5
1786
330
213
100
AcDbEntity
  8
0
  6
Continuous
 62
     7
100
AcDbLine
 10
124.6536352711
 20
44.8403396288
 30
0.0
 11
124.6606130771
 21
44.84613894
 31
0.0
  0
LINE
  5
178A
330
213
100
AcDbEntity
  8
0
  6
Continuous
 62
     7
100
AcDbLine
 10
124.6410281267
 20
44.8302262393
 30
0.0
 11
124.6536352711
 21
44.8403396288
 31
0.0
  0
LINE
  5
178C
330
213
100
AcDbEntity
  8
0
  6
Continuous
 62
     7
100
AcDbLine
 10
124.6361536728
 20
44.82641641569999
 30
0.0
 11
124.6410206997
 21
44.83022059079999
 31
0.0
  0
LWPOLYLINE
  5
17A0
330
213
100
AcDbEntity
  8
0
  6
Continuous
 62
     7
100
AcDbPolyline
 90
        6
 70
     0
 43
0.0
 10
99.95561883459998
 20
45.3684726407
 10
99.9589479249
 20
45.36593666789999
 10
99.96222913330001
 20
45.36325783659999
 10
99.96545680709999
 20
45.36043396189999
 10
99.968625037
 20
45.3574628607
 10
99.971727505
 20
45.3543424825
  0
LINE
  5
17A5
330
213
100
AcDbEntity
  8
0
  6
Continuous
 62
     7
100
AcDbLine
 10
108.8161578254
 20
27.9445085595
 30
0.0
 11
108.8103795804
 21
27.936393569
 31
0.0
  0
LWPOLYLINE
  5
17A6
330
213
100
AcDbEntity
  8
0
  6
Continuous
 62
     7
100
AcDbPolyline
 90
        4
 70
     0
 43
0.0
 10
108.8392090125
 20
27.9774314864
 10
108.8305000643
 20
27.9654142883
 10
108.8228211439
 20
27.9541450064
 10
108.8161578254
 20
27.9445085595
  0
LINE
  5
17A8
330
213
100
AcDbEntity
  8
0
  6
Continuous
 62
     7
100
AcDbLine
 10
108.3187383397
 20
27.7830591672
 30
0.0
 11
108.3602053202
 21
27.8325740417
 31
0.0
  0
LINE
  5
17AB
330
213
100
AcDbEntity
  8
0
  6
Continuous
 62
     7
100
AcDbLine
 10
124.7343968484
 20
44.9153241693
 30
0.0
 11
124.7420217509
 21
44.92345855069999
 31
0.0
  0
LINE
  5
17B2
330
213
100
AcDbEntity
  8
0
  6
Continuous
 62
     7
100
AcDbLine
 10
124.7146176503
 20
44.8951533391
 30
0.0
 11
124.7343968484
 21
44.9153241693
 31
0.0
  0
LINE
  5
17B8
330
213
100
AcDbEntity
  8
0
  6
Continuous
 62
     7
100
AcDbLine
 10
124.6984258672
 20
44.8795711295
 30
0.0
 11
124.7146176503
 21
44.8951533391
 31
0.0
  0
LINE
  5
17BA
330
213
100
AcDbEntity
  8
0
  6
Continuous
 62
     7
100
AcDbLine
 10
124.6917344713
 20
44.8733614297
 30
0.0
 11
124.6984258672
 21
44.8795711295
 31
0.0
  0
LINE
  5
17D2
330
213
100
AcDbEntity
  8
0
  6
Continuous
 62
     7
100
AcDbLine
 10
116.1104581233
 20
27.9774314864
 30
0.0
 11
116.1081950599992
 21
28.03558793792499
 31
0.0
  0
LINE
  5
17D4
330
213
100
AcDbEntity
  8
0
  6
Continuous
 62
     7
100
AcDbLine
 10
124.7844567601
 20
44.9728821935
 30
0.0
 11
124.7934375424
 21
44.984360723
 31
0.0
  0
LINE
  5
17D6
330
213
100
AcDbEntity
  8
0
  6
Continuous
 62
     7
100
AcDbLine
 10
124.7782906062
 20
44.9652239412
 30
0.0
 11
124.7844567601
 21
44.9728821935
 31
0.0
  0
LINE
  5
17D8
330
213
100
AcDbEntity
  8
0
  6
Continuous
 62
     7
100
AcDbLine
 10
124.7736567895
 20
44.95958225149999
 30
0.0
 11
124.7792909788
 21
44.9664542109
 31
0.0
  0
LINE
  5
17D9
330
213
100
AcDbEntity
  8
0
  6
Continuous
 62
     7
100
AcDbLine
 10
124.768940892
 20
44.953937985
 30
0.0
 11
124.7736567895
 21
44.95958225149999
 31
0.0
  0
LINE
  5
17DF
330
213
100
AcDbEntity
  8
0
  6
Continuous
 62
     7
100
AcDbLine
 10
124.7536470646
 20
44.9362731286
 30
0.0
 11
124.768940892
 21
44.953937985
 31
0.0
  0
LINE
  5
17E4
330
213
100
AcDbEntity
  8
0
  6
Continuous
 62
     7
100
AcDbLine
 10
124.7420217509
 20
44.92345855069999
 30
0.0
 11
124.7536470646
 21
44.9362731286
 31
0.0
  0
LWPOLYLINE
  5
17E6
330
213
100
AcDbEntity
  8
0
  6
Continuous
 62
     7
100
AcDbPolyline
 90
        5
 70
     0
 43
0.0
 10
108.3602053202
 20
27.8325740417
 10
108.4128484594
 20
27.8765199388
 10
108.4692994196
 20
27.9086087852
 10
108.5234919112
 20
27.9285216333
 10
108.5598769059
 20
27.9364992314
  0
LINE
  5
17E8
330
213
100
AcDbEntity
  8
0
  6
Continuous
 62
     7
100
AcDbLine
 10
100.501235168
 20
44.71522147439999
 30
0.0
 11
100.507925054
 21
44.71232999789999
 31
0.0
  0
LINE
  5
17EA
330
213
100
AcDbEntity
  8
0
  6
Continuous
 62
     7
100
AcDbLine
 10
100.4932063501
 20
44.7187569069
 30
0.0
 11
100.501235168
 21
44.71522147439999
 31
0.0
  0
LINE
  5
17EB
330
213
100
AcDbEntity
  8
0
  6
Continuous
 62
     7
100
AcDbLine
 10
100.4867584784
 20
44.7216660821
 30
0.0
 11
100.4932063501
 21
44.7187569069
 31
0.0
  0
LWPOLYLINE
  5
17EC
330
213
100
AcDbEntity
  8
0
  6
Continuous
 62
     7
100
AcDbPolyline
 90
        8
 70
     0
 43
0.0
 10
99.93149379360001
 20
45.38237062229999
 10
99.93498735480001
 20
45.38078361350001
 10
99.93847434190001
 20
45.3790677374
 10
99.94194951530001
 20
45.37722045299999
 10
99.9454073935
 20
45.3752393871
 10
99.9488422537
 20
45.373122351
 10
99.9522481338
 20
45.3708673581
 10
99.95561883459998
 20
45.3684726407
  0
LINE
  5
17EF
330
213
100
AcDbEntity
  8
0
  6
Continuous
 62
     7
100
AcDbLine
 10
100.4770478144
 20
44.72616664979999
 30
0.0
 11
100.4867584784
 21
44.7216660821
 31
0.0
  0
LWPOLYLINE
  5
17FD
330
213
100
AcDbEntity
  8
0
  6
Continuous
 62
     7
100
AcDbPolyline
 90
        6
 70
     0
 43
0.0
 10
113.5901528903
 20
42.5513865187
 10
113.6056999508
 20
42.5094122265
 10
113.6336928612
 20
42.4167387242
 10
113.6537869208
 20
42.3221757019
 10
113.6658800505
 20
42.2263243378
 10
113.6699105702
 20
42.1300051845
  0
LINE
  5
1802
330
213
100
AcDbEntity
  8
0
  6
Continuous
 62
     7
100
AcDbLine
 10
124.820091009
 20
45.02093795279999
 30
0.0
 11
124.8321204374
 21
45.03884488879999
 31
0.0
  0
LINE
  5
1805
330
213
100
AcDbEntity
  8
0
  6
Continuous
 62
     7
100
AcDbLine
 10
124.8143521183
 20
45.0127199663
 30
0.0
 11
124.820091009
 21
45.02093795279999
 31
0.0
  0
LINE
  5
180C
330
213
100
AcDbEntity
  8
0
  6
Continuous
 62
     7
100
AcDbLine
 10
124.7998710948
 20
44.99283228189999
 30
0.0
 11
124.8143521183
 21
45.0127199663
 31
0.0
  0
LINE
  5
180F
330
213
100
AcDbEntity
  8
0
  6
Continuous
 62
     7
100
AcDbLine
 10
124.7934375424
 20
44.984360723
 30
0.0
 11
124.7998710948
 21
44.99283228189999
 31
0.0
  0
LWPOLYLINE
  5
1813
330
213
100
AcDbEntity
  8
0
  6
Continuous
 62
     7
100
AcDbPolyline
 90
       13
 70
     0
 43
0.0
 10
110.5766300679
 20
27.926709387
 10
110.5769524627
 20
27.9270366005
 10
110.5830043215
 20
27.9278759843
 10
110.5965277173
 20
27.92875001510001
 10
110.6173295314
 20
27.929576857
 10
110.6451654932
 20
27.930257569
 10
110.6798702427
 20
27.9307036272
 10
110.7213583651
 20
27.9308632744
 10
110.7684523485
 20
27.9307381358
 10
110.8200172293
 20
27.930378966
 10
110.8777430246
 20
27.9298221598
 10
110.9428815594
 20
27.9290944216
 10
111.0894348656
 20
27.9273721245
  0
LINE
  5
1816
330
213
100
AcDbEntity
  8
0
  6
Continuous
 62
     7
100
AcDbLine
 10
100.5814097293
 20
44.68497146819999
 30
0.0
 11
100.5880952298
 21
44.6828465524
 31
0.0
  0
LINE
  5
1818
330
213
100
AcDbEntity
  8
0
  6
Continuous
 62
     7
100
AcDbLine
 10
100.5748500204
 20
44.68711466600001
 30
0.0
 11
100.5814097293
 21
44.68497146819999
 31
0.0
  0
LINE
  5
1819
330
213
100
AcDbEntity
  8
0
  6
Continuous
 62
     7
100
AcDbLine
 10
100.5708759325
 20
44.6884408082
 30
0.0
 11
100.5748500204
 21
44.68711466600001
 31
0.0
  0
LINE
  5
181A
330
213
100
AcDbEntity
  8
0
  6
Continuous
 62
     7
100
AcDbLine
 10
100.5666039999
 20
44.6898896177
 30
0.0
 11
100.5708759325
 21
44.6884408082
 31
0.0
  0
LINE
  5
181B
330
213
100
AcDbEntity
  8
0
  6
Continuous
 62
     7
100
AcDbLine
 10
100.5621796154
 20
44.6914164621
 30
0.0
 11
100.5666039999
 21
44.6898896177
 31
0.0
  0
LINE
  5
181C
330
213
100
AcDbEntity
  8
0
  6
Continuous
 62
     7
100
AcDbLine
 10
100.5578301552
 20
44.6929437167
 30
0.0
 11
100.5621796154
 21
44.6914164621
 31
0.0
  0
LINE
  5
181D
330
213
100
AcDbEntity
  8
0
  6
Continuous
 62
     7
100
AcDbLine
 10
100.5541167113
 20
44.69426735899999
 30
0.0
 11
100.5578301552
 21
44.6929437167
 31
0.0
  0
LINE
  5
181E
330
213
100
AcDbEntity
  8
0
  6
Continuous
 62
     7
100
AcDbLine
 10
100.551642069
 20
44.6951605668
 30
0.0
 11
100.5541167113
 21
44.69426735899999
 31
0.0
  0
LINE
  5
181F
330
213
100
AcDbEntity
  8
0
  6
Continuous
 62
     7
100
AcDbLine
 10
100.5452221206
 20
44.69751614999999
 30
0.0
 11
100.551642069
 21
44.6951605668
 31
0.0
  0
LINE
  5
1820
330
213
100
AcDbEntity
  8
0
  6
Continuous
 62
     7
100
AcDbLine
 10
100.5400424683
 20
44.6994583943
 30
0.0
 11
100.5452221206
 21
44.69751614999999
 31
0.0
  0
LINE
  5
1821
330
213
100
AcDbEntity
  8
0
  6
Continuous
 62
     7
100
AcDbLine
 10
100.5384683318703
 20
44.70005695781632
 30
0.0
 11
100.5400424683
 21
44.6994583943
 31
0.0
  0
LINE
  5
1822
330
213
100
AcDbEntity
  8
0
  6
Continuous
 62
     7
100
AcDbLine
 10
100.5320635934
 20
44.7025234801
 30
0.0
 11
100.5384683318703
 21
44.70005695781632
 31
0.0
  0
LINE
  5
1823
330
213
100
AcDbEntity
  8
0
  6
Continuous
 62
     7
100
AcDbLine
 10
100.5275696741
 20
44.70428950609999
 30
0.0
 11
100.5320635934
 21
44.7025234801
 31
0.0
  0
LINE
  5
1824
330
213
100
AcDbEntity
  8
0
  6
Continuous
 62
     7
100
AcDbLine
 10
100.5230608977
 20
44.70609003759999
 30
0.0
 11
100.5275696741
 21
44.70428950609999
 31
0.0
  0
LINE
  5
1826
330
213
100
AcDbEntity
  8
0
  6
Continuous
 62
     7
100
AcDbLine
 10
100.5145958679
 20
44.70954896899999
 30
0.0
 11
100.5230608977
 21
44.70609003759999
 31
0.0
  0
LINE
  5
1828
330
213
100
AcDbEntity
  8
0
  6
Continuous
 62
     7
100
AcDbLine
 10
100.507925054
 20
44.71232999789999
 30
0.0
 11
100.5145958679
 21
44.70954896899999
 31
0.0
  0
LINE
  5
1829
330
213
100
AcDbEntity
  8
0
  6
Continuous
 62
     7
100
AcDbLine
 10
113.5700392594
 20
42.5994039766
 30
0.0
 11
113.5901528903
 21
42.5513865187
 31
0.0
  0
LINE
  5
182B
330
213
100
AcDbEntity
  8
0
  6
Continuous
 62
     7
100
AcDbLine
 10
124.8698785783
 20
45.1022640059
 30
0.0
 11
124.8747629504
 21
45.1114434051
 31
0.0
  0
LINE
  5
182D
330
213
100
AcDbEntity
  8
0
  6
Continuous
 62
     7
100
AcDbLine
 10
124.8662905095
 20
45.0956797411
 30
0.0
 11
124.8698785783
 21
45.1022640059
 31
0.0
  0
LINE
  5
182F
330
213
100
AcDbEntity
  8
0
  6
Continuous
 62
     7
100
AcDbLine
 10
124.8613536534
 20
45.0868387951
 30
0.0
 11
124.8665056163
 21
45.0960729956
 31
0.0
  0
LINE
  5
1832
330
213
100
AcDbEntity
  8
0
  6
Continuous
 62
     7
100
AcDbLine
 10
124.8558635955
 20
45.07727877679999
 30
0.0
 11
124.8613536534
 21
45.0868387951
 31
0.0
  0
LINE
  5
1834
330
213
100
AcDbEntity
  8
0
  6
Continuous
 62
     7
100
AcDbLine
 10
124.8509462127
 20
45.0689431842
 30
0.0
 11
124.8559401295
 21
45.07741015719999
 31
0.0
  0
LINE
  5
1836
330
213
100
AcDbEntity
  8
0
  6
Continuous
 62
     7
100
AcDbLine
 10
124.846983367
 20
45.0623788507
 30
0.0
 11
124.8509462127
 21
45.0689431842
 31
0.0
  0
LINE
  5
183A
330
213
100
AcDbEntity
  8
0
  6
Continuous
 62
     7
100
AcDbLine
 10
124.8358772769
 20
45.0446388052
 30
0.0
 11
124.846983367
 21
45.0623788507
 31
0.0
  0
LINE
  5
183C
330
213
100
AcDbEntity
  8
0
  6
Continuous
 62
     7
100
AcDbLine
 10
124.8321204374
 20
45.03884488879999
 30
0.0
 11
124.8358772769
 21
45.0446388052
 31
0.0
  0
LINE
  5
183D
330
213
100
AcDbEntity
  8
0
  6
Continuous
 62
     7
100
AcDbLine
 10
124.3327143155
 20
44.6743422709
 30
0.0
 11
124.3410967946
 21
44.6767016251
 31
0.0
  0
LWPOLYLINE
  5
183F
330
213
100
AcDbEntity
  8
0
  6
Continuous
 62
     7
100
AcDbPolyline
 90
       16
 70
     0
 43
0.0
 10
124.1835992721
 20
44.64516914409999
 10
124.1845920991
 20
44.6454384451
 10
124.1854510073
 20
44.6456642252
 10
124.1862434904
 20
44.6458666105
 10
124.187015851
 20
44.6460583617
 10
124.1878505805
 20
44.6462594862
 10
124.1890200324
 20
44.6465306731
 10
124.1904417369
 20
44.6468438884
 10
124.1920053414
 20
44.64716763729999
 10
124.1936281484
 20
44.6474807758
 10
124.1952495386
 20
44.6477704136
 10
124.196825293
 20
44.6480296209
 10
124.1983235818
 20
44.648255616
 10
124.1997220158
 20
44.64844837939999
 10
124.2010053427
 20
44.6486096158
 10
124.2012866445
 20
44.648642926
  0
LINE
  5
1846
330
213
100
AcDbEntity
  8
0
  6
Continuous
 62
     7
100
AcDbLine
 10
124.3051403873
 20
44.66720976869999
 30
0.0
 11
124.3327143155
 21
44.6743422709
 31
0.0
  0
LINE
  5
184C
330
213
100
AcDbEntity
  8
0
  6
Continuous
 62
     7
100
AcDbLine
 10
124.2849836732
 20
44.6625957425
 30
0.0
 11
124.3051403873
 21
44.66720976869999
 31
0.0
  0
LINE
  5
184D
330
213
100
AcDbEntity
  8
0
  6
Continuous
 62
     7
100
AcDbLine
 10
124.2819496201
 20
44.6619445458
 30
0.0
 11
124.2849836732
 21
44.6625957425
 31
0.0
  0
LINE
  5
184E
330
213
100
AcDbEntity
  8
0
  6
Continuous
 62
     7
100
AcDbLine
 10
124.2774119646
 20
44.660991526
 30
0.0
 11
124.2819496201
 21
44.6619445458
 31
0.0
  0
LINE
  5
184F
330
213
100
AcDbEntity
  8
0
  6
Continuous
 62
     7
100
AcDbLine
 10
124.2734997851
 20
44.66018994499999
 30
0.0
 11
124.2774119646
 21
44.660991526
 31
0.0
  0
LINE
  5
1850
330
213
100
AcDbEntity
  8
0
  6
Continuous
 62
     7
100
AcDbLine
 10
124.2714096791
 20
44.65976938939999
 30
0.0
 11
124.2734997851
 21
44.66018994499999
 31
0.0
  0
LWPOLYLINE
  5
1851
330
213
100
AcDbEntity
  8
0
  6
Continuous
 62
     7
100
AcDbPolyline
 90
       20
 70
     0
 43
0.0
 10
112.4748335679
 20
40.9496349827
 10
112.3744388037
 20
40.953825425
 10
112.2749545189
 20
40.96633223699999
 10
112.1772972807
 20
40.9869585178
 10
112.0819875219
 20
41.01549859659999
 10
111.989851978
 20
41.051600753
 10
111.9013058414
 20
41.0949916903
 10
111.8170809264
 20
41.14520142219999
 10
111.7374698951
 20
41.2019480076
 10
111.6630933376
 20
41.2646972326
 10
111.5941703592
 20
41.333190123
 10
111.5312335337
 20
41.4068561364
 10
111.4744818121
 20
41.48545477989999
 10
111.424387153
 20
41.56837618459999
 10
111.3811656473
 20
41.6553591211
 10
111.3452356943
 20
41.74573448559999
 10
111.3168423565
 20
41.8391308179
 10
111.2963339449
 20
41.934729146
 10
111.2839107814
 20
42.0319906156
 10
111.2797565656
 20
42.1300051845
  0
LINE
  5
1853
330
213
100
AcDbEntity
  8
0
  6
Continuous
 62
     7
100
AcDbLine
 10
100.7574532285
 20
44.6472082309
 30
0.0
 11
100.7622649065
 21
44.6461513023
 31
0.0
  0
LINE
  5
1857
330
213
100
AcDbEntity
  8
0
  6
Continuous
 62
     7
100
AcDbLine
 10
100.6313966794
 20
44.6704863531
 30
0.0
 11
100.6772196312
 21
44.6599775753
 31
0.0
  0
LINE
  5
185B
330
213
100
AcDbEntity
  8
0
  6
Continuous
 62
     7
100
AcDbLine
 10
99.91066478360002
 20
45.3893442309
 30
0.0
 11
99.91409398240001
 21
45.3884713444
 31
0.0
  0
LINE
  5
185D
330
213
100
AcDbEntity
  8
0
  6
Continuous
 62
     7
100
AcDbLine
 10
100.6270241678
 20
44.6716259284
 30
0.0
 11
100.6313966794
 21
44.6704863531
 31
0.0
  0
LINE
  5
185F
330
213
100
AcDbEntity
  8
0
  6
Continuous
 62
     7
100
AcDbLine
 10
100.6200107547
 20
44.67350384289999
 30
0.0
 11
100.6270241678
 21
44.6716259284
 31
0.0
  0
LINE
  5
1860
330
213
100
AcDbEntity
  8
0
  6
Continuous
 62
     7
100
AcDbLine
 10
100.6137379838
 20
44.67523644489999
 30
0.0
 11
100.6200107547
 21
44.67350384289999
 31
0.0
  0
LWPOLYLINE
  5
1862
330
213
100
AcDbEntity
  8
0
  6
Continuous
 62
     7
100
AcDbPolyline
 90
        3
 70
     0
 43
0.0
 10
99.91409398240001
 20
45.3884713444
 10
99.9175502764
 20
45.38748576129999
 10
99.9210224759
 20
45.3863860281
  0
LINE
  5
1865
330
213
100
AcDbEntity
  8
0
  6
Continuous
 62
     7
100
AcDbLine
 10
100.5967525241
 20
44.6801817749
 30
0.0
 11
100.6137379838
 21
44.67523644489999
 31
0.0
  0
LINE
  5
1867
330
213
100
AcDbEntity
  8
0
  6
Continuous
 62
     7
100
AcDbLine
 10
100.5880952298
 20
44.6828465524
 30
0.0
 11
100.5967525241
 21
44.6801817749
 31
0.0
  0
LWPOLYLINE
  5
1869
330
213
100
AcDbEntity
  8
0
  6
Continuous
 62
     7
100
AcDbPolyline
 90
        4
 70
     0
 43
0.0
 10
99.9210224759
 20
45.3863860281
 10
99.92450670709999
 20
45.3851689429
 10
99.9279986572
 20
45.3838314563
 10
99.93149379360001
 20
45.38237062229999
  0
LINE
  5
186A
330
213
100
AcDbEntity
  8
0
  6
Continuous
 62
     7
100
AcDbLine
 10
119.1709678993
 20
28.0728991755
 30
0.0
 11
119.1693859725
 21
28.1313950747995
 31
0.0
  0
LINE
  5
186F
330
213
100
AcDbEntity
  8
0
  6
Continuous
 62
     7
100
AcDbLine
 10
118.9748335679
 20
26.1427825823
 30
0.0
 11
118.9748335679
 21
25.6427825823
 31
0.0
  0
LINE
  5
1871
330
213
100
AcDbEntity
  8
0
  6
Continuous
 62
     7
100
AcDbLine
 10
124.903840111
 20
45.172528136
 30
0.0
 11
124.9069397631
 21
45.17984027719999
 31
0.0
  0
LINE
  5
1873
330
213
100
AcDbEntity
  8
0
  6
Continuous
 62
     7
100
AcDbLine
 10
124.898951601
 20
45.1613623601
 30
0.0
 11
124.903840111
 21
45.172528136
 31
0.0
  0
LINE
  5
1875
330
213
100
AcDbEntity
  8
0
  6
Continuous
 62
     7
100
AcDbLine
 10
124.8946653545
 20
45.1519030439
 30
0.0
 11
124.898951601
 21
45.1613623601
 31
0.0
  0
LINE
  5
1878
330
213
100
AcDbEntity
  8
0
  6
Continuous
 62
     7
100
AcDbLine
 10
124.8883076461
 20
45.13839619569999
 30
0.0
 11
124.8946653545
 21
45.1519030439
 31
0.0
  0
LINE
  5
187B
330
213
100
AcDbEntity
  8
0
  6
Continuous
 62
     7
100
AcDbLine
 10
124.8831961731
 20
45.1279518059
 30
0.0
 11
124.8883076461
 21
45.13839619569999
 31
0.0
  0
LINE
  5
187D
330
213
100
AcDbEntity
  8
0
  6
Continuous
 62
     7
100
AcDbLine
 10
124.8789129423
 20
45.1194580735
 30
0.0
 11
124.8832480927
 21
45.12805615529999
 31
0.0
  0
LINE
  5
1881
330
213
100
AcDbEntity
  8
0
  6
Continuous
 62
     7
100
AcDbLine
 10
124.8747629504
 20
45.1114434051
 30
0.0
 11
124.8789129423
 21
45.1194580735
 31
0.0
  0
LINE
  5
1884
330
213
100
AcDbEntity
  8
0
  6
Continuous
 62
     7
100
AcDbLine
 10
114.3730432442
 20
27.9267155634
 30
0.0
 11
114.0114452202
 21
27.5651175394
 31
0.0
  0
LWPOLYLINE
  5
1885
330
213
100
AcDbEntity
  8
0
  6
Continuous
 62
     7
100
AcDbPolyline
 90
       17
 70
     0
 43
0.0
 10
114.3730364955
 20
27.9267088799
 10
114.3755956263
 20
27.9291958444
 10
114.3850311738
 20
27.9372573913
 10
114.3942270479
 20
27.9437141583
 10
114.4030802557
 20
27.9488528641
 10
114.4115237733
 20
27.9529006193
 10
114.4193585806
 20
27.9559864742
 10
114.4262892486
 20
27.9582173509
 10
114.4320617652
 20
27.959734396
 10
114.4366313344
 20
27.9607200327
 10
114.4400883007
 20
27.9613385788
 10
114.4426246954
 20
27.9617203055
 10
114.4444221036
 20
27.9619511627
 10
114.4456321011
 20
27.9620857014
 10
114.44638401
 20
27.9621590379
 10
114.4467660825
 20
27.96219213
 10
114.4468454497
 20
27.9621983887
  0
LWPOLYLINE
  5
1886
330
213
100
AcDbEntity
  8
0
  6
Continuous
 62
     7
100
AcDbPolyline
 90
        8
 70
     0
 43
0.0
 10
112.9380691428
 20
27.4552825823
 10
112.9019279075
 20
27.4351010905
 10
112.8382550163
 20
27.4048906689
 10
112.7854522552
 20
27.38451549800001
 10
112.7419505138
 20
27.3706694465
 10
112.6849463505
 20
27.3563097339
 10
112.6519531418
 20
27.3498780759
 10
112.6119898909
 20
27.3438720038
  0
LINE
  5
1888
330
213
100
AcDbEntity
  8
0
  6
Continuous
 62
     7
100
AcDbLine
 10
124.2671988967
 20
44.65893809819999
 30
0.0
 11
124.2714096791
 21
44.65976938939999
 31
0.0
  0
LINE
  5
1889
330
213
100
AcDbEntity
  8
0
  6
Continuous
 62
     7
100
AcDbLine
 10
124.2633413327
 20
44.6581953022
 30
0.0
 11
124.2671988967
 21
44.65893809819999
 31
0.0
  0
LINE
  5
188A
330
213
100
AcDbEntity
  8
0
  6
Continuous
 62
     7
100
AcDbLine
 10
124.2595681947
 20
44.6574862089
 30
0.0
 11
124.2633413327
 21
44.6581953022
 31
0.0
  0
LINE
  5
188B
330
213
100
AcDbEntity
  8
0
  6
Continuous
 62
     7
100
AcDbLine
 10
124.2569851203746
 20
44.65701403631475
 30
0.0
 11
124.2595681947
 21
44.6574862089
 31
0.0
  0
LINE
  5
188C
330
213
100
AcDbEntity
  8
0
  6
Continuous
 62
     7
100
AcDbLine
 10
124.2513548
 20
44.6560014554
 30
0.0
 11
124.2569857563
 21
44.6570104875
 31
0.0
  0
LINE
  5
188E
330
213
100
AcDbEntity
  8
0
  6
Continuous
 62
     7
100
AcDbLine
 10
124.2433834761
 20
44.6546380435
 30
0.0
 11
124.2513548
 21
44.6560014554
 31
0.0
  0
LINE
  5
1890
330
213
100
AcDbEntity
  8
0
  6
Continuous
 62
     7
100
AcDbLine
 10
124.2329205372
 20
44.65296283029999
 30
0.0
 11
124.2433834761
 21
44.6546380435
 31
0.0
  0
LINE
  5
1892
330
213
100
AcDbEntity
  8
0
  6
Continuous
 62
     7
100
AcDbLine
 10
124.2253208214
 20
44.65182764699999
 30
0.0
 11
124.2329205372
 21
44.65296283029999
 31
0.0
  0
LINE
  5
1895
330
213
100
AcDbEntity
  8
0
  6
Continuous
 62
     7
100
AcDbLine
 10
124.2174888117
 20
44.65072877689999
 30
0.0
 11
124.2253208214
 21
44.65182764699999
 31
0.0
  0
LINE
  5
1897
330
213
100
AcDbEntity
  8
0
  6
Continuous
 62
     7
100
AcDbLine
 10
124.2097945211
 20
44.6497192947
 30
0.0
 11
124.2174888117
 21
44.65072877689999
 31
0.0
  0
LINE
  5
1899
330
213
100
AcDbEntity
  8
0
  6
Continuous
 62
     7
100
AcDbLine
 10
124.201333244
 20
44.6486483741
 30
0.0
 11
124.2097945211
 21
44.6497192947
 31
0.0
  0
LWPOLYLINE
  5
189C
330
213
100
AcDbEntity
  8
0
  6
Continuous
 62
     7
100
AcDbPolyline
 90
       15
 70
     0
 43
0.0
 10
112.4748335679
 20
43.3000570264
 10
112.5741017434
 20
43.2960305022
 10
112.6726056331
 20
43.28399097739999
 10
112.7695481949
 20
43.2640676576
 10
112.8644797593
 20
43.2363733682
 10
112.9566243012
 20
43.2011419771
 10
113.0455317132
 20
43.15854645579999
 10
113.1303852593
 20
43.10898140649999
 10
113.2107964516
 20
43.05268237109999
 10
113.2860346837
 20
42.990168483
 10
113.355775937
 20
42.9217201065
 10
113.4193825367
 20
42.847972183
 10
113.4765877755
 20
42.7692491
 10
113.5268762632
 20
42.6862721935
 10
113.5700392594
 20
42.5994039766
  0
LWPOLYLINE
  5
189D
330
213
100
AcDbEntity
  8
0
  6
Continuous
 62
     7
100
AcDbPolyline
 90
        7
 70
     0
 43
0.0
 10
100.7483804836
 20
44.64864292689999
 10
100.7486178461
 20
44.6486148683
 10
100.7495676841
 20
44.64849736829999
 10
100.7505866645
 20
44.6483621396
 10
100.7516693022
 20
44.6482081871
 10
100.7528079973
 20
44.64803494689999
 10
100.7539925278
 20
44.6478425024
  0
LINE
  5
189E
330
213
100
AcDbEntity
  8
0
  6
Continuous
 62
     7
100
AcDbLine
 10
100.7325128365
 20
44.6506752975
 30
0.0
 11
100.7483804836
 21
44.64864292689999
 31
0.0
  0
LINE
  5
189F
330
213
100
AcDbEntity
  8
0
  6
Continuous
 62
     7
100
AcDbLine
 10
100.7483338855
 20
44.64864837479999
 30
0.0
 11
100.7482870786
 21
44.64865395399999
 31
0.0
  0
LINE
  5
18AE
330
213
100
AcDbEntity
  8
0
  6
Continuous
 62
     7
100
AcDbLine
 10
99.9005123805
 20
45.3913336713
 30
0.0
 11
99.90394383299999
 21
45.39076003659999
 31
0.0
  0
LWPOLYLINE
  5
18B0
330
213
100
AcDbEntity
  8
0
  6
Continuous
 62
     7
100
AcDbPolyline
 90
       23
 70
     0
 43
0.0
 10
100.7539925278
 20
44.6478425024
 10
100.7552094758
 20
44.64763185699999
 10
100.7564415519
 20
44.647405266
 10
100.7576667797
 20
44.64716663949999
 10
100.7588574764
 20
44.64692201729999
 10
100.7599789874
 20
44.6466801081
 10
100.7609897179
 20
44.6464524947
 10
100.7618380237
 20
44.64625439279999
 10
100.7624781331
 20
44.6461006037
 10
100.7630638576
 20
44.64595660949999
 10
100.763653159
 20
44.6458085838
 10
100.7642647771
 20
44.6456516155
 10
100.7649206404
 20
44.64547952359999
 10
100.7656484297
 20
44.64528400169999
 10
100.7664894537
 20
44.6450520925
 10
100.7675076227
 20
44.64476276640001
 10
100.7688051738
 20
44.6443803974
 10
100.7705397349
 20
44.6438451763
 10
100.7729334737
 20
44.6430607646
 10
100.7761773973
 20
44.64191132989999
 10
100.7802150251
 20
44.6403376327
 10
100.784901432
 20
44.6383039852
 10
100.7901619445
 20
44.6357416171
  0
LINE
  5
18B2
330
213
100
AcDbEntity
  8
0
  6
Continuous
 62
     7
100
AcDbLine
 10
100.6945804383
 20
44.65666594079999
 30
0.0
 11
100.7325128365
 21
44.6506752975
 31
0.0
  0
LINE
  5
18B3
330
213
100
AcDbEntity
  8
0
  6
Continuous
 62
     7
100
AcDbLine
 10
100.6896637895
 20
44.6575670734
 30
0.0
 11
100.6961659633
 21
44.6563720598
 31
0.0
  0
LINE
  5
18B6
330
213
100
AcDbEntity
  8
0
  6
Continuous
 62
     7
100
AcDbLine
 10
99.90394383299999
 20
45.39076003659999
 30
0.0
 11
99.91066478360002
 21
45.3893442309
 31
0.0
  0
LINE
  5
18B7
330
213
100
AcDbEntity
  8
0
  6
Continuous
 62
     7
100
AcDbLine
 10
100.6772196312
 20
44.6599775753
 30
0.0
 11
100.689501386686
 21
44.65756707339999
 31
0.0
  0
LINE
  5
18BC
330
213
100
AcDbEntity
  8
0
  6
Continuous
 62
     7
100
AcDbLine
 10
119.0628630603
 20
26.3307686639
 30
0.0
 11
119.4639111545999
 21
27.8275005282
 31
0.0
  0
LINE
  5
18C3
330
213
100
AcDbEntity
  8
0
  6
Continuous
 62
     7
100
AcDbLine
 10
124.9288969565
 20
45.2379949495
 30
0.0
 11
124.9320333131
 21
45.24735134060001
 31
0.0
  0
LINE
  5
18C6
330
213
100
AcDbEntity
  8
0
  6
Continuous
 62
     7
100
AcDbLine
 10
124.9267470944
 20
45.2317035114
 30
0.0
 11
124.9288969565
 21
45.2379949495
 31
0.0
  0
LWPOLYLINE
  5
18C7
330
213
100
AcDbEntity
  8
0
  6
Continuous
 62
     7
100
AcDbPolyline
 90
        5
 70
     0
 43
0.0
 10
119.1585327593
 20
28.0328883091
 10
119.1615646041
 20
28.041731782
 10
119.1646422353
 20
28.0513108317
 10
119.1677739143
 20
28.06168055030001
 10
119.1709678993
 20
28.0728991755
  0
LINE
  5
18CA
330
213
100
AcDbEntity
  8
0
  6
Continuous
 62
     7
100
AcDbLine
 10
124.9235202479
 20
45.22254122399999
 30
0.0
 11
124.9269461229
 21
45.23228259369999
 31
0.0
  0
LINE
  5
18CE
330
213
100
AcDbEntity
  8
0
  6
Continuous
 62
     7
100
AcDbLine
 10
118.696083549
 20
27.782703349
 30
0.0
 11
118.6057953999
 21
27.534638698
 31
0.0
  0
LINE
  5
18D1
330
213
100
AcDbEntity
  8
0
  6
Continuous
 62
     7
100
AcDbLine
 10
124.9186130776
 20
45.2091962372
 30
0.0
 11
124.9235202479
 21
45.22254122399999
 31
0.0
  0
LINE
  5
18D4
330
213
100
AcDbEntity
  8
0
  6
Continuous
 62
     7
100
AcDbLine
 10
124.9150959191
 20
45.20001775979999
 30
0.0
 11
124.9186130776
 21
45.2091962372
 31
0.0
  0
LINE
  5
18D5
330
213
100
AcDbEntity
  8
0
  6
Continuous
 62
     7
100
AcDbLine
 10
118.6960834715
 20
27.7827033772
 30
0.0
 11
118.7026542424
 21
27.7994887087
 31
0.0
  0
LINE
  5
18D8
330
213
100
AcDbEntity
  8
0
  6
Continuous
 62
     7
100
AcDbLine
 10
124.9107892108
 20
45.18918563919999
 30
0.0
 11
124.9150959191
 21
45.20001775979999
 31
0.0
  0
LINE
  5
18DA
330
213
100
AcDbEntity
  8
0
  6
Continuous
 62
     7
100
AcDbLine
 10
124.9069397631
 20
45.17984027719999
 30
0.0
 11
124.9107892108
 21
45.18918563919999
 31
0.0
  0
LINE
  5
18DE
330
213
100
AcDbEntity
  8
0
  6
Continuous
 62
     7
100
AcDbLine
 10
102.5334087877
 20
44.6474209284
 30
0.0
 11
102.3464448466
 21
44.6470733763
 31
0.0
  0
LINE
  5
18DF
330
213
100
AcDbEntity
  8
0
  6
Continuous
 62
     7
100
AcDbLine
 10
102.3464448466
 20
44.6470733763
 30
0.0
 11
102.1982709034
 21
44.6468397626
 31
0.0
  0
LINE
  5
18E0
330
213
100
AcDbEntity
  8
0
  6
Continuous
 62
     7
100
AcDbLine
 10
102.1982709034
 20
44.6468397626
 30
0.0
 11
102.0260531206
 21
44.64660925279999
 31
0.0
  0
LWPOLYLINE
  5
18E1
330
213
100
AcDbEntity
  8
0
  6
Continuous
 62
     7
100
AcDbPolyline
 90
       16
 70
     0
 43
0.0
 10
102.0260531206
 20
44.64660925279999
 10
101.8305392707
 20
44.64640569100001
 10
101.7218186766
 20
44.64632207970001
 10
101.6081014559
 20
44.6462572502
 10
101.4913828358
 20
44.6462215767
 10
101.3775228135
 20
44.6462166518
 10
101.271242006
 20
44.6462500272
 10
101.1744887407
 20
44.6463179885
 10
101.0870272933
 20
44.6464222317
 10
101.0091528618
 20
44.6465639228
 10
100.9410802572
 20
44.6467451103
 10
100.8830000166
 20
44.64696846579999
 10
100.8351199565
 20
44.64723823039999
 10
100.7975792601
 20
44.64755204359999
 10
100.7703817518
 20
44.64792116
 10
100.7539136809
 20
44.6483491808
  0
LINE
  5
18E4
330
213
100
AcDbEntity
  8
0
  6
Continuous
 62
     7
100
AcDbLine
 10
103.032635824
 20
44.6475982989
 30
0.0
 11
102.9443636673
 21
44.6475970042
 31
0.0
  0
LWPOLYLINE
  5
18E5
330
213
100
AcDbEntity
  8
0
  6
Continuous
 62
     7
100
AcDbPolyline
 90
        3
 70
     0
 43
0.0
 10
103.3375359277
 20
44.64759942319999
 10
103.2276586636
 20
44.6475975227
 10
103.032635824
 20
44.6475982989
  0
LWPOLYLINE
  5
18E6
330
213
100
AcDbEntity
  8
0
  6
Continuous
 62
     7
100
AcDbPolyline
 90
        3
 70
     0
 43
0.0
 10
121.6121312081
 20
44.64759942319999
 10
121.7220084722
 20
44.6475975227
 10
121.9170313118
 20
44.6475982989
  0
LINE
  5
18E7
330
213
100
AcDbEntity
  8
0
  6
Continuous
 62
     7
100
AcDbLine
 10
121.0773897336
 20
44.6476146192
 30
0.0
 11
121.6121312081
 21
44.64759942319999
 31
0.0
  0
LINE
  5
18E8
330
213
100
AcDbEntity
  8
0
  6
Continuous
 62
     7
100
AcDbLine
 10
112.4748341231
 20
44.64794595859999
 30
0.0
 11
110.3658881242
 21
44.6479257441
 31
0.0
  0
LINE
  5
18E9
330
213
100
AcDbEntity
  8
0
  6
Continuous
 62
     7
100
AcDbLine
 10
112.474834122
 20
44.64794595859999
 30
0.0
 11
114.5837790116
 21
44.6479257441
 31
0.0
  0
LINE
  5
18EA
330
213
100
AcDbEntity
  8
0
  6
Continuous
 62
     7
100
AcDbLine
 10
110.3658881242
 20
44.6479257441
 30
0.0
 11
108.3245866446
 21
44.64785620989999
 31
0.0
  0
LINE
  5
18EB
330
213
100
AcDbEntity
  8
0
  6
Continuous
 62
     7
100
AcDbLine
 10
114.5837790116
 20
44.6479257441
 30
0.0
 11
116.6250804912
 21
44.64785620989999
 31
0.0
  0
LINE
  5
18EC
330
213
100
AcDbEntity
  8
0
  6
Continuous
 62
     7
100
AcDbLine
 10
108.3245866446
 20
44.64785620989999
 30
0.0
 11
103.3375359277
 21
44.64759942319999
 31
0.0
  0
LWPOLYLINE
  5
18ED
330
213
100
AcDbEntity
  8
0
  6
Continuous
 62
     7
100
AcDbPolyline
 90
        5
 70
     0
 43
0.0
 10
102.9443636673
 20
44.6475970042
 10
102.7184981017
 20
44.6476054013
 10
102.6540117807
 20
44.64759340399999
 10
102.5927135515
 20
44.6475288275
 10
102.5334087877
 20
44.6474209284
  0
LINE
  5
18EE
330
213
100
AcDbEntity
  8
0
  6
Continuous
 62
     7
100
AcDbLine
 10
121.9170313118
 20
44.6475982989
 30
0.0
 11
122.2311690341
 21
44.6476054013
 31
0.0
  0
LINE
  5
18EF
330
213
100
AcDbEntity
  8
0
  6
Continuous
 62
     7
100
AcDbLine
 10
116.6250804912
 20
44.64785620989999
 30
0.0
 11
118.9441159394
 21
44.6477268882
 31
0.0
  0
LINE
  5
18F0
330
213
100
AcDbEntity
  8
0
  6
Continuous
 62
     7
100
AcDbLine
 10
118.9441159394
 20
44.6477268882
 30
0.0
 11
121.0773897336
 21
44.6476146192
 31
0.0
  0
LWPOLYLINE
  5
18F1
330
213
100
AcDbEntity
  8
0
  6
Continuous
 62
     7
100
AcDbPolyline
 90
        6
 70
     0
 43
0.0
 10
122.2311690341
 20
44.6476054013
 10
122.2956553551
 20
44.64759340399999
 10
122.3569535843
 20
44.6475288275
 10
122.4162583481
 20
44.6474209284
 10
122.4755553798
 20
44.6473068699
 10
122.6032222892
 20
44.6470733763
  0
LWPOLYLINE
  5
18F2
330
213
100
AcDbEntity
  8
0
  6
Continuous
 62
     7
100
AcDbPolyline
 90
       16
 70
     0
 43
0.0
 10
123.1191278651
 20
44.64640569100001
 10
123.2278484592
 20
44.64632207970001
 10
123.3415656799
 20
44.6462572502
 10
123.4582843
 20
44.6462215767
 10
123.5721443223
 20
44.6462166518
 10
123.6784251298
 20
44.6462500272
 10
123.7751783951
 20
44.6463179885
 10
123.8626398425
 20
44.6464222317
 10
123.940514274
 20
44.6465639228
 10
124.0085868786
 20
44.6467451103
 10
124.0666671192
 20
44.64696846579999
 10
124.1145471793
 20
44.64723823039999
 10
124.1520878757
 20
44.64755204359999
 10
124.179285384
 20
44.64792116
 10
124.1957534549
 20
44.6483491808
 10
124.201333244
 20
44.6486483741
  0
LWPOLYLINE
  5
18F3
330
213
100
AcDbEntity
  8
0
  6
Continuous
 62
     7
100
AcDbPolyline
 90
        3
 70
     0
 43
0.0
 10
122.8347129793
 20
44.6467227225
 10
122.9236140152
 20
44.64660925279999
 10
123.1191278651
 20
44.64640569100001
  0
LINE
  5
18F4
330
213
100
AcDbEntity
  8
0
  6
Continuous
 62
     7
100
AcDbLine
 10
122.6032222892
 20
44.6470733763
 30
0.0
 11
122.8347129793
 21
44.6467227225
 31
0.0
  0
LINE
  5
18F5
330
213
100
AcDbEntity
  8
0
  6
Continuous
 62
     7
100
AcDbLine
 10
100.7539136809
 20
44.6483491808
 30
0.0
 11
100.7483338855
 21
44.64864837479999
 31
0.0
  0
LINE
  5
18F6
330
213
100
AcDbEntity
  8
0
  6
Continuous
 62
     7
100
AcDbLine
 10
99.88163644750073
 20
45.39278258229999
 30
0.0
 11
99.8989877664
 21
45.39156293909999
 31
0.0
  0
LINE
  5
18FB
330
213
100
AcDbEntity
  8
0
  6
Continuous
 62
     7
100
AcDbLine
 10
99.8989877664
 20
45.39156293909999
 30
0.0
 11
99.9005123805
 21
45.3913336713
 31
0.0
  0
LWPOLYLINE
  5
18FC
330
213
100
AcDbEntity
  8
0
  6
Continuous
 62
     7
100
AcDbPolyline
 90
       19
 70
     0
 43
0.0
 10
124.0929992359
 20
44.5415515547
 10
124.094288627
 20
44.5492192418
 10
124.0962977076
 20
44.55770146529999
 10
124.0988275555
 20
44.5658360016
 10
124.1018276981
 20
44.5735968397
 10
124.1052478479
 20
44.58096365390001
 10
124.1090383722
 20
44.58792138779999
 10
124.1131506161
 20
44.5944597463
 10
124.1175373753
 20
44.60057305
 10
124.1221532129
 20
44.6062598258
 10
124.126954685
 20
44.6115223633
 10
124.1319002861
 20
44.616366089
 10
124.1369463047
 20
44.6207957314
 10
124.1420464155
 20
44.6248164555
 10
124.1471554841
 20
44.6284375048
 10
124.1522404811
 20
44.631678226
 10
124.1572489508
 20
44.634547162
 10
124.1621200721
 20
44.637053403
 10
124.1667954947
 20
44.63921278409999
  0
LINE
  5
1900
330
213
100
AcDbEntity
  8
0
  6
Continuous
 62
     7
100
AcDbLine
 10
119.9107386342
 20
28.1068124211
 30
0.0
 11
119.924594827
 21
28.15683474510001
 31
0.0
  0
LWPOLYLINE
  5
1904
330
213
100
AcDbEntity
  8
0
  6
Continuous
 62
     7
100
AcDbPolyline
 90
       26
 70
     0
 43
0.0
 10
124.9470867484
 20
45.2990323983
 10
124.9488521314
 20
45.3052093868
 10
124.951353774
 20
45.31240573909999
 10
124.9542194876
 20
45.31928245199999
 10
124.957413875
 20
45.3258317091
 10
124.96090336
 20
45.33204860589999
 10
124.9646562876
 20
45.3379307896
 10
124.968642968
 20
45.34347809569999
 10
124.972835693
 20
45.3486922252
 10
124.9772087469
 20
45.3535764714
 10
124.9817383787
 20
45.3581354456
 10
124.9864027549
 20
45.36237482609999
 10
124.9911818934
 20
45.36630112970001
 10
124.9960576678
 20
45.3699215655
 10
125.0010120498
 20
45.37324276119999
 10
125.0060270962
 20
45.3762711621
 10
125.0110862132
 20
45.379013971
 10
125.0161741468
 20
45.38147900600001
 10
125.0212769265
 20
45.38367455109999
 10
125.026381713
 20
45.3856091953
 10
125.0314763757
 20
45.3872916333
 10
125.0365553754
 20
45.38873222409999
 10
125.0415722808
 20
45.38993139619999
 10
125.0464259079
 20
45.390886008
 10
125.0510284497
 20
45.3916088284
 10
125.0607660112747
 20
45.39278258229999
  0
LINE
  5
1906
330
213
100
AcDbEntity
  8
0
  6
Continuous
 62
     7
100
AcDbLine
 10
124.9320333131
 20
45.24735134060001
 30
0.0
 11
124.947087361
 21
45.2990327084
 31
0.0
  0
LINE
  5
1908
330
213
100
AcDbEntity
  8
0
  6
Continuous
 62
     7
100
AcDbLine
 10
119.9234946596
 20
28.1537552164
 30
0.0
 11
119.9235292042
 21
28.1538709206
 31
0.0
  0
LINE
  5
190B
330
213
100
AcDbEntity
  8
0
  6
Continuous
 62
     7
100
AcDbLine
 10
119.4639111399
 20
27.8275004734
 30
0.0
 11
119.4881294992
 21
27.8928489084
 31
0.0
  0
LINE
  5
190C
330
213
100
AcDbEntity
  8
0
  6
Continuous
 62
     7
100
AcDbLine
 10
119.0292789532
 20
26.2566256953
 30
0.0
 11
119.0628630603
 21
26.3307686639
 31
0.0
  0
LWPOLYLINE
  5
190E
330
213
100
AcDbEntity
  8
0
  6
Continuous
 62
     7
100
AcDbPolyline
 90
        6
 70
     0
 43
0.0
 10
118.7026542424
 20
27.7994887087
 10
118.7444320078
 20
27.8739398011
 10
118.7996243475
 20
27.9349213976
 10
118.8613849968
 20
27.97931165760001
 10
118.9205494427
 20
28.006688834
 10
118.9584043555
 20
28.0177118086
  0
LWPOLYLINE
  5
190F
330
213
100
AcDbEntity
  8
0
  6
Continuous
 62
     7
100
AcDbPolyline
 90
        7
 70
     0
 43
0.0
 10
119.4881294992
 20
27.8928489084
 10
119.5230702009
 20
27.9512728266
 10
119.5664297661
 20
28.0009051901
 10
119.6150000945
 20
28.0402649969
 10
119.6650596814
 20
28.0689316651
 10
119.7123463816
 20
28.0874977065
 10
119.7413641578
 20
28.0949706204
  0
LWPOLYLINE
  5
1914
330
213
100
AcDbEntity
  8
0
  6
Continuous
 62
     7
100
AcDbPolyline
 90
        9
 70
     0
 43
0.0
 10
119.172583947
 20
28.0729470385
 10
119.1731319172
 20
28.073161144
 10
119.1744438268
 20
28.073389901
 10
119.176283639
 20
28.0736110535
 10
119.1787469682
 20
28.0738377689
 10
119.1823527882
 20
28.0741139792
 10
119.1872911885
 20
28.074445357
 10
119.1933284121
 20
28.0748036732
 10
119.2006972585
 20
28.0751940904
  0
LWPOLYLINE
  5
1915
330
213
100
AcDbEntity
  8
0
  6
Continuous
 62
     7
100
AcDbPolyline
 90
        5
 70
     0
 43
0.0
 10
127.6510611234
 20
46.5120114222
 10
127.7085236159
 20
46.5151500329
 10
127.7364467498
 20
46.5164769387
 10
127.7644981754
 20
46.51742261479999
 10
127.7925977391
 20
46.51778258229999
  0
LWPOLYLINE
  5
1916
330
213
100
AcDbEntity
  8
0
  6
Continuous
 62
     7
100
AcDbPolyline
 90
        8
 70
     0
 43
0.0
 10
127.792585546
 20
46.39278258229999
 10
127.7563654411
 20
46.3916132931
 10
127.7194173894
 20
46.38856602879999
 10
127.6823892352
 20
46.384464078
 10
127.6457464436
 20
46.3801995049
 10
127.6099428257
 20
46.37661023879999
 10
127.5755543686
 20
46.37432236
 10
127.5433055967
 20
46.3735806972
  0
LINE
  5
191A
330
213
100
AcDbEntity
  8
0
  6
Continuous
 62
     7
100
AcDbLine
 10
127.4957507744
 20
45.39278258229999
 30
0.0
 11
97.2248335679
 21
45.39278258229999
 31
0.0
  0
LINE
  5
191C
330
213
100
AcDbEntity
  8
0
  6
Continuous
 62
     7
100
AcDbLine
 10
122.1093292204
 20
30.0047718316
 30
0.0
 11
124.0928768425
 21
44.54158970329999
 31
0.0
  0
LINE
  5
191D
330
213
100
AcDbEntity
  8
0
  6
Continuous
 62
     7
100
AcDbLine
 10
122.1101269614
 20
30.0112227589
 30
0.0
 11
122.1102526416
 21
30.0121302646
 31
0.0
  0
LWPOLYLINE
  5
191F
330
213
100
AcDbEntity
  8
0
  6
Continuous
 62
     7
100
AcDbPolyline
 90
        4
 70
     0
 43
0.0
 10
127.5433232769
 20
46.5087561101
 10
127.5837362935
 20
46.50926619849999
 10
127.6192305472
 20
46.5104780936
 10
127.6510611234
 20
46.5120114222
  0
LINE
  5
1920
330
213
100
AcDbEntity
  8
0
  6
Continuous
 62
     7
100
AcDbLine
 10
127.5433055967
 20
46.3735806972
 30
0.0
 11
97.2248335679
 21
46.3735806972
 31
0.0
  0
LINE
  5
1921
330
213
100
AcDbEntity
  8
0
  6
Continuous
 62
     7
100
AcDbLine
 10
127.7925830398
 20
46.39278258229999
 30
0.0
 11
127.9748335679
 21
46.39278258229999
 31
0.0
  0
LINE
  5
1922
330
213
100
AcDbEntity
  8
0
  6
Continuous
 62
     7
100
AcDbLine
 10
127.5433232769
 20
46.5087561101
 30
0.0
 11
97.2248335679
 21
46.5087561101
 31
0.0
  0
LINE
  5
1923
330
213
100
AcDbEntity
  8
0
  6
Continuous
 62
     7
100
AcDbLine
 10
127.7925851053
 20
46.51778258229999
 30
0.0
 11
127.9748335679
 21
46.51778258229999
 31
0.0
  0
LINE
  5
1925
330
213
100
AcDbEntity
  8
0
  6
Continuous
 62
     7
100
AcDbLine
 10
127.8693237862
 20
45.7350991788
 30
0.0
 11
127.9168806877
 21
46.2786770502
 31
0.0
  0
LINE
  5
1926
330
213
100
AcDbEntity
  8
0
  6
Continuous
 62
     7
100
AcDbLine
 10
127.9748335679
 20
46.3735806972
 30
0.0
 11
127.9748335679
 21
46.51778258229999
 31
0.0
  0
ARC
  5
199E
330
213
100
AcDbEntity
  8
0
  6
Continuous
 62
     7
100
AcDbCircle
 10
107.2248335679
 20
27.8552825823
 30
0.0
 40
0.9375
100
AcDbArc
 50
200.0
 51
325.0
  0
ARC
  5
199F
330
213
100
AcDbEntity
  8
0
  6
Continuous
 62
     7
100
AcDbCircle
 10
111.2033869585
 20
27.8302825823
 30
0.0
 40
0.375
100
AcDbArc
 50
225.0
 51
270.0
  0
ARC
  5
19A9
330
213
100
AcDbEntity
  8
0
  6
Continuous
 62
     7
100
AcDbCircle
 10
97.2248335679
 20
46.26778258229999
 30
0.0
 40
0.2409735278
100
AcDbArc
 50
90.0
 51
178.6150457281
  0
ARC
  5
19AA
330
213
100
AcDbEntity
  8
0
  6
Continuous
 62
     7
100
AcDbCircle
 10
97.2248335679
 20
45.26778258229999
 30
0.0
 40
0.125
100
AcDbArc
 50
90.0
 51
172.1419282489
  0
ARC
  5
19AC
330
213
100
AcDbEntity
  8
0
  6
Continuous
 62
     7
100
AcDbCircle
 10
97.2248335679
 20
46.26778258229999
 30
0.0
 40
0.1057981149
100
AcDbArc
 50
90.0
 51
176.8442386597
  0
ARC
  5
19B0
330
213
100
AcDbEntity
  8
0
  6
Continuous
 62
     7
100
AcDbCircle
 10
117.7248335679
 20
27.8552825823
 30
0.0
 40
0.9375
100
AcDbArc
 50
215.0
 51
340.0
  0
ARC
  5
19B1
330
213
100
AcDbEntity
  8
0
  6
Continuous
 62
     7
100
AcDbCircle
 10
113.7462801773
 20
27.8302825823
 30
0.0
 40
0.375
100
AcDbArc
 50
270.0
 51
315.0
  0
ARC
  5
19B2
330
213
100
AcDbEntity
  8
0
  6
Continuous
 62
     7
100
AcDbCircle
 10
127.4957507744
 20
45.76778258229999
 30
0.0
 40
0.375
100
AcDbArc
 50
270.0
 51
355.0
  0
ARC
  5
19B3
330
213
100
AcDbEntity
  8
0
  6
Continuous
 62
     7
100
AcDbCircle
 10
128.0414046913
 20
46.26778258229999
 30
0.0
 40
0.1249999035
100
AcDbArc
 50
122.1792470829
 51
174.9999866719
  0
ELLIPSE
  5
19B5
330
213
100
AcDbEntity
  8
0
  6
Continuous
 62
     7
100
AcDbEllipse
 10
97.2248335679
 20
45.5068673466
 30
0.0
 11
0.0
 21
-2.868428311399999
 31
0.0
210
0.0
220
0.0
230
1.0
 40
0.0871557427
 41
-1.8413894211
 42
-1.6472194488
  0
ELLIPSE
  5
19B6
330
213
100
AcDbEntity
  8
0
  6
Continuous
 62
     7
100
AcDbEllipse
 10
97.2248335679
 20
45.5068673466
 30
0.0
 11
0.0
 21
-1.434214155699999
 31
0.0
210
0.0
220
0.0
230
1.0
 40
0.0871557427
 41
-2.134837781199999
 42
-1.7240935411
  0
ARC
  5
1AA5
330
213
100
AcDbEntity
  8
0
100
AcDbCircle
 10
100.7450283251258
 20
44.54161778539361
 30
0.0
 40
0.1043855320095134
100
AcDbArc
 50
38.96665178911312
 51
64.38166737406452
  0
LINE
  5
1AC7
330
213
100
AcDbEntity
  8
0
  6
Continuous
 62
     7
100
AcDbLine
 10
96.9748335679
 20
44.76778258229999
 30
0.0
 11
97.10100734564893
 21
44.7677825823
 31
0.0
  0
LINE
  5
1AC8
330
213
100
AcDbEntity
  8
0
100
AcDbLine
 10
97.10100734564893
 20
45.28487254084366
 30
0.0
 11
97.10100734564894
 21
44.7677825823
 31
0.0
  0
LINE
  5
1ACA
330
213
100
AcDbEntity
  8
0
100
AcDbLine
 10
96.97483356790002
 20
45.26778258229999
 30
0.0
 11
96.97483356790002
 21
44.7677825823
 31
0.0
  0
ENDSEC
  0
SECTION
  2
OBJECTS
  0
DICTIONARY
  5
C
330
0
100
AcDbDictionary
281
     1
  3
ACAD_COLOR
350
19E9
  3
ACAD_GROUP
350
D
  3
ACAD_LAYOUT
350
1A
  3
ACAD_MATERIAL
350
19BC
  3
ACAD_MLEADERSTYLE
350
1A0E
  3
ACAD_MLINESTYLE
350
17
  3
ACAD_PLOTSETTINGS
350
19
  3
ACAD_PLOTSTYLENAME
350
E
  3
ACAD_SCALELIST
350
19EC
  3
ACAD_TABLESTYLE
350
19EA
  3
ACAD_VISUALSTYLE
350
19D5
  3
ACDB_RECOMPOSE_DATA
350
1A14
  3
AcDbVariableDictionary
350
1A46
  0
DICTIONARY
  5
1A15
330
8
100
AcDbDictionary
280
     1
281
     1
  0
DICTIONARY
  5
1A5C
330
10
100
AcDbDictionary
280
     1
281
     1
  3
ADSK_XREC_LAYER_RECONCILED
360
1A5D
  0
DICTIONARY
  5
1A5E
330
1FA
100
AcDbDictionary
280
     1
281
     1
  3
ADSK_XREC_LAYER_RECONCILED
360
1A5F
  0
DICTIONARY
  5
1A60
330
1FB
100
AcDbDictionary
280
     1
281
     1
  3
ADSK_XREC_LAYER_RECONCILED
360
1A61
  0
DICTIONARY
  5
1A62
330
1FC
100
AcDbDictionary
280
     1
281
     1
  3
ADSK_XREC_LAYER_RECONCILED
360
1A63
  0
DICTIONARY
  5
1A64
330
1FD
100
AcDbDictionary
280
     1
281
     1
  3
ADSK_XREC_LAYER_RECONCILED
360
1A65
  0
DICTIONARY
  5
1A66
330
1FE
100
AcDbDictionary
280
     1
281
     1
  3
ADSK_XREC_LAYER_RECONCILED
360
1A67
  0
DICTIONARY
  5
1A68
330
1FF
100
AcDbDictionary
280
     1
281
     1
  3
ADSK_XREC_LAYER_RECONCILED
360
1A69
  0
DICTIONARY
  5
1A6A
330
200
100
AcDbDictionary
280
     1
281
     1
  3
ADSK_XREC_LAYER_RECONCILED
360
1A6B
  0
DICTIONARY
  5
1A6C
330
201
100
AcDbDictionary
280
     1
281
     1
  3
ADSK_XREC_LAYER_RECONCILED
360
1A6D
  0
DICTIONARY
  5
1A6E
330
202
100
AcDbDictionary
280
     1
281
     1
  3
ADSK_XREC_LAYER_RECONCILED
360
1A6F
  0
DICTIONARY
  5
1A70
330
203
100
AcDbDictionary
280
     1
281
     1
  3
ADSK_XREC_LAYER_RECONCILED
360
1A71
  0
DICTIONARY
  5
1A72
330
204
100
AcDbDictionary
280
     1
281
     1
  3
ADSK_XREC_LAYER_RECONCILED
360
1A73
  0
DICTIONARY
  5
1A74
330
205
100
AcDbDictionary
280
     1
281
     1
  3
ADSK_XREC_LAYER_RECONCILED
360
1A75
  0
DICTIONARY
  5
1A76
330
206
100
AcDbDictionary
280
     1
281
     1
  3
ADSK_XREC_LAYER_RECONCILED
360
1A77
  0
DICTIONARY
  5
1A78
330
207
100
AcDbDictionary
280
     1
281
     1
  3
ADSK_XREC_LAYER_RECONCILED
360
1A79
  0
DICTIONARY
  5
1A7A
330
208
100
AcDbDictionary
280
     1
281
     1
  3
ADSK_XREC_LAYER_RECONCILED
360
1A7B
  0
DICTIONARY
  5
1A7C
330
209
100
AcDbDictionary
280
     1
281
     1
  3
ADSK_XREC_LAYER_RECONCILED
360
1A7D
  0
DICTIONARY
  5
1A7E
330
20A
100
AcDbDictionary
280
     1
281
     1
  3
ADSK_XREC_LAYER_RECONCILED
360
1A7F
  0
DICTIONARY
  5
19E9
102
{ACAD_REACTORS
330
C
102
}
330
C
100
AcDbDictionary
281
     1
  0
DICTIONARY
  5
D
102
{ACAD_REACTORS
330
C
102
}
330
C
100
AcDbDictionary
281
     1
  0
DICTIONARY
  5
1A
102
{ACAD_REACTORS
330
C
102
}
330
C
100
AcDbDictionary
281
     1
  3
Layout1
350
19B8
  3
Model
350
19B7
  0
DICTIONARY
  5
19BC
102
{ACAD_REACTORS
330
C
102
}
330
C
100
AcDbDictionary
281
     1
  3
ByBlock
350
19C5
  3
ByLayer
350
19BD
  3
Global
350
19CD
  0
DICTIONARY
  5
1A0E
102
{ACAD_REACTORS
330
C
102
}
330
C
100
AcDbDictionary
281
     1
  3
Standard
350
1A0F
  0
DICTIONARY
  5
17
102
{ACAD_REACTORS
330
C
102
}
330
C
100
AcDbDictionary
281
     1
  3
Standard
350
18
  0
DICTIONARY
  5
19
102
{ACAD_REACTORS
330
C
102
}
330
C
100
AcDbDictionary
281
     1
  0
ACDBDICTIONARYWDFLT
  5
E
102
{ACAD_REACTORS
330
C
102
}
330
C
100
AcDbDictionary
281
     1
  3
Normal
350
F
100
AcDbDictionaryWithDefault
340
F
  0
DICTIONARY
  5
19EC
102
{ACAD_REACTORS
330
C
102
}
330
C
100
AcDbDictionary
281
     1
  3
A0
350
19ED
  3
A1
350
19EE
  3
A2
350
19EF
  3
A3
350
19F0
  3
A4
350
19F1
  3
A5
350
19F2
  3
A6
350
19F3
  3
A7
350
19F4
  3
A8
350
19F5
  3
A9
350
19F6
  3
B0
350
19F7
  3
B1
350
19F8
  3
B2
350
19F9
  3
B3
350
19FA
  3
B4
350
19FB
  3
B5
350
19FC
  3
B6
350
19FD
  3
B7
350
19FE
  3
B8
350
19FF
  3
B9
350
1A00
  3
C0
350
1A01
  3
C1
350
1A02
  3
C2
350
1A03
  3
C3
350
1A04
  3
C4
350
1A05
  3
C5
350
1A06
  3
C6
350
1A07
  3
C7
350
1A08
  3
C8
350
1A09
  3
C9
350
1A0A
  3
D0
350
1A0B
  3
D1
350
1A0C
  3
D2
350
1A0D
  0
DICTIONARY
  5
19EA
102
{ACAD_REACTORS
330
C
102
}
330
C
100
AcDbDictionary
281
     1
  3
Standard
350
19EB
  0
DICTIONARY
  5
19D5
102
{ACAD_REACTORS
330
C
102
}
330
C
100
AcDbDictionary
281
     1
  3
2dWireframe
350
19DB
  3
3D Hidden
350
19DD
  3
3dWireframe
350
19DC
  3
Basic
350
19DA
  3
Brighten
350
19E1
  3
ColorChange
350
19E5
  3
Conceptual
350
19DE
  3
Dim
350
19E0
  3
EdgeColorOff
350
19E8
  3
Facepattern
350
19E4
  3
Flat
350
19D6
  3
FlatWithEdges
350
19D7
  3
Gouraud
350
19D8
  3
GouraudWithEdges
350
19D9
  3
JitterOff
350
19E6
  3
Linepattern
350
19E3
  3
OverhangOff
350
19E7
  3
Realistic
350
19DF
  3
Thicken
350
19E2
  0
XRECORD
  5
1A14
102
{ACAD_REACTORS
330
C
102
}
330
C
100
AcDbXrecord
280
     1
 90
        1
330
19EB
  0
DICTIONARY
  5
1A46
102
{ACAD_REACTORS
330
C
102
}
330
C
100
AcDbDictionary
281
     1
  3
CANNOSCALE
350
1A49
  3
CMLEADERSTYLE
350
1A48
  3
CTABLESTYLE
350
1A47
  3
DIMASSOC
350
1A4C
  3
INDEXCTL
350
1A4B
  3
LAYEREVAL
350
1ACE
  3
LAYERNOTIFY
350
1ACF
  3
LIGHTINGUNITS
350
1ACD
  3
MSLTSCALE
350
1ACC
  3
SORTENTS
350
1A4A
  3
XCLIPFRAME
350
1A4D
  0
XRECORD
  5
1A5D
102
{ACAD_REACTORS
330
1A5C
102
}
330
1A5C
100
AcDbXrecord
280
     1
290
     1
  0
XRECORD
  5
1A5F
102
{ACAD_REACTORS
330
1A5E
102
}
330
1A5E
100
AcDbXrecord
280
     1
290
     1
  0
XRECORD
  5
1A61
102
{ACAD_REACTORS
330
1A60
102
}
330
1A60
100
AcDbXrecord
280
     1
290
     1
  0
XRECORD
  5
1A63
102
{ACAD_REACTORS
330
1A62
102
}
330
1A62
100
AcDbXrecord
280
     1
290
     1
  0
XRECORD
  5
1A65
102
{ACAD_REACTORS
330
1A64
102
}
330
1A64
100
AcDbXrecord
280
     1
290
     1
  0
XRECORD
  5
1A67
102
{ACAD_REACTORS
330
1A66
102
}
330
1A66
100
AcDbXrecord
280
     1
290
     1
  0
XRECORD
  5
1A69
102
{ACAD_REACTORS
330
1A68
102
}
330
1A68
100
AcDbXrecord
280
     1
290
     1
  0
XRECORD
  5
1A6B
102
{ACAD_REACTORS
330
1A6A
102
}
330
1A6A
100
AcDbXrecord
280
     1
290
     1
  0
XRECORD
  5
1A6D
102
{ACAD_REACTORS
330
1A6C
102
}
330
1A6C
100
AcDbXrecord
280
     1
290
     1
  0
XRECORD
  5
1A6F
102
{ACAD_REACTORS
330
1A6E
102
}
330
1A6E
100
AcDbXrecord
280
     1
290
     1
  0
XRECORD
  5
1A71
102
{ACAD_REACTORS
330
1A70
102
}
330
1A70
100
AcDbXrecord
280
     1
290
     1
  0
XRECORD
  5
1A73
102
{ACAD_REACTORS
330
1A72
102
}
330
1A72
100
AcDbXrecord
280
     1
290
     1
  0
XRECORD
  5
1A75
102
{ACAD_REACTORS
330
1A74
102
}
330
1A74
100
AcDbXrecord
280
     1
290
     1
  0
XRECORD
  5
1A77
102
{ACAD_REACTORS
330
1A76
102
}
330
1A76
100
AcDbXrecord
280
     1
290
     1
  0
XRECORD
  5
1A79
102
{ACAD_REACTORS
330
1A78
102
}
330
1A78
100
AcDbXrecord
280
     1
290
     1
  0
XRECORD
  5
1A7B
102
{ACAD_REACTORS
330
1A7A
102
}
330
1A7A
100
AcDbXrecord
280
     1
290
     1
  0
XRECORD
  5
1A7D
102
{ACAD_REACTORS
330
1A7C
102
}
330
1A7C
100
AcDbXrecord
280
     1
290
     1
  0
XRECORD
  5
1A7F
102
{ACAD_REACTORS
330
1A7E
102
}
330
1A7E
100
AcDbXrecord
280
     1
290
     1
  0
LAYOUT
  5
19B8
102
{ACAD_REACTORS
330
1A
102
}
330
1A
100
AcDbPlotSettings
  1

  2
none_device
  4
ANSI_B_(17.00_x_11.00_Inches)
  6

 40
0.0
 41
0.0
 42
0.0
 43
0.0
 44
431.8
 45
279.4
 46
0.0
 47
0.0
 48
0.0
 49
0.0
140
0.0
141
0.0
142
1.0
143
1.0
 70
     0
 72
     0
 73
     0
 74
     0
  7

 75
     0
147
1.0
 76
     0
 77
     2
 78
   300
148
0.0
149
0.0
100
AcDbLayout
  1
Layout1
 70
     1
 71
     1
 10
0.0
 20
0.0
 11
12.0
 21
9.0
 12
0.0
 22
0.0
 32
0.0
 14
1.000000000000000E+20
 24
1.000000000000000E+20
 34
1.000000000000000E+20
 15
-1.000000000000000E+20
 25
-1.000000000000000E+20
 35
-1.000000000000000E+20
146
0.0
 13
0.0
 23
0.0
 33
0.0
 16
1.0
 26
0.0
 36
0.0
 17
0.0
 27
1.0
 37
0.0
 76
     0
330
214
  0
LAYOUT
  5
19B7
102
{ACAD_REACTORS
330
1A
102
}
330
1A
100
AcDbPlotSettings
  1

  2
none_device
  4
ANSI_B_(17.00_x_11.00_Inches)
  6

 40
0.0
 41
0.0
 42
0.0
 43
0.0
 44
431.8
 45
279.4
 46
0.0
 47
0.0
 48
0.0
 49
0.0
140
0.0
141
0.0
142
1.0
143
1.0
 70
  1024
 72
     0
 73
     0
 74
     0
  7

 75
     0
147
1.0
 76
     0
 77
     2
 78
   300
148
0.0
149
0.0
100
AcDbLayout
  1
Model
 70
     0
 71
     0
 10
0.0
 20
0.0
 11
17.0
 21
11.0
 12
0.0
 22
0.0
 32
0.0
 14
0.0
 24
0.0
 34
0.0
 15
0.0
 25
0.0
 35
0.0
146
0.0
 13
0.0
 23
0.0
 33
0.0
 16
1.0
 26
0.0
 36
0.0
 17
0.0
 27
1.0
 37
0.0
 76
     0
330
213
331
1F4
  0
MATERIAL
  5
19C5
102
{ACAD_XDICTIONARY
360
19C6
102
}
102
{ACAD_REACTORS
330
19BC
102
}
330
19BC
100
AcDbMaterial
  1
ByBlock
 72
     0
 43
0.0208333333333333
 43
0.0
 43
0.0
 43
0.0
 43
0.0
 43
0.0208333333333333
 43
0.0
 43
0.0
 43
0.0
 43
0.0
 43
1.0
 43
0.0
 43
0.0
 43
0.0
 43
0.0
 43
1.0
 77
     0
 47
0.0208333333333333
 47
0.0
 47
0.0
 47
0.0
 47
0.0
 47
0.0208333333333333
 47
0.0
 47
0.0
 47
0.0
 47
0.0
 47
1.0
 47
0.0
 47
0.0
 47
0.0
 47
0.0
 47
1.0
171
     0
 49
0.0208333333333333
 49
0.0
 49
0.0
 49
0.0
 49
0.0
 49
0.0208333333333333
 49
0.0
 49
0.0
 49
0.0
 49
0.0
 49
1.0
 49
0.0
 49
0.0
 49
0.0
 49
0.0
 49
1.0
175
     0
142
0.0208333333333333
142
0.0
142
0.0
142
0.0
142
0.0
142
0.0208333333333333
142
0.0
142
0.0
142
0.0
142
0.0
142
1.0
142
0.0
142
0.0
142
0.0
142
0.0
142
1.0
179
     0
144
0.0208333333333333
144
0.0
144
0.0
144
0.0
144
0.0
144
0.0208333333333333
144
0.0
144
0.0
144
0.0
144
0.0
144
1.0
144
0.0
144
0.0
144
0.0
144
0.0
144
1.0
147
0.0208333333333333
147
0.0
147
0.0
147
0.0
147
0.0
147
0.0208333333333333
147
0.0
147
0.0
147
0.0
147
0.0
147
1.0
147
0.0
147
0.0
147
0.0
147
0.0
147
1.0
  0
MATERIAL
  5
19BD
102
{ACAD_XDICTIONARY
360
19BE
102
}
102
{ACAD_REACTORS
330
19BC
102
}
330
19BC
100
AcDbMaterial
  1
ByLayer
 72
     0
 43
0.0208333333333333
 43
0.0
 43
0.0
 43
0.0
 43
0.0
 43
0.0208333333333333
 43
0.0
 43
0.0
 43
0.0
 43
0.0
 43
1.0
 43
0.0
 43
0.0
 43
0.0
 43
0.0
 43
1.0
 77
     0
 47
0.0208333333333333
 47
0.0
 47
0.0
 47
0.0
 47
0.0
 47
0.0208333333333333
 47
0.0
 47
0.0
 47
0.0
 47
0.0
 47
1.0
 47
0.0
 47
0.0
 47
0.0
 47
0.0
 47
1.0
171
     0
 49
0.0208333333333333
 49
0.0
 49
0.0
 49
0.0
 49
0.0
 49
0.0208333333333333
 49
0.0
 49
0.0
 49
0.0
 49
0.0
 49
1.0
 49
0.0
 49
0.0
 49
0.0
 49
0.0
 49
1.0
175
     0
142
0.0208333333333333
142
0.0
142
0.0
142
0.0
142
0.0
142
0.0208333333333333
142
0.0
142
0.0
142
0.0
142
0.0
142
1.0
142
0.0
142
0.0
142
0.0
142
0.0
142
1.0
179
     0
144
0.0208333333333333
144
0.0
144
0.0
144
0.0
144
0.0
144
0.0208333333333333
144
0.0
144
0.0
144
0.0
144
0.0
144
1.0
144
0.0
144
0.0
144
0.0
144
0.0
144
1.0
147
0.0208333333333333
147
0.0
147
0.0
147
0.0
147
0.0
147
0.0208333333333333
147
0.0
147
0.0
147
0.0
147
0.0
147
1.0
147
0.0
147
0.0
147
0.0
147
0.0
147
1.0
  0
MATERIAL
  5
19CD
102
{ACAD_XDICTIONARY
360
19CE
102
}
102
{ACAD_REACTORS
330
19BC
102
}
330
19BC
100
AcDbMaterial
  1
Global
 72
     0
 43
0.0208333333333333
 43
0.0
 43
0.0
 43
0.0
 43
0.0
 43
0.0208333333333333
 43
0.0
 43
0.0
 43
0.0
 43
0.0
 43
1.0
 43
0.0
 43
0.0
 43
0.0
 43
0.0
 43
1.0
 77
     0
 47
0.0208333333333333
 47
0.0
 47
0.0
 47
0.0
 47
0.0
 47
0.0208333333333333
 47
0.0
 47
0.0
 47
0.0
 47
0.0
 47
1.0
 47
0.0
 47
0.0
 47
0.0
 47
0.0
 47
1.0
171
     0
 49
0.0208333333333333
 49
0.0
 49
0.0
 49
0.0
 49
0.0
 49
0.0208333333333333
 49
0.0
 49
0.0
 49
0.0
 49
0.0
 49
1.0
 49
0.0
 49
0.0
 49
0.0
 49
0.0
 49
1.0
175
     0
142
0.0208333333333333
142
0.0
142
0.0
142
0.0
142
0.0
142
0.0208333333333333
142
0.0
142
0.0
142
0.0
142
0.0
142
1.0
142
0.0
142
0.0
142
0.0
142
0.0
142
1.0
179
     0
144
0.0208333333333333
144
0.0
144
0.0
144
0.0
144
0.0
144
0.0208333333333333
144
0.0
144
0.0
144
0.0
144
0.0
144
1.0
144
0.0
144
0.0
144
0.0
144
0.0
144
1.0
147
0.0208333333333333
147
0.0
147
0.0
147
0.0
147
0.0
147
0.0208333333333333
147
0.0
147
0.0
147
0.0
147
0.0
147
1.0
147
0.0
147
0.0
147
0.0
147
0.0
147
1.0
  0
MLEADERSTYLE
  5
1A0F
102
{ACAD_REACTORS
330
1A0E
102
}
330
1A0E
100
AcDbMLeaderStyle
170
     2
171
     1
172
     0
 90
        2
 40
0.0
 41
0.0
173
     1
 91
-1056964608
340
14
 92
       -2
290
     1
 42
0.09
291
     1
 43
0.36
  3
Standard
 44
0.18
300

342
11
174
     1
178
     6
175
     1
176
     0
 93
-1056964608
 45
0.18
292
     0
297
     0
 46
0.18
 94
-1056964608
 47
1.0
 49
1.0
140
1.0
293
     1
141
0.0
294
     1
177
     0
142
1.0
295
     0
296
     0
143
0.125
1001
ACAD_MLEADERVER
1070
     2
  0
MLINESTYLE
  5
18
102
{ACAD_REACTORS
330
17
102
}
330
17
100
AcDbMlineStyle
  2
STANDARD
 70
     0
  3

 62
   256
 51
90.0
 52
90.0
 71
     2
 49
0.5
 62
   256
  6
BYLAYER
 49
-0.5
 62
   256
  6
BYLAYER
  0
ACDBPLACEHOLDER
  5
F
102
{ACAD_REACTORS
330
E
102
}
330
E
  0
SCALE
  5
19ED
102
{ACAD_REACTORS
330
19EC
102
}
330
19EC
100
AcDbScale
 70
     0
300
1:1
140
1.0
141
1.0
290
     1
  0
SCALE
  5
19EE
102
{ACAD_REACTORS
330
19EC
102
}
330
19EC
100
AcDbScale
 70
     0
300
1:2
140
1.0
141
2.0
290
     0
  0
SCALE
  5
19EF
102
{ACAD_REACTORS
330
19EC
102
}
330
19EC
100
AcDbScale
 70
     0
300
1:4
140
1.0
141
4.0
290
     0
  0
SCALE
  5
19F0
102
{ACAD_REACTORS
330
19EC
102
}
330
19EC
100
AcDbScale
 70
     0
300
1:5
140
1.0
141
5.0
290
     0
  0
SCALE
  5
19F1
102
{ACAD_REACTORS
330
19EC
102
}
330
19EC
100
AcDbScale
 70
     0
300
1:8
140
1.0
141
8.0
290
     0
  0
SCALE
  5
19F2
102
{ACAD_REACTORS
330
19EC
102
}
330
19EC
100
AcDbScale
 70
     0
300
1:10
140
1.0
141
10.0
290
     0
  0
SCALE
  5
19F3
102
{ACAD_REACTORS
330
19EC
102
}
330
19EC
100
AcDbScale
 70
     0
300
1:16
140
1.0
141
16.0
290
     0
  0
SCALE
  5
19F4
102
{ACAD_REACTORS
330
19EC
102
}
330
19EC
100
AcDbScale
 70
     0
300
1:20
140
1.0
141
20.0
290
     0
  0
SCALE
  5
19F5
102
{ACAD_REACTORS
330
19EC
102
}
330
19EC
100
AcDbScale
 70
     0
300
1:30
140
1.0
141
30.0
290
     0
  0
SCALE
  5
19F6
102
{ACAD_REACTORS
330
19EC
102
}
330
19EC
100
AcDbScale
 70
     0
300
1:40
140
1.0
141
40.0
290
     0
  0
SCALE
  5
19F7
102
{ACAD_REACTORS
330
19EC
102
}
330
19EC
100
AcDbScale
 70
     0
300
1:50
140
1.0
141
50.0
290
     0
  0
SCALE
  5
19F8
102
{ACAD_REACTORS
330
19EC
102
}
330
19EC
100
AcDbScale
 70
     0
300
1:100
140
1.0
141
100.0
290
     0
  0
SCALE
  5
19F9
102
{ACAD_REACTORS
330
19EC
102
}
330
19EC
100
AcDbScale
 70
     0
300
2:1
140
2.0
141
1.0
290
     0
  0
SCALE
  5
19FA
102
{ACAD_REACTORS
330
19EC
102
}
330
19EC
100
AcDbScale
 70
     0
300
4:1
140
4.0
141
1.0
290
     0
  0
SCALE
  5
19FB
102
{ACAD_REACTORS
330
19EC
102
}
330
19EC
100
AcDbScale
 70
     0
300
8:1
140
8.0
141
1.0
290
     0
  0
SCALE
  5
19FC
102
{ACAD_REACTORS
330
19EC
102
}
330
19EC
100
AcDbScale
 70
     0
300
10:1
140
10.0
141
1.0
290
     0
  0
SCALE
  5
19FD
102
{ACAD_REACTORS
330
19EC
102
}
330
19EC
100
AcDbScale
 70
     0
300
100:1
140
100.0
141
1.0
290
     0
  0
SCALE
  5
19FE
102
{ACAD_REACTORS
330
19EC
102
}
330
19EC
100
AcDbScale
 70
     0
300
1/128" = 1'-0"
140
0.0078125
141
12.0
290
     0
  0
SCALE
  5
19FF
102
{ACAD_REACTORS
330
19EC
102
}
330
19EC
100
AcDbScale
 70
     0
300
1/64" = 1'-0"
140
0.015625
141
12.0
290
     0
  0
SCALE
  5
1A00
102
{ACAD_REACTORS
330
19EC
102
}
330
19EC
100
AcDbScale
 70
     0
300
1/32" = 1'-0"
140
0.03125
141
12.0
290
     0
  0
SCALE
  5
1A01
102
{ACAD_REACTORS
330
19EC
102
}
330
19EC
100
AcDbScale
 70
     0
300
1/16" = 1'-0"
140
0.0625
141
12.0
290
     0
  0
SCALE
  5
1A02
102
{ACAD_REACTORS
330
19EC
102
}
330
19EC
100
AcDbScale
 70
     0
300
3/32" = 1'-0"
140
0.09375
141
12.0
290
     0
  0
SCALE
  5
1A03
102
{ACAD_REACTORS
330
19EC
102
}
330
19EC
100
AcDbScale
 70
     0
300
1/8" = 1'-0"
140
0.125
141
12.0
290
     0
  0
SCALE
  5
1A04
102
{ACAD_REACTORS
330
19EC
102
}
330
19EC
100
AcDbScale
 70
     0
300
3/16" = 1'-0"
140
0.1875
141
12.0
290
     0
  0
SCALE
  5
1A05
102
{ACAD_REACTORS
330
19EC
102
}
330
19EC
100
AcDbScale
 70
     0
300
1/4" = 1'-0"
140
0.25
141
12.0
290
     0
  0
SCALE
  5
1A06
102
{ACAD_REACTORS
330
19EC
102
}
330
19EC
100
AcDbScale
 70
     0
300
3/8" = 1'-0"
140
0.375
141
12.0
290
     0
  0
SCALE
  5
1A07
102
{ACAD_REACTORS
330
19EC
102
}
330
19EC
100
AcDbScale
 70
     0
300
1/2" = 1'-0"
140
0.5
141
12.0
290
     0
  0
SCALE
  5
1A08
102
{ACAD_REACTORS
330
19EC
102
}
330
19EC
100
AcDbScale
 70
     0
300
3/4" = 1'-0"
140
0.75
141
12.0
290
     0
  0
SCALE
  5
1A09
102
{ACAD_REACTORS
330
19EC
102
}
330
19EC
100
AcDbScale
 70
     0
300
1" = 1'-0"
140
1.0
141
12.0
290
     0
  0
SCALE
  5
1A0A
102
{ACAD_REACTORS
330
19EC
102
}
330
19EC
100
AcDbScale
 70
     0
300
1-1/2" = 1'-0"
140
1.5
141
12.0
290
     0
  0
SCALE
  5
1A0B
102
{ACAD_REACTORS
330
19EC
102
}
330
19EC
100
AcDbScale
 70
     0
300
3" = 1'-0"
140
3.0
141
12.0
290
     0
  0
SCALE
  5
1A0C
102
{ACAD_REACTORS
330
19EC
102
}
330
19EC
100
AcDbScale
 70
     0
300
6" = 1'-0"
140
6.0
141
12.0
290
     0
  0
SCALE
  5
1A0D
102
{ACAD_REACTORS
330
19EC
102
}
330
19EC
100
AcDbScale
 70
     0
300
1'-0" = 1'-0"
140
12.0
141
12.0
290
     0
  0
TABLESTYLE
  5
19EB
102
{ACAD_XDICTIONARY
360
1A12
102
}
102
{ACAD_REACTORS
330
19EA
102
}
330
19EA
100
AcDbTableStyle
  3
Standard
 70
     0
 71
     0
 40
0.06
 41
0.06
280
     0
281
     0
  7
STANDARD
140
0.18
170
     2
 62
     0
 63
     7
283
     0
 90
      512
 91
        0
  1

274
    -2
284
     1
 64
     0
275
    -2
285
     1
 65
     0
276
    -2
286
     1
 66
     0
277
    -2
287
     1
 67
     0
278
    -2
288
     1
 68
     0
279
    -2
289
     1
 69
     0
  7
STANDARD
140
0.25
170
     5
 62
     0
 63
     7
283
     0
 90
      512
 91
        0
  1

274
    -2
284
     1
 64
     0
275
    -2
285
     1
 65
     0
276
    -2
286
     1
 66
     0
277
    -2
287
     1
 67
     0
278
    -2
288
     1
 68
     0
279
    -2
289
     1
 69
     0
  7
STANDARD
140
0.18
170
     5
 62
     0
 63
     7
283
     0
 90
      512
 91
        0
  1

274
    -2
284
     1
 64
     0
275
    -2
285
     1
 65
     0
276
    -2
286
     1
 66
     0
277
    -2
287
     1
 67
     0
278
    -2
288
     1
 68
     0
279
    -2
289
     1
 69
     0
  0
VISUALSTYLE
  5
19DB
102
{ACAD_XDICTIONARY
360
1A28
102
}
102
{ACAD_REACTORS
330
19D5
102
}
330
19D5
100
AcDbVisualStyle
  2
2dWireframe
 70
     4
 71
     0
 72
     2
 73
     0
 90
        0
 40
-0.6
 41
-30.0
 62
     5
 63
     7
 74
     1
 91
        4
 64
     7
 65
   257
 75
     1
175
     1
 42
1.0
 92
        0
 66
   257
 43
1.0
 76
     1
 77
     6
 78
     2
 67
     7
 79
     5
170
     0
171
     0
290
     0
174
     0
 93
        1
 44
0.0
173
     0
291
     0
 45
0.0
  0
VISUALSTYLE
  5
19DD
102
{ACAD_XDICTIONARY
360
1A2C
102
}
102
{ACAD_REACTORS
330
19D5
102
}
330
19D5
100
AcDbVisualStyle
  2
3D Hidden
 70
     6
 71
     1
 72
     2
 73
     2
 90
        0
 40
-0.6
 41
-30.0
 62
     5
 63
     7
 74
     2
 91
        2
 64
     7
 65
   257
 75
     2
175
     1
 42
179.0
 92
        0
 66
   257
 43
1.0
 76
     1
 77
     6
 78
     2
 67
     7
 79
     3
170
     0
171
     0
290
     0
174
     0
 93
        1
 44
0.0
173
     0
291
     0
 45
0.0
  0
VISUALSTYLE
  5
19DC
102
{ACAD_XDICTIONARY
360
1A2A
102
}
102
{ACAD_REACTORS
330
19D5
102
}
330
19D5
100
AcDbVisualStyle
  2
3dWireframe
 70
     5
 71
     0
 72
     2
 73
     0
 90
        0
 40
-0.6
 41
-30.0
 62
     5
 63
     7
 74
     1
 91
        4
 64
     7
 65
   257
 75
     1
175
     1
 42
1.0
 92
        0
 66
   257
 43
1.0
 76
     1
 77
     6
 78
     2
 67
     7
 79
     5
170
     0
171
     0
290
     0
174
     0
 93
        1
 44
0.0
173
     0
291
     0
 45
0.0
  0
VISUALSTYLE
  5
19DA
102
{ACAD_XDICTIONARY
360
1A26
102
}
102
{ACAD_REACTORS
330
19D5
102
}
330
19D5
100
AcDbVisualStyle
  2
Basic
 70
     7
 71
     1
 72
     0
 73
     1
 90
        0
 40
-0.6
 41
-30.0
 62
     5
 63
     7
 74
     0
 91
        4
 64
     7
 65
   257
 75
     1
175
     1
 42
1.0
 92
        8
 66
     7
 43
1.0
 76
     1
 77
     6
 78
     2
 67
     7
 79
     5
170
     0
171
     0
290
     0
174
     0
 93
        1
 44
0.0
173
     0
291
     1
 45
0.0
  0
VISUALSTYLE
  5
19E1
102
{ACAD_XDICTIONARY
360
1A34
102
}
102
{ACAD_REACTORS
330
19D5
102
}
330
19D5
100
AcDbVisualStyle
  2
Brighten
 70
    12
 71
     2
 72
     2
 73
     0
 90
        0
 40
-0.6
 41
-30.0
 62
     5
 63
     7
 74
     1
 91
        4
 64
     7
 65
   257
 75
     1
175
     1
 42
1.0
 92
        8
 66
     7
 43
1.0
 76
     1
 77
     6
 78
     2
 67
     7
 79
     5
170
     0
171
     0
290
     0
174
     0
 93
        1
 44
50.0
173
     0
291
     1
 45
0.0
  0
VISUALSTYLE
  5
19E5
102
{ACAD_XDICTIONARY
360
1A3C
102
}
102
{ACAD_REACTORS
330
19D5
102
}
330
19D5
100
AcDbVisualStyle
  2
ColorChange
 70
    16
 71
     2
 72
     2
 73
     3
 90
        0
 40
-0.6
 41
-30.0
 62
     5
 63
     8
 74
     1
 91
        4
 64
     7
 65
   257
 75
     1
175
     1
 42
1.0
 92
        8
 66
     8
 43
1.0
 76
     1
 77
     6
 78
     2
 67
     7
 79
     5
170
     0
171
     0
290
     0
174
     0
 93
        1
 44
0.0
173
     0
291
     1
 45
0.0
  0
VISUALSTYLE
  5
19DE
102
{ACAD_XDICTIONARY
360
1A2E
102
}
102
{ACAD_REACTORS
330
19D5
102
}
330
19D5
100
AcDbVisualStyle
  2
Conceptual
 70
     9
 71
     3
 72
     2
 73
     0
 90
        0
 40
-0.6
 41
-30.0
 62
     5
 63
     7
 74
     2
 91
        2
 64
     7
 65
   257
 75
     1
175
     1
 42
179.0
 92
        8
 66
     7
 43
1.0
 76
     1
 77
     6
 78
     2
 67
     7
 79
     3
170
     0
171
     0
290
     0
174
     0
 93
        1
 44
0.0
173
     0
291
     0
 45
0.0
  0
VISUALSTYLE
  5
19E0
102
{ACAD_XDICTIONARY
360
1A32
102
}
102
{ACAD_REACTORS
330
19D5
102
}
330
19D5
100
AcDbVisualStyle
  2
Dim
 70
    11
 71
     2
 72
     2
 73
     0
 90
        0
 40
-0.6
 41
-30.0
 62
     5
 63
     7
 74
     1
 91
        4
 64
     7
 65
   257
 75
     1
175
     1
 42
1.0
 92
        8
 66
     7
 43
1.0
 76
     1
 77
     6
 78
     2
 67
     7
 79
     5
170
     0
171
     0
290
     0
174
     0
 93
        1
 44
-50.0
173
     0
291
     1
 45
0.0
  0
VISUALSTYLE
  5
19E8
102
{ACAD_XDICTIONARY
360
1A42
102
}
102
{ACAD_REACTORS
330
19D5
102
}
330
19D5
100
AcDbVisualStyle
  2
EdgeColorOff
 70
    22
 71
     2
 72
     2
 73
     0
 90
        0
 40
-0.6
 41
-30.0
 62
     5
 63
     7
 74
     1
 91
        4
 64
     7
 65
   257
 75
     1
175
     1
 42
1.0
 92
        8
 66
     7
 43
1.0
 76
     1
 77
     6
 78
     2
 67
     7
 79
     5
170
     0
171
     0
290
     0
174
     0
 93
        1
 44
0.0
173
     0
291
     1
 45
0.0
  0
VISUALSTYLE
  5
19E4
102
{ACAD_XDICTIONARY
360
1A3A
102
}
102
{ACAD_REACTORS
330
19D5
102
}
330
19D5
100
AcDbVisualStyle
  2
Facepattern
 70
    15
 71
     2
 72
     2
 73
     0
 90
        0
 40
-0.6
 41
-30.0
 62
     5
 63
     7
 74
     1
 91
        4
 64
     7
 65
   257
 75
     1
175
     1
 42
1.0
 92
        8
 66
     7
 43
1.0
 76
     1
 77
     6
 78
     2
 67
     7
 79
     5
170
     0
171
     0
290
     0
174
     0
 93
        1
 44
0.0
173
     0
291
     1
 45
0.0
  0
VISUALSTYLE
  5
19D6
102
{ACAD_XDICTIONARY
360
1A1E
102
}
102
{ACAD_REACTORS
330
19D5
102
}
330
19D5
100
AcDbVisualStyle
  2
Flat
 70
     0
 71
     2
 72
     1
 73
     1
 90
        2
 40
-0.6
 41
30.0
 62
     5
 63
     7
 74
     0
 91
        4
 64
     7
 65
   257
 75
     1
175
     1
 42
1.0
 92
        8
 66
     7
 43
1.0
 76
     1
 77
     6
 78
     2
 67
     7
 79
     5
170
     0
171
     0
290
     0
174
     0
 93
       13
 44
0.0
173
     0
291
     1
 45
0.0
  0
VISUALSTYLE
  5
19D7
102
{ACAD_XDICTIONARY
360
1A20
102
}
102
{ACAD_REACTORS
330
19D5
102
}
330
19D5
100
AcDbVisualStyle
  2
FlatWithEdges
 70
     1
 71
     2
 72
     1
 73
     1
 90
        2
 40
-0.6
 41
30.0
 62
     5
 63
     7
 74
     1
 91
        4
 64
     7
 65
   257
 75
     1
175
     1
 42
1.0
 92
        0
 66
   257
 43
1.0
 76
     1
 77
     6
 78
     2
 67
     7
 79
     5
170
     0
171
     0
290
     0
174
     0
 93
       13
 44
0.0
173
     0
291
     1
 45
0.0
  0
VISUALSTYLE
  5
19D8
102
{ACAD_XDICTIONARY
360
1A22
102
}
102
{ACAD_REACTORS
330
19D5
102
}
330
19D5
100
AcDbVisualStyle
  2
Gouraud
 70
     2
 71
     2
 72
     2
 73
     1
 90
        2
 40
-0.6
 41
30.0
 62
     5
 63
     7
 74
     0
 91
        4
 64
     7
 65
   257
 75
     1
175
     1
 42
1.0
 92
        0
 66
     7
 43
1.0
 76
     1
 77
     6
 78
     2
 67
     7
 79
     5
170
     0
171
     0
290
     0
174
     0
 93
       13
 44
0.0
173
     0
291
     1
 45
0.0
  0
VISUALSTYLE
  5
19D9
102
{ACAD_XDICTIONARY
360
1A24
102
}
102
{ACAD_REACTORS
330
19D5
102
}
330
19D5
100
AcDbVisualStyle
  2
GouraudWithEdges
 70
     3
 71
     2
 72
     2
 73
     1
 90
        2
 40
-0.6
 41
30.0
 62
     5
 63
     7
 74
     1
 91
        4
 64
     7
 65
   257
 75
     1
175
     1
 42
1.0
 92
        0
 66
   257
 43
1.0
 76
     1
 77
     6
 78
     2
 67
     7
 79
     5
170
     0
171
     0
290
     0
174
     0
 93
       13
 44
0.0
173
     0
291
     1
 45
0.0
  0
VISUALSTYLE
  5
19E6
102
{ACAD_XDICTIONARY
360
1A3E
102
}
102
{ACAD_REACTORS
330
19D5
102
}
330
19D5
100
AcDbVisualStyle
  2
JitterOff
 70
    20
 71
     2
 72
     2
 73
     0
 90
        0
 40
-0.6
 41
-30.0
 62
     5
 63
     7
 74
     1
 91
        4
 64
     7
 65
   257
 75
     1
175
     1
 42
1.0
 92
       10
 66
     7
 43
1.0
 76
     1
 77
     6
 78
     2
 67
     7
 79
     5
170
     0
171
     0
290
     0
174
     0
 93
        1
 44
0.0
173
     0
291
     1
 45
0.0
  0
VISUALSTYLE
  5
19E3
102
{ACAD_XDICTIONARY
360
1A38
102
}
102
{ACAD_REACTORS
330
19D5
102
}
330
19D5
100
AcDbVisualStyle
  2
Linepattern
 70
    14
 71
     2
 72
     2
 73
     0
 90
        0
 40
-0.6
 41
-30.0
 62
     5
 63
     7
 74
     1
 91
        4
 64
     7
 65
   257
 75
     7
175
     7
 42
1.0
 92
        8
 66
     7
 43
1.0
 76
     1
 77
     6
 78
     2
 67
     7
 79
     5
170
     0
171
     0
290
     0
174
     0
 93
        1
 44
0.0
173
     0
291
     1
 45
0.0
  0
VISUALSTYLE
  5
19E7
102
{ACAD_XDICTIONARY
360
1A40
102
}
102
{ACAD_REACTORS
330
19D5
102
}
330
19D5
100
AcDbVisualStyle
  2
OverhangOff
 70
    21
 71
     2
 72
     2
 73
     0
 90
        0
 40
-0.6
 41
-30.0
 62
     5
 63
     7
 74
     1
 91
        4
 64
     7
 65
   257
 75
     1
175
     1
 42
1.0
 92
        9
 66
     7
 43
1.0
 76
     1
 77
     6
 78
     2
 67
     7
 79
     5
170
     0
171
     0
290
     0
174
     0
 93
        1
 44
0.0
173
     0
291
     1
 45
0.0
  0
VISUALSTYLE
  5
19DF
102
{ACAD_XDICTIONARY
360
1A30
102
}
102
{ACAD_REACTORS
330
19D5
102
}
330
19D5
100
AcDbVisualStyle
  2
Realistic
 70
     8
 71
     2
 72
     2
 73
     0
 90
        0
 40
-0.6
 41
-30.0
 62
     5
 63
     7
 74
     1
 91
        0
 64
     7
 65
   257
 75
     1
175
     1
 42
1.0
 92
        8
 66
     8
 43
1.0
 76
     1
 77
     6
 78
     2
 67
     7
 79
     5
170
     0
171
     0
290
     0
174
     0
 93
       13
 44
0.0
173
     0
291
     0
 45
0.0
  0
VISUALSTYLE
  5
19E2
102
{ACAD_XDICTIONARY
360
1A36
102
}
102
{ACAD_REACTORS
330
19D5
102
}
330
19D5
100
AcDbVisualStyle
  2
Thicken
 70
    13
 71
     2
 72
     2
 73
     0
 90
        0
 40
-0.6
 41
-30.0
 62
     5
 63
     7
 74
     1
 91
        4
 64
     7
 65
   257
 75
     1
175
     1
 42
1.0
 92
       12
 66
     7
 43
1.0
 76
     1
 77
     6
 78
     2
 67
     7
 79
     5
170
     0
171
     0
290
     0
174
     0
 93
        1
 44
0.0
173
     0
291
     1
 45
0.0
  0
DICTIONARYVAR
  5
1A49
102
{ACAD_REACTORS
330
1A46
102
}
330
1A46
100
DictionaryVariables
280
     0
  1
1:1
  0
DICTIONARYVAR
  5
1A48
102
{ACAD_REACTORS
330
1A46
102
}
330
1A46
100
DictionaryVariables
280
     0
  1
STANDARD
  0
DICTIONARYVAR
  5
1A47
102
{ACAD_REACTORS
330
1A46
102
}
330
1A46
100
DictionaryVariables
280
     0
  1
STANDARD
  0
DICTIONARYVAR
  5
1A4C
102
{ACAD_REACTORS
330
1A46
102
}
330
1A46
100
DictionaryVariables
280
     0
  1
1
  0
DICTIONARYVAR
  5
1A4B
102
{ACAD_REACTORS
330
1A46
102
}
330
1A46
100
DictionaryVariables
280
     0
  1
0
  0
DICTIONARYVAR
  5
1ACE
102
{ACAD_REACTORS
330
1A46
102
}
330
1A46
100
DictionaryVariables
280
     0
  1
1
  0
DICTIONARYVAR
  5
1ACF
102
{ACAD_REACTORS
330
1A46
102
}
330
1A46
100
DictionaryVariables
280
     0
  1
15
  0
DICTIONARYVAR
  5
1ACD
102
{ACAD_REACTORS
330
1A46
102
}
330
1A46
100
DictionaryVariables
280
     0
  1
0
  0
DICTIONARYVAR
  5
1ACC
102
{ACAD_REACTORS
330
1A46
102
}
330
1A46
100
DictionaryVariables
280
     0
  1
0
  0
DICTIONARYVAR
  5
1A4A
102
{ACAD_REACTORS
330
1A46
102
}
330
1A46
100
DictionaryVariables
280
     0
  1
127
  0
DICTIONARYVAR
  5
1A4D
102
{ACAD_REACTORS
330
1A46
102
}
330
1A46
100
DictionaryVariables
280
     0
  1
0
  0
DICTIONARY
  5
19C6
330
19C5
100
AcDbDictionary
280
     1
281
     1
  3
BUMPTILE
360
19C8
  3
DIFFUSETILE
360
19C7
  3
OPACITYTILE
360
19CB
  3
REFLECTIONTILE
360
19CA
  3
REFRACTIONTILE
360
19CC
  3
SPECULARTILE
360
19C9
  0
DICTIONARY
  5
19BE
330
19BD
100
AcDbDictionary
280
     1
281
     1
  3
BUMPTILE
360
19C0
  3
DIFFUSETILE
360
19BF
  3
OPACITYTILE
360
19C3
  3
REFLECTIONTILE
360
19C2
  3
REFRACTIONTILE
360
19C4
  3
SPECULARTILE
360
19C1
  0
DICTIONARY
  5
19CE
330
19CD
100
AcDbDictionary
280
     1
281
     1
  3
BUMPTILE
360
19D0
  3
DIFFUSETILE
360
19CF
  3
OPACITYTILE
360
19D3
  3
REFLECTIONTILE
360
19D2
  3
REFRACTIONTILE
360
19D4
  3
SPECULARTILE
360
19D1
  0
DICTIONARY
  5
1A12
330
19EB
100
AcDbDictionary
280
     1
281
     1
  3
ACAD_ROUNDTRIP_2008_TABLESTYLE_CELLSTYLEMAP
360
1AD7
  0
DICTIONARY
  5
1A28
330
19DB
100
AcDbDictionary
280
     1
281
     1
  3
ACAD_XREC_ROUNDTRIP
360
1A29
  0
DICTIONARY
  5
1A2C
330
19DD
100
AcDbDictionary
280
     1
281
     1
  3
ACAD_XREC_ROUNDTRIP
360
1A2D
  0
DICTIONARY
  5
1A2A
330
19DC
100
AcDbDictionary
280
     1
281
     1
  3
ACAD_XREC_ROUNDTRIP
360
1A2B
  0
DICTIONARY
  5
1A26
330
19DA
100
AcDbDictionary
280
     1
281
     1
  3
ACAD_XREC_ROUNDTRIP
360
1A27
  0
DICTIONARY
  5
1A34
330
19E1
100
AcDbDictionary
280
     1
281
     1
  3
ACAD_XREC_ROUNDTRIP
360
1A35
  0
DICTIONARY
  5
1A3C
330
19E5
100
AcDbDictionary
280
     1
281
     1
  3
ACAD_XREC_ROUNDTRIP
360
1A3D
  0
DICTIONARY
  5
1A2E
330
19DE
100
AcDbDictionary
280
     1
281
     1
  3
ACAD_XREC_ROUNDTRIP
360
1A2F
  0
DICTIONARY
  5
1A32
330
19E0
100
AcDbDictionary
280
     1
281
     1
  3
ACAD_XREC_ROUNDTRIP
360
1A33
  0
DICTIONARY
  5
1A42
330
19E8
100
AcDbDictionary
280
     1
281
     1
  3
ACAD_XREC_ROUNDTRIP
360
1A43
  0
DICTIONARY
  5
1A3A
330
19E4
100
AcDbDictionary
280
     1
281
     1
  3
ACAD_XREC_ROUNDTRIP
360
1A3B
  0
DICTIONARY
  5
1A1E
330
19D6
100
AcDbDictionary
280
     1
281
     1
  3
ACAD_XREC_ROUNDTRIP
360
1A1F
  0
DICTIONARY
  5
1A20
330
19D7
100
AcDbDictionary
280
     1
281
     1
  3
ACAD_XREC_ROUNDTRIP
360
1A21
  0
DICTIONARY
  5
1A22
330
19D8
100
AcDbDictionary
280
     1
281
     1
  3
ACAD_XREC_ROUNDTRIP
360
1A23
  0
DICTIONARY
  5
1A24
330
19D9
100
AcDbDictionary
280
     1
281
     1
  3
ACAD_XREC_ROUNDTRIP
360
1A25
  0
DICTIONARY
  5
1A3E
330
19E6
100
AcDbDictionary
280
     1
281
     1
  3
ACAD_XREC_ROUNDTRIP
360
1A3F
  0
DICTIONARY
  5
1A38
330
19E3
100
AcDbDictionary
280
     1
281
     1
  3
ACAD_XREC_ROUNDTRIP
360
1A39
  0
DICTIONARY
  5
1A40
330
19E7
100
AcDbDictionary
280
     1
281
     1
  3
ACAD_XREC_ROUNDTRIP
360
1A41
  0
DICTIONARY
  5
1A30
330
19DF
100
AcDbDictionary
280
     1
281
     1
  3
ACAD_XREC_ROUNDTRIP
360
1A31
  0
DICTIONARY
  5
1A36
330
19E2
100
AcDbDictionary
280
     1
281
     1
  3
ACAD_XREC_ROUNDTRIP
360
1A37
  0
XRECORD
  5
19C8
102
{ACAD_REACTORS
330
19C6
102
}
330
19C6
100
AcDbXrecord
280
     1
270
     1
271
     1
  0
XRECORD
  5
19C7
102
{ACAD_REACTORS
330
19C6
102
}
330
19C6
100
AcDbXrecord
280
     1
270
     1
271
     1
  0
XRECORD
  5
19CB
102
{ACAD_REACTORS
330
19C6
102
}
330
19C6
100
AcDbXrecord
280
     1
270
     1
271
     1
  0
XRECORD
  5
19CA
102
{ACAD_REACTORS
330
19C6
102
}
330
19C6
100
AcDbXrecord
280
     1
270
     1
271
     1
  0
XRECORD
  5
19CC
102
{ACAD_REACTORS
330
19C6
102
}
330
19C6
100
AcDbXrecord
280
     1
270
     1
271
     1
  0
XRECORD
  5
19C9
102
{ACAD_REACTORS
330
19C6
102
}
330
19C6
100
AcDbXrecord
280
     1
270
     1
271
     1
  0
XRECORD
  5
19C0
102
{ACAD_REACTORS
330
19BE
102
}
330
19BE
100
AcDbXrecord
280
     1
270
     1
271
     1
  0
XRECORD
  5
19BF
102
{ACAD_REACTORS
330
19BE
102
}
330
19BE
100
AcDbXrecord
280
     1
270
     1
271
     1
  0
XRECORD
  5
19C3
102
{ACAD_REACTORS
330
19BE
102
}
330
19BE
100
AcDbXrecord
280
     1
270
     1
271
     1
  0
XRECORD
  5
19C2
102
{ACAD_REACTORS
330
19BE
102
}
330
19BE
100
AcDbXrecord
280
     1
270
     1
271
     1
  0
XRECORD
  5
19C4
102
{ACAD_REACTORS
330
19BE
102
}
330
19BE
100
AcDbXrecord
280
     1
270
     1
271
     1
  0
XRECORD
  5
19C1
102
{ACAD_REACTORS
330
19BE
102
}
330
19BE
100
AcDbXrecord
280
     1
270
     1
271
     1
  0
XRECORD
  5
19D0
102
{ACAD_REACTORS
330
19CE
102
}
330
19CE
100
AcDbXrecord
280
     1
270
     1
271
     1
  0
XRECORD
  5
19CF
102
{ACAD_REACTORS
330
19CE
102
}
330
19CE
100
AcDbXrecord
280
     1
270
     1
271
     1
  0
XRECORD
  5
19D3
102
{ACAD_REACTORS
330
19CE
102
}
330
19CE
100
AcDbXrecord
280
     1
270
     1
271
     1
  0
XRECORD
  5
19D2
102
{ACAD_REACTORS
330
19CE
102
}
330
19CE
100
AcDbXrecord
280
     1
270
     1
271
     1
  0
XRECORD
  5
19D4
102
{ACAD_REACTORS
330
19CE
102
}
330
19CE
100
AcDbXrecord
280
     1
270
     1
271
     1
  0
XRECORD
  5
19D1
102
{ACAD_REACTORS
330
19CE
102
}
330
19CE
100
AcDbXrecord
280
     1
270
     1
271
     1
  0
CELLSTYLEMAP
  5
1AD7
102
{ACAD_REACTORS
330
1A12
102
}
330
1A12
100
AcDbCellStyleMap
 90
        3
300
CELLSTYLE
  1
TABLEFORMAT_BEGIN
 90
        5
170
     1
 91
        0
 92
    32768
 62
   257
 93
        1
300
CONTENTFORMAT
  1
CONTENTFORMAT_BEGIN
 90
        0
 91
        0
 92
      512
 93
        0
300

 40
0.0
140
1.0
 94
        5
 62
     0
340
11
144
0.25
309
CONTENTFORMAT_END
171
     0
 94
        0
309
TABLEFORMAT_END
  1
CELLSTYLE_BEGIN
 90
        1
 91
        1
300
_TITLE
309
CELLSTYLE_END
300
CELLSTYLE
  1
TABLEFORMAT_BEGIN
 90
        5
170
     1
 91
        0
 92
        0
 62
   257
 93
        1
300
CONTENTFORMAT
  1
CONTENTFORMAT_BEGIN
 90
        0
 91
        0
 92
      512
 93
        0
300

 40
0.0
140
1.0
 94
        5
 62
     0
340
11
144
0.18
309
CONTENTFORMAT_END
171
     0
 94
        0
309
TABLEFORMAT_END
  1
CELLSTYLE_BEGIN
 90
        2
 91
        1
300
_HEADER
309
CELLSTYLE_END
300
CELLSTYLE
  1
TABLEFORMAT_BEGIN
 90
        5
170
     1
 91
        0
 92
        0
 62
   257
 93
        1
300
CONTENTFORMAT
  1
CONTENTFORMAT_BEGIN
 90
        0
 91
        0
 92
      512
 93
        0
300

 40
0.0
140
1.0
 94
        2
 62
     0
340
11
144
0.18
309
CONTENTFORMAT_END
171
     0
 94
        0
309
TABLEFORMAT_END
  1
CELLSTYLE_BEGIN
 90
        3
 91
        2
300
_DATA
309
CELLSTYLE_END
  0
XRECORD
  5
1A29
102
{ACAD_REACTORS
330
1A28
102
}
330
1A28
100
AcDbXrecord
280
     1
102
RTVSPropertyOp0
 70
     1
102
RTVSPropertyOp1
 70
     1
102
RTVSPropertyOp2
 70
     1
102
RTVSPropertyOp3
 70
     1
102
RTVSPropertyOp4
 70
     1
102
RTVSPropertyOp5
 70
     1
102
RTVSPropertyOp6
 70
     1
102
RTVSPropertyOp7
 70
     1
102
RTVSPropertyOp8
 70
     1
102
RTVSPropertyOp9
 70
     1
102
RTVSPropertyOp10
 70
     1
102
RTVSPropertyOp11
 70
     1
102
RTVSPropertyOp12
 70
     1
102
RTVSPropertyOp13
 70
     1
102
RTVSPropertyOp14
 70
     1
102
RTVSPropertyOp15
 70
     1
102
RTVSPropertyOp16
 70
     1
102
RTVSPropertyOp17
 70
     1
102
RTVSPropertyOp18
 70
     1
102
RTVSPropertyOp19
 70
     1
102
RTVSPropertyOp20
 70
     1
102
RTVSPropertyOp21
 70
     1
102
RTVSPropertyOp22
 70
     1
102
RTVSPropertyOp23
 70
     1
102
RTVSPropertyOp24
 70
     1
102
RTVSPropertyOp25
 70
     1
102
RTVSPropertyOp26
 70
     1
102
RTVSPropertyOp27
 70
     1
  0
XRECORD
  5
1A2D
102
{ACAD_REACTORS
330
1A2C
102
}
330
1A2C
100
AcDbXrecord
280
     1
102
RTVSPropertyOp0
 70
     1
102
RTVSPropertyOp1
 70
     1
102
RTVSPropertyOp2
 70
     1
102
RTVSPropertyOp3
 70
     1
102
RTVSPropertyOp4
 70
     1
102
RTVSPropertyOp5
 70
     1
102
RTVSPropertyOp6
 70
     1
102
RTVSPropertyOp7
 70
     1
102
RTVSPropertyOp8
 70
     1
102
RTVSPropertyOp9
 70
     1
102
RTVSPropertyOp10
 70
     1
102
RTVSPropertyOp11
 70
     1
102
RTVSPropertyOp12
 70
     1
102
RTVSPropertyOp13
 70
     1
102
RTVSPropertyOp14
 70
     1
102
RTVSPropertyOp15
 70
     1
102
RTVSPropertyOp16
 70
     1
102
RTVSPropertyOp17
 70
     1
102
RTVSPropertyOp18
 70
     1
102
RTVSPropertyOp19
 70
     1
102
RTVSPropertyOp20
 70
     1
102
RTVSPropertyOp21
 70
     1
102
RTVSPropertyOp22
 70
     1
102
RTVSPropertyOp23
 70
     1
102
RTVSPropertyOp24
 70
     1
102
RTVSPropertyOp25
 70
     1
102
RTVSPropertyOp26
 70
     1
102
RTVSPropertyOp27
 70
     1
  0
XRECORD
  5
1A2B
102
{ACAD_REACTORS
330
1A2A
102
}
330
1A2A
100
AcDbXrecord
280
     1
102
RTVSPropertyOp0
 70
     1
102
RTVSPropertyOp1
 70
     1
102
RTVSPropertyOp2
 70
     1
102
RTVSPropertyOp3
 70
     1
102
RTVSPropertyOp4
 70
     1
102
RTVSPropertyOp5
 70
     1
102
RTVSPropertyOp6
 70
     1
102
RTVSPropertyOp7
 70
     1
102
RTVSPropertyOp8
 70
     1
102
RTVSPropertyOp9
 70
     1
102
RTVSPropertyOp10
 70
     1
102
RTVSPropertyOp11
 70
     1
102
RTVSPropertyOp12
 70
     1
102
RTVSPropertyOp13
 70
     1
102
RTVSPropertyOp14
 70
     1
102
RTVSPropertyOp15
 70
     1
102
RTVSPropertyOp16
 70
     1
102
RTVSPropertyOp17
 70
     1
102
RTVSPropertyOp18
 70
     1
102
RTVSPropertyOp19
 70
     1
102
RTVSPropertyOp20
 70
     1
102
RTVSPropertyOp21
 70
     1
102
RTVSPropertyOp22
 70
     1
102
RTVSPropertyOp23
 70
     1
102
RTVSPropertyOp24
 70
     1
102
RTVSPropertyOp25
 70
     1
102
RTVSPropertyOp26
 70
     1
102
RTVSPropertyOp27
 70
     1
  0
XRECORD
  5
1A27
102
{ACAD_REACTORS
330
1A26
102
}
330
1A26
100
AcDbXrecord
280
     1
102
RTVSPropertyOp0
 70
     1
102
RTVSPropertyOp1
 70
     1
102
RTVSPropertyOp2
 70
     1
102
RTVSPropertyOp3
 70
     1
102
RTVSPropertyOp4
 70
     1
102
RTVSPropertyOp5
 70
     1
102
RTVSPropertyOp6
 70
     1
102
RTVSPropertyOp7
 70
     1
102
RTVSPropertyOp8
 70
     1
102
RTVSPropertyOp9
 70
     1
102
RTVSPropertyOp10
 70
     1
102
RTVSPropertyOp11
 70
     1
102
RTVSPropertyOp12
 70
     1
102
RTVSPropertyOp13
 70
     1
102
RTVSPropertyOp14
 70
     1
102
RTVSPropertyOp15
 70
     1
102
RTVSPropertyOp16
 70
     1
102
RTVSPropertyOp17
 70
     1
102
RTVSPropertyOp18
 70
     1
102
RTVSPropertyOp19
 70
     1
102
RTVSPropertyOp20
 70
     1
102
RTVSPropertyOp21
 70
     1
102
RTVSPropertyOp22
 70
     1
102
RTVSPropertyOp23
 70
     1
102
RTVSPropertyOp24
 70
     1
102
RTVSPropertyOp25
 70
     1
102
RTVSPropertyOp26
 70
     1
102
RTVSPropertyOp27
 70
     1
  0
XRECORD
  5
1A35
102
{ACAD_REACTORS
330
1A34
102
}
330
1A34
100
AcDbXrecord
280
     1
102
RTVSPropertyOp0
 70
     1
102
RTVSPropertyOp1
 70
     1
102
RTVSPropertyOp2
 70
     1
102
RTVSPropertyOp3
 70
     1
102
RTVSPropertyOp4
 70
     1
102
RTVSPropertyOp5
 70
     1
102
RTVSPropertyOp6
 70
     1
102
RTVSPropertyOp7
 70
     1
102
RTVSPropertyOp8
 70
     1
102
RTVSPropertyOp9
 70
     1
102
RTVSPropertyOp10
 70
     1
102
RTVSPropertyOp11
 70
     1
102
RTVSPropertyOp12
 70
     1
102
RTVSPropertyOp13
 70
     1
102
RTVSPropertyOp14
 70
     1
102
RTVSPropertyOp15
 70
     1
102
RTVSPropertyOp16
 70
     1
102
RTVSPropertyOp17
 70
     1
102
RTVSPropertyOp18
 70
     1
102
RTVSPropertyOp19
 70
     1
102
RTVSPropertyOp20
 70
     1
102
RTVSPropertyOp21
 70
     1
102
RTVSPropertyOp22
 70
     1
102
RTVSPropertyOp23
 70
     1
102
RTVSPropertyOp24
 70
     1
102
RTVSPropertyOp25
 70
     1
102
RTVSPropertyOp26
 70
     1
102
RTVSPropertyOp27
 70
     1
  0
XRECORD
  5
1A3D
102
{ACAD_REACTORS
330
1A3C
102
}
330
1A3C
100
AcDbXrecord
280
     1
102
RTVSPropertyOp0
 70
     1
102
RTVSPropertyOp1
 70
     1
102
RTVSPropertyOp2
 70
     1
102
RTVSPropertyOp3
 70
     1
102
RTVSPropertyOp4
 70
     1
102
RTVSPropertyOp5
 70
     1
102
RTVSPropertyOp6
 70
     1
102
RTVSPropertyOp7
 70
     1
102
RTVSPropertyOp8
 70
     1
102
RTVSPropertyOp9
 70
     1
102
RTVSPropertyOp10
 70
     1
102
RTVSPropertyOp11
 70
     1
102
RTVSPropertyOp12
 70
     1
102
RTVSPropertyOp13
 70
     1
102
RTVSPropertyOp14
 70
     1
102
RTVSPropertyOp15
 70
     1
102
RTVSPropertyOp16
 70
     1
102
RTVSPropertyOp17
 70
     1
102
RTVSPropertyOp18
 70
     1
102
RTVSPropertyOp19
 70
     1
102
RTVSPropertyOp20
 70
     1
102
RTVSPropertyOp21
 70
     1
102
RTVSPropertyOp22
 70
     1
102
RTVSPropertyOp23
 70
     1
102
RTVSPropertyOp24
 70
     1
102
RTVSPropertyOp25
 70
     1
102
RTVSPropertyOp26
 70
     1
102
RTVSPropertyOp27
 70
     1
  0
XRECORD
  5
1A2F
102
{ACAD_REACTORS
330
1A2E
102
}
330
1A2E
100
AcDbXrecord
280
     1
102
RTVSPropertyOp0
 70
     1
102
RTVSPropertyOp1
 70
     1
102
RTVSPropertyOp2
 70
     1
102
RTVSPropertyOp3
 70
     1
102
RTVSPropertyOp4
 70
     1
102
RTVSPropertyOp5
 70
     1
102
RTVSPropertyOp6
 70
     1
102
RTVSPropertyOp7
 70
     1
102
RTVSPropertyOp8
 70
     1
102
RTVSPropertyOp9
 70
     1
102
RTVSPropertyOp10
 70
     1
102
RTVSPropertyOp11
 70
     1
102
RTVSPropertyOp12
 70
     1
102
RTVSPropertyOp13
 70
     1
102
RTVSPropertyOp14
 70
     1
102
RTVSPropertyOp15
 70
     1
102
RTVSPropertyOp16
 70
     1
102
RTVSPropertyOp17
 70
     1
102
RTVSPropertyOp18
 70
     1
102
RTVSPropertyOp19
 70
     1
102
RTVSPropertyOp20
 70
     1
102
RTVSPropertyOp21
 70
     1
102
RTVSPropertyOp22
 70
     1
102
RTVSPropertyOp23
 70
     1
102
RTVSPropertyOp24
 70
     1
102
RTVSPropertyOp25
 70
     1
102
RTVSPropertyOp26
 70
     1
102
RTVSPropertyOp27
 70
     1
  0
XRECORD
  5
1A33
102
{ACAD_REACTORS
330
1A32
102
}
330
1A32
100
AcDbXrecord
280
     1
102
RTVSPropertyOp0
 70
     1
102
RTVSPropertyOp1
 70
     1
102
RTVSPropertyOp2
 70
     1
102
RTVSPropertyOp3
 70
     1
102
RTVSPropertyOp4
 70
     1
102
RTVSPropertyOp5
 70
     1
102
RTVSPropertyOp6
 70
     1
102
RTVSPropertyOp7
 70
     1
102
RTVSPropertyOp8
 70
     1
102
RTVSPropertyOp9
 70
     1
102
RTVSPropertyOp10
 70
     1
102
RTVSPropertyOp11
 70
     1
102
RTVSPropertyOp12
 70
     1
102
RTVSPropertyOp13
 70
     1
102
RTVSPropertyOp14
 70
     1
102
RTVSPropertyOp15
 70
     1
102
RTVSPropertyOp16
 70
     1
102
RTVSPropertyOp17
 70
     1
102
RTVSPropertyOp18
 70
     1
102
RTVSPropertyOp19
 70
     1
102
RTVSPropertyOp20
 70
     1
102
RTVSPropertyOp21
 70
     1
102
RTVSPropertyOp22
 70
     1
102
RTVSPropertyOp23
 70
     1
102
RTVSPropertyOp24
 70
     1
102
RTVSPropertyOp25
 70
     1
102
RTVSPropertyOp26
 70
     1
102
RTVSPropertyOp27
 70
     1
  0
XRECORD
  5
1A43
102
{ACAD_REACTORS
330
1A42
102
}
330
1A42
100
AcDbXrecord
280
     1
102
RTVSPropertyOp0
 70
     0
102
RTVSPropertyOp1
 70
     0
102
RTVSPropertyOp2
 70
     0
102
RTVSPropertyOp3
 70
     0
102
RTVSPropertyOp4
 70
     0
102
RTVSPropertyOp5
 70
     0
102
RTVSPropertyOp6
 70
     0
102
RTVSPropertyOp7
 70
     0
102
RTVSPropertyOp8
 70
     0
102
RTVSPropertyOp9
 70
     0
102
RTVSPropertyOp10
 70
     0
102
RTVSPropertyOp11
 70
     0
102
RTVSPropertyOp12
 70
     0
102
RTVSPropertyOp13
 70
     0
102
RTVSPropertyOp14
 70
     2
102
RTVSPropertyOp15
 70
     0
102
RTVSPropertyOp16
 70
     0
102
RTVSPropertyOp17
 70
     0
102
RTVSPropertyOp18
 70
     0
102
RTVSPropertyOp19
 70
     0
102
RTVSPropertyOp20
 70
     0
102
RTVSPropertyOp21
 70
     0
102
RTVSPropertyOp22
 70
     0
102
RTVSPropertyOp23
 70
     0
102
RTVSPropertyOp24
 70
     0
102
RTVSPropertyOp25
 70
     0
102
RTVSPropertyOp26
 70
     0
102
RTVSPropertyOp27
 70
     0
  0
XRECORD
  5
1A3B
102
{ACAD_REACTORS
330
1A3A
102
}
330
1A3A
100
AcDbXrecord
280
     1
102
RTVSPropertyOp0
 70
     1
102
RTVSPropertyOp1
 70
     1
102
RTVSPropertyOp2
 70
     1
102
RTVSPropertyOp3
 70
     1
102
RTVSPropertyOp4
 70
     1
102
RTVSPropertyOp5
 70
     1
102
RTVSPropertyOp6
 70
     1
102
RTVSPropertyOp7
 70
     1
102
RTVSPropertyOp8
 70
     1
102
RTVSPropertyOp9
 70
     1
102
RTVSPropertyOp10
 70
     1
102
RTVSPropertyOp11
 70
     1
102
RTVSPropertyOp12
 70
     1
102
RTVSPropertyOp13
 70
     1
102
RTVSPropertyOp14
 70
     1
102
RTVSPropertyOp15
 70
     1
102
RTVSPropertyOp16
 70
     1
102
RTVSPropertyOp17
 70
     1
102
RTVSPropertyOp18
 70
     1
102
RTVSPropertyOp19
 70
     1
102
RTVSPropertyOp20
 70
     1
102
RTVSPropertyOp21
 70
     1
102
RTVSPropertyOp22
 70
     1
102
RTVSPropertyOp23
 70
     1
102
RTVSPropertyOp24
 70
     1
102
RTVSPropertyOp25
 70
     1
102
RTVSPropertyOp26
 70
     1
102
RTVSPropertyOp27
 70
     1
  0
XRECORD
  5
1A1F
102
{ACAD_REACTORS
330
1A1E
102
}
330
1A1E
100
AcDbXrecord
280
     1
102
RTVSPropertyOp0
 70
     1
102
RTVSPropertyOp1
 70
     1
102
RTVSPropertyOp2
 70
     1
102
RTVSPropertyOp3
 70
     1
102
RTVSPropertyOp4
 70
     1
102
RTVSPropertyOp5
 70
     1
102
RTVSPropertyOp6
 70
     1
102
RTVSPropertyOp7
 70
     1
102
RTVSPropertyOp8
 70
     1
102
RTVSPropertyOp9
 70
     1
102
RTVSPropertyOp10
 70
     1
102
RTVSPropertyOp11
 70
     1
102
RTVSPropertyOp12
 70
     1
102
RTVSPropertyOp13
 70
     1
102
RTVSPropertyOp14
 70
     1
102
RTVSPropertyOp15
 70
     1
102
RTVSPropertyOp16
 70
     1
102
RTVSPropertyOp17
 70
     1
102
RTVSPropertyOp18
 70
     1
102
RTVSPropertyOp19
 70
     1
102
RTVSPropertyOp20
 70
     1
102
RTVSPropertyOp21
 70
     1
102
RTVSPropertyOp22
 70
     1
102
RTVSPropertyOp23
 70
     1
102
RTVSPropertyOp24
 70
     1
102
RTVSPropertyOp25
 70
     1
102
RTVSPropertyOp26
 70
     1
102
RTVSPropertyOp27
 70
     1
  0
XRECORD
  5
1A21
102
{ACAD_REACTORS
330
1A20
102
}
330
1A20
100
AcDbXrecord
280
     1
102
RTVSPropertyOp0
 70
     1
102
RTVSPropertyOp1
 70
     1
102
RTVSPropertyOp2
 70
     1
102
RTVSPropertyOp3
 70
     1
102
RTVSPropertyOp4
 70
     1
102
RTVSPropertyOp5
 70
     1
102
RTVSPropertyOp6
 70
     1
102
RTVSPropertyOp7
 70
     1
102
RTVSPropertyOp8
 70
     1
102
RTVSPropertyOp9
 70
     1
102
RTVSPropertyOp10
 70
     1
102
RTVSPropertyOp11
 70
     1
102
RTVSPropertyOp12
 70
     1
102
RTVSPropertyOp13
 70
     1
102
RTVSPropertyOp14
 70
     1
102
RTVSPropertyOp15
 70
     1
102
RTVSPropertyOp16
 70
     1
102
RTVSPropertyOp17
 70
     1
102
RTVSPropertyOp18
 70
     1
102
RTVSPropertyOp19
 70
     1
102
RTVSPropertyOp20
 70
     1
102
RTVSPropertyOp21
 70
     1
102
RTVSPropertyOp22
 70
     1
102
RTVSPropertyOp23
 70
     1
102
RTVSPropertyOp24
 70
     1
102
RTVSPropertyOp25
 70
     1
102
RTVSPropertyOp26
 70
     1
102
RTVSPropertyOp27
 70
     1
  0
XRECORD
  5
1A23
102
{ACAD_REACTORS
330
1A22
102
}
330
1A22
100
AcDbXrecord
280
     1
102
RTVSPropertyOp0
 70
     1
102
RTVSPropertyOp1
 70
     1
102
RTVSPropertyOp2
 70
     1
102
RTVSPropertyOp3
 70
     1
102
RTVSPropertyOp4
 70
     1
102
RTVSPropertyOp5
 70
     1
102
RTVSPropertyOp6
 70
     1
102
RTVSPropertyOp7
 70
     1
102
RTVSPropertyOp8
 70
     1
102
RTVSPropertyOp9
 70
     1
102
RTVSPropertyOp10
 70
     1
102
RTVSPropertyOp11
 70
     1
102
RTVSPropertyOp12
 70
     1
102
RTVSPropertyOp13
 70
     1
102
RTVSPropertyOp14
 70
     1
102
RTVSPropertyOp15
 70
     1
102
RTVSPropertyOp16
 70
     1
102
RTVSPropertyOp17
 70
     1
102
RTVSPropertyOp18
 70
     1
102
RTVSPropertyOp19
 70
     1
102
RTVSPropertyOp20
 70
     1
102
RTVSPropertyOp21
 70
     1
102
RTVSPropertyOp22
 70
     1
102
RTVSPropertyOp23
 70
     1
102
RTVSPropertyOp24
 70
     1
102
RTVSPropertyOp25
 70
     1
102
RTVSPropertyOp26
 70
     1
102
RTVSPropertyOp27
 70
     1
  0
XRECORD
  5
1A25
102
{ACAD_REACTORS
330
1A24
102
}
330
1A24
100
AcDbXrecord
280
     1
102
RTVSPropertyOp0
 70
     1
102
RTVSPropertyOp1
 70
     1
102
RTVSPropertyOp2
 70
     1
102
RTVSPropertyOp3
 70
     1
102
RTVSPropertyOp4
 70
     1
102
RTVSPropertyOp5
 70
     1
102
RTVSPropertyOp6
 70
     1
102
RTVSPropertyOp7
 70
     1
102
RTVSPropertyOp8
 70
     1
102
RTVSPropertyOp9
 70
     1
102
RTVSPropertyOp10
 70
     1
102
RTVSPropertyOp11
 70
     1
102
RTVSPropertyOp12
 70
     1
102
RTVSPropertyOp13
 70
     1
102
RTVSPropertyOp14
 70
     1
102
RTVSPropertyOp15
 70
     1
102
RTVSPropertyOp16
 70
     1
102
RTVSPropertyOp17
 70
     1
102
RTVSPropertyOp18
 70
     1
102
RTVSPropertyOp19
 70
     1
102
RTVSPropertyOp20
 70
     1
102
RTVSPropertyOp21
 70
     1
102
RTVSPropertyOp22
 70
     1
102
RTVSPropertyOp23
 70
     1
102
RTVSPropertyOp24
 70
     1
102
RTVSPropertyOp25
 70
     1
102
RTVSPropertyOp26
 70
     1
102
RTVSPropertyOp27
 70
     1
  0
XRECORD
  5
1A3F
102
{ACAD_REACTORS
330
1A3E
102
}
330
1A3E
100
AcDbXrecord
280
     1
102
RTVSPropertyOp0
 70
     0
102
RTVSPropertyOp1
 70
     0
102
RTVSPropertyOp2
 70
     0
102
RTVSPropertyOp3
 70
     0
102
RTVSPropertyOp4
 70
     0
102
RTVSPropertyOp5
 70
     0
102
RTVSPropertyOp6
 70
     0
102
RTVSPropertyOp7
 70
     0
102
RTVSPropertyOp8
 70
     0
102
RTVSPropertyOp9
 70
     0
102
RTVSPropertyOp10
 70
     0
102
RTVSPropertyOp11
 70
     0
102
RTVSPropertyOp12
 70
     0
102
RTVSPropertyOp13
 70
     0
102
RTVSPropertyOp14
 70
     2
102
RTVSPropertyOp15
 70
     0
102
RTVSPropertyOp16
 70
     0
102
RTVSPropertyOp17
 70
     0
102
RTVSPropertyOp18
 70
     0
102
RTVSPropertyOp19
 70
     0
102
RTVSPropertyOp20
 70
     0
102
RTVSPropertyOp21
 70
     0
102
RTVSPropertyOp22
 70
     0
102
RTVSPropertyOp23
 70
     0
102
RTVSPropertyOp24
 70
     0
102
RTVSPropertyOp25
 70
     0
102
RTVSPropertyOp26
 70
     0
102
RTVSPropertyOp27
 70
     0
  0
XRECORD
  5
1A39
102
{ACAD_REACTORS
330
1A38
102
}
330
1A38
100
AcDbXrecord
280
     1
102
RTVSPropertyOp0
 70
     1
102
RTVSPropertyOp1
 70
     1
102
RTVSPropertyOp2
 70
     1
102
RTVSPropertyOp3
 70
     1
102
RTVSPropertyOp4
 70
     1
102
RTVSPropertyOp5
 70
     1
102
RTVSPropertyOp6
 70
     1
102
RTVSPropertyOp7
 70
     1
102
RTVSPropertyOp8
 70
     1
102
RTVSPropertyOp9
 70
     1
102
RTVSPropertyOp10
 70
     1
102
RTVSPropertyOp11
 70
     1
102
RTVSPropertyOp12
 70
     1
102
RTVSPropertyOp13
 70
     1
102
RTVSPropertyOp14
 70
     1
102
RTVSPropertyOp15
 70
     1
102
RTVSPropertyOp16
 70
     1
102
RTVSPropertyOp17
 70
     1
102
RTVSPropertyOp18
 70
     1
102
RTVSPropertyOp19
 70
     1
102
RTVSPropertyOp20
 70
     1
102
RTVSPropertyOp21
 70
     1
102
RTVSPropertyOp22
 70
     1
102
RTVSPropertyOp23
 70
     1
102
RTVSPropertyOp24
 70
     1
102
RTVSPropertyOp25
 70
     1
102
RTVSPropertyOp26
 70
     1
102
RTVSPropertyOp27
 70
     1
  0
XRECORD
  5
1A41
102
{ACAD_REACTORS
330
1A40
102
}
330
1A40
100
AcDbXrecord
280
     1
102
RTVSPropertyOp0
 70
     0
102
RTVSPropertyOp1
 70
     0
102
RTVSPropertyOp2
 70
     0
102
RTVSPropertyOp3
 70
     0
102
RTVSPropertyOp4
 70
     0
102
RTVSPropertyOp5
 70
     0
102
RTVSPropertyOp6
 70
     0
102
RTVSPropertyOp7
 70
     0
102
RTVSPropertyOp8
 70
     0
102
RTVSPropertyOp9
 70
     0
102
RTVSPropertyOp10
 70
     0
102
RTVSPropertyOp11
 70
     0
102
RTVSPropertyOp12
 70
     0
102
RTVSPropertyOp13
 70
     0
102
RTVSPropertyOp14
 70
     2
102
RTVSPropertyOp15
 70
     0
102
RTVSPropertyOp16
 70
     0
102
RTVSPropertyOp17
 70
     0
102
RTVSPropertyOp18
 70
     0
102
RTVSPropertyOp19
 70
     0
102
RTVSPropertyOp20
 70
     0
102
RTVSPropertyOp21
 70
     0
102
RTVSPropertyOp22
 70
     0
102
RTVSPropertyOp23
 70
     0
102
RTVSPropertyOp24
 70
     0
102
RTVSPropertyOp25
 70
     0
102
RTVSPropertyOp26
 70
     0
102
RTVSPropertyOp27
 70
     0
  0
XRECORD
  5
1A31
102
{ACAD_REACTORS
330
1A30
102
}
330
1A30
100
AcDbXrecord
280
     1
102
RTVSPropertyOp0
 70
     1
102
RTVSPropertyOp1
 70
     1
102
RTVSPropertyOp2
 70
     1
102
RTVSPropertyOp3
 70
     1
102
RTVSPropertyOp4
 70
     1
102
RTVSPropertyOp5
 70
     1
102
RTVSPropertyOp6
 70
     1
102
RTVSPropertyOp7
 70
     1
102
RTVSPropertyOp8
 70
     1
102
RTVSPropertyOp9
 70
     1
102
RTVSPropertyOp10
 70
     1
102
RTVSPropertyOp11
 70
     1
102
RTVSPropertyOp12
 70
     1
102
RTVSPropertyOp13
 70
     1
102
RTVSPropertyOp14
 70
     1
102
RTVSPropertyOp15
 70
     1
102
RTVSPropertyOp16
 70
     1
102
RTVSPropertyOp17
 70
     1
102
RTVSPropertyOp18
 70
     1
102
RTVSPropertyOp19
 70
     1
102
RTVSPropertyOp20
 70
     1
102
RTVSPropertyOp21
 70
     1
102
RTVSPropertyOp22
 70
     1
102
RTVSPropertyOp23
 70
     1
102
RTVSPropertyOp24
 70
     1
102
RTVSPropertyOp25
 70
     1
102
RTVSPropertyOp26
 70
     1
102
RTVSPropertyOp27
 70
     1
  0
XRECORD
  5
1A37
102
{ACAD_REACTORS
330
1A36
102
}
330
1A36
100
AcDbXrecord
280
     1
102
RTVSPropertyOp0
 70
     1
102
RTVSPropertyOp1
 70
     1
102
RTVSPropertyOp2
 70
     1
102
RTVSPropertyOp3
 70
     1
102
RTVSPropertyOp4
 70
     1
102
RTVSPropertyOp5
 70
     1
102
RTVSPropertyOp6
 70
     1
102
RTVSPropertyOp7
 70
     1
102
RTVSPropertyOp8
 70
     1
102
RTVSPropertyOp9
 70
     1
102
RTVSPropertyOp10
 70
     1
102
RTVSPropertyOp11
 70
     1
102
RTVSPropertyOp12
 70
     1
102
RTVSPropertyOp13
 70
     1
102
RTVSPropertyOp14
 70
     1
102
RTVSPropertyOp15
 70
     1
102
RTVSPropertyOp16
 70
     1
102
RTVSPropertyOp17
 70
     1
102
RTVSPropertyOp18
 70
     1
102
RTVSPropertyOp19
 70
     1
102
RTVSPropertyOp20
 70
     1
102
RTVSPropertyOp21
 70
     1
102
RTVSPropertyOp22
 70
     1
102
RTVSPropertyOp23
 70
     1
102
RTVSPropertyOp24
 70
     1
102
RTVSPropertyOp25
 70
     1
102
RTVSPropertyOp26
 70
     1
102
RTVSPropertyOp27
 70
     1
  0
ENDSEC
  0
EOF
