  0
SECTION
  2
HEADER
  9
$ACADVER
  1
AC1021
  9
$ACADMAINTVER
 70
    50
  9
$DWGCODEPAGE
  3
ANSI_1252
  9
$LASTSAVEDBY
  1
francoisbu
  9
$INSBASE
 10
0.0
 20
0.0
 30
0.0
  9
$EXTMIN
 10
96.8922531391459
 20
71.2350263977629
 30
-0.0000000349181948
  9
$EXTMAX
 10
156.9069014354013
 20
102.2441408805928
 30
0.0000000814935746
  9
$LIMMIN
 10
0.0
 20
0.0
  9
$LIMMAX
 10
181.3333333333
 20
117.3333333333
  9
$ORTHOMODE
 70
     1
  9
$REGENMODE
 70
     1
  9
$FILLMODE
 70
     1
  9
$QTEXTMODE
 70
     0
  9
$MIRRTEXT
 70
     0
  9
$LTSCALE
 40
9.973333333300001
  9
$ATTMODE
 70
     1
  9
$TEXTSIZE
 40
0.2
  9
$TRACEWID
 40
0.05
  9
$TEXTSTYLE
  7
STANDARD
  9
$CLAYER
  8
0
  9
$CELTYPE
  6
BYLAYER
  9
$CECOLOR
 62
   256
  9
$CELTSCALE
 40
1.0
  9
$DISPSILH
 70
     0
  9
$DIMSCALE
 40
1.0
  9
$DIMASZ
 40
2.0
  9
$DIMEXO
 40
0.0625
  9
$DIMDLI
 40
6.890666666699999
  9
$DIMRND
 40
0.0
  9
$DIMDLE
 40
0.0
  9
$DIMEXE
 40
0.125
  9
$DIMTP
 40
0.00001
  9
$DIMTM
 40
0.00001
  9
$DIMTXT
 40
1.333333333299999
  9
$DIMCEN
 40
1.631999999999999
  9
$DIMTSZ
 40
0.0
  9
$DIMTOL
 70
     1
  9
$DIMLIM
 70
     0
  9
$DIMTIH
 70
     1
  9
$DIMTOH
 70
     1
  9
$DIMSE1
 70
     0
  9
$DIMSE2
 70
     0
  9
$DIMTAD
 70
     0
  9
$DIMZIN
 70
     0
  9
$DIMBLK
  1
_FILLED
  9
$DIMASO
 70
     1
  9
$DIMSHO
 70
     1
  9
$DIMPOST
  1

  9
$DIMAPOST
  1

  9
$DIMALT
 70
     0
  9
$DIMALTD
 70
     2
  9
$DIMALTF
 40
25.4
  9
$DIMLFAC
 40
1.0
  9
$DIMTOFL
 70
     0
  9
$DIMTVP
 40
0.0
  9
$DIMTIX
 70
     0
  9
$DIMSOXD
 70
     0
  9
$DIMSAH
 70
     0
  9
$DIMBLK1
  1

  9
$DIMBLK2
  1

  9
$DIMSTYLE
  2
STANDARD
  9
$DIMCLRD
 70
     0
  9
$DIMCLRE
 70
     0
  9
$DIMCLRT
 70
     0
  9
$DIMTFAC
 40
1.0
  9
$DIMGAP
 40
0.09
  9
$DIMJUST
 70
     0
  9
$DIMSD1
 70
     0
  9
$DIMSD2
 70
     0
  9
$DIMTOLJ
 70
     1
  9
$DIMTZIN
 70
     0
  9
$DIMALTZ
 70
     0
  9
$DIMALTTZ
 70
     0
  9
$DIMUPT
 70
     0
  9
$DIMDEC
 70
     4
  9
$DIMTDEC
 70
     4
  9
$DIMALTU
 70
     2
  9
$DIMALTTD
 70
     2
  9
$DIMTXSTY
  7
STANDARD
  9
$DIMAUNIT
 70
     0
  9
$DIMADEC
 70
     0
  9
$DIMALTRND
 40
0.0
  9
$DIMAZIN
 70
     0
  9
$DIMDSEP
 70
    46
  9
$DIMATFIT
 70
     3
  9
$DIMFRAC
 70
     0
  9
$DIMLDRBLK
  1

  9
$DIMLUNIT
 70
     2
  9
$DIMLWD
 70
    -2
  9
$DIMLWE
 70
    -2
  9
$DIMTMOVE
 70
     0
  9
$DIMFXL
 40
1.0
  9
$DIMFXLON
 70
     0
  9
$DIMJOGANG
 40
0.7853981633974483
  9
$DIMTFILL
 70
     0
  9
$DIMTFILLCLR
 70
     0
  9
$DIMARCSYM
 70
     0
  9
$DIMLTYPE
  6

  9
$DIMLTEX1
  6

  9
$DIMLTEX2
  6

  9
$LUNITS
 70
     2
  9
$LUPREC
 70
     4
  9
$SKETCHINC
 40
0.1
  9
$FILLETRAD
 40
0.0
  9
$AUNITS
 70
     0
  9
$AUPREC
 70
     0
  9
$MENU
  1
.
  9
$ELEVATION
 40
0.0
  9
$PELEVATION
 40
0.0
  9
$THICKNESS
 40
0.0
  9
$LIMCHECK
 70
     0
  9
$CHAMFERA
 40
0.0
  9
$CHAMFERB
 40
0.0
  9
$CHAMFERC
 40
0.0
  9
$CHAMFERD
 40
0.0
  9
$SKPOLY
 70
     0
  9
$TDCREATE
 40
2456616.505667766
  9
$TDUCREATE
 40
2456616.672334433
  9
$TDUPDATE
 40
2456786.568978588
  9
$TDUUPDATE
 40
2456786.735645255
  9
$TDINDWG
 40
0.0033838657
  9
$TDUSRTIMER
 40
0.0033838657
  9
$USRTIMER
 70
     1
  9
$ANGBASE
 50
0.0
  9
$ANGDIR
 70
     0
  9
$PDMODE
 70
     3
  9
$PDSIZE
 40
0.03125
  9
$PLINEWID
 40
0.0
  9
$SPLFRAME
 70
     0
  9
$SPLINETYPE
 70
     6
  9
$SPLINESEGS
 70
     8
  9
$HANDSEED
  5
1A96
  9
$SURFTAB1
 70
     6
  9
$SURFTAB2
 70
     6
  9
$SURFTYPE
 70
     6
  9
$SURFU
 70
     6
  9
$SURFV
 70
     6
  9
$UCSBASE
  2

  9
$UCSNAME
  2

  9
$UCSORG
 10
0.0
 20
0.0
 30
0.0
  9
$UCSXDIR
 10
1.0
 20
0.0
 30
0.0
  9
$UCSYDIR
 10
0.0
 20
1.0
 30
0.0
  9
$UCSORTHOREF
  2

  9
$UCSORTHOVIEW
 70
     0
  9
$UCSORGTOP
 10
0.0
 20
0.0
 30
0.0
  9
$UCSORGBOTTOM
 10
0.0
 20
0.0
 30
0.0
  9
$UCSORGLEFT
 10
0.0
 20
0.0
 30
0.0
  9
$UCSORGRIGHT
 10
0.0
 20
0.0
 30
0.0
  9
$UCSORGFRONT
 10
0.0
 20
0.0
 30
0.0
  9
$UCSORGBACK
 10
0.0
 20
0.0
 30
0.0
  9
$PUCSBASE
  2

  9
$PUCSNAME
  2

  9
$PUCSORG
 10
0.0
 20
0.0
 30
0.0
  9
$PUCSXDIR
 10
1.0
 20
0.0
 30
0.0
  9
$PUCSYDIR
 10
0.0
 20
1.0
 30
0.0
  9
$PUCSORTHOREF
  2

  9
$PUCSORTHOVIEW
 70
     0
  9
$PUCSORGTOP
 10
0.0
 20
0.0
 30
0.0
  9
$PUCSORGBOTTOM
 10
0.0
 20
0.0
 30
0.0
  9
$PUCSORGLEFT
 10
0.0
 20
0.0
 30
0.0
  9
$PUCSORGRIGHT
 10
0.0
 20
0.0
 30
0.0
  9
$PUCSORGFRONT
 10
0.0
 20
0.0
 30
0.0
  9
$PUCSORGBACK
 10
0.0
 20
0.0
 30
0.0
  9
$USERI1
 70
     0
  9
$USERI2
 70
     0
  9
$USERI3
 70
     0
  9
$USERI4
 70
     0
  9
$USERI5
 70
     0
  9
$USERR1
 40
0.0
  9
$USERR2
 40
0.0
  9
$USERR3
 40
0.0
  9
$USERR4
 40
0.0
  9
$USERR5
 40
0.0
  9
$WORLDVIEW
 70
     1
  9
$SHADEDGE
 70
     3
  9
$SHADEDIF
 70
    70
  9
$TILEMODE
 70
     1
  9
$MAXACTVP
 70
    64
  9
$PINSBASE
 10
0.0
 20
0.0
 30
0.0
  9
$PLIMCHECK
 70
     0
  9
$PEXTMIN
 10
1.000000000000000E+20
 20
1.000000000000000E+20
 30
1.000000000000000E+20
  9
$PEXTMAX
 10
-1.000000000000000E+20
 20
-1.000000000000000E+20
 30
-1.000000000000000E+20
  9
$PLIMMIN
 10
0.0
 20
0.0
  9
$PLIMMAX
 10
12.0
 20
9.0
  9
$UNITMODE
 70
     0
  9
$VISRETAIN
 70
     1
  9
$PLINEGEN
 70
     0
  9
$PSLTSCALE
 70
     1
  9
$TREEDEPTH
 70
  3020
  9
$CMLSTYLE
  2
Standard
  9
$CMLJUST
 70
     0
  9
$CMLSCALE
 40
1.0
  9
$PROXYGRAPHICS
 70
     1
  9
$MEASUREMENT
 70
     0
  9
$CELWEIGHT
370
    -1
  9
$ENDCAPS
280
     0
  9
$JOINSTYLE
280
     0
  9
$LWDISPLAY
290
     0
  9
$INSUNITS
 70
     1
  9
$HYPERLINKBASE
  1

  9
$STYLESHEET
  1

  9
$XEDIT
290
     1
  9
$CEPSNTYPE
380
     0
  9
$PSTYLEMODE
290
     1
  9
$FINGERPRINTGUID
  2
{2E8BB179-56D8-46A4-80C1-5C71BB4E597A}
  9
$VERSIONGUID
  2
{950977FF-65CC-498B-B0DB-BA97284A20FD}
  9
$EXTNAMES
290
     1
  9
$PSVPSCALE
 40
0.0
  9
$OLESTARTUP
290
     0
  9
$SORTENTS
280
   127
  9
$INDEXCTL
280
     0
  9
$HIDETEXT
280
     0
  9
$XCLIPFRAME
290
     0
  9
$HALOGAP
280
     0
  9
$OBSCOLOR
 70
   257
  9
$OBSLTYPE
280
     0
  9
$INTERSECTIONDISPLAY
280
     0
  9
$INTERSECTIONCOLOR
 70
   257
  9
$DIMASSOC
280
     1
  9
$PROJECTNAME
  1

  9
$CAMERADISPLAY
290
     0
  9
$LENSLENGTH
 40
50.0
  9
$CAMERAHEIGHT
 40
0.0
  9
$STEPSPERSEC
 40
2.0
  9
$STEPSIZE
 40
6.0
  9
$3DDWFPREC
 40
2.0
  9
$PSOLWIDTH
 40
0.25
  9
$PSOLHEIGHT
 40
4.0
  9
$LOFTANG1
 40
1.570796326794896
  9
$LOFTANG2
 40
1.570796326794896
  9
$LOFTMAG1
 40
0.0
  9
$LOFTMAG2
 40
0.0
  9
$LOFTPARAM
 70
     7
  9
$LOFTNORMALS
280
     1
  9
$LATITUDE
 40
37.795
  9
$LONGITUDE
 40
-122.394
  9
$NORTHDIRECTION
 40
0.0
  9
$TIMEZONE
 70
 -8000
  9
$LIGHTGLYPHDISPLAY
280
     1
  9
$TILEMODELIGHTSYNCH
280
     1
  9
$CMATERIAL
347
19BD
  9
$SOLIDHIST
280
     1
  9
$SHOWHIST
280
     1
  9
$DWFFRAME
280
     2
  9
$DGNFRAME
280
     0
  9
$REALWORLDSCALE
290
     1
  9
$INTERFERECOLOR
 62
     1
  9
$INTERFEREOBJVS
345
19DF
  9
$INTERFEREVPVS
346
19DC
  9
$CSHADOW
280
     0
  9
$SHADOWPLANELOCATION
 40
0.0
  0
ENDSEC
  0
SECTION
  2
CLASSES
  0
CLASS
  1
ACDBDICTIONARYWDFLT
  2
AcDbDictionaryWithDefault
  3
ObjectDBX Classes
 90
        0
 91
        1
280
     0
281
     0
  0
CLASS
  1
MATERIAL
  2
AcDbMaterial
  3
ObjectDBX Classes
 90
     1153
 91
        3
280
     0
281
     0
  0
CLASS
  1
VISUALSTYLE
  2
AcDbVisualStyle
  3
ObjectDBX Classes
 90
     4095
 91
       19
280
     0
281
     0
  0
CLASS
  1
TABLESTYLE
  2
AcDbTableStyle
  3
ObjectDBX Classes
 90
     4095
 91
        1
280
     0
281
     0
  0
CLASS
  1
SCALE
  2
AcDbScale
  3
ObjectDBX Classes
 90
     1153
 91
       33
280
     0
281
     0
  0
CLASS
  1
MLEADERSTYLE
  2
AcDbMLeaderStyle
  3
ACDB_MLEADERSTYLE_CLASS
 90
     4095
 91
        1
280
     0
281
     0
  0
CLASS
  1
CELLSTYLEMAP
  2
AcDbCellStyleMap
  3
ObjectDBX Classes
 90
     1152
 91
        3
280
     0
281
     0
  0
CLASS
  1
DICTIONARYVAR
  2
AcDbDictionaryVar
  3
ObjectDBX Classes
 90
        0
 91
       11
280
     0
281
     0
  0
ENDSEC
  0
SECTION
  2
TABLES
  0
TABLE
  2
VPORT
  5
8
102
{ACAD_XDICTIONARY
360
1A15
102
}
330
0
100
AcDbSymbolTable
 70
     1
  0
VPORT
  5
1F4
330
8
100
AcDbSymbolTableRecord
100
AcDbViewportTableRecord
  2
*ACTIVE
 70
     0
 10
0.0
 20
0.0
 11
1.0
 21
1.0
 12
134.5906259074289
 22
86.86122374162088
 13
0.0
 23
0.0
 14
1.0
 24
1.0
 15
0.0
 25
0.0
 16
0.0
 26
0.0
 36
1.0
 17
0.0
 27
0.0
 37
0.0
 40
54.119463625149
 41
1.780711825487944
 42
50.0
 43
0.0
 44
0.0
 50
0.0
 51
0.0
 71
     0
 72
   100
 73
     1
 74
     1
 75
     0
 76
     0
 77
     0
 78
     0
281
     0
 65
     1
110
0.0
120
0.0
130
0.0
111
1.0
121
0.0
131
0.0
112
0.0
122
1.0
132
0.0
 79
     0
146
0.0
348
19DB
 60
     3
 61
     5
292
     1
282
     1
141
0.0
142
0.0
 63
   250
421
  3355443
  0
ENDTAB
  0
TABLE
  2
LTYPE
  5
5
330
0
100
AcDbSymbolTable
 70
     6
  0
LTYPE
  5
14
330
5
100
AcDbSymbolTableRecord
100
AcDbLinetypeTableRecord
  2
BYBLOCK
 70
     0
  3

 72
    65
 73
     0
 40
0.0
  0
LTYPE
  5
15
330
5
100
AcDbSymbolTableRecord
100
AcDbLinetypeTableRecord
  2
BYLAYER
 70
     0
  3

 72
    65
 73
     0
 40
0.0
  0
LTYPE
  5
16
330
5
100
AcDbSymbolTableRecord
100
AcDbLinetypeTableRecord
  2
CONTINUOUS
 70
     0
  3
Solid line
 72
    65
 73
     0
 40
0.0
  0
LTYPE
  5
1F5
330
5
100
AcDbSymbolTableRecord
100
AcDbLinetypeTableRecord
  2
CENTER
 70
     0
  3
____ _ ____ _ ____ _ ____ _ ____ _ ____ _ ____
 72
    65
 73
     4
 40
0.6
 49
0.375
 74
     0
 49
-0.075
 74
     0
 49
0.075
 74
     0
 49
-0.075
 74
     0
  0
LTYPE
  5
1F6
330
5
100
AcDbSymbolTableRecord
100
AcDbLinetypeTableRecord
  2
HIDDEN
 70
     0
  3
- - - - - - - - - - - - - - - - - - - -
 72
    65
 73
     2
 40
0.2
 49
0.1
 74
     0
 49
-0.1
 74
     0
  0
LTYPE
  5
1F7
330
5
100
AcDbSymbolTableRecord
100
AcDbLinetypeTableRecord
  2
PHANTOM
 70
     0
  3
_____ _ _ _____ _ _ _____ _ _ _____
 72
    65
 73
     6
 40
0.8
 49
0.45
 74
     0
 49
-0.05
 74
     0
 49
0.1
 74
     0
 49
-0.05
 74
     0
 49
0.1
 74
     0
 49
-0.05
 74
     0
  0
LTYPE
  5
1F8
330
5
100
AcDbSymbolTableRecord
100
AcDbLinetypeTableRecord
  2
DOT
 70
     0
  3
. . . . . . . . . . . . . . . . . . . .
 72
    65
 73
     2
 40
0.2
 49
0.1
 74
     0
 49
-0.1
 74
     0
  0
LTYPE
  5
1F9
330
5
100
AcDbSymbolTableRecord
100
AcDbLinetypeTableRecord
  2
DASHED
 70
     0
  3
- - - - - - - - - - - - - - - - - - - -
 72
    65
 73
     2
 40
0.2
 49
0.1
 74
     0
 49
-0.1
 74
     0
  0
ENDTAB
  0
TABLE
  2
LAYER
  5
2
330
0
100
AcDbSymbolTable
 70
    18
  0
LAYER
  5
10
102
{ACAD_XDICTIONARY
360
1A55
102
}
330
2
100
AcDbSymbolTableRecord
100
AcDbLayerTableRecord
  2
0
 70
     0
 62
     7
  6
CONTINUOUS
370
    -3
390
F
347
19CD
  0
LAYER
  5
1FA
102
{ACAD_XDICTIONARY
360
1A57
102
}
330
2
100
AcDbSymbolTableRecord
100
AcDbLayerTableRecord
  2
DEFAULT_1
 70
     0
 62
     7
  6
CENTER
370
    -3
390
F
347
19CD
  0
LAYER
  5
1FB
102
{ACAD_XDICTIONARY
360
1A59
102
}
330
2
100
AcDbSymbolTableRecord
100
AcDbLayerTableRecord
  2
DEFAULT_2
 70
     0
 62
     7
  6
HIDDEN
370
    -3
390
F
347
19CD
  0
LAYER
  5
1FC
102
{ACAD_XDICTIONARY
360
1A5B
102
}
330
2
100
AcDbSymbolTableRecord
100
AcDbLayerTableRecord
  2
DEFAULT_3
 70
     0
 62
     7
  6
PHANTOM
370
    -3
390
F
347
19CD
  0
LAYER
  5
1FD
102
{ACAD_XDICTIONARY
360
1A5D
102
}
330
2
100
AcDbSymbolTableRecord
100
AcDbLayerTableRecord
  2
1_CURVES
 70
     0
 62
     7
  6
CONTINUOUS
370
    -3
390
F
347
19CD
  0
LAYER
  5
1FE
102
{ACAD_XDICTIONARY
360
1A5F
102
}
330
2
100
AcDbSymbolTableRecord
100
AcDbLayerTableRecord
  2
1_CURVES_SPEC
 70
     0
 62
     7
  6
CONTINUOUS
370
    -3
390
F
347
19CD
  0
LAYER
  5
1FF
102
{ACAD_XDICTIONARY
360
1A61
102
}
330
2
100
AcDbSymbolTableRecord
100
AcDbLayerTableRecord
  2
1_CURVES_ZONE-ROBINETERIE
 70
     0
 62
     7
  6
CONTINUOUS
370
    -3
390
F
347
19CD
  0
LAYER
  5
200
102
{ACAD_XDICTIONARY
360
1A63
102
}
330
2
100
AcDbSymbolTableRecord
100
AcDbLayerTableRecord
  2
2_PLANES
 70
     0
 62
     7
  6
CONTINUOUS
370
    -3
390
F
347
19CD
  0
LAYER
  5
201
102
{ACAD_XDICTIONARY
360
1A65
102
}
330
2
100
AcDbSymbolTableRecord
100
AcDbLayerTableRecord
  2
3_POINTS
 70
     0
 62
     7
  6
CONTINUOUS
370
    -3
390
F
347
19CD
  0
LAYER
  5
202
102
{ACAD_XDICTIONARY
360
1A67
102
}
330
2
100
AcDbSymbolTableRecord
100
AcDbLayerTableRecord
  2
4_CSYS
 70
     0
 62
     7
  6
CONTINUOUS
370
    -3
390
F
347
19CD
  0
LAYER
  5
203
102
{ACAD_XDICTIONARY
360
1A69
102
}
330
2
100
AcDbSymbolTableRecord
100
AcDbLayerTableRecord
  2
5_AXIS
 70
     0
 62
     7
  6
CONTINUOUS
370
    -3
390
F
347
19CD
  0
LAYER
  5
204
102
{ACAD_XDICTIONARY
360
1A6B
102
}
330
2
100
AcDbSymbolTableRecord
100
AcDbLayerTableRecord
  2
6_SURFACES
 70
     0
 62
     7
  6
CONTINUOUS
370
    -3
390
F
347
19CD
  0
LAYER
  5
205
102
{ACAD_XDICTIONARY
360
1A6D
102
}
330
2
100
AcDbSymbolTableRecord
100
AcDbLayerTableRecord
  2
6_SURFACES_BAIN_DROIT
 70
     0
 62
     7
  6
CONTINUOUS
370
    -3
390
F
347
19CD
  0
LAYER
  5
206
102
{ACAD_XDICTIONARY
360
1A6F
102
}
330
2
100
AcDbSymbolTableRecord
100
AcDbLayerTableRecord
  2
6_SURFACES_BAIN_GAUCHE
 70
     0
 62
     7
  6
CONTINUOUS
370
    -3
390
F
347
19CD
  0
LAYER
  5
207
102
{ACAD_XDICTIONARY
360
1A71
102
}
330
2
100
AcDbSymbolTableRecord
100
AcDbLayerTableRecord
  2
6_SURFACES_OFFSET-FIBRE
 70
     0
 62
     7
  6
CONTINUOUS
370
    -3
390
F
347
19CD
  0
LAYER
  5
208
102
{ACAD_XDICTIONARY
360
1A73
102
}
330
2
100
AcDbSymbolTableRecord
100
AcDbLayerTableRecord
  2
6_SURFACES_TOOLING
 70
     0
 62
     7
  6
CONTINUOUS
370
    -3
390
F
347
19CD
  0
LAYER
  5
209
102
{ACAD_XDICTIONARY
360
1A75
102
}
330
2
100
AcDbSymbolTableRecord
100
AcDbLayerTableRecord
  2
7_NOTES
 70
     0
 62
     7
  6
CONTINUOUS
370
    -3
390
F
347
19CD
  0
LAYER
  5
20A
102
{ACAD_XDICTIONARY
360
1A77
102
}
330
2
100
AcDbSymbolTableRecord
100
AcDbLayerTableRecord
  2
XSEC_DATUMS
 70
     0
 62
     7
  6
CONTINUOUS
370
    -3
390
F
347
19CD
  0
ENDTAB
  0
TABLE
  2
STYLE
  5
3
330
0
100
AcDbSymbolTable
 70
     8
  0
STYLE
  5
11
330
3
100
AcDbSymbolTableRecord
100
AcDbTextStyleTableRecord
  2
STANDARD
 70
     0
 40
0.0
 41
0.8
 50
0.0
 71
     0
 42
0.2
  3
txt
  4

  0
STYLE
  5
20B
330
3
100
AcDbSymbolTableRecord
100
AcDbTextStyleTableRecord
  2
TEXTSTYLE_1
 70
     0
 40
0.0
 41
0.8
 50
0.0
 71
     0
 42
0.2
  3
gdt
  4

  0
STYLE
  5
20C
330
3
100
AcDbSymbolTableRecord
100
AcDbTextStyleTableRecord
  2
TEXTSTYLE_2
 70
     0
 40
0.0
 41
1.0
 50
0.0
 71
     0
 42
0.2
  3
trium.ttf
  4

  0
STYLE
  5
20D
330
3
100
AcDbSymbolTableRecord
100
AcDbTextStyleTableRecord
  2
TEXTSTYLE_3
 70
     0
 40
0.0
 41
1.0
 50
0.0
 71
     0
 42
0.2
  3
trium.ttf
  4

  0
STYLE
  5
20E
330
3
100
AcDbSymbolTableRecord
100
AcDbTextStyleTableRecord
  2
TEXTSTYLE_4
 70
     0
 40
0.0
 41
1.0
 50
0.0
 71
     0
 42
0.2
  3
txt_____.ttf
  4

1001
ACAD
1000
txt
1071
        2
  0
STYLE
  5
20F
330
3
100
AcDbSymbolTableRecord
100
AcDbTextStyleTableRecord
  2
TEXTSTYLE_5
 70
     0
 40
0.0
 41
1.0
 50
0.0
 71
     0
 42
0.2
  3
txt_____.ttf
  4

1001
ACAD
1000
txt
1071
        2
  0
STYLE
  5
210
330
3
100
AcDbSymbolTableRecord
100
AcDbTextStyleTableRecord
  2
TEXTSTYLE_6
 70
     0
 40
0.0
 41
1.0
 50
0.0
 71
     0
 42
0.2
  3
trium.ttf
  4

  0
STYLE
  5
211
330
3
100
AcDbSymbolTableRecord
100
AcDbTextStyleTableRecord
  2
TEXTSTYLE_7
 70
     0
 40
0.0
 41
0.8
 50
0.0
 71
     0
 42
0.2
  3
txt_____.ttf
  4

1001
ACAD
1000
txt
1071
        2
  0
ENDTAB
  0
TABLE
  2
VIEW
  5
6
330
0
100
AcDbSymbolTable
 70
     0
  0
ENDTAB
  0
TABLE
  2
UCS
  5
7
330
0
100
AcDbSymbolTable
 70
     0
  0
ENDTAB
  0
TABLE
  2
APPID
  5
9
330
0
100
AcDbSymbolTable
 70
     2
  0
APPID
  5
212
330
9
100
AcDbSymbolTableRecord
100
AcDbRegAppTableRecord
  2
ACAD
 70
     0
  0
APPID
  5
1A45
330
9
100
AcDbSymbolTableRecord
100
AcDbRegAppTableRecord
  2
ACAD_MLEADERVER
 70
     0
  0
ENDTAB
  0
TABLE
  2
DIMSTYLE
  5
A
330
0
100
AcDbSymbolTable
 70
     9
100
AcDbDimStyleTable
 71
     0
  0
DIMSTYLE
105
237
330
A
100
AcDbSymbolTableRecord
100
AcDbDimStyleTableRecord
  2
STANDARD
 70
     0
 41
2.0
 44
0.125
 47
0.00001
 48
0.00001
 71
     1
 78
     4
140
1.333333333299999
271
     5
272
     5
284
     4
340
11
341
215
342
215
343
215
344
215
  0
DIMSTYLE
105
238
330
A
100
AcDbSymbolTableRecord
100
AcDbDimStyleTableRecord
  2
DIMSTYLE_1
 70
     0
 41
2.0
 44
0.125
 47
0.00001
 48
0.00001
 78
     4
140
1.333333333299999
147
0.0625
271
     3
272
     3
284
     4
340
11
341
215
342
215
343
215
344
215
  0
DIMSTYLE
105
239
330
A
100
AcDbSymbolTableRecord
100
AcDbDimStyleTableRecord
  2
DIMSTYLE_2
 70
     0
 41
2.0
 44
0.125
 47
0.001
 48
0.001
 78
     4
140
1.333333333299999
147
0.0625
271
     3
272
     3
284
     4
340
11
341
215
342
215
343
215
344
215
  0
DIMSTYLE
105
23A
330
A
100
AcDbSymbolTableRecord
100
AcDbDimStyleTableRecord
  2
DIMSTYLE_3
 70
     0
 41
2.0
 44
0.125
 47
0.001
 48
0.001
 78
     4
140
1.333333333299999
147
0.0625
271
     2
272
     2
284
     4
340
11
341
215
342
215
343
215
344
215
  0
DIMSTYLE
105
23B
330
A
100
AcDbSymbolTableRecord
100
AcDbDimStyleTableRecord
  2
DIMSTYLE_4
 70
     0
 41
2.0
 44
0.125
 47
0.00001
 48
0.00001
 78
     4
140
1.333333333299999
147
0.0625
271
     2
272
     2
284
     4
340
11
341
215
342
215
343
215
344
215
  0
DIMSTYLE
105
23C
330
A
100
AcDbSymbolTableRecord
100
AcDbDimStyleTableRecord
  2
DIMSTYLE_5
 70
     0
 41
2.0
 44
0.125
 47
0.00001
 48
0.00001
 78
     4
140
1.333333333299999
147
0.0625
271
     6
272
     6
284
     4
340
11
341
215
342
215
343
215
344
215
  0
DIMSTYLE
105
23D
330
A
100
AcDbSymbolTableRecord
100
AcDbDimStyleTableRecord
  2
DIMSTYLE_6
 70
     0
 41
2.0
 44
0.125
 47
0.00001
 48
0.00001
 78
     4
140
1.333333333299999
147
0.0625
284
     4
340
11
341
215
342
215
343
215
344
215
  0
DIMSTYLE
105
23E
330
A
100
AcDbSymbolTableRecord
100
AcDbDimStyleTableRecord
  2
DIMSTYLE_7
 70
     0
 41
2.0
 44
0.125
 47
1.0
 48
1.0
 78
     4
140
1.333333333299999
271
     0
272
     0
284
     4
340
11
341
215
342
215
343
215
344
215
  0
DIMSTYLE
105
23F
330
A
100
AcDbSymbolTableRecord
100
AcDbDimStyleTableRecord
  2
DIMSTYLE_8
 70
     0
 41
2.0
 44
0.125
 47
0.00001
 48
0.00001
 78
     4
140
1.333333333299999
147
0.0625
271
     1
272
     1
284
     4
340
11
341
215
342
215
343
215
344
215
  0
ENDTAB
  0
TABLE
  2
BLOCK_RECORD
  5
1
330
0
100
AcDbSymbolTable
 70
    11
  0
BLOCK_RECORD
  5
213
330
1
100
AcDbSymbolTableRecord
100
AcDbBlockTableRecord
  2
*Model_Space
340
19B7
 70
     0
280
     1
281
     0
  0
BLOCK_RECORD
  5
214
330
1
100
AcDbSymbolTableRecord
100
AcDbBlockTableRecord
  2
*Paper_Space
340
19B8
 70
     0
280
     1
281
     0
  0
BLOCK_RECORD
  5
215
330
1
100
AcDbSymbolTableRecord
100
AcDbBlockTableRecord
  2
_FILLED
340
0
 70
     0
280
     1
281
     0
  0
BLOCK_RECORD
  5
22D
330
1
100
AcDbSymbolTableRecord
100
AcDbBlockTableRecord
  2
SYMBOL_14_BL9
340
0
 70
     0
280
     1
281
     0
  0
BLOCK_RECORD
  5
22E
330
1
100
AcDbSymbolTableRecord
100
AcDbBlockTableRecord
  2
SYMBOL_12_BL8
340
0
 70
     0
280
     1
281
     0
  0
BLOCK_RECORD
  5
22F
330
1
100
AcDbSymbolTableRecord
100
AcDbBlockTableRecord
  2
SYMBOL_10_BL7
340
0
 70
     0
280
     1
281
     0
  0
BLOCK_RECORD
  5
230
330
1
100
AcDbSymbolTableRecord
100
AcDbBlockTableRecord
  2
SYMBOL_9_BL6
340
0
 70
     0
280
     1
281
     0
  0
BLOCK_RECORD
  5
231
330
1
100
AcDbSymbolTableRecord
100
AcDbBlockTableRecord
  2
SYMBOL_15_BL5
340
0
 70
     0
280
     1
281
     0
  0
BLOCK_RECORD
  5
232
330
1
100
AcDbSymbolTableRecord
100
AcDbBlockTableRecord
  2
SYMBOL_8_BL4
340
0
 70
     0
280
     1
281
     0
  0
BLOCK_RECORD
  5
233
330
1
100
AcDbSymbolTableRecord
100
AcDbBlockTableRecord
  2
SYMBOL_7_BL3
340
0
 70
     0
280
     1
281
     0
  0
BLOCK_RECORD
  5
234
330
1
100
AcDbSymbolTableRecord
100
AcDbBlockTableRecord
  2
SYMBOL_6_BL2
340
0
 70
     0
280
     1
281
     0
  0
BLOCK_RECORD
  5
235
330
1
100
AcDbSymbolTableRecord
100
AcDbBlockTableRecord
  2
SYMBOL_18_BL1
340
0
 70
     0
280
     1
281
     0
  0
BLOCK_RECORD
  5
236
330
1
100
AcDbSymbolTableRecord
100
AcDbBlockTableRecord
  2
SYMBOL_3_BL0
340
0
 70
     0
280
     1
281
     0
  0
ENDTAB
  0
ENDSEC
  0
SECTION
  2
BLOCKS
  0
BLOCK
  5
20
330
213
100
AcDbEntity
  8
0
100
AcDbBlockBegin
  2
*Model_Space
 70
     0
 10
0.0
 20
0.0
 30
0.0
  3
*Model_Space
  1

  0
ENDBLK
  5
21
330
213
100
AcDbEntity
  8
0
100
AcDbBlockEnd
  0
BLOCK
  5
1C
330
214
100
AcDbEntity
 67
     1
  8
0
100
AcDbBlockBegin
  2
*Paper_Space
 70
     0
 10
0.0
 20
0.0
 30
0.0
  3
*Paper_Space
  1

  0
ENDBLK
  5
1D
330
214
100
AcDbEntity
 67
     1
  8
0
100
AcDbBlockEnd
  0
BLOCK
  5
333
330
215
100
AcDbEntity
  8
0
100
AcDbBlockBegin
  2
_FILLED
 70
     0
 10
0.0
 20
0.0
 30
0.0
  3
_FILLED
  1

  0
SOLID
  5
334
330
215
100
AcDbEntity
  8
0
  6
ByBlock
 62
     0
100
AcDbTrace
 10
0.0
 20
0.0
 30
0.0
 11
-1.0
 21
0.1666666667
 31
0.0
 12
-1.0
 22
-0.1666666667
 32
0.0
 13
-1.0
 23
-0.1666666667
 33
0.0
  0
ENDBLK
  5
335
330
215
100
AcDbEntity
  8
0
  6
ByBlock
 62
     0
100
AcDbBlockEnd
  0
BLOCK
  5
240
330
22D
100
AcDbEntity
  8
0
  6
Continuous
 62
     7
100
AcDbBlockBegin
  2
SYMBOL_14_BL9
 70
     0
 10
170.0027219488
 20
86.35944116040001
 30
0.0
  3
SYMBOL_14_BL9
  1

  0
TEXT
  5
241
330
22D
100
AcDbEntity
  8
0
  6
Continuous
 62
     7
100
AcDbText
 10
169.4397587668
 20
85.69277423429999
 30
0.0
 40
1.333333852099999
  1
T
  7
TEXTSTYLE_2
100
AcDbText
  0
ELLIPSE
  5
242
330
22D
100
AcDbEntity
  8
0
  6
Continuous
 62
     7
100
AcDbEllipse
 10
170.0027219488
 20
86.35944116040001
 30
0.0
 11
-1.942887567899999
 21
0.0
 31
0.0
210
0.0
220
0.0
230
1.0
 40
0.6606458385
 41
0.0
 42
6.283185307179586
  0
ENDBLK
  5
243
330
22D
100
AcDbEntity
  8
0
  6
ByBlock
 62
     0
100
AcDbBlockEnd
  0
BLOCK
  5
244
330
22E
100
AcDbEntity
  8
0
  6
Continuous
 62
     7
100
AcDbBlockBegin
  2
SYMBOL_12_BL8
 70
     0
 10
168.3447525658
 20
73.984601065
 30
0.0
  3
SYMBOL_12_BL8
  1

  0
TEXT
  5
245
330
22E
100
AcDbEntity
  8
0
  6
Continuous
 62
     7
100
AcDbText
 10
168.5887695966
 20
73.07391710819999
 30
0.0
 40
1.333333852099999
  1
C
 50
60.0
  7
TEXTSTYLE_2
100
AcDbText
  0
ELLIPSE
  5
246
330
22E
100
AcDbEntity
  8
0
  6
Continuous
 62
     7
100
AcDbEllipse
 10
168.3447525658
 20
73.984601065
 30
0.0
 11
-0.9714437840000002
 21
-1.682589990499999
 31
0.0
210
0.0
220
0.0
230
1.0
 40
0.6606458385
 41
0.0
 42
6.283185307179586
  0
ENDBLK
  5
247
330
22E
100
AcDbEntity
  8
0
  6
ByBlock
 62
     0
100
AcDbBlockEnd
  0
BLOCK
  5
248
330
22F
100
AcDbEntity
  8
0
  6
Continuous
 62
     7
100
AcDbBlockBegin
  2
SYMBOL_10_BL7
 70
     0
 10
128.8478955889
 20
78.1148537092
 30
0.0
  3
SYMBOL_10_BL7
  1

  0
TEXT
  5
249
330
22F
100
AcDbEntity
  8
0
  6
Continuous
 62
     7
100
AcDbText
 10
128.2984203889
 20
77.44198136920001
 30
0.0
 40
1.333333852099999
  1
L
  7
TEXTSTYLE_2
100
AcDbText
  0
TEXT
  5
24A
330
22F
100
AcDbEntity
  8
0
  6
Continuous
 62
     7
100
AcDbText
 10
124.6138341106
 20
77.45439219720001
 30
0.0
 40
1.333333852099999
  1
7
  7
TEXTSTYLE_2
100
AcDbText
  0
TEXT
  5
24B
330
22F
100
AcDbEntity
  8
0
  6
Continuous
 62
     7
100
AcDbText
 10
132.0597344473
 20
77.45439219720001
 30
0.0
 40
1.333333852099999
  1
8
  7
TEXTSTYLE_2
100
AcDbText
  0
ELLIPSE
  5
24C
330
22F
100
AcDbEntity
  8
0
  6
Continuous
 62
     7
100
AcDbEllipse
 10
128.8268156562
 20
78.10864829519999
 30
0.0
 11
-1.942887567899999
 21
0.0
 31
0.0
210
0.0
220
0.0
230
1.0
 40
0.6606458385
 41
0.0
 42
6.283185307179586
  0
ENDBLK
  5
24D
330
22F
100
AcDbEntity
  8
0
  6
ByBlock
 62
     0
100
AcDbBlockEnd
  0
BLOCK
  5
24E
330
230
100
AcDbEntity
  8
0
  6
Continuous
 62
     7
100
AcDbBlockBegin
  2
SYMBOL_9_BL6
 70
     0
 10
150.8946497458
 20
94.04864969170001
 30
0.0
  3
SYMBOL_9_BL6
  1

  0
TEXT
  5
24F
330
230
100
AcDbEntity
  8
0
  6
Continuous
 62
     7
100
AcDbText
 10
150.3451745458
 20
93.3757773516
 30
0.0
 40
1.333333852099999
  1
L
  7
TEXTSTYLE_2
100
AcDbText
  0
TEXT
  5
250
330
230
100
AcDbEntity
  8
0
  6
Continuous
 62
     7
100
AcDbText
 10
146.1494769576
 20
93.38818817969999
 30
0.0
 40
1.333333852099999
  1
12
  7
TEXTSTYLE_2
100
AcDbText
  0
TEXT
  5
251
330
230
100
AcDbEntity
  8
0
  6
Continuous
 62
     7
100
AcDbText
 10
153.5953772943
 20
93.38818817969999
 30
0.0
 40
1.333333852099999
  1
13
  7
TEXTSTYLE_2
100
AcDbText
  0
ELLIPSE
  5
252
330
230
100
AcDbEntity
  8
0
  6
Continuous
 62
     7
100
AcDbEllipse
 10
150.8735698131
 20
94.04244427770001
 30
0.0
 11
-1.942887567899999
 21
0.0
 31
0.0
210
0.0
220
0.0
230
1.0
 40
0.6606458385
 41
0.0
 42
6.283185307179586
  0
ENDBLK
  5
253
330
230
100
AcDbEntity
  8
0
  6
ByBlock
 62
     0
100
AcDbBlockEnd
  0
BLOCK
  5
254
330
231
100
AcDbEntity
  8
0
  6
Continuous
 62
     7
100
AcDbBlockBegin
  2
SYMBOL_15_BL5
 70
     0
 10
18.4129286005
 20
86.29296027209999
 30
0.0
  3
SYMBOL_15_BL5
  1

  0
TEXT
  5
255
330
231
100
AcDbEntity
  8
0
  6
Continuous
 62
     7
100
AcDbText
 10
17.8499654185
 20
85.626293346
 30
0.0
 40
1.333333852099999
  1
T
  7
TEXTSTYLE_2
100
AcDbText
  0
ELLIPSE
  5
256
330
231
100
AcDbEntity
  8
0
  6
Continuous
 62
     7
100
AcDbEllipse
 10
18.4129286005
 20
86.29296027209999
 30
0.0
 11
-1.942887567899999
 21
0.0
 31
0.0
210
0.0
220
0.0
230
1.0
 40
0.6606458385
 41
0.0
 42
6.283185307179586
  0
ENDBLK
  5
257
330
231
100
AcDbEntity
  8
0
  6
ByBlock
 62
     0
100
AcDbBlockEnd
  0
BLOCK
  5
258
330
232
100
AcDbEntity
  8
0
  6
Continuous
 62
     7
100
AcDbBlockBegin
  2
SYMBOL_8_BL4
 70
     0
 10
37.3483830056
 20
78.14656650329999
 30
0.0
  3
SYMBOL_8_BL4
  1

  0
TEXT
  5
259
330
232
100
AcDbEntity
  8
0
  6
Continuous
 62
     7
100
AcDbText
 10
36.7989078056
 20
77.47369416329999
 30
0.0
 40
1.333333852099999
  1
L
  7
TEXTSTYLE_2
100
AcDbText
  0
TEXT
  5
25A
330
232
100
AcDbEntity
  8
0
  6
Continuous
 62
     7
100
AcDbText
 10
32.6032102174
 20
77.48610499129999
 30
0.0
 40
1.333333852099999
  1
13
  7
TEXTSTYLE_2
100
AcDbText
  0
TEXT
  5
25B
330
232
100
AcDbEntity
  8
0
  6
Continuous
 62
     7
100
AcDbText
 10
40.0491105541
 20
77.48610499129999
 30
0.0
 40
1.333333852099999
  1
12
  7
TEXTSTYLE_2
100
AcDbText
  0
ELLIPSE
  5
25C
330
232
100
AcDbEntity
  8
0
  6
Continuous
 62
     7
100
AcDbEllipse
 10
37.3273030729
 20
78.1403610893
 30
0.0
 11
-1.942887567899999
 21
0.0
 31
0.0
210
0.0
220
0.0
230
1.0
 40
0.6606458385
 41
0.0
 42
6.283185307179586
  0
ENDBLK
  5
25D
330
232
100
AcDbEntity
  8
0
  6
ByBlock
 62
     0
100
AcDbBlockEnd
  0
BLOCK
  5
25E
330
233
100
AcDbEntity
  8
0
  6
Continuous
 62
     7
100
AcDbBlockBegin
  2
SYMBOL_7_BL3
 70
     0
 10
61.5848740751
 20
94.2961038414
 30
0.0
  3
SYMBOL_7_BL3
  1

  0
TEXT
  5
25F
330
233
100
AcDbEntity
  8
0
  6
Continuous
 62
     7
100
AcDbText
 10
61.0353988751
 20
93.6232315013
 30
0.0
 40
1.333333852099999
  1
L
  7
TEXTSTYLE_2
100
AcDbText
  0
TEXT
  5
260
330
233
100
AcDbEntity
  8
0
  6
Continuous
 62
     7
100
AcDbText
 10
57.35081259680001
 20
93.6356423293
 30
0.0
 40
1.333333852099999
  1
8
  7
TEXTSTYLE_2
100
AcDbText
  0
TEXT
  5
261
330
233
100
AcDbEntity
  8
0
  6
Continuous
 62
     7
100
AcDbText
 10
64.7967129335
 20
93.6356423293
 30
0.0
 40
1.333333852099999
  1
7
  7
TEXTSTYLE_2
100
AcDbText
  0
ELLIPSE
  5
262
330
233
100
AcDbEntity
  8
0
  6
Continuous
 62
     7
100
AcDbEllipse
 10
61.56379414239999
 20
94.2898984273
 30
0.0
 11
-1.942887567899999
 21
0.0
 31
0.0
210
0.0
220
0.0
230
1.0
 40
0.6606458385
 41
0.0
 42
6.283185307179586
  0
ENDBLK
  5
263
330
233
100
AcDbEntity
  8
0
  6
ByBlock
 62
     0
100
AcDbBlockEnd
  0
BLOCK
  5
264
330
234
100
AcDbEntity
  8
0
  6
Continuous
 62
     7
100
AcDbBlockBegin
  2
SYMBOL_6_BL2
 70
     0
 10
20.4561293901
 20
96.87836373299999
 30
0.0
  3
SYMBOL_6_BL2
  1

  0
TEXT
  5
265
330
234
100
AcDbEntity
  8
0
  6
Continuous
 62
     7
100
AcDbText
 10
20.7001464209
 20
95.96767977610001
 30
0.0
 40
1.333333852099999
  1
C
 50
60.0
  7
TEXTSTYLE_2
100
AcDbText
  0
ELLIPSE
  5
266
330
234
100
AcDbEntity
  8
0
  6
Continuous
 62
     7
100
AcDbEllipse
 10
20.4561293901
 20
96.87836373299999
 30
0.0
 11
-0.9714437840000002
 21
-1.682589990499999
 31
0.0
210
0.0
220
0.0
230
1.0
 40
0.6606458385
 41
0.0
 42
6.283185307179586
  0
ENDBLK
  5
267
330
234
100
AcDbEntity
  8
0
  6
ByBlock
 62
     0
100
AcDbBlockEnd
  0
BLOCK
  5
268
330
235
100
AcDbEntity
  8
0
  6
Continuous
 62
     7
100
AcDbBlockBegin
  2
SYMBOL_18_BL1
 70
     0
 10
160.6666666667
 20
55.33333333329999
 30
0.0
  3
SYMBOL_18_BL1
  1

  0
TEXT
  5
269
330
235
100
AcDbEntity
  8
0
  6
Continuous
 62
     7
100
AcDbText
 10
144.4188815905
 20
63.10676672439999
 30
0.0
 40
0.5
  1
Infomations Techniques/Technical Infomations
  7
TEXTSTYLE_2
100
AcDbText
  0
TEXT
  5
26A
330
235
100
AcDbEntity
  8
0
  6
Continuous
 62
     7
100
AcDbText
 10
144.6666666667
 20
61.6666666667
 30
0.0
 40
0.6666666667
  1
NOMBRE DE JETS:     
  7
TEXTSTYLE_2
100
AcDbText
  0
TEXT
  5
26B
330
235
100
AcDbEntity
  8
0
  6
Continuous
 62
     7
100
AcDbText
 10
154.5111111111
 20
61.6666666667
 30
0.0
 40
0.6666666667
  1
36
  7
TEXTSTYLE_2
100
AcDbText
  0
TEXT
  5
26C
330
235
100
AcDbEntity
  8
0
  6
Continuous
 62
     7
100
AcDbText
 10
144.6666666667
 20
60.6666666667
 30
0.0
 40
0.6666666667
  1
 
  7
TEXTSTYLE_2
100
AcDbText
  0
TEXT
  5
26D
330
235
100
AcDbEntity
  8
0
  6
Continuous
 62
     7
100
AcDbText
 10
144.6666666667
 20
59.66666666670001
 30
0.0
 40
0.6666666667
  1
NIVEAU D'EAU              GALLONS(US)        LITRES        GALLONS(UK)
  7
TEXTSTYLE_2
100
AcDbText
  0
TEXT
  5
26E
330
235
100
AcDbEntity
  8
0
  6
Continuous
 62
     7
100
AcDbText
 10
144.6666666667
 20
58.6666666667
 30
0.0
 40
0.6666666667
  1
PLEIN
  7
TEXTSTYLE_2
100
AcDbText
  0
TEXT
  5
26F
330
235
100
AcDbEntity
  8
0
  6
Continuous
 62
     7
100
AcDbText
 10
144.6666666667
 20
57.6666666667
 30
0.0
 40
0.6666666667
  1
HAUT T.PLEIN
  7
TEXTSTYLE_2
100
AcDbText
  0
TEXT
  5
270
330
235
100
AcDbEntity
  8
0
  6
Continuous
 62
     7
100
AcDbText
 10
144.6666666667
 20
56.6666666667
 30
0.0
 40
0.6666666667
  1
MILIEU T.PLEIN
  7
TEXTSTYLE_2
100
AcDbText
  0
TEXT
  5
271
330
235
100
AcDbEntity
  8
0
  6
Continuous
 62
     7
100
AcDbText
 10
144.6666666667
 20
55.6666666667
 30
0.0
 40
0.6666666667
  1
BAS T.PLEIN
  7
TEXTSTYLE_2
100
AcDbText
  0
TEXT
  5
272
330
235
100
AcDbEntity
  8
0
  6
Continuous
 62
     7
100
AcDbText
 10
144.6666666667
 20
54.66666666670001
 30
0.0
 40
0.6666666667
  1
3" EN BAS T.PLEIN
  7
TEXTSTYLE_2
100
AcDbText
  0
TEXT
  5
273
330
235
100
AcDbEntity
  8
0
  6
Continuous
 62
     7
100
AcDbText
 10
144.6666666667
 20
53.6666666667
 30
0.0
 40
0.6666666667
  1
 
  7
TEXTSTYLE_2
100
AcDbText
  0
TEXT
  5
274
330
235
100
AcDbEntity
  8
0
  6
Continuous
 62
     7
100
AcDbText
 10
144.4665051611
 20
53.1198797418
 30
0.0
 40
0.5
  1
Legende/Legend
  7
TEXTSTYLE_2
100
AcDbText
  0
TEXT
  5
275
330
235
100
AcDbEntity
  8
0
  6
Continuous
 62
     7
100
AcDbText
 10
150.9953401051
 20
51.6086147641
 30
0.0
 40
0.6666666667
  1
ZONE DE ROBINETTERIE
  7
TEXTSTYLE_2
100
AcDbText
  0
TEXT
  5
276
330
235
100
AcDbEntity
  8
0
  6
Continuous
 62
     7
100
AcDbText
 10
145.9156155382
 20
50.1133702497
 30
0.0
 40
0.6666666667
  1
L   :  SYSTEME LED       DC   :  DOUBLE DOSSIER CHAUFFANT
  7
TEXTSTYLE_2
100
AcDbText
  0
TEXT
  5
277
330
235
100
AcDbEntity
  8
0
  6
Continuous
 62
     7
100
AcDbText
 10
145.9156155382
 20
48.7800369164
 30
0.0
 40
0.6666666667
  1
C   :  CONTROLE
  7
TEXTSTYLE_2
100
AcDbText
  0
TEXT
  5
278
330
235
100
AcDbEntity
  8
0
  6
Continuous
 62
     7
100
AcDbText
 10
145.9156155382
 20
47.4467035831
 30
0.0
 40
0.6666666667
  1
T   :  MOTEUR
  7
TEXTSTYLE_2
100
AcDbText
  0
TEXT
  5
279
330
235
100
AcDbEntity
  8
0
  6
Continuous
 62
     7
100
AcDbText
 10
157.499363366
 20
58.6666666667
 30
0.0
 40
0.6666666667
  1
69
  7
TEXTSTYLE_2
100
AcDbText
  0
TEXT
  5
27A
330
235
100
AcDbEntity
  8
0
  6
Continuous
 62
     7
100
AcDbText
 10
157.499363366
 20
57.6666666667
 30
0.0
 40
0.6666666667
  1
59
  7
TEXTSTYLE_2
100
AcDbText
  0
TEXT
  5
27B
330
235
100
AcDbEntity
  8
0
  6
Continuous
 62
     7
100
AcDbText
 10
157.499363366
 20
56.6666666667
 30
0.0
 40
0.6666666667
  1
54
  7
TEXTSTYLE_2
100
AcDbText
  0
TEXT
  5
27C
330
235
100
AcDbEntity
  8
0
  6
Continuous
 62
     7
100
AcDbText
 10
157.499363366
 20
55.6666666667
 30
0.0
 40
0.6666666667
  1
48
  7
TEXTSTYLE_2
100
AcDbText
  0
TEXT
  5
27D
330
235
100
AcDbEntity
  8
0
  6
Continuous
 62
     7
100
AcDbText
 10
157.499363366
 20
54.66666666670001
 30
0.0
 40
0.6666666667
  1
35
  7
TEXTSTYLE_2
100
AcDbText
  0
TEXT
  5
27E
330
235
100
AcDbEntity
  8
0
  6
Continuous
 62
     7
100
AcDbText
 10
164.4195693097
 20
58.68374606879999
 30
0.0
 40
0.6666666667
  1
262
  7
TEXTSTYLE_2
100
AcDbText
  0
TEXT
  5
27F
330
235
100
AcDbEntity
  8
0
  6
Continuous
 62
     7
100
AcDbText
 10
164.4195693097
 20
57.6837460688
 30
0.0
 40
0.6666666667
  1
223
  7
TEXTSTYLE_2
100
AcDbText
  0
TEXT
  5
280
330
235
100
AcDbEntity
  8
0
  6
Continuous
 62
     7
100
AcDbText
 10
164.4195693097
 20
56.6837460688
 30
0.0
 40
0.6666666667
  1
203
  7
TEXTSTYLE_2
100
AcDbText
  0
TEXT
  5
281
330
235
100
AcDbEntity
  8
0
  6
Continuous
 62
     7
100
AcDbText
 10
164.4195693097
 20
55.68374606879999
 30
0.0
 40
0.6666666667
  1
183
  7
TEXTSTYLE_2
100
AcDbText
  0
TEXT
  5
282
330
235
100
AcDbEntity
  8
0
  6
Continuous
 62
     7
100
AcDbText
 10
164.4195693097
 20
54.6837460688
 30
0.0
 40
0.6666666667
  1
134
  7
TEXTSTYLE_2
100
AcDbText
  0
TEXT
  5
283
330
235
100
AcDbEntity
  8
0
  6
Continuous
 62
     7
100
AcDbText
 10
171.3642082472
 20
58.6666666667
 30
0.0
 40
0.6666666667
  1
58
  7
TEXTSTYLE_2
100
AcDbText
  0
TEXT
  5
284
330
235
100
AcDbEntity
  8
0
  6
Continuous
 62
     7
100
AcDbText
 10
171.3642082472
 20
57.6666666667
 30
0.0
 40
0.6666666667
  1
49
  7
TEXTSTYLE_2
100
AcDbText
  0
TEXT
  5
285
330
235
100
AcDbEntity
  8
0
  6
Continuous
 62
     7
100
AcDbText
 10
171.3642082472
 20
56.6666666667
 30
0.0
 40
0.6666666667
  1
45
  7
TEXTSTYLE_2
100
AcDbText
  0
TEXT
  5
286
330
235
100
AcDbEntity
  8
0
  6
Continuous
 62
     7
100
AcDbText
 10
171.3642082472
 20
55.6666666667
 30
0.0
 40
0.6666666667
  1
40
  7
TEXTSTYLE_2
100
AcDbText
  0
TEXT
  5
287
330
235
100
AcDbEntity
  8
0
  6
Continuous
 62
     7
100
AcDbText
 10
171.3642082472
 20
54.66666666670001
 30
0.0
 40
0.6666666667
  1
29
  7
TEXTSTYLE_2
100
AcDbText
  0
LINE
  5
288
330
235
100
AcDbEntity
  8
0
  6
Continuous
 62
     7
100
AcDbLine
 10
144.0
 20
64.0
 30
0.0
 11
144.0
 21
46.6666666667
 31
0.0
  0
LINE
  5
289
330
235
100
AcDbEntity
  8
0
  6
Continuous
 62
     7
100
AcDbLine
 10
144.0
 20
64.0
 30
0.0
 11
177.3333333333
 21
64.0
 31
0.0
  0
LINE
  5
28A
330
235
100
AcDbEntity
  8
0
  6
Continuous
 62
     7
100
AcDbLine
 10
177.3333333333
 20
64.0
 30
0.0
 11
177.3333333333
 21
46.6666666667
 31
0.0
  0
LINE
  5
28B
330
235
100
AcDbEntity
  8
0
  6
Continuous
 62
     7
100
AcDbLine
 10
144.0
 20
46.6666666667
 30
0.0
 11
177.3333333333
 21
46.6666666667
 31
0.0
  0
LINE
  5
28C
330
235
100
AcDbEntity
  8
0
  6
Continuous
 62
     7
100
AcDbLine
 10
145.3333333333
 20
54.0
 30
0.0
 11
176.0
 21
54.0
 31
0.0
  0
LINE
  5
28D
330
235
100
AcDbEntity
  8
0
  6
Continuous
 62
     7
100
AcDbLine
 10
145.3333333333
 20
61.0
 30
0.0
 11
176.0
 21
61.0
 31
0.0
  0
LINE
  5
28E
330
235
100
AcDbEntity
  8
0
  6
Continuous
 62
     7
100
AcDbLine
 10
144.8089065593
 20
52.3781645044
 30
0.0
 11
144.4398858169
 21
52.009143762
 31
0.0
  0
LINE
  5
28F
330
235
100
AcDbEntity
  8
0
  6
Continuous
 62
     7
100
AcDbLine
 10
145.4755732259
 20
52.3781645044
 30
0.0
 11
144.6775574355
 21
51.5801487139
 31
0.0
  0
LINE
  5
290
330
235
100
AcDbEntity
  8
0
  6
Continuous
 62
     7
100
AcDbLine
 10
146.1422398926
 20
52.3781645044
 30
0.0
 11
145.3442241022
 21
51.5801487139
 31
0.0
  0
LINE
  5
291
330
235
100
AcDbEntity
  8
0
  6
Continuous
 62
     7
100
AcDbLine
 10
146.8089065593
 20
52.3781645044
 30
0.0
 11
146.0108907688
 21
51.5801487139
 31
0.0
  0
LINE
  5
292
330
235
100
AcDbEntity
  8
0
  6
Continuous
 62
     7
100
AcDbLine
 10
147.4755732259
 20
52.3781645044
 30
0.0
 11
146.6775574355
 21
51.5801487139
 31
0.0
  0
LINE
  5
293
330
235
100
AcDbEntity
  8
0
  6
Continuous
 62
     7
100
AcDbLine
 10
148.1422398926
 20
52.3781645044
 30
0.0
 11
147.3442241022
 21
51.5801487139
 31
0.0
  0
LINE
  5
294
330
235
100
AcDbEntity
  8
0
  6
Continuous
 62
     7
100
AcDbLine
 10
148.8089065593
 20
52.3781645044
 30
0.0
 11
148.0108907688
 21
51.5801487139
 31
0.0
  0
LINE
  5
295
330
235
100
AcDbEntity
  8
0
  6
Continuous
 62
     7
100
AcDbLine
 10
149.4755732259
 20
52.3781645044
 30
0.0
 11
148.6775574355
 21
51.5801487139
 31
0.0
  0
LINE
  5
296
330
235
100
AcDbEntity
  8
0
  6
Continuous
 62
     7
100
AcDbLine
 10
150.1422398926
 20
52.3781645044
 30
0.0
 11
149.3442241022
 21
51.5801487139
 31
0.0
  0
LINE
  5
297
330
235
100
AcDbEntity
  8
0
  6
Continuous
 62
     7
100
AcDbLine
 10
150.5857273268
 20
52.1549852718
 30
0.0
 11
150.0108907688
 21
51.5801487139
 31
0.0
  0
ELLIPSE
  5
298
330
235
100
AcDbEntity
  8
0
  6
Continuous
 62
     7
100
AcDbEllipse
 10
146.1454024822
 20
50.43094770689999
 30
0.0
 11
1.0473539356
 21
0.0
 31
0.0
210
0.0
220
0.0
230
1.0
 40
0.4938647983
 41
0.0
 42
6.283185307179586
  0
ELLIPSE
  5
299
330
235
100
AcDbEntity
  8
0
  6
Continuous
 62
     7
100
AcDbEllipse
 10
146.1454024822
 20
49.0976143736
 30
0.0
 11
1.0473539356
 21
0.0
 31
0.0
210
0.0
220
0.0
230
1.0
 40
0.4938647983
 41
0.0
 42
6.283185307179586
  0
ELLIPSE
  5
29A
330
235
100
AcDbEntity
  8
0
  6
Continuous
 62
     7
100
AcDbEllipse
 10
146.1454024822
 20
47.76428104029999
 30
0.0
 11
1.0473539356
 21
0.0
 31
0.0
210
0.0
220
0.0
230
1.0
 40
0.4938647983
 41
0.0
 42
6.283185307179586
  0
ELLIPSE
  5
29B
330
235
100
AcDbEntity
  8
0
  6
Continuous
 62
     7
100
AcDbEllipse
 10
157.1640380633
 20
50.45046906399999
 30
0.0
 11
1.0473539356
 21
0.0
 31
0.0
210
0.0
220
0.0
230
1.0
 40
0.4938647983
 41
0.0
 42
6.283185307179586
  0
ENDBLK
  5
29C
330
235
100
AcDbEntity
  8
0
  6
ByBlock
 62
     0
100
AcDbBlockEnd
  0
BLOCK
  5
29D
330
236
100
AcDbEntity
  8
0
  6
Continuous
 62
     7
100
AcDbBlockBegin
  2
SYMBOL_3_BL0
 70
     0
 10
114.4882002152
 20
52.29659140239999
 30
0.0
  3
SYMBOL_3_BL0
  1

  0
TEXT
  5
29E
330
236
100
AcDbEntity
  8
0
  6
Continuous
 62
     7
100
AcDbText
 10
108.1741399134
 20
54.5416253882
 30
0.0
 40
1.1626666667
  1
INTERNAL USE 
 50
10.0
  7
TEXTSTYLE_3
100
AcDbText
  0
TEXT
  5
29F
330
236
100
AcDbEntity
  8
0
  6
Continuous
 62
     7
100
AcDbText
 10
107.4304557094
 20
52.54010421050001
 30
0.0
 40
1.1626666667
  1
DOCUMENT ONLY
 50
10.0
  7
TEXTSTYLE_3
100
AcDbText
  0
TEXT
  5
2A0
330
236
100
AcDbEntity
  8
0
  6
Continuous
 62
     7
100
AcDbText
 10
113.2151832727
 20
52.29167616
 30
0.0
 40
1.1626666667
  1
 
 50
10.0
  7
TEXTSTYLE_5
100
AcDbText
  0
TEXT
  5
2A1
330
236
100
AcDbEntity
  8
0
  6
Continuous
 62
     7
100
AcDbText
 10
104.7705353897
 20
48.1145817537
 30
0.0
 40
1.1626666667
  1
DOCUMENT POUR USAGE
 50
10.0
  7
TEXTSTYLE_3
100
AcDbText
  0
TEXT
  5
2A2
330
236
100
AcDbEntity
  8
0
  6
Continuous
 62
     7
100
AcDbText
 10
105.1996348357
 20
46.09783329329999
 30
0.0
 40
1.1626666667
  1
A L'INTERNE SEULEMENT
 50
10.0
  7
TEXTSTYLE_3
100
AcDbText
  0
LINE
  5
2A3
330
236
100
AcDbEntity
  8
0
  6
Continuous
 62
     7
100
AcDbLine
 10
128.3447519385
 20
47.95305778439999
 30
0.0
 11
128.3515108712
 21
47.95981671709999
 31
0.0
  0
LINE
  5
2A4
330
236
100
AcDbEntity
  8
0
  6
Continuous
 62
     7
100
AcDbLine
 10
127.6121823721
 20
47.8238860046
 30
0.0
 11
128.2610638172
 21
48.4727674497
 31
0.0
  0
LINE
  5
2A5
330
236
100
AcDbEntity
  8
0
  6
Continuous
 62
     7
100
AcDbLine
 10
126.8796128057
 20
47.69471422479999
 30
0.0
 11
128.1706167633
 21
48.9857181824
 31
0.0
  0
LINE
  5
2A6
330
236
100
AcDbEntity
  8
0
  6
Continuous
 62
     7
100
AcDbLine
 10
126.1470432393
 20
47.565542445
 30
0.0
 11
128.0801697093
 21
49.49866891510001
 31
0.0
  0
LINE
  5
2A7
330
236
100
AcDbEntity
  8
0
  6
Continuous
 62
     7
100
AcDbLine
 10
125.4144736729
 20
47.4363706652
 30
0.0
 11
127.9897226554
 21
50.0116196477
 31
0.0
  0
LINE
  5
2A8
330
236
100
AcDbEntity
  8
0
  6
Continuous
 62
     7
100
AcDbLine
 10
124.6819041064
 20
47.3071988854
 30
0.0
 11
126.2229079212
 21
48.8482027002
 31
0.0
  0
LINE
  5
2A9
330
236
100
AcDbEntity
  8
0
  6
Continuous
 62
     7
100
AcDbLine
 10
126.8202531139
 20
49.4455478929
 30
0.0
 11
127.8992756015
 21
50.5245703804
 31
0.0
  0
LINE
  5
2AA
330
236
100
AcDbEntity
  8
0
  6
Continuous
 62
     7
100
AcDbLine
 10
123.94933454
 20
47.1780271056
 30
0.0
 11
125.4903383548
 21
48.7190309204
 31
0.0
  0
LINE
  5
2AB
330
236
100
AcDbEntity
  8
0
  6
Continuous
 62
     7
100
AcDbLine
 10
126.72980606
 20
49.9584986256
 30
0.0
 11
127.8088285475
 21
51.03752111310001
 31
0.0
  0
LINE
  5
2AC
330
236
100
AcDbEntity
  8
0
  6
Continuous
 62
     7
100
AcDbLine
 10
123.2167649736
 20
47.04885532579999
 30
0.0
 11
124.7577687884
 21
48.5898591406
 31
0.0
  0
LINE
  5
2AD
330
236
100
AcDbEntity
  8
0
  6
Continuous
 62
     7
100
AcDbLine
 10
126.639359006
 20
50.4714493582
 30
0.0
 11
127.7183814936
 21
51.55047184569999
 31
0.0
  0
LINE
  5
2AE
330
236
100
AcDbEntity
  8
0
  6
Continuous
 62
     7
100
AcDbLine
 10
122.4841954072
 20
46.919683546
 30
0.0
 11
124.025199222
 21
48.4606873608
 31
0.0
  0
LINE
  5
2AF
330
236
100
AcDbEntity
  8
0
  6
Continuous
 62
     7
100
AcDbLine
 10
126.5489119521
 20
50.9844000909
 30
0.0
 11
127.6279344396
 21
52.0634225784
 31
0.0
  0
LINE
  5
2B0
330
236
100
AcDbEntity
  8
0
  6
Continuous
 62
     7
100
AcDbLine
 10
121.7516258408
 20
46.79051176619999
 30
0.0
 11
123.2926296555
 21
48.3315155809
 31
0.0
  0
LINE
  5
2B1
330
236
100
AcDbEntity
  8
0
  6
Continuous
 62
     7
100
AcDbLine
 10
126.4584648982
 20
51.49735082359999
 30
0.0
 11
127.5374873857
 21
52.5763733111
 31
0.0
  0
LINE
  5
2B2
330
236
100
AcDbEntity
  8
0
  6
Continuous
 62
     7
100
AcDbLine
 10
121.0190562743
 20
46.6613399864
 30
0.0
 11
122.5600600891
 21
48.2023438011
 31
0.0
  0
LINE
  5
2B3
330
236
100
AcDbEntity
  8
0
  6
Continuous
 62
     7
100
AcDbLine
 10
126.3680178442
 20
52.01030155619999
 30
0.0
 11
127.4470403317
 21
53.0893240438
 31
0.0
  0
LINE
  5
2B4
330
236
100
AcDbEntity
  8
0
  6
Continuous
 62
     7
100
AcDbLine
 10
120.2864867079
 20
46.53216820659999
 30
0.0
 11
121.8274905227
 21
48.07317202130001
 31
0.0
  0
LINE
  5
2B5
330
236
100
AcDbEntity
  8
0
  6
Continuous
 62
     7
100
AcDbLine
 10
126.2775707903
 20
52.52325228890001
 30
0.0
 11
127.3565932778
 21
53.6022747764
 31
0.0
  0
LINE
  5
2B6
330
236
100
AcDbEntity
  8
0
  6
Continuous
 62
     7
100
AcDbLine
 10
119.5539171415
 20
46.4029964268
 30
0.0
 11
121.0949209563
 21
47.94400024149999
 31
0.0
  0
LINE
  5
2B7
330
236
100
AcDbEntity
  8
0
  6
Continuous
 62
     7
100
AcDbLine
 10
126.1871237363
 20
53.03620302159999
 30
0.0
 11
127.2661462238
 21
54.1152255091
 31
0.0
  0
LINE
  5
2B8
330
236
100
AcDbEntity
  8
0
  6
Continuous
 62
     7
100
AcDbLine
 10
118.8213475751
 20
46.2738246469
 30
0.0
 11
120.3623513899
 21
47.8148284617
 31
0.0
  0
LINE
  5
2B9
330
236
100
AcDbEntity
  8
0
  6
Continuous
 62
     7
100
AcDbLine
 10
126.0966766824
 20
53.5491537542
 30
0.0
 11
127.1756991699
 21
54.62817624180001
 31
0.0
  0
LINE
  5
2BA
330
236
100
AcDbEntity
  8
0
  6
Continuous
 62
     7
100
AcDbLine
 10
118.0887780087
 20
46.14465286709999
 30
0.0
 11
119.6297818234
 21
47.68565668189999
 31
0.0
  0
LINE
  5
2BB
330
236
100
AcDbEntity
  8
0
  6
Continuous
 62
     7
100
AcDbLine
 10
125.7937970826
 20
53.849671941
 30
0.0
 11
127.085252116
 21
55.14112697439999
 31
0.0
  0
LINE
  5
2BC
330
236
100
AcDbEntity
  8
0
  6
Continuous
 62
     7
100
AcDbLine
 10
117.3562084423
 20
46.01548108729999
 30
0.0
 11
118.897212257
 21
47.5564849021
 31
0.0
  0
LINE
  5
2BD
330
236
100
AcDbEntity
  8
0
  6
Continuous
 62
     7
100
AcDbLine
 10
125.0612275161
 20
53.7205001612
 30
0.0
 11
126.994805062
 21
55.6540777071
 31
0.0
  0
LINE
  5
2BE
330
236
100
AcDbEntity
  8
0
  6
Continuous
 62
     7
100
AcDbLine
 10
116.6236388758
 20
45.88630930749999
 30
0.0
 11
118.1646426906
 21
47.42731312229999
 31
0.0
  0
LINE
  5
2BF
330
236
100
AcDbEntity
  8
0
  6
Continuous
 62
     7
100
AcDbLine
 10
124.3286579497
 20
53.5913283814
 30
0.0
 11
125.356000248
 21
54.6186706797
 31
0.0
  0
LINE
  5
2C0
330
236
100
AcDbEntity
  8
0
  6
Continuous
 62
     7
100
AcDbLine
 10
125.8253355206
 20
55.08800595229999
 30
0.0
 11
126.9043580081
 21
56.16702843979999
 31
0.0
  0
LINE
  5
2C1
330
236
100
AcDbEntity
  8
0
  6
Continuous
 62
     7
100
AcDbLine
 10
115.8910693094
 20
45.7571375277
 30
0.0
 11
117.4320731242
 21
47.2981413425
 31
0.0
  0
LINE
  5
2C2
330
236
100
AcDbEntity
  8
0
  6
Continuous
 62
     7
100
AcDbLine
 10
123.5960883833
 20
53.4621566016
 30
0.0
 11
124.623430472
 21
54.48949869029999
 31
0.0
  0
LINE
  5
2C3
330
236
100
AcDbEntity
  8
0
  6
Continuous
 62
     7
100
AcDbLine
 10
125.7348884666
 20
55.60095668489999
 30
0.0
 11
126.8139109541
 21
56.6799791724
 31
0.0
  0
LINE
  5
2C4
330
236
100
AcDbEntity
  8
0
  6
Continuous
 62
     7
100
AcDbLine
 10
115.158499743
 20
45.6279657479
 30
0.0
 11
116.6995035578
 21
47.16896956270001
 31
0.0
  0
LINE
  5
2C5
330
236
100
AcDbEntity
  8
0
  6
Continuous
 62
     7
100
AcDbLine
 10
122.8635188169
 20
53.3329848218
 30
0.0
 11
123.8908606959
 21
54.3603267008
 31
0.0
  0
LINE
  5
2C6
330
236
100
AcDbEntity
  8
0
  6
Continuous
 62
     7
100
AcDbLine
 10
125.6444414127
 20
56.11390741760001
 30
0.0
 11
126.7234639002
 21
57.1929299051
 31
0.0
  0
LINE
  5
2C7
330
236
100
AcDbEntity
  8
0
  6
Continuous
 62
     7
100
AcDbLine
 10
114.4259301766
 20
45.4987939681
 30
0.0
 11
115.9669339914
 21
47.0397977829
 31
0.0
  0
LINE
  5
2C8
330
236
100
AcDbEntity
  8
0
  6
Continuous
 62
     7
100
AcDbLine
 10
122.1309492505
 20
53.203813042
 30
0.0
 11
123.1582909199
 21
54.2311547114
 31
0.0
  0
LINE
  5
2C9
330
236
100
AcDbEntity
  8
0
  6
Continuous
 62
     7
100
AcDbLine
 10
125.5539943587
 20
56.62685815029999
 30
0.0
 11
126.6330168462
 21
57.70588063779999
 31
0.0
  0
LINE
  5
2CA
330
236
100
AcDbEntity
  8
0
  6
Continuous
 62
     7
100
AcDbLine
 10
113.6933606102
 20
45.3696221883
 30
0.0
 11
115.2343644249
 21
46.9106260031
 31
0.0
  0
LINE
  5
2CB
330
236
100
AcDbEntity
  8
0
  6
Continuous
 62
     7
100
AcDbLine
 10
121.398379684
 20
53.07464126220001
 30
0.0
 11
122.4257211439
 21
54.10198272199999
 31
0.0
  0
LINE
  5
2CC
330
236
100
AcDbEntity
  8
0
  6
Continuous
 62
     7
100
AcDbLine
 10
125.4635473048
 20
57.1398088829
 30
0.0
 11
126.5425697923
 21
58.2188313704
 31
0.0
  0
LINE
  5
2CD
330
236
100
AcDbEntity
  8
0
  6
Continuous
 62
     7
100
AcDbLine
 10
112.9607910437
 20
45.2404504085
 30
0.0
 11
114.5017948585
 21
46.7814542233
 31
0.0
  0
LINE
  5
2CE
330
236
100
AcDbEntity
  8
0
  6
Continuous
 62
     7
100
AcDbLine
 10
120.6658101176
 20
52.9454694824
 30
0.0
 11
121.6931513678
 21
53.9728107326
 31
0.0
  0
LINE
  5
2CF
330
236
100
AcDbEntity
  8
0
  6
Continuous
 62
     7
100
AcDbLine
 10
125.3731002508
 20
57.6527596156
 30
0.0
 11
126.4521227384
 21
58.7317821031
 31
0.0
  0
LINE
  5
2D0
330
236
100
AcDbEntity
  8
0
  6
Continuous
 62
     7
100
AcDbLine
 10
112.2282214773
 20
45.1112786287
 30
0.0
 11
113.7692252921
 21
46.6522824435
 31
0.0
  0
LINE
  5
2D1
330
236
100
AcDbEntity
  8
0
  6
Continuous
 62
     7
100
AcDbLine
 10
119.9332405512
 20
52.8162977026
 30
0.0
 11
120.9605815918
 21
53.84363874319999
 31
0.0
  0
LINE
  5
2D2
330
236
100
AcDbEntity
  8
0
  6
Continuous
 62
     7
100
AcDbLine
 10
125.2826531969
 20
58.16571034829999
 30
0.0
 11
126.3616756844
 21
59.2447328358
 31
0.0
  0
LINE
  5
2D3
330
236
100
AcDbEntity
  8
0
  6
Continuous
 62
     7
100
AcDbLine
 10
111.4956519109
 20
44.9821068489
 30
0.0
 11
113.0366557257
 21
46.52311066369999
 31
0.0
  0
LINE
  5
2D4
330
236
100
AcDbEntity
  8
0
  6
Continuous
 62
     7
100
AcDbLine
 10
119.2006709848
 20
52.68712592279999
 30
0.0
 11
120.2280118158
 21
53.7144667538
 31
0.0
  0
LINE
  5
2D5
330
236
100
AcDbEntity
  8
0
  6
Continuous
 62
     7
100
AcDbLine
 10
125.1922061429
 20
58.6786610809
 30
0.0
 11
126.2712286305
 21
59.7576835684
 31
0.0
  0
LINE
  5
2D6
330
236
100
AcDbEntity
  8
0
  6
Continuous
 62
     7
100
AcDbLine
 10
110.7630823445
 20
44.85293506909999
 30
0.0
 11
112.3040861593
 21
46.3939388839
 31
0.0
  0
LINE
  5
2D7
330
236
100
AcDbEntity
  8
0
  6
Continuous
 62
     7
100
AcDbLine
 10
118.4681014184
 20
52.557954143
 30
0.0
 11
119.4954420398
 21
53.5852947644
 31
0.0
  0
LINE
  5
2D8
330
236
100
AcDbEntity
  8
0
  6
Continuous
 62
     7
100
AcDbLine
 10
125.101759089
 20
59.19161181359999
 30
0.0
 11
126.1807815765
 21
60.2706343011
 31
0.0
  0
LINE
  5
2D9
330
236
100
AcDbEntity
  8
0
  6
Continuous
 62
     7
100
AcDbLine
 10
110.0305127781
 20
44.7237632893
 30
0.0
 11
111.5715165929
 21
46.26476710409999
 31
0.0
  0
LINE
  5
2DA
330
236
100
AcDbEntity
  8
0
  6
Continuous
 62
     7
100
AcDbLine
 10
117.735531852
 20
52.4287823632
 30
0.0
 11
118.7628722637
 21
53.45612277489999
 31
0.0
  0
LINE
  5
2DB
330
236
100
AcDbEntity
  8
0
  6
Continuous
 62
     7
100
AcDbLine
 10
124.9268829876
 20
59.6201334988
 30
0.0
 11
126.0903345226
 21
60.7835850338
 31
0.0
  0
LINE
  5
2DC
330
236
100
AcDbEntity
  8
0
  6
Continuous
 62
     7
100
AcDbLine
 10
109.2979432117
 20
44.59459150949999
 30
0.0
 11
110.8389470264
 21
46.1355953243
 31
0.0
  0
LINE
  5
2DD
330
236
100
AcDbEntity
  8
0
  6
Continuous
 62
     7
100
AcDbLine
 10
117.0029622855
 20
52.2996105834
 30
0.0
 11
118.0303024877
 21
53.3269507855
 31
0.0
  0
LINE
  5
2DE
330
236
100
AcDbEntity
  8
0
  6
Continuous
 62
     7
100
AcDbLine
 10
124.1943134212
 20
59.49096171899999
 30
0.0
 11
125.7353172359
 21
61.0319655338
 31
0.0
  0
LINE
  5
2DF
330
236
100
AcDbEntity
  8
0
  6
Continuous
 62
     7
100
AcDbLine
 10
108.5653736452
 20
44.4654197297
 30
0.0
 11
110.10637746
 21
46.00642354449999
 31
0.0
  0
LINE
  5
2E0
330
236
100
AcDbEntity
  8
0
  6
Continuous
 62
     7
100
AcDbLine
 10
116.2703927191
 20
52.1704388036
 30
0.0
 11
117.2977327117
 21
53.1977787961
 31
0.0
  0
LINE
  5
2E1
330
236
100
AcDbEntity
  8
0
  6
Continuous
 62
     7
100
AcDbLine
 10
123.4617438548
 20
59.3617899392
 30
0.0
 11
125.0027476695
 21
60.90279375399999
 31
0.0
  0
LINE
  5
2E2
330
236
100
AcDbEntity
  8
0
  6
Continuous
 62
     7
100
AcDbLine
 10
107.8328040788
 20
44.3362479499
 30
0.0
 11
109.3738078936
 21
45.8772517646
 31
0.0
  0
LINE
  5
2E3
330
236
100
AcDbEntity
  8
0
  6
Continuous
 62
     7
100
AcDbLine
 10
115.5378231527
 20
52.0412670238
 30
0.0
 11
116.5651629356
 21
53.0686068067
 31
0.0
  0
LINE
  5
2E4
330
236
100
AcDbEntity
  8
0
  6
Continuous
 62
     7
100
AcDbLine
 10
122.7291742883
 20
59.2326181594
 30
0.0
 11
124.2701781031
 21
60.7736219742
 31
0.0
  0
LINE
  5
2E5
330
236
100
AcDbEntity
  8
0
  6
Continuous
 62
     7
100
AcDbLine
 10
107.1002345124
 20
44.2070761701
 30
0.0
 11
108.6412383272
 21
45.74807998479999
 31
0.0
  0
LINE
  5
2E6
330
236
100
AcDbEntity
  8
0
  6
Continuous
 62
     7
100
AcDbLine
 10
114.8052535863
 20
51.9120952439
 30
0.0
 11
115.8325931596
 21
52.9394348173
 31
0.0
  0
LINE
  5
2E7
330
236
100
AcDbEntity
  8
0
  6
Continuous
 62
     7
100
AcDbLine
 10
121.9966047219
 20
59.1034463796
 30
0.0
 11
123.5376085367
 21
60.64445019439999
 31
0.0
  0
LINE
  5
2E8
330
236
100
AcDbEntity
  8
0
  6
Continuous
 62
     7
100
AcDbLine
 10
106.367664946
 20
44.0779043903
 30
0.0
 11
107.9086687608
 21
45.61890820499999
 31
0.0
  0
LINE
  5
2E9
330
236
100
AcDbEntity
  8
0
  6
Continuous
 62
     7
100
AcDbLine
 10
114.0726840199
 20
51.7829234641
 30
0.0
 11
115.1000233836
 21
52.8102628279
 31
0.0
  0
LINE
  5
2EA
330
236
100
AcDbEntity
  8
0
  6
Continuous
 62
     7
100
AcDbLine
 10
121.2640351555
 20
58.9742745998
 30
0.0
 11
122.8050389703
 21
60.51527841449999
 31
0.0
  0
LINE
  5
2EB
330
236
100
AcDbEntity
  8
0
  6
Continuous
 62
     7
100
AcDbLine
 10
105.6350953796
 20
43.9487326105
 30
0.0
 11
107.1760991943
 21
45.4897364252
 31
0.0
  0
LINE
  5
2EC
330
236
100
AcDbEntity
  8
0
  6
Continuous
 62
     7
100
AcDbLine
 10
113.3401144535
 20
51.6537516843
 30
0.0
 11
114.3674536076
 21
52.6810908384
 31
0.0
  0
LINE
  5
2ED
330
236
100
AcDbEntity
  8
0
  6
Continuous
 62
     7
100
AcDbLine
 10
120.5314655891
 20
58.84510282
 30
0.0
 11
122.0724694039
 21
60.3861066347
 31
0.0
  0
LINE
  5
2EE
330
236
100
AcDbEntity
  8
0
  6
Continuous
 62
     7
100
AcDbLine
 10
104.9025258131
 20
43.8195608306
 30
0.0
 11
106.4435296279
 21
45.36056464539999
 31
0.0
  0
LINE
  5
2EF
330
236
100
AcDbEntity
  8
0
  6
Continuous
 62
     7
100
AcDbLine
 10
112.607544887
 20
51.5245799045
 30
0.0
 11
113.6348838315
 21
52.551918849
 31
0.0
  0
LINE
  5
2F0
330
236
100
AcDbEntity
  8
0
  6
Continuous
 62
     7
100
AcDbLine
 10
119.7988960227
 20
58.7159310402
 30
0.0
 11
121.3398998374
 21
60.25693485489999
 31
0.0
  0
LINE
  5
2F1
330
236
100
AcDbEntity
  8
0
  6
Continuous
 62
     7
100
AcDbLine
 10
104.1699562467
 20
43.6903890508
 30
0.0
 11
105.7109600615
 21
45.23139286560001
 31
0.0
  0
LINE
  5
2F2
330
236
100
AcDbEntity
  8
0
  6
Continuous
 62
     7
100
AcDbLine
 10
111.8749753206
 20
51.3954081247
 30
0.0
 11
112.9023140555
 21
52.4227468596
 31
0.0
  0
LINE
  5
2F3
330
236
100
AcDbEntity
  8
0
  6
Continuous
 62
     7
100
AcDbLine
 10
119.0663264562
 20
58.5867592604
 30
0.0
 11
120.607330271
 21
60.1277630751
 31
0.0
  0
LINE
  5
2F4
330
236
100
AcDbEntity
  8
0
  6
Continuous
 62
     7
100
AcDbLine
 10
103.4373866803
 20
43.561217271
 30
0.0
 11
104.9783904951
 21
45.10222108579999
 31
0.0
  0
LINE
  5
2F5
330
236
100
AcDbEntity
  8
0
  6
Continuous
 62
     7
100
AcDbLine
 10
111.1424057542
 20
51.2662363449
 30
0.0
 11
112.1697442795
 21
52.2935748702
 31
0.0
  0
LINE
  5
2F6
330
236
100
AcDbEntity
  8
0
  6
Continuous
 62
     7
100
AcDbLine
 10
118.3337568898
 20
58.4575874805
 30
0.0
 11
119.8747607046
 21
59.99859129529999
 31
0.0
  0
LINE
  5
2F7
330
236
100
AcDbEntity
  8
0
  6
Continuous
 62
     7
100
AcDbLine
 10
102.8860659078
 20
43.6132942851
 30
0.0
 11
104.2458209287
 21
44.97304930600001
 31
0.0
  0
LINE
  5
2F8
330
236
100
AcDbEntity
  8
0
  6
Continuous
 62
     7
100
AcDbLine
 10
110.4098361878
 20
51.1370645651
 30
0.0
 11
111.4371745034
 21
52.1644028808
 31
0.0
  0
LINE
  5
2F9
330
236
100
AcDbEntity
  8
0
  6
Continuous
 62
     7
100
AcDbLine
 10
117.6011873234
 20
58.3284157007
 30
0.0
 11
119.1421911382
 21
59.8694195155
 31
0.0
  0
LINE
  5
2FA
330
236
100
AcDbEntity
  8
0
  6
Continuous
 62
     7
100
AcDbLine
 10
102.7956188538
 20
44.12624501779999
 30
0.0
 11
103.8746413414
 21
45.2052675053
 31
0.0
  0
LINE
  5
2FB
330
236
100
AcDbEntity
  8
0
  6
Continuous
 62
     7
100
AcDbLine
 10
109.6772666214
 20
51.00789278529999
 30
0.0
 11
110.7046047274
 21
52.0352308914
 31
0.0
  0
LINE
  5
2FC
330
236
100
AcDbEntity
  8
0
  6
Continuous
 62
     7
100
AcDbLine
 10
116.868617757
 20
58.1992439209
 30
0.0
 11
118.4096215718
 21
59.7402477357
 31
0.0
  0
LINE
  5
2FD
330
236
100
AcDbEntity
  8
0
  6
Continuous
 62
     7
100
AcDbLine
 10
102.7051717999
 20
44.6391957505
 30
0.0
 11
103.7841942874
 21
45.71821823799999
 31
0.0
  0
LINE
  5
2FE
330
236
100
AcDbEntity
  8
0
  6
Continuous
 62
     7
100
AcDbLine
 10
108.9446970549
 20
50.87872100550001
 30
0.0
 11
109.9720349514
 21
51.90605890189999
 31
0.0
  0
LINE
  5
2FF
330
236
100
AcDbEntity
  8
0
  6
Continuous
 62
     7
100
AcDbLine
 10
116.1360481906
 20
58.0700721411
 30
0.0
 11
117.6770520053
 21
59.6110759559
 31
0.0
  0
LINE
  5
300
330
236
100
AcDbEntity
  8
0
  6
Continuous
 62
     7
100
AcDbLine
 10
102.614724746
 20
45.1521464831
 30
0.0
 11
103.6937472335
 21
46.2311689707
 31
0.0
  0
LINE
  5
301
330
236
100
AcDbEntity
  8
0
  6
Continuous
 62
     7
100
AcDbLine
 10
108.2121274885
 20
50.74954922569999
 30
0.0
 11
109.2394651754
 21
51.7768869125
 31
0.0
  0
LINE
  5
302
330
236
100
AcDbEntity
  8
0
  6
Continuous
 62
     7
100
AcDbLine
 10
115.4034786242
 20
57.9409003613
 30
0.0
 11
116.9444824389
 21
59.4819041761
 31
0.0
  0
LINE
  5
303
330
236
100
AcDbEntity
  8
0
  6
Continuous
 62
     7
100
AcDbLine
 10
102.524277692
 20
45.6650972158
 30
0.0
 11
103.6033001795
 21
46.7441197033
 31
0.0
  0
LINE
  5
304
330
236
100
AcDbEntity
  8
0
  6
Continuous
 62
     7
100
AcDbLine
 10
107.4795579220999
 20
50.6203774459
 30
0.0
 11
108.5068953993
 21
51.6477149231
 31
0.0
  0
LINE
  5
305
330
236
100
AcDbEntity
  8
0
  6
Continuous
 62
     7
100
AcDbLine
 10
114.6709090577
 20
57.8117285815
 30
0.0
 11
116.2119128725
 21
59.35273239629999
 31
0.0
  0
LINE
  5
306
330
236
100
AcDbEntity
  8
0
  6
Continuous
 62
     7
100
AcDbLine
 10
102.4338306381
 20
46.1780479485
 30
0.0
 11
103.5128531256
 21
47.257070436
 31
0.0
  0
LINE
  5
307
330
236
100
AcDbEntity
  8
0
  6
Continuous
 62
     7
100
AcDbLine
 10
106.7469883557
 20
50.4912056661
 30
0.0
 11
107.7743256233
 21
51.5185429337
 31
0.0
  0
LINE
  5
308
330
236
100
AcDbEntity
  8
0
  6
Continuous
 62
     7
100
AcDbLine
 10
113.9383394913
 20
57.6825568017
 30
0.0
 11
115.4793433061
 21
59.22356061649999
 31
0.0
  0
LINE
  5
309
330
236
100
AcDbEntity
  8
0
  6
Continuous
 62
     7
100
AcDbLine
 10
102.3433835841
 20
46.69099868109999
 30
0.0
 11
103.4224060716
 21
47.7700211687
 31
0.0
  0
LINE
  5
30A
330
236
100
AcDbEntity
  8
0
  6
Continuous
 62
     7
100
AcDbLine
 10
106.0144187893
 20
50.3620338863
 30
0.0
 11
107.0417558473
 21
51.38937094430001
 31
0.0
  0
LINE
  5
30B
330
236
100
AcDbEntity
  8
0
  6
Continuous
 62
     7
100
AcDbLine
 10
113.2057699249
 20
57.55338502189999
 30
0.0
 11
114.7467737397
 21
59.0943888367
 31
0.0
  0
LINE
  5
30C
330
236
100
AcDbEntity
  8
0
  6
Continuous
 62
     7
100
AcDbLine
 10
102.2529365302
 20
47.2039494138
 30
0.0
 11
103.3319590177
 21
48.2829719013
 31
0.0
  0
LINE
  5
30D
330
236
100
AcDbEntity
  8
0
  6
Continuous
 62
     7
100
AcDbLine
 10
105.2818492229
 20
50.23286210649999
 30
0.0
 11
106.3091860712
 21
51.26019895489999
 31
0.0
  0
LINE
  5
30E
330
236
100
AcDbEntity
  8
0
  6
Continuous
 62
     7
100
AcDbLine
 10
112.4732003585
 20
57.4242132421
 30
0.0
 11
114.0142041733
 21
58.96521705689999
 31
0.0
  0
LINE
  5
30F
330
236
100
AcDbEntity
  8
0
  6
Continuous
 62
     7
100
AcDbLine
 10
102.1624894762
 20
47.71690014649999
 30
0.0
 11
103.2415119638
 21
48.79592263399999
 31
0.0
  0
LINE
  5
310
330
236
100
AcDbEntity
  8
0
  6
Continuous
 62
     7
100
AcDbLine
 10
104.5492796564
 20
50.1036903267
 30
0.0
 11
105.5766162952
 21
51.1310269654
 31
0.0
  0
LINE
  5
311
330
236
100
AcDbEntity
  8
0
  6
Continuous
 62
     7
100
AcDbLine
 10
111.7406307921
 20
57.2950414623
 30
0.0
 11
113.2816346068
 21
58.8360452771
 31
0.0
  0
LINE
  5
312
330
236
100
AcDbEntity
  8
0
  6
Continuous
 62
     7
100
AcDbLine
 10
102.0720424223
 20
48.2298508791
 30
0.0
 11
103.1510649098
 21
49.3088733667
 31
0.0
  0
LINE
  5
313
330
236
100
AcDbEntity
  8
0
  6
Continuous
 62
     7
100
AcDbLine
 10
103.81671009
 20
49.97451854689999
 30
0.0
 11
104.8440465192
 21
51.001854976
 31
0.0
  0
LINE
  5
314
330
236
100
AcDbEntity
  8
0
  6
Continuous
 62
     7
100
AcDbLine
 10
111.0080612256
 20
57.1658696825
 30
0.0
 11
112.5490650404
 21
58.70687349729999
 31
0.0
  0
LINE
  5
315
330
236
100
AcDbEntity
  8
0
  6
Continuous
 62
     7
100
AcDbLine
 10
101.9815953684
 20
48.7428016118
 30
0.0
 11
103.0606178559
 21
49.8218240993
 31
0.0
  0
LINE
  5
316
330
236
100
AcDbEntity
  8
0
  6
Continuous
 62
     7
100
AcDbLine
 10
103.0841405236
 20
49.8453467671
 30
0.0
 11
104.1114767432
 21
50.87268298659999
 31
0.0
  0
LINE
  5
317
330
236
100
AcDbEntity
  8
0
  6
Continuous
 62
     7
100
AcDbLine
 10
110.2754916592
 20
57.03669790270001
 30
0.0
 11
111.816495474
 21
58.5777017175
 31
0.0
  0
LINE
  5
318
330
236
100
AcDbEntity
  8
0
  6
Continuous
 62
     7
100
AcDbLine
 10
101.8911483144
 20
49.2557523445
 30
0.0
 11
103.3789069671
 21
50.74351099720001
 31
0.0
  0
LINE
  5
319
330
236
100
AcDbEntity
  8
0
  6
Continuous
 62
     7
100
AcDbLine
 10
109.5429220928
 20
56.9075261229
 30
0.0
 11
111.0839259076
 21
58.4485299377
 31
0.0
  0
LINE
  5
31A
330
236
100
AcDbEntity
  8
0
  6
Continuous
 62
     7
100
AcDbLine
 10
101.8007012605
 20
49.7687030772
 30
0.0
 11
102.879723748
 21
50.84772556469999
 31
0.0
  0
LINE
  5
31B
330
236
100
AcDbEntity
  8
0
  6
Continuous
 62
     7
100
AcDbLine
 10
108.8103525264
 20
56.77835434310001
 30
0.0
 11
110.3513563412
 21
58.3193581579
 31
0.0
  0
LINE
  5
31C
330
236
100
AcDbEntity
  8
0
  6
Continuous
 62
     7
100
AcDbLine
 10
101.7102542065
 20
50.28165380979999
 30
0.0
 11
102.789276694
 21
51.3606762973
 31
0.0
  0
LINE
  5
31D
330
236
100
AcDbEntity
  8
0
  6
Continuous
 62
     7
100
AcDbLine
 10
108.07778296
 20
56.6491825633
 30
0.0
 11
109.6187867748
 21
58.1901863781
 31
0.0
  0
LINE
  5
31E
330
236
100
AcDbEntity
  8
0
  6
Continuous
 62
     7
100
AcDbLine
 10
101.6198071526
 20
50.7946045425
 30
0.0
 11
102.6988296401
 21
51.87362703
 31
0.0
  0
LINE
  5
31F
330
236
100
AcDbEntity
  8
0
  6
Continuous
 62
     7
100
AcDbLine
 10
107.3452133936
 20
56.5200107835
 30
0.0
 11
108.8862172083
 21
58.06101459819999
 31
0.0
  0
LINE
  5
320
330
236
100
AcDbEntity
  8
0
  6
Continuous
 62
     7
100
AcDbLine
 10
101.5293600986
 20
51.3075552752
 30
0.0
 11
102.6083825862
 21
52.38657776270001
 31
0.0
  0
LINE
  5
321
330
236
100
AcDbEntity
  8
0
  6
Continuous
 62
     7
100
AcDbLine
 10
106.6126438271
 20
56.3908390037
 30
0.0
 11
108.1536476419
 21
57.9318428184
 31
0.0
  0
LINE
  5
322
330
236
100
AcDbEntity
  8
0
  6
Continuous
 62
     7
100
AcDbLine
 10
101.4389130447
 20
51.8205060078
 30
0.0
 11
102.5179355322
 21
52.89952849529999
 31
0.0
  0
LINE
  5
323
330
236
100
AcDbEntity
  8
0
  6
Continuous
 62
     7
100
AcDbLine
 10
105.8800742607
 20
56.2616672239
 30
0.0
 11
107.4210780755
 21
57.80267103859999
 31
0.0
  0
LINE
  5
324
330
236
100
AcDbEntity
  8
0
  6
Continuous
 62
     7
100
AcDbLine
 10
101.3484659907
 20
52.3334567405
 30
0.0
 11
102.4274884783
 21
53.412479228
 31
0.0
  0
LINE
  5
325
330
236
100
AcDbEntity
  8
0
  6
Continuous
 62
     7
100
AcDbLine
 10
105.1475046943
 20
56.1324954441
 30
0.0
 11
106.6885085091
 21
57.6734992588
 31
0.0
  0
LINE
  5
326
330
236
100
AcDbEntity
  8
0
  6
Continuous
 62
     7
100
AcDbLine
 10
101.2580189368
 20
52.8464074732
 30
0.0
 11
102.3370414243
 21
53.92542996069999
 31
0.0
  0
LINE
  5
327
330
236
100
AcDbEntity
  8
0
  6
Continuous
 62
     7
100
AcDbLine
 10
104.4149351279
 20
56.0033236642
 30
0.0
 11
105.9559389427
 21
57.544327479
 31
0.0
  0
LINE
  5
328
330
236
100
AcDbEntity
  8
0
  6
Continuous
 62
     7
100
AcDbLine
 10
101.1675718829
 20
53.3593582058
 30
0.0
 11
102.2465943704
 21
54.43838069339999
 31
0.0
  0
LINE
  5
329
330
236
100
AcDbEntity
  8
0
  6
Continuous
 62
     7
100
AcDbLine
 10
103.6823655615
 20
55.87415188439999
 30
0.0
 11
105.2233693762
 21
57.4151556992
 31
0.0
  0
LINE
  5
32A
330
236
100
AcDbEntity
  8
0
  6
Continuous
 62
     7
100
AcDbLine
 10
101.0771248289
 20
53.8723089385
 30
0.0
 11
102.1561473164
 21
54.951331426
 31
0.0
  0
LINE
  5
32B
330
236
100
AcDbEntity
  8
0
  6
Continuous
 62
     7
100
AcDbLine
 10
102.949795995
 20
55.74498010460001
 30
0.0
 11
104.4907998098
 21
57.2859839194
 31
0.0
  0
LINE
  5
32C
330
236
100
AcDbEntity
  8
0
  6
Continuous
 62
     7
100
AcDbLine
 10
100.986677775
 20
54.3852596712
 30
0.0
 11
102.0657002625
 21
55.4642821587
 31
0.0
  0
LINE
  5
32D
330
236
100
AcDbEntity
  8
0
  6
Continuous
 62
     7
100
AcDbLine
 10
102.2172264286
 20
55.61580832479999
 30
0.0
 11
103.7582302434
 21
57.15681213959999
 31
0.0
  0
LINE
  5
32E
330
236
100
AcDbEntity
  8
0
  6
Continuous
 62
     7
100
AcDbLine
 10
100.896230721
 20
54.8982104038
 30
0.0
 11
103.025660677
 21
57.02764035979999
 31
0.0
  0
LINE
  5
32F
330
236
100
AcDbEntity
  8
0
  6
Continuous
 62
     7
100
AcDbLine
 10
100.8057836671
 20
55.4111611365
 30
0.0
 11
102.2930911106
 21
56.89846858
 31
0.0
  0
LINE
  5
330
330
236
100
AcDbEntity
  8
0
  6
Continuous
 62
     7
100
AcDbLine
 10
100.7153366131
 20
55.92411186919999
 30
0.0
 11
101.5605215442
 21
56.7692968002
 31
0.0
  0
LINE
  5
331
330
236
100
AcDbEntity
  8
0
  6
Continuous
 62
     7
100
AcDbLine
 10
100.6248895592
 20
56.4370626018
 30
0.0
 11
100.8279519777
 21
56.6401250204
 31
0.0
  0
ENDBLK
  5
332
330
236
100
AcDbEntity
  8
0
  6
ByBlock
 62
     0
100
AcDbBlockEnd
  0
ENDSEC
  0
SECTION
  2
ENTITIES
  0
LINE
  5
1521
330
213
100
AcDbEntity
  8
0
  6
Continuous
 62
     7
100
AcDbLine
 10
156.8941215297888
 20
71.2356930984
 30
0.0
 11
156.8941215297888
 21
102.2356930984
 31
0.0
  0
LINE
  5
1522
330
213
100
AcDbEntity
  8
0
  6
Continuous
 62
     7
100
AcDbLine
 10
156.7116443122888
 20
101.8041672064
 30
0.0
 11
156.7116443122888
 21
71.4856930984
 31
0.0
  0
LINE
  5
1523
330
213
100
AcDbEntity
  8
0
  6
Continuous
 62
     7
100
AcDbLine
 10
156.6640874107888
 20
101.7566103049
 30
0.0
 11
156.6640874107888
 21
71.4856930984
 31
0.0
  0
LWPOLYLINE
  5
1524
330
213
100
AcDbEntity
  8
0
  6
Continuous
 62
     7
100
AcDbPolyline
 90
       14
 70
     0
 43
0.0
 10
156.6640874107888
 20
71.4856930984
 10
156.6657310533888
 20
71.4570184005
 10
156.6706402862888
 20
71.4287221904
 10
156.6787503105888
 20
71.40117796040001
 10
156.6899540791888
 20
71.37474927689999
 10
156.7041037092888
 20
71.34978498169999
 10
156.7210124347888
 20
71.3266145879
 10
156.7404570711888
 20
71.30554393
 10
156.7621809615888
 20
71.2868511274
 10
156.7858973642888
 20
71.2707829133
 10
156.8112932377888
 20
71.2575513779
 10
156.8380333725888
 20
71.24733116919999
 10
156.8657648157888
 20
71.24025718750001
 10
156.8941215297888
 20
71.2364228048
  0
LWPOLYLINE
  5
1525
330
213
100
AcDbEntity
  8
0
  6
Continuous
 62
     7
100
AcDbPolyline
 90
       12
 70
     0
 43
0.0
 10
156.7116443122888
 20
71.4856930984
 10
156.7133820556888
 20
71.45621178569999
 10
156.7185710356888
 20
71.42714188620001
 10
156.7271388397888
 20
71.3988890719
 10
156.7389659037888
 20
71.3718476121
 10
156.7538871804888
 20
71.34639487189999
 10
156.7716944426888
 20
71.3228860455
 10
156.7921391890888
 20
71.30164919970001
 10
156.8149361122888
 20
71.28298069590001
 10
156.8397670800888
 20
71.2671410539
 10
156.8662855748888
 20
71.25435131669999
 10
156.8941215297888
 20
71.24478996589999
  0
LWPOLYLINE
  5
1526
330
213
100
AcDbEntity
  8
0
  6
Continuous
 62
     7
100
AcDbPolyline
 90
       85
 70
     0
 43
0.0
 10
153.1828058961888
 20
86.7356945621
 10
153.1650325215888
 20
85.87755339940001
 10
153.1117452043888
 20
85.02088779899999
 10
153.0229867850888
 20
84.16677598239999
 10
152.9025721275888
 20
83.338960965
 10
152.7687779772888
 20
82.6136776875
 10
152.6304378554888
 20
81.9826094441
 10
152.4921476760888
 20
81.42980837960001
 10
152.3567360015888
 20
80.9425795655
 10
152.2259629386888
 20
80.51091557609998
 10
152.1008682646888
 20
80.1267378846
 10
151.9820191498888
 20
79.7834585825
 10
151.8696721769888
 20
79.4756529508
 10
151.7638667161888
 20
79.19878393399999
 10
151.6645058576888
 20
78.9490443679
 10
151.5714139146888
 20
78.72323848890001
 10
151.4843295951888
 20
78.5185742389
 10
151.4030006503888
 20
78.3327509379
 10
151.3271379267888
 20
78.1637429339
 10
151.2564222336888
 20
78.0097425858
 10
151.1905653050888
 20
77.8692355279
 10
151.1292185600888
 20
77.74075901579999
 10
151.0720831344888
 20
77.62310248510001
 10
151.0189962770888
 20
77.5154456665
 10
150.9697774098888
 20
77.4170140989
 10
150.9242156140888
 20
77.3270436601
 10
150.8820619992888
 20
77.2447576941
 10
150.8430184142888
 20
77.1693394845
 10
150.8067632436888
 20
77.0999771746
 10
150.7729585212888
 20
77.0358717103
 10
150.7412510199888
 20
76.9762336578
 10
150.7112726721888
 20
76.9202773337
 10
150.6828013258888
 20
76.8675107765
 10
150.6566879495888
 20
76.8194283727
 10
150.6334593159888
 20
76.7769060029
 10
150.6120978422888
 20
76.73801120479999
 10
150.5914059919888
 20
76.70053022560001
 10
150.5702721725888
 20
76.66244926880001
 10
150.5483702379888
 20
76.62317633409999
 10
150.5257455440888
 20
76.5827512449
 10
150.5025086729888
 20
76.5414967146
 10
150.4791456022888
 20
76.5005537621
 10
150.4571141849888
 20
76.46272792100001
 10
150.4358183962888
 20
76.4270428092
 10
150.4125971270888
 20
76.38903375579999
 10
150.3865768403888
 20
76.3474700653
 10
150.3571161811888
 20
76.30166010319999
 10
150.3235549104888
 20
76.25100846159999
 10
150.2852003901888
 20
76.1949982218
 10
150.2414130808888
 20
76.1333271127
 10
150.1915382238888
 20
76.065817189
 10
150.1348658930888
 20
75.9923708054
 10
150.0705863395888
 20
75.9129238508
 10
149.9971536316888
 20
75.82675052350001
 10
149.9126288501888
 20
75.7330704246
 10
149.8148119516888
 20
75.63132063350001
 10
149.7017881279888
 20
75.5217737527
 10
149.5710776269888
 20
75.4047052499
 10
149.4194381013888
 20
75.2804572041
 10
149.2435131514888
 20
75.15020385369999
 10
149.0437777426888
 20
75.0184462087
 10
148.8254069964888
 20
74.89197527029999
 10
148.5961065833888
 20
74.77701213739999
 10
148.3683709220888
 20
74.67935904009999
 10
148.1548395388888
 20
74.60168896189999
 10
147.9595779439888
 20
74.54175521579999
 10
147.7829973861888
 20
74.49627730600001
 10
147.6247004292888
 20
74.46231559170001
 10
147.4828245986888
 20
74.43721072470001
 10
147.3552061191888
 20
74.41885713249999
 10
147.2397470033888
 20
74.4056570906
 10
147.1347695396888
 20
74.3964345472
 10
147.0399124079888
 20
74.39037032139999
 10
146.9538665999888
 20
74.38670910989999
 10
146.8777012994888
 20
74.38494451470001
 10
146.8025548395888
 20
74.3844788335
 10
146.7175091878888
 20
74.3845187718
 10
146.6227444425888
 20
74.3845022692
 10
146.5198566453888
 20
74.3845070335
 10
146.4083413247888
 20
74.3845135447
 10
146.2867701451888
 20
74.38451185319999
 10
146.1546863521888
 20
74.38450802510001
 10
146.0125153544888
 20
74.3845075708
 10
145.8590143185888
 20
74.38450881529999
 10
108.3916683939888
 20
74.384508681
  0
LWPOLYLINE
  5
1527
330
213
100
AcDbEntity
  8
0
  6
Continuous
 62
     7
100
AcDbPolyline
 90
       78
 70
     0
 43
0.0
 10
153.1828058961888
 20
86.7356945621
 10
153.1650325215888
 20
87.59383279739999
 10
153.1117452043888
 20
88.45049839780001
 10
153.0229867850888
 20
89.3046102143
 10
152.9025721275888
 20
90.1324252318
 10
152.7687779772888
 20
90.85770850919999
 10
152.6304378554888
 20
91.4887767527
 10
152.4921476760888
 20
92.04157781719999
 10
152.3567360015888
 20
92.52880663129998
 10
152.2259629386888
 20
92.96047062059999
 10
152.1008682646888
 20
93.34464831209999
 10
151.9820191498888
 20
93.6879276143
 10
151.8696721769888
 20
93.99573324589999
 10
151.7638667161888
 20
94.27260226280001
 10
151.6645058576888
 20
94.52234182879999
 10
151.5714139146888
 20
94.7481477078
 10
151.4843295951888
 20
94.95281195790001
 10
151.4030006503888
 20
95.1386352589
 10
151.3271379267888
 20
95.30764326290002
 10
151.2564222336888
 20
95.461643611
 10
151.1905653050888
 20
95.60215066879999
 10
151.1292185600888
 20
95.730627181
 10
151.0720831344888
 20
95.84828371170001
 10
151.0189962770888
 20
95.95594053030001
 10
150.9697774098888
 20
96.05437209790002
 10
150.9242156140888
 20
96.14434253669999
 10
150.8820619992888
 20
96.22662850270002
 10
150.8430184142888
 20
96.3020467123
 10
150.8067632436888
 20
96.3714090222
 10
150.7729585212888
 20
96.43551448650001
 10
150.7412510199888
 20
96.49515253889999
 10
150.7112726721888
 20
96.55110886300001
 10
150.6828013258888
 20
96.60387542030001
 10
150.6566879495888
 20
96.6519578241
 10
150.6334593159888
 20
96.69448019389999
 10
150.6120978422888
 20
96.73337499190001
 10
150.5914059919888
 20
96.77085597120001
 10
150.5702721725888
 20
96.80893692799999
 10
150.5483702379888
 20
96.8482098627
 10
150.5257455440888
 20
96.88863495180001
 10
150.5025086729888
 20
96.9298894822
 10
150.4791456022888
 20
96.9708324347
 10
150.4571141849888
 20
97.0086582757
 10
150.4358183962888
 20
97.04434338750001
 10
150.4125971270888
 20
97.082352441
 10
150.3865768403888
 20
97.1239161315
 10
150.3571161811888
 20
97.16972609350001
 10
150.3235549104888
 20
97.2203777352
 10
150.2852003901888
 20
97.276387975
 10
150.2414130808888
 20
97.338059084
 10
150.1915382238888
 20
97.40556900780001
 10
150.1348658930888
 20
97.47901539129999
 10
150.0705863395888
 20
97.5584623459
 10
149.9971536316888
 20
97.6446356733
 10
149.9126288501888
 20
97.73831577220001
 10
149.8148119516888
 20
97.8400655633
 10
149.7017881279888
 20
97.94961244399999
 10
149.5710776269888
 20
98.06668094690001
 10
149.4194381013888
 20
98.19092899270001
 10
149.2435131514888
 20
98.3211823431
 10
149.0437777426888
 20
98.452939988
 10
148.8254069964888
 20
98.57941092650001
 10
148.5961065833888
 20
98.69437405940001
 10
148.3683709220888
 20
98.7920271567
 10
148.1548395388888
 20
98.8696972349
 10
147.9595779439888
 20
98.929630981
 10
147.7829973861888
 20
98.97510889080001
 10
147.6247004292888
 20
99.00907060500001
 10
147.4828245986888
 20
99.034175472
 10
147.3552061191888
 20
99.0525290643
 10
147.2397470033888
 20
99.06572910620001
 10
147.1347695396888
 20
99.0749516496
 10
147.0399124079888
 20
99.08101587540002
 10
146.9538665999888
 20
99.08467708679999
 10
146.8777012994888
 20
99.08644168209999
 10
146.8025548395888
 20
99.08690736330001
 10
146.7175091878888
 20
99.08686742489999
 10
146.6227444425888
 20
99.08688392750001
  0
LWPOLYLINE
  5
1528
330
213
100
AcDbEntity
  8
0
  6
Continuous
 62
     7
100
AcDbPolyline
 90
       53
 70
     0
 43
0.0
 10
145.9300539510888
 20
86.73569309840001
 10
145.9135901933888
 20
87.5008899508
 10
145.8642882820888
 20
88.26336436540001
 10
145.7846522126888
 20
89.00395965969998
 10
145.6885597195888
 20
89.65439962499999
 10
145.5847160011888
 20
90.2205248141
 10
145.4780419554888
 20
90.71644739079999
 10
145.3716954473888
 20
91.1534180848
 10
145.2676886757888
 20
91.54040001350001
 10
145.1672126653888
 20
91.88491736859999
 10
145.0709490848888
 20
92.19307449030001
 10
144.9793602637888
 20
92.46957273920001
 10
144.8927145742888
 20
92.71824571819999
 10
144.8109781266888
 20
92.94270973229998
 10
144.7342077214888
 20
93.1455323534
 10
144.6621447733888
 20
93.3295217807
 10
144.5948032339888
 20
93.49630992120001
 10
144.5317336985888
 20
93.64830738489999
 10
144.4730307767888
 20
93.78640936049999
 10
144.4183658651888
 20
93.91227951350002
 10
144.3668026180888
 20
94.02855543180001
 10
144.3205044954888
 20
94.13116435319999
 10
144.2740262379888
 20
94.23270417519999
 10
144.2189500667888
 20
94.34772479020001
 10
144.1578909574888
 20
94.4649509006
 10
144.0877735906888
 20
94.5883571941
 10
144.0019758368888
 20
94.7260866433
 10
143.8981771057888
 20
94.87675170120001
 10
143.7742567375888
 20
95.03803144429999
 10
143.6264569464888
 20
95.20887452
 10
143.4646300229888
 20
95.37400548849999
 10
143.2942340479888
 20
95.52712811040001
 10
143.1163535277888
 20
95.6676657607
 10
142.9314615017888
 20
95.7954805447
 10
142.7409776605888
 20
95.90987401559999
 10
142.5444429505888
 20
96.0113071203
 10
142.3565570202888
 20
96.09372841569999
 10
142.1844002359888
 20
96.15754135040001
 10
142.0280539452888
 20
96.2062637999
 10
141.8871674208888
 20
96.24288919620001
 10
141.7604854077888
 20
96.2700807454
 10
141.6454772325888
 20
96.29010977420001
 10
141.5400737335888
 20
96.3046889249
 10
141.4461370147888
 20
96.31448611129998
 10
141.3653636877888
 20
96.3208198214
 10
141.2942628822888
 20
96.32439016950002
 10
141.2406460945888
 20
96.3253818093
 10
141.1949221266888
 20
96.32549524319999
 10
141.1474235290888
 20
96.3253753617
 10
141.0979473947888
 20
96.3250933596
 10
141.0450063205888
 20
96.32486185780001
 10
140.9873821957888
 20
96.3246956849
 10
140.9245809571888
 20
96.3245392784
  0
LINE
  5
152A
330
213
100
AcDbEntity
  8
0
  6
Continuous
 62
     7
100
AcDbLine
 10
96.89412152978885
 20
71.2356930984
 30
0.0
 11
156.8941215297888
 21
71.2356930984
 31
0.0
  0
LWPOLYLINE
  5
152D
330
213
100
AcDbEntity
  8
0
  6
Continuous
 62
     7
100
AcDbPolyline
 90
        3
 70
     0
 43
0.0
 10
107.2815391350888
 20
74.3845074356
 10
107.1418737562888
 20
74.38451012680001
 10
107.0127329988888
 20
74.38451362229999
  0
LINE
  5
152E
330
213
100
AcDbEntity
  8
0
  6
Continuous
 62
     7
100
AcDbLine
 10
108.3916683939888
 20
74.384508681
 30
0.0
 11
107.5958484309888
 21
74.3845090825
 31
0.0
  0
LINE
  5
152F
330
213
100
AcDbEntity
  8
0
  6
Continuous
 62
     7
100
AcDbLine
 10
107.5958484309888
 20
74.3845090825
 30
0.0
 11
107.2815391350888
 21
74.3845074356
 31
0.0
  0
LINE
  5
1530
330
213
100
AcDbEntity
  8
0
  6
Continuous
 62
     7
100
AcDbLine
 10
144.5853689381888
 20
75.02309204540001
 30
0.0
 11
145.0308155049888
 21
75.02309347899999
 31
0.0
  0
LINE
  5
1531
330
213
100
AcDbEntity
  8
0
  6
Continuous
 62
     7
100
AcDbLine
 10
108.0110990227888
 20
75.02309353439999
 30
0.0
 11
144.5853689381888
 21
75.02309204540001
 31
0.0
  0
LWPOLYLINE
  5
1532
330
213
100
AcDbEntity
  8
0
  6
Continuous
 62
     7
100
AcDbPolyline
 90
       77
 70
     0
 43
0.0
 10
145.0308155049888
 20
75.02309347899999
 10
145.2279592924888
 20
75.02309315079999
 10
145.4106801917888
 20
75.02309124060001
 10
145.5791817816888
 20
75.0230915778
 10
145.7347312995888
 20
75.02309649
 10
145.8789180761888
 20
75.02309391309999
 10
146.0111347766888
 20
75.02307999279999
 10
146.1311448203888
 20
75.0230813455
 10
146.2391811698888
 20
75.0231103859
 10
146.3363608826888
 20
75.0230788331
 10
146.4264681905888
 20
75.02303651920001
 10
146.5115461463888
 20
75.0233700224
 10
146.5914838289888
 20
75.02483538399999
 10
146.6651008045888
 20
75.0273470151
 10
146.7324460818888
 20
75.0305969447
 10
146.7943514307888
 20
75.0344009126
 10
146.8526269825888
 20
75.03877743550001
 10
146.9090571380888
 20
75.043871198
 10
146.9655914675888
 20
75.04985697239999
 10
147.0244817623888
 20
75.0570207246
 10
147.0879236715888
 20
75.06581075879999
 10
147.1580970831888
 20
75.0768397674
 10
147.2369091944888
 20
75.09087466789999
 10
147.3245073716888
 20
75.10854356359999
 10
147.4203920827888
 20
75.13041961509999
 10
147.5255687819888
 20
75.15751986689998
 10
147.6420964961888
 20
75.19142688810001
 10
147.7715649855888
 20
75.23402775550001
 10
147.9145613095888
 20
75.28733492729999
 10
148.0735359360888
 20
75.35467378719999
 10
148.2507581197888
 20
75.44041482149999
 10
148.4432624670888
 20
75.5473283725
 10
148.6412633671888
 20
75.673827926
 10
148.8247476388888
 20
75.80792260169999
 10
148.9846736431888
 20
75.93991289739999
 10
149.1189574994888
 20
76.06324702409999
 10
149.2320040136888
 20
76.17721106399999
 10
149.3285589520888
 20
76.282928203
 10
149.4110594932888
 20
76.38021571909999
 10
149.4819255784888
 20
76.4695907242
 10
149.5434782628888
 20
76.55212046729999
 10
149.5971477473888
 20
76.62822117569999
 10
149.6437101224888
 20
76.6977040436
 10
149.6840070071888
 20
76.76077412069999
 10
149.7195588460888
 20
76.81900630760001
 10
149.7520789756888
 20
76.8743889152
 10
149.7832470848888
 20
76.9291697619
 10
149.8146880617888
 20
76.9855591278
 10
149.8479286484888
 20
77.04573652100001
 10
149.8843896535888
 20
77.1121295648
 10
149.9252040856888
 20
77.18712650329999
 10
149.9702553047888
 20
77.2708502615
 10
150.0185662934888
 20
77.3617282472
 10
150.0702307381888
 20
77.4601685914
 10
150.1259761742888
 20
77.5678671184
 10
150.1863441887888
 20
77.6863107149
 10
150.2509088453888
 20
77.8151774559
 10
150.3200708491888
 20
77.9558388181
 10
150.3947778610888
 20
78.1109633237
 10
150.4747026968888
 20
78.2807848911
 10
150.5602117983888
 20
78.46716792479999
 10
150.6521648489888
 20
78.67339654119999
 10
150.7501429600888
 20
78.90027237239999
 10
150.8551938411888
 20
79.1524407131
 10
150.9670076848888
 20
79.4320302718
 10
151.0861082553888
 20
79.7440513427
 10
151.2122951822888
 20
80.09289499460001
 10
151.3453166519888
 20
80.48439956680001
 10
151.4845817820888
 20
80.92567955639999
 10
151.6288681859888
 20
81.42513567340001
 10
151.7762069824888
 20
81.9936279492
 10
151.9235506238888
 20
82.6455358539
 10
152.0657427724888
 20
83.399318064
 10
152.1877386401888
 20
84.22639025930001
 10
152.2753346881888
 20
85.06055207379999
 10
152.3279129528888
 20
85.89701369550001
 10
152.3454733098888
 20
86.7356852828
  0
LWPOLYLINE
  5
1533
330
213
100
AcDbEntity
  8
0
  6
Continuous
 62
     7
100
AcDbPolyline
 90
       79
 70
     0
 43
0.0
 10
107.0127329988888
 20
74.38451362229999
 10
106.7854217151888
 20
74.38450125760001
 10
106.6847536734888
 20
74.38451773309999
 10
106.5937164238888
 20
74.3844706747
 10
106.5140353361888
 20
74.38477473679999
 10
106.4386895783888
 20
74.3862385611
 10
106.3561546345888
 20
74.38942103729999
 10
106.2648755298888
 20
74.3948082983
 10
106.1639592412888
 20
74.40308322709999
 10
106.0528727070888
 20
74.4150169264
 10
105.9303994094888
 20
74.4316333502
 10
105.7944478475888
 20
74.45438078319999
 10
105.6429641440888
 20
74.4851481756
 10
105.4739940066888
 20
74.5263634151
 10
105.2866117215888
 20
74.580838461
 10
105.0808494661888
 20
74.651720665
 10
104.8583332200888
 20
74.7421309707
 10
104.6290339796888
 20
74.85131754130001
 10
104.4057849063888
 20
74.9746197922
 10
104.1981153024888
 20
75.10594780689999
 10
104.0124273247888
 20
75.23849376060001
 10
103.8517326037888
 20
75.36612386439999
 10
103.7133057262888
 20
75.4868593388
 10
103.5938525881888
 20
75.6000398339
 10
103.4905780567888
 20
75.7053941186
 10
103.4014350738888
 20
75.8025577138
 10
103.3242043351888
 20
75.8919029366
 10
103.2567980672888
 20
75.9742025186
 10
103.1974990314888
 20
76.05025503970001
 10
103.1453166392888
 20
76.1202682924
 10
103.0995230157888
 20
76.184295925
 10
103.0594238737888
 20
76.24250847519999
 10
103.0243670514888
 20
76.29517226
 10
102.9936610243888
 20
76.3427537726
 10
102.9666374973888
 20
76.3858148546
 10
102.9426472703888
 20
76.4250190066
 10
102.9208640380888
 20
76.4614818051
 10
102.8986732247888
 20
76.4995542571
 10
102.8752555545888
 20
76.5405765653
 10
102.8519798010888
 20
76.5818912793
 10
102.8293213677888
 20
76.6223736417
 10
102.8073794915888
 20
76.661714964
 10
102.7861972283888
 20
76.6998795701
 10
102.7654647556888
 20
76.73743093659999
 10
102.7440848994888
 20
76.7763562475
 10
102.7208630767888
 20
76.8188630766
 10
102.6947679037888
 20
76.8669083641
 10
102.6662878636888
 20
76.91968694039999
 10
102.6362947696888
 20
76.97566652279999
 10
102.6045761402888
 20
77.03532109459999
 10
102.5707631691888
 20
77.0994375736
 10
102.5345018834888
 20
77.16880665020001
 10
102.4954535809888
 20
77.24422864400001
 10
102.4532959082888
 20
77.3265167289
 10
102.4077298976888
 20
77.41648914409999
 10
102.3585060055888
 20
77.51492381430001
 10
102.3054130437888
 20
77.6225854269
 10
102.2482701984888
 20
77.74024898649999
 10
102.1869149532888
 20
77.86873436669999
 10
102.1210493960888
 20
78.0092501549
 10
102.0503245292888
 20
78.1632599655
 10
101.9744517988888
 20
78.332278836
 10
101.8931121997888
 20
78.5181140584
 10
101.8060161945888
 20
78.72279227109999
 10
101.7129117485888
 20
78.9486138148
 10
101.6135373648888
 20
79.1983714593
 10
101.5077174317888
 20
79.4752610966
 10
101.3953548947888
 20
79.7830907207
 10
101.2764891801888
 20
80.1263978993
 10
101.1513769072888
 20
80.5106081993
 10
101.0205853341888
 20
80.9423106833
 10
100.8851544597888
 20
81.4295853053
 10
100.7468447691888
 20
81.98244151809999
 10
100.6084857940888
 20
82.6135756262
 10
100.4746736213888
 20
83.33894477639999
 10
100.3542556179888
 20
84.16678124369999
 10
100.2654978454888
 20
85.0208879056
 10
100.2122105340888
 20
85.87755350340001
 10
100.1944371636888
 20
86.73569457190001
  0
LINE
  5
1534
330
213
100
AcDbEntity
  8
0
  6
Continuous
 62
     7
100
AcDbLine
 10
140.6711747987888
 20
77.1476161497
 30
0.0
 11
140.8872117447888
 21
77.14694898260001
 31
0.0
  0
LWPOLYLINE
  5
1535
330
213
100
AcDbEntity
  8
0
  6
Continuous
 62
     7
100
AcDbPolyline
 90
        9
 70
     0
 43
0.0
 10
139.5745779744888
 20
77.1509083762
 10
139.7438595948888
 20
77.1504056796
 10
139.8985769122888
 20
77.14994439059999
 10
140.0394846716888
 20
77.1495224506
 10
140.1685248334888
 20
77.1491343062
 10
140.2872057788888
 20
77.14877683
 10
140.3960373197888
 20
77.14845072770001
 10
140.4956405208888
 20
77.1481539895
 10
140.6711747987888
 20
77.1476161497
  0
LWPOLYLINE
  5
1536
330
213
100
AcDbEntity
  8
0
  6
Continuous
 62
     7
100
AcDbPolyline
 90
        5
 70
     0
 43
0.0
 10
137.7476076117888
 20
77.15620361239999
 10
138.1068150667888
 20
77.15518466350001
 10
138.4231856323888
 20
77.15427736779999
 10
138.7045702529888
 20
77.15346325369999
 10
139.5745779744888
 20
77.1509083762
  0
LINE
  5
1537
330
213
100
AcDbEntity
  8
0
  6
Continuous
 62
     7
100
AcDbLine
 10
136.6544298447888
 20
77.1592167656
 30
0.0
 11
137.7476076117888
 21
77.15620361239999
 31
0.0
  0
LWPOLYLINE
  5
1538
330
213
100
AcDbEntity
  8
0
  6
Continuous
 62
     7
100
AcDbPolyline
 90
       46
 70
     0
 43
0.0
 10
140.8872117447888
 20
77.14694898260001
 10
141.0021832511888
 20
77.14665448259999
 10
141.0518984129888
 20
77.14649910430001
 10
141.0971079512888
 20
77.1462972236
 10
141.1386601957888
 20
77.14605555999999
 10
141.1786366938888
 20
77.14590548779999
 10
141.2201939826888
 20
77.14592143109999
 10
141.2702616069888
 20
77.14636992069999
 10
141.3436172754888
 20
77.1492340126
 10
141.4269004606888
 20
77.15523387350001
 10
141.5239580134888
 20
77.1648002781
 10
141.6332450161888
 20
77.1793986627
 10
141.7533120561888
 20
77.19992826790001
 10
141.8856801942888
 20
77.2281458639
 10
142.0320494469888
 20
77.2662611282
 10
142.1936465056888
 20
77.31699762479999
 10
142.3727685927888
 20
77.38423341829999
 10
142.5687145207888
 20
77.47174056359999
 10
142.7637633490888
 20
77.57433371720001
 10
142.9538479817888
 20
77.6904622143
 10
143.1384264014888
 20
77.8201794821
 10
143.3156971490888
 20
77.96249051560001
 10
143.4855215013888
 20
78.11754845839999
 10
143.6464415930888
 20
78.28441365100001
 10
143.7982314719888
 20
78.4631457003
 10
143.9387055839888
 20
78.65162965189999
 10
144.0660637253888
 20
78.8468281784
 10
144.1792425671888
 20
79.04640378579999
 10
144.2774476784888
 20
79.24595179319999
 10
144.3531587122888
 20
79.4125075467
 10
144.4337108302888
 20
79.5941573061
 10
144.5195208436888
 20
79.7940957755
 10
144.6113869508888
 20
80.0157054317
 10
144.7092923762888
 20
80.26156960539999
 10
144.8133584279888
 20
80.5350845156
 10
144.9235686097888
 20
80.84035771169999
 10
145.0397279110888
 20
81.1823597833
 10
145.1612871271888
 20
81.5669229084
 10
145.2872596241888
 20
82.0012311097
 10
145.4159989664888
 20
82.49422897909999
 10
145.5448944637888
 20
83.05756747969999
 10
145.6697488858888
 20
83.70631512180001
 10
145.7818578273888
 20
84.44584046160001
 10
145.8641105248888
 20
85.20596413689998
 10
145.9135480270888
 20
85.9695181342
 10
145.9300539517888
 20
86.73569309840001
  0
LWPOLYLINE
  5
1539
330
213
100
AcDbEntity
  8
0
  6
Continuous
 62
     7
100
AcDbPolyline
 90
        3
 70
     0
 43
0.0
 10
135.6819766003888
 20
77.16174356239999
 10
135.8830087432888
 20
77.1612369185
 10
136.6544298447888
 20
77.1592167656
  0
LINE
  5
153A
330
213
100
AcDbEntity
  8
0
  6
Continuous
 62
     7
100
AcDbLine
 10
135.2082257026888
 20
77.16289328970001
 30
0.0
 11
135.6819766003888
 21
77.16174356239999
 31
0.0
  0
LINE
  5
153B
330
213
100
AcDbEntity
  8
0
  6
Continuous
 62
     7
100
AcDbLine
 10
134.7889654000888
 20
77.1638393332
 30
0.0
 11
135.2082257026888
 21
77.16289328970001
 31
0.0
  0
LWPOLYLINE
  5
153C
330
213
100
AcDbEntity
  8
0
  6
Continuous
 62
     7
100
AcDbPolyline
 90
       32
 70
     0
 43
0.0
 10
111.4361427851888
 20
77.218856263
 10
111.7482631608888
 20
77.2181964494
 10
112.0860992475888
 20
77.21746625129999
 10
112.4520171318888
 20
77.2166567564
 10
112.8485198600888
 20
77.21575805100001
 10
113.2784165540888
 20
77.2147587525
 10
113.7451037732888
 20
77.21364519019999
 10
114.2523717171888
 20
77.2124016594
 10
114.8042335574888
 20
77.21101071799999
 10
115.4054609573888
 20
77.2094517389
 10
116.0618564372888
 20
77.20769997419999
 10
116.7797161161888
 20
77.2057278246
 10
117.5663624507888
 20
77.2035034233
 10
118.3324225050888
 20
77.20127847149999
 10
119.0028073145888
 20
77.1992878283
 10
119.5955104702888
 20
77.1974969046
 10
120.1233694256888
 20
77.1958795371
 10
120.6225709643888
 20
77.1943438495
 10
121.1669974861888
 20
77.192705177
 10
121.7627565449888
 20
77.1909585485
 10
122.4156060798888
 20
77.18910010970001
 10
123.1321707427888
 20
77.1871267253
 10
123.9200003376888
 20
77.1850366008
 10
124.7873420567888
 20
77.18283078479998
 10
125.6990613792888
 20
77.1806183209
 10
126.5109458703888
 20
77.1787384663
 10
127.2257581159888
 20
77.17715284819999
 10
127.8607853512888
 20
77.1757980883
 10
128.4292194142888
 20
77.1746279007
 10
128.9403628380888
 20
77.1736095805
 10
129.4020877350888
 20
77.1727170708
 10
129.8205923046888
 20
77.171930347
  0
LWPOLYLINE
  5
153D
330
213
100
AcDbEntity
  8
0
  6
Continuous
 62
     7
100
AcDbPolyline
 90
        5
 70
     0
 43
0.0
 10
110.1934197609888
 20
77.2213396417
 10
110.4051151476888
 20
77.2209330947
 10
110.6336543278888
 20
77.22048652479999
 10
110.8807202261888
 20
77.21999486029999
 10
111.4361427851888
 20
77.218856263
  0
LINE
  5
153E
330
213
100
AcDbEntity
  8
0
  6
Continuous
 62
     7
100
AcDbLine
 10
134.4250231308888
 20
77.16456782819999
 30
0.0
 11
134.7889654000888
 21
77.1638393332
 31
0.0
  0
LWPOLYLINE
  5
153F
330
213
100
AcDbEntity
  8
0
  6
Continuous
 62
     7
100
AcDbPolyline
 90
       10
 70
     0
 43
0.0
 10
108.7750389435888
 20
77.2238887507
 10
108.8728891341888
 20
77.22372079439999
 10
108.9790348751888
 20
77.22353898979999
 10
109.0939268755888
 20
77.22334132649999
 10
109.2168500893888
 20
77.2231273064
 10
109.3496116513888
 20
77.2228930301
 10
109.4937421331888
 20
77.2226352794
 10
109.6486490017888
 20
77.2223546302
 10
109.8163033778888
 20
77.22204695090001
 10
110.1934197609888
 20
77.2213396417
  0
LINE
  5
1540
330
213
100
AcDbEntity
  8
0
  6
Continuous
 62
     7
100
AcDbLine
 10
129.8205923046888
 20
77.171930347
 30
0.0
 11
131.4180461231888
 21
77.16911881379999
 31
0.0
  0
LWPOLYLINE
  5
1541
330
213
100
AcDbEntity
  8
0
  6
Continuous
 62
     7
100
AcDbPolyline
 90
        5
 70
     0
 43
0.0
 10
108.3182030847888
 20
77.2246349845
 10
108.4477254178888
 20
77.22441899189999
 10
108.5203249929888
 20
77.2243074725
 10
108.5989614151888
 20
77.22418398239999
 10
108.7750389435888
 20
77.2238887507
  0
LINE
  5
1542
330
213
100
AcDbEntity
  8
0
  6
Continuous
 62
     7
100
AcDbLine
 10
134.2541467382888
 20
77.1648505576
 30
0.0
 11
134.4250231308888
 21
77.16456782819999
 31
0.0
  0
LWPOLYLINE
  5
1543
330
213
100
AcDbEntity
  8
0
  6
Continuous
 62
     7
100
AcDbPolyline
 90
       12
 70
     0
 43
0.0
 10
131.4180461231888
 20
77.16911881379999
 10
132.7581676120888
 20
77.16698923830001
 10
132.8940819359888
 20
77.1667846973
 10
133.0187031455888
 20
77.16659898420001
 10
133.1342519712888
 20
77.1664283547
 10
133.2418500521888
 20
77.16627081680001
 10
133.3400105269888
 20
77.16612822950001
 10
133.4300359057888
 20
77.1659984055
 10
133.5134774146888
 20
77.1658788762
 10
133.5919003829888
 20
77.1657672309
 10
133.6647841584888
 20
77.1656640886
 10
134.2541467382888
 20
77.1648505576
  0
LINE
  5
1544
330
213
100
AcDbEntity
  8
0
  6
Continuous
 62
     7
100
AcDbLine
 10
156.4150387362888
 20
102.0056589794
 30
0.0
 11
156.4625956377888
 21
102.0532158809
 31
0.0
  0
LWPOLYLINE
  5
1545
330
213
100
AcDbEntity
  8
0
  6
Continuous
 62
     7
100
AcDbPolyline
 90
       20
 70
     0
 43
0.0
 10
101.4455990064888
 20
85.5481930984
 10
101.4313372755888
 20
85.5522026584
 10
101.4166512586888
 20
85.56425374779999
 10
101.4016463108888
 20
85.58435017710001
 10
101.3864964622888
 20
85.6123381535
 10
101.3713637251888
 20
85.6479715657
 10
101.3563652882888
 20
85.69106536680001
 10
101.3416689317888
 20
85.74127613489999
 10
101.3274036927888
 20
85.7983519959
 10
101.3137524732888
 20
85.86179201430001
 10
101.3008427406888
 20
85.93127937030001
 10
101.2888484406888
 20
86.0061956868
 10
101.2778861264888
 20
86.0861741965
 10
101.2681087502888
 20
86.17049902209998
 10
101.2596150963888
 20
86.2587532312
 10
101.2525247013888
 20
86.3501629293
 10
101.2469118149888
 20
86.44426384399999
 10
101.2428548297888
 20
86.54026439789999
 10
101.2403978692888
 20
86.6376648255
 10
101.2395757519888
 20
86.73569309840001
  0
LWPOLYLINE
  5
1546
330
213
100
AcDbEntity
  8
0
  6
Continuous
 62
     7
100
AcDbPolyline
 90
       12
 70
     0
 43
0.0
 10
96.89412152978885
 20
71.24478996589999
 10
96.92195748488884
 20
71.25435131679999
 10
96.94847597968884
 20
71.26714105399999
 10
96.97330694748885
 20
71.28298069600001
 10
96.99610387058884
 20
71.3016491998
 10
97.01654861698884
 20
71.3228860456
 10
97.03435587918884
 20
71.34639487200001
 10
97.04927715578884
 20
71.3718476123
 10
97.06110421978884
 20
71.398889072
 10
97.06967202388884
 20
71.42714188630001
 10
97.07486100388884
 20
71.45621178569999
 10
97.07659874728884
 20
71.4856930984
  0
LINE
  5
1547
330
213
100
AcDbEntity
  8
0
  6
Continuous
 62
     7
100
AcDbLine
 10
101.4471032588888
 20
85.54823956699999
 30
0.0
 11
101.4455990064888
 21
85.5481930984
 31
0.0
  0
LINE
  5
1548
330
213
100
AcDbEntity
  8
0
  6
Continuous
 62
     7
100
AcDbLine
 10
101.4455990064888
 20
87.92319309840001
 30
0.0
 11
101.4471034631888
 21
87.9231471481
 31
0.0
  0
LWPOLYLINE
  5
154B
330
213
100
AcDbEntity
  8
0
  6
Continuous
 62
     7
100
AcDbPolyline
 90
       20
 70
     0
 43
0.0
 10
101.4471034631888
 20
87.9231471481
 10
101.4595960963888
 20
87.91905413669999
 10
101.4730042356888
 20
87.906664627
 10
101.4857198327888
 20
87.88615682440001
 10
101.4976771985888
 20
87.85773344330001
 10
101.5088109517888
 20
87.8217244632
 10
101.5191058187888
 20
87.7784274689
 10
101.5285385280888
 20
87.728261156
 10
101.5371287333888
 20
87.67150334490001
 10
101.5448749885888
 20
87.60860974489999
 10
101.5518088927888
 20
87.53983354899999
 10
101.5579358840888
 20
87.46570682540001
 10
101.5632889045888
 20
87.3864989986
 10
101.5678774616888
 20
87.3028223997
 10
101.5717300850888
 20
87.21499855579999
 10
101.5748568854888
 20
87.1237142654
 10
101.5772772638888
 20
87.02939876909999
 10
101.5789975353888
 20
86.93286814750001
 10
101.5800277848888
 20
86.83468715049999
 10
101.5803707291888
 20
86.73569309840001
  0
LINE
  5
154C
330
213
100
AcDbEntity
  8
0
  6
Continuous
 62
     7
100
AcDbLine
 10
134.2729629405888
 20
96.3065636343
 30
0.0
 11
134.0757783838888
 21
96.30629269419999
 31
0.0
  0
LINE
  5
154D
330
213
100
AcDbEntity
  8
0
  6
Continuous
 62
     7
100
AcDbLine
 10
134.0757783838888
 20
96.30629269419999
 30
0.0
 11
133.3035865644888
 21
96.3052051839
 31
0.0
  0
LWPOLYLINE
  5
154E
330
213
100
AcDbEntity
  8
0
  6
Continuous
 62
     7
100
AcDbPolyline
 90
        4
 70
     0
 43
0.0
 10
109.2232769358888
 20
96.24827016000001
 10
108.9789406747888
 20
96.24784703759999
 10
108.7550300246888
 20
96.24746318840001
 10
108.3607924607888
 20
96.24682691229999
  0
LINE
  5
154F
330
213
100
AcDbEntity
  8
0
  6
Continuous
 62
     7
100
AcDbLine
 10
133.3035865644888
 20
96.3052051839
 30
0.0
 11
131.6826010679888
 21
96.3027041423
 31
0.0
  0
LWPOLYLINE
  5
1550
330
213
100
AcDbEntity
  8
0
  6
Continuous
 62
     7
100
AcDbPolyline
 90
       64
 70
     0
 43
0.0
 10
108.3607924607888
 20
96.24682691229999
 10
108.1894293600888
 20
96.24651529700001
 10
108.0313653139888
 20
96.2463090422
 10
107.8161321347888
 20
96.2399012166
 10
107.5869499352888
 20
96.21833236669999
 10
107.3635457928888
 20
96.18259216810001
 10
107.1415569872888
 20
96.1321997121
 10
106.9240511771888
 20
96.06783618930002
 10
106.7109275994888
 20
95.98956139229999
 10
106.5031014752888
 20
95.89767012450002
 10
106.3015085992888
 20
95.792565311
 10
106.1065615092888
 20
95.6744420683
 10
105.9196758694888
 20
95.54403198620001
 10
105.7416025893888
 20
95.40195636280001
 10
105.5732146943888
 20
95.2488996337
 10
105.4145147276888
 20
95.08487442819999
 10
105.2667821175888
 20
94.9111206743
 10
105.1303026541888
 20
94.72795593689999
 10
105.0084785200888
 20
94.5405879403
 10
104.9099086810888
 20
94.3674714031
 10
104.8325754947888
 20
94.2127156039
 10
104.7754226770888
 20
94.08770109770001
 10
104.7175188719888
 20
93.95770801899999
 10
104.6540528892888
 20
93.8121065229
 10
104.5865042098888
 20
93.65304399379999
 10
104.5140824277888
 20
93.4777256977
 10
104.4366600511888
 20
93.2842515559
 10
104.3541058904888
 20
93.07045519430001
 10
104.2661686938888
 20
92.83332069040001
 10
104.1725482342888
 20
92.5688819566
 10
104.0727563855888
 20
92.2714359371
 10
103.9751365949888
 20
91.96231664389999
 10
103.8939426315888
 20
91.68908375479999
 10
103.8260089557888
 20
91.447231264
 10
103.7690489282888
 20
91.23363199559999
 10
103.7211511716888
 20
91.04522404129999
 10
103.6807882880888
 20
90.8793504075
 10
103.6466850120888
 20
90.73349896999999
 10
103.6178282248888
 20
90.6055445429
 10
103.5932999267888
 20
90.4931790166
 10
103.5724578890888
 20
90.3948627467
 10
103.5545995158888
 20
90.3083766628
 10
103.5390605538888
 20
90.2313145759
 10
103.5255464225888
 20
90.16283708479999
 10
103.5134873670888
 20
90.10051500549998
 10
103.5020205224888
 20
90.04011412370001
 10
103.4898676340888
 20
89.97480755139999
 10
103.4766759706888
 20
89.90231813540001
 10
103.4626828768888
 20
89.8234762302
 10
103.4478022522888
 20
89.73725619499999
 10
103.4320094572888
 20
89.64282905500001
 10
103.4152711425888
 20
89.53912963110001
 10
103.3975563581888
 20
89.42485060520001
 10
103.3789030702888
 20
89.2987947287
 10
103.3593113501888
 20
89.15906895819999
 10
103.3388449341888
 20
89.00357856979999
 10
103.3176273124888
 20
88.8297855212
 10
103.2958376861888
 20
88.6342710032
 10
103.2738147885888
 20
88.41298295780001
 10
103.2521248576888
 20
88.1609217351
 10
103.2317251766888
 20
87.8727124893
 10
103.2140782088888
 20
87.54277852889998
 10
103.2013025914888
 20
87.16610965790001
 10
103.1962432836888
 20
86.73569309840001
  0
LWPOLYLINE
  5
1551
330
213
100
AcDbEntity
  8
0
  6
Continuous
 62
     7
100
AcDbPolyline
 90
       17
 70
     0
 43
0.0
 10
131.6826010679888
 20
96.3027041423
 10
129.8898470680888
 20
96.2995840105
 10
129.4971113023888
 20
96.298849605
 10
129.0703586102888
 20
96.29803051270002
 10
128.6063046045888
 20
96.29711471270001
 10
128.1011211134888
 20
96.2960877407
 10
127.5503969062888
 20
96.29493222329999
 10
126.9491982776888
 20
96.2936275346
 10
126.2917863866888
 20
96.29214859870002
 10
125.5714767092888
 20
96.2904647597
 10
124.7819010434888
 20
96.288541883
 10
124.0092274236888
 20
96.28658110439999
 10
123.3322325723888
 20
96.28479809600001
 10
122.7338010662888
 20
96.28317092919999
 10
122.2005559117888
 20
96.2816803091
 10
121.7223866071888
 20
96.28031082479999
 10
121.2915121281888
 20
96.27905008110001
  0
LINE
  5
1552
330
213
100
AcDbEntity
  8
0
  6
Continuous
 62
     7
100
AcDbLine
 10
134.6234335577888
 20
96.30720098780001
 30
0.0
 11
134.2729629405888
 21
96.3065636343
 31
0.0
  0
LINE
  5
1553
330
213
100
AcDbEntity
  8
0
  6
Continuous
 62
     7
100
AcDbLine
 10
134.8233631282888
 20
96.3076210754
 30
0.0
 11
134.6234335577888
 21
96.30720098780001
 31
0.0
  0
LWPOLYLINE
  5
1554
330
213
100
AcDbEntity
  8
0
  6
Continuous
 62
     7
100
AcDbPolyline
 90
        3
 70
     0
 43
0.0
 10
135.3442229313888
 20
96.3088156723
 10
135.2160508127888
 20
96.30851129799999
 10
134.8233631282888
 20
96.3076210754
  0
LWPOLYLINE
  5
1555
330
213
100
AcDbEntity
  8
0
  6
Continuous
 62
     7
100
AcDbPolyline
 90
        3
 70
     0
 43
0.0
 10
136.0374007733888
 20
96.3105445863
 10
135.8329489733888
 20
96.31002222459999
 10
135.3442229313888
 20
96.3088156723
  0
LWPOLYLINE
  5
1556
330
213
100
AcDbEntity
  8
0
  6
Continuous
 62
     7
100
AcDbPolyline
 90
        3
 70
     0
 43
0.0
 10
137.1421050920888
 20
96.31349549159999
 10
136.8144057552888
 20
96.3126008152
 10
136.0374007733888
 20
96.3105445863
  0
LWPOLYLINE
  5
1557
330
213
100
AcDbEntity
  8
0
  6
Continuous
 62
     7
100
AcDbPolyline
 90
       12
 70
     0
 43
0.0
 10
140.3050977372888
 20
96.322663131
 10
140.0538681824888
 20
96.3219069246
 10
139.9125461785888
 20
96.3214835543
 10
139.7581766030888
 20
96.32102312349999
 10
139.5901686234888
 20
96.32052404620001
 10
139.4070429341888
 20
96.31998193780001
 10
139.2071906489888
 20
96.31939260860001
 10
138.9888979505888
 20
96.31875198160001
 10
138.7494790682888
 20
96.31805346850001
 10
138.4867407276888
 20
96.31729213799999
 10
138.1963781366888
 20
96.31645748490001
 10
137.1421050920888
 20
96.31349549159999
  0
LINE
  5
1558
330
213
100
AcDbEntity
  8
0
  6
Continuous
 62
     7
100
AcDbLine
 10
140.4163006114888
 20
96.3229958862
 30
0.0
 11
140.3050977372888
 21
96.322663131
 31
0.0
  0
LWPOLYLINE
  5
1559
330
213
100
AcDbEntity
  8
0
  6
Continuous
 62
     7
100
AcDbPolyline
 90
       18
 70
     0
 43
0.0
 10
118.6972477251888
 20
96.27118623560001
 10
118.2264991126888
 20
96.26979681320001
 10
117.7130313803888
 20
96.26830442790001
 10
117.1526194578888
 20
96.26670487770001
 10
116.5405643671888
 20
96.26499503499999
 10
115.8716895120888
 20
96.26317351620002
 10
115.1404059392888
 20
96.2612416794
 10
114.3422591249888
 20
96.25920842030001
 10
113.5670637227888
 20
96.25731269639999
 10
112.8888349659888
 20
96.25572076479999
 10
112.2895802825888
 20
96.254367719
 10
111.7558574296888
 20
96.25320597920001
 10
111.2775258923888
 20
96.25220011040001
 10
110.8467912718888
 20
96.25132327300001
 10
110.4574506289888
 20
96.2505546652
 10
110.1042890174888
 20
96.24987744209999
 10
109.7831708601888
 20
96.2492781173
 10
109.2232769358888
 20
96.24827016000001
  0
LINE
  5
155A
330
213
100
AcDbEntity
  8
0
  6
Continuous
 62
     7
100
AcDbLine
 10
140.6129247786888
 20
96.3235881693
 30
0.0
 11
140.4163006114888
 21
96.3229958862
 31
0.0
  0
LWPOLYLINE
  5
155B
330
213
100
AcDbEntity
  8
0
  6
Continuous
 62
     7
100
AcDbPolyline
 90
        3
 70
     0
 43
0.0
 10
140.9245809571888
 20
96.3245392784
 10
140.7813738019888
 20
96.3241211659
 10
140.6129247786888
 20
96.3235881693
  0
LWPOLYLINE
  5
155C
330
213
100
AcDbEntity
  8
0
  6
Continuous
 62
     7
100
AcDbPolyline
 90
        3
 70
     0
 43
0.0
 10
121.2915121281888
 20
96.27905008110001
 10
120.5479538469888
 20
96.2768145905
 10
119.8901289089888
 20
96.2747895282
  0
LWPOLYLINE
  5
155D
330
213
100
AcDbEntity
  8
0
  6
Continuous
 62
     7
100
AcDbPolyline
 90
        3
 70
     0
 43
0.0
 10
119.8901289089888
 20
96.2747895282
 10
119.5257700023888
 20
96.2736771403
 10
118.6972477251888
 20
96.27118623560001
  0
LINE
  5
155E
330
213
100
AcDbEntity
  8
0
  6
Continuous
 62
     7
100
AcDbLine
 10
146.1311448203888
 20
98.4483048513
 30
0.0
 11
146.2391811698888
 21
98.4482758108
 31
0.0
  0
LWPOLYLINE
  5
155F
330
213
100
AcDbEntity
  8
0
  6
Continuous
 62
     7
100
AcDbPolyline
 90
        5
 70
     0
 43
0.0
 10
108.0110990227888
 20
98.44829266239999
 10
145.0308155049888
 20
98.4482927178
 10
145.2279592924888
 20
98.4482930459
 10
145.4106801917888
 20
98.4482949562
 10
145.5791817816888
 20
98.44829461899999
  0
LWPOLYLINE
  5
1560
330
213
100
AcDbEntity
  8
0
  6
Continuous
 62
     7
100
AcDbPolyline
 90
       83
 70
     0
 43
0.0
 10
107.5958484309888
 20
99.0868771142
 10
107.2815391350888
 20
99.08687876110001
 10
107.1418737562888
 20
99.0868760699
 10
107.0127329988888
 20
99.08687257450001
 10
106.8943563188888
 20
99.08687576870001
 10
106.7854217151888
 20
99.0868849391
 10
106.6847536734888
 20
99.08686846370002
 10
106.5937164238888
 20
99.08691552200002
 10
106.5140353361888
 20
99.0866114599
 10
106.4386895783888
 20
99.08514763559999
 10
106.3561546345888
 20
99.08196515950001
 10
106.2648755298888
 20
99.0765778985
 10
106.1639592412888
 20
99.06830296969999
 10
106.0528727070888
 20
99.05636927030002
 10
105.9303994094888
 20
99.03975284659999
 10
105.7944478475888
 20
99.0170054136
 10
105.6429641440888
 20
98.98623802120001
 10
105.4739940066888
 20
98.94502278170001
 10
105.2866117215888
 20
98.89054773579999
 10
105.0808494661888
 20
98.81966553179999
 10
104.8583332200888
 20
98.72925522600001
 10
104.6290339796888
 20
98.6200686555
 10
104.4057849063888
 20
98.4967664046
 10
104.1981153024888
 20
98.36543838989999
 10
104.0124273247888
 20
98.23289243620001
 10
103.8517326037888
 20
98.1052623324
 10
103.7133057262888
 20
97.984526858
 10
103.5938525881888
 20
97.87134636280001
 10
103.4905780567888
 20
97.76599207810001
 10
103.4014350738888
 20
97.66882848290002
 10
103.3242043351888
 20
97.57948326020001
 10
103.2567980672888
 20
97.49718367820001
 10
103.1974990314888
 20
97.42113115709999
 10
103.1453166392888
 20
97.35111790440001
 10
103.0995230157888
 20
97.2870902718
 10
103.0594238737888
 20
97.22887772159999
 10
103.0243670514888
 20
97.17621393679999
 10
102.9936610243888
 20
97.1286324242
 10
102.9666374973888
 20
97.08557134220001
 10
102.9426472703888
 20
97.04636719020001
 10
102.9208640380888
 20
97.0099043917
 10
102.8986732247888
 20
96.97183193969999
 10
102.8752555545888
 20
96.9308096315
 10
102.8519798010888
 20
96.88949491750001
 10
102.8293213677888
 20
96.8490125551
 10
102.8073794915888
 20
96.80967123270001
 10
102.7861972283888
 20
96.77150662670001
 10
102.7654647556888
 20
96.73395526010001
 10
102.7440848994888
 20
96.69502994920001
 10
102.7208630767888
 20
96.6525231201
 10
102.6947679037888
 20
96.60447783270001
 10
102.6662878636888
 20
96.5516992564
 10
102.6362947696888
 20
96.495719674
 10
102.6045761402888
 20
96.43606510219999
 10
102.5707631691888
 20
96.37194862320001
 10
102.5345018834888
 20
96.30257954660001
 10
102.4954535809888
 20
96.22715755280001
 10
102.4532959082888
 20
96.14486946780001
 10
102.4077298976888
 20
96.05489705270001
 10
102.3585060055888
 20
95.95646238250001
 10
102.3054130437888
 20
95.8488007699
 10
102.2482701984888
 20
95.73113721030001
 10
102.1869149532888
 20
95.60265183010001
 10
102.1210493960888
 20
95.4621360419
 10
102.0503245292888
 20
95.3081262313
 10
101.9744517988888
 20
95.13910736079999
 10
101.8931121997888
 20
94.95327213839999
 10
101.8060161945888
 20
94.74859392569999
 10
101.7129117485888
 20
94.52277238200002
 10
101.6135373648888
 20
94.2730147374
 10
101.5077174317888
 20
93.9961251002
 10
101.3953548947888
 20
93.68829547610001
 10
101.2764891801888
 20
93.34498829739999
 10
101.1513769072888
 20
92.96077799749999
 10
101.0205853341888
 20
92.52907551339999
 10
100.8851544597888
 20
92.0418008915
 10
100.7468447691888
 20
91.4889446787
 10
100.6084857940888
 20
90.85781057049999
 10
100.4746736213888
 20
90.13244142040001
 10
100.3542556179888
 20
89.30460495309999
 10
100.2654978454888
 20
88.4504982912
 10
100.2122105340888
 20
87.5938326934
 10
100.1944371637888
 20
86.73569457190001
  0
LWPOLYLINE
  5
1561
330
213
100
AcDbEntity
  8
0
  6
Continuous
 62
     7
100
AcDbPolyline
 90
        5
 70
     0
 43
0.0
 10
146.1546863521888
 20
99.08687817170001
 10
146.0125153544888
 20
99.086878626
 10
145.8590143185888
 20
99.08687738140001
 10
145.6937808104888
 20
99.0868771454
 10
107.5958484309888
 20
99.0868771142
  0
LINE
  5
1562
330
213
100
AcDbEntity
  8
0
  6
Continuous
 62
     7
100
AcDbLine
 10
145.5791817816888
 20
98.44829461899999
 30
0.0
 11
146.1311448203888
 21
98.4483048513
 31
0.0
  0
LINE
  5
1563
330
213
100
AcDbEntity
  8
0
  6
Continuous
 62
     7
100
AcDbLine
 10
146.6227444425888
 20
99.08688392750001
 30
0.0
 11
146.1546863521888
 21
99.08687817170001
 31
0.0
  0
LWPOLYLINE
  5
1564
330
213
100
AcDbEntity
  8
0
  6
Continuous
 62
     7
100
AcDbPolyline
 90
       68
 70
     0
 43
0.0
 10
146.2391811698888
 20
98.4482758108
 10
146.4264681905888
 20
98.44834967750001
 10
146.5115461463888
 20
98.4480161743
 10
146.5914838289888
 20
98.44655081270001
 10
146.6651008045888
 20
98.44403918170002
 10
146.7324460818888
 20
98.44078925209998
 10
146.7943514307888
 20
98.4369852842
 10
146.8526269825888
 20
98.43260876120002
 10
146.9090571380888
 20
98.42751499870001
 10
146.9655914675888
 20
98.4215292244
 10
147.0244817623888
 20
98.41436547209999
 10
147.0879236715888
 20
98.40557543799999
 10
147.1580970831888
 20
98.39454642940001
 10
147.2369091944888
 20
98.38051152889999
 10
147.3245073716888
 20
98.36284263320001
 10
147.4203920827888
 20
98.3409665817
 10
147.5255687819888
 20
98.3138663299
 10
147.6420964961888
 20
98.27995930860002
 10
147.7715649855888
 20
98.23735844129998
 10
147.9145613095888
 20
98.18405126950001
 10
148.0735359360888
 20
98.11671240950001
 10
148.2507581197888
 20
98.03097137520001
 10
148.4432624670888
 20
97.92405782430002
 10
148.6412633671888
 20
97.7975582708
 10
148.8247476388888
 20
97.6634635951
 10
148.9846736431888
 20
97.53147329930001
 10
149.1189574994888
 20
97.40813917270001
 10
149.2320040136888
 20
97.29417513280001
 10
149.3285589520888
 20
97.18845799379998
 10
149.4110594932888
 20
97.0911704777
 10
149.4819255784888
 20
97.00179547260001
 10
149.5434782628888
 20
96.91926572950002
 10
149.5971477473888
 20
96.8431650211
 10
149.6437101224888
 20
96.77368215320001
 10
149.6840070071888
 20
96.71061207610001
 10
149.7195588460888
 20
96.65237988920001
 10
149.7520789756888
 20
96.59699728159999
 10
149.7832470848888
 20
96.5422164349
 10
149.8146880617888
 20
96.485827069
 10
149.8479286484888
 20
96.4256496758
 10
149.8843896535888
 20
96.35925663200001
 10
149.9252040856888
 20
96.28425969350001
 10
149.9702553047888
 20
96.20053593530002
 10
150.0185662934888
 20
96.1096579496
 10
150.0702307381888
 20
96.0112176053
 10
150.1259761742888
 20
95.90351907829999
 10
150.1863441887888
 20
95.78507548180001
 10
150.2509088453888
 20
95.65620874089999
 10
150.3200708491888
 20
95.5155473787
 10
150.3947778610888
 20
95.36042287309999
 10
150.4747026968888
 20
95.1906013057
 10
150.5602117983888
 20
95.004218272
 10
150.6521648489888
 20
94.79798965549999
 10
150.7501429600888
 20
94.5711138244
 10
150.8551938411888
 20
94.31894548370001
 10
150.9670076848888
 20
94.03935592499999
 10
151.0861082553888
 20
93.7273348541
 10
151.2122951822888
 20
93.3784912021
 10
151.3453166519888
 20
92.98698663000001
 10
151.4845817820888
 20
92.5457066404
 10
151.6288681859888
 20
92.0462505234
 10
151.7762069824888
 20
91.47775824760001
 10
151.9235506238888
 20
90.82585034290001
 10
152.0657427724888
 20
90.07206813280001
 10
152.1877386401888
 20
89.24499593749999
 10
152.2753346881888
 20
88.41083412290002
 10
152.3279129528888
 20
87.57437250129999
 10
152.3454733099888
 20
86.7356852828
  0
LINE
  5
1565
330
213
100
AcDbEntity
  8
0
  6
Continuous
 62
     7
100
AcDbLine
 10
97.37320432328885
 20
102.0056589794
 30
0.0
 11
156.4150387362888
 21
102.0056589794
 31
0.0
  0
LINE
  5
1566
330
213
100
AcDbEntity
  8
0
  6
Continuous
 62
     7
100
AcDbLine
 10
97.32564742178885
 20
102.0532158809
 30
0.0
 11
156.4625956377888
 21
102.0532158809
 31
0.0
  0
LINE
  5
1567
330
213
100
AcDbEntity
  8
0
  6
Continuous
 62
     7
100
AcDbLine
 10
156.8941215297888
 20
102.2356930984
 30
0.0
 11
96.89412152978885
 21
102.2356930984
 31
0.0
  0
LWPOLYLINE
  5
1568
330
213
100
AcDbEntity
  8
0
  6
Continuous
 62
     7
100
AcDbPolyline
 90
       44
 70
     0
 43
0.0
 10
109.0733828047888
 20
86.73569309840001
 10
109.0681843066888
 20
86.598802015
 10
109.0526187542888
 20
86.4626991957
 10
109.0267753265888
 20
86.3281664129
 10
108.9908032484888
 20
86.19598132600001
 10
108.9448849652888
 20
86.0668428275
 10
108.8898561224888
 20
85.9426932919
 10
108.8253604152888
 20
85.82247858630001
 10
108.7519273791888
 20
85.70732752780001
 10
108.6698815415888
 20
85.59785274939999
 10
108.5798270397888
 20
85.494925535
 10
108.4822859406888
 20
85.399122119
 10
108.3778363415888
 20
85.31098719819999
 10
108.2670873536888
 20
85.2310092617
 10
108.1507022768888
 20
85.15963781649999
 10
108.0293513858888
 20
85.09725121439998
 10
107.9037526714888
 20
85.0441831158
 10
107.7745831560888
 20
85.0006863407
 10
107.6424953782888
 20
84.966961989
 10
107.5078984658888
 20
84.9431449903
 10
107.3727170842888
 20
84.9295132119
 10
107.2349210473888
 20
84.92596633799999
 10
107.0946973755888
 20
84.93302932979998
 10
106.9554658101888
 20
84.9508893926
 10
106.8197375499888
 20
84.9791635845
 10
106.6882520231888
 20
85.01747610749999
 10
106.5609671203888
 20
85.06566258620001
 10
106.4410576493888
 20
85.1219858522
 10
106.3294373200888
 20
85.18495864390001
 10
106.2190932011888
 20
85.2584542868
 10
106.1125674170888
 20
85.3416092866
 10
106.0153284875888
 20
85.42987177470001
 10
105.9307138150888
 20
85.5182434515
 10
105.8511379799888
 20
85.6131758895
 10
105.7863653692888
 20
85.7008699446
 10
105.7326329835888
 20
85.7825028855
 10
105.6854624922888
 20
85.86252063569999
 10
105.6376464773888
 20
85.95451575209999
 10
105.5895229114888
 20
86.06282377499999
 10
105.5436424449888
 20
86.18920089259999
 10
105.5062658713888
 20
86.32298534190001
 10
105.4793107609888
 20
86.45953078259999
 10
105.4631115002888
 20
86.59734884049999
 10
105.4577120690888
 20
86.73569309840001
  0
LWPOLYLINE
  5
1569
330
213
100
AcDbEntity
  8
0
  6
Continuous
 62
     7
100
AcDbPolyline
 90
       14
 70
     0
 43
0.0
 10
156.4150387362888
 20
102.0056589794
 10
156.4449146297888
 20
102.0036336921
 10
156.4743590638888
 20
101.9980409606
 10
156.5029468099888
 20
101.9889615537
 10
156.5302650117888
 20
101.9765265938
 10
156.5559191472888
 20
101.960915663
 10
156.5795387264888
 20
101.9423542102
 10
156.6007826418888
 20
101.9211102947
 10
156.6193440946888
 20
101.8974907155
 10
156.6349550253888
 20
101.87183658
 10
156.6473899852888
 20
101.8445183781
 10
156.6564693920888
 20
101.8159306322
 10
156.6620621234888
 20
101.7864861983
 10
156.6640874107888
 20
101.7566103049
  0
LWPOLYLINE
  5
156A
330
213
100
AcDbEntity
  8
0
  6
Continuous
 62
     7
100
AcDbPolyline
 90
       17
 70
     0
 43
0.0
 10
156.4625956377888
 20
102.0532158809
 10
156.4870610602888
 20
102.0522107757
 10
156.5114103466888
 20
102.0488101104
 10
156.5353989308888
 20
102.0430037296
 10
156.5586434282888
 20
102.0348632012
 10
156.5808629809888
 20
102.0244993542
 10
156.6018586869888
 20
102.0120278323
 10
156.6214914383888
 20
101.9975431834
 10
156.6395982207888
 20
101.9811602128
 10
156.6559784388888
 20
101.9630546693
 10
156.6704597892888
 20
101.9434249514
 10
156.6829322319888
 20
101.9224261448
 10
156.6932995244888
 20
101.9001956117
 10
156.7014396631888
 20
101.8769450763
 10
156.7072403035888
 20
101.8529725893
 10
156.7106418868888
 20
101.8286027647
 10
156.7116443122888
 20
101.8041672064
  0
LWPOLYLINE
  5
156D
330
213
100
AcDbEntity
  8
0
  6
Continuous
 62
     7
100
AcDbPolyline
 90
       44
 70
     0
 43
0.0
 10
105.4577120690888
 20
86.73569309840001
 10
105.4630567774888
 20
86.87333540690001
 10
105.4790892294888
 20
87.01044279899999
 10
105.5057660593888
 20
87.14629632299999
 10
105.5427631541888
 20
87.27944241870002
 10
105.5891258056888
 20
87.40758283479999
 10
105.6387908825888
 20
87.51923037899999
 10
105.6882490901888
 20
87.61385406690001
 10
105.7377653802888
 20
87.6970829066
 10
105.7958310797888
 20
87.78400488149999
 10
105.8641117410888
 20
87.87457402860001
 10
105.9454483339888
 20
87.96939764079999
 10
106.0287268033888
 20
88.05446210399999
 10
106.1267118195888
 20
88.14158033209999
 10
106.2333681839888
 20
88.22312330589999
 10
106.3435861764888
 20
88.29501317930001
 10
106.4551336272888
 20
88.35659628770001
 10
106.5759354041888
 20
88.41198873180001
 10
106.7030437600888
 20
88.45878358780002
 10
106.8343237877888
 20
88.49579558989999
 10
106.9697734490888
 20
88.52284200319999
 10
107.1085522379888
 20
88.53953749469999
 10
107.2479675609888
 20
88.54552867189999
 10
107.3848210164888
 20
88.54106482669999
 10
107.5198216292888
 20
88.52654889
 10
107.6534758276888
 20
88.50201861889999
 10
107.7846882511888
 20
88.4676813291
 10
107.9129552213888
 20
88.42368684909999
 10
108.0376427304888
 20
88.3702335054
 10
108.1580710879888
 20
88.30758012149999
 10
108.2735465472888
 20
88.23605318209999
 10
108.3834023106888
 20
88.1560335684
 10
108.4869922915888
 20
88.0679633565
 10
108.5837143285888
 20
87.9723298292
 10
108.6730055722888
 20
87.86966710629998
 10
108.7543179175888
 20
87.76059564909999
 10
108.8271009692888
 20
87.64593073270001
 10
108.8910944295888
 20
87.5261554603
 10
108.9462208573888
 20
87.40118513949999
 10
108.9916498274888
 20
87.27269568110001
 10
109.0272547113888
 20
87.14114580520002
 10
109.0528326335888
 20
87.007285469
 10
109.0682378878888
 20
86.87187789379999
 10
109.0733828047888
 20
86.73569309840001
  0
LWPOLYLINE
  5
156E
330
213
100
AcDbEntity
  8
0
  6
Continuous
 62
     7
100
AcDbPolyline
 90
       20
 70
     0
 43
0.0
 10
101.2395757519888
 20
86.73569309840001
 10
101.2403977475888
 20
86.83371412799999
 10
101.2428541477888
 20
86.9311015723
 10
101.2469108971888
 20
87.02710432280001
 10
101.2525231269888
 20
87.12120029879999
 10
101.2596132066888
 20
87.21261119679999
 10
101.2681061323888
 20
87.3008624707
 10
101.2778830488888
 20
87.38518763709999
 10
101.2888446721888
 20
87.4651651047
 10
101.3008383654888
 20
87.54008147450001
 10
101.3137475602888
 20
87.60956961439999
 10
101.3273980419888
 20
87.67300982120001
 10
101.3416628667888
 20
87.7300876101
 10
101.3563584614888
 20
87.7802993899
 10
101.3713569427888
 20
87.8233969192
 10
101.3864891325888
 20
87.85903264739999
 10
101.4016396916888
 20
87.88702546809998
 10
101.4166458696888
 20
87.90712662
 10
101.4313327149888
 20
87.9191810118
 10
101.4455990064888
 20
87.92319309840001
  0
LWPOLYLINE
  5
156F
330
213
100
AcDbEntity
  8
0
  6
Continuous
 62
     7
100
AcDbPolyline
 90
       20
 70
     0
 43
0.0
 10
101.5803707291888
 20
86.73569309840001
 10
101.5800272372888
 20
86.63662029639999
 10
101.5789943955888
 20
86.53829551740001
 10
101.5772683677888
 20
86.44157687020001
 10
101.5748396487888
 20
86.3470947374
 10
101.5717025835888
 20
86.2556812414
 10
101.5678390927888
 20
86.1677837885
 10
101.5632392864888
 20
86.08407368079999
 10
101.5578758615888
 20
86.00487735909998
 10
101.5517403641888
 20
85.93080246719999
 10
101.5448009024888
 20
85.8621117714
 10
101.5370530228888
 20
85.79932807410001
 10
101.5284658635888
 20
85.742693802
 10
101.5190440583888
 20
85.6926659448
 10
101.5087673393888
 20
85.64950023100001
 10
101.4976544613888
 20
85.6135892518
 10
101.4857128398888
 20
85.58521549380001
 10
101.4730064680888
 20
85.5647243832
 10
101.4596021624888
 20
85.5523357196
 10
101.4471032588888
 20
85.54823956699999
  0
LWPOLYLINE
  5
1570
330
213
100
AcDbEntity
  8
0
  6
Continuous
 62
     7
100
AcDbPolyline
 90
       16
 70
     0
 43
0.0
 10
101.4566643057888
 20
86.73569309840001
 10
101.4563177446888
 20
86.6352983342
 10
101.4552776164888
 20
86.5358140494
 10
101.4535437051888
 20
86.43815681120001
 10
101.4511069585888
 20
86.3428470524
 10
101.4479622960888
 20
86.25071150850001
 10
101.4440910558888
 20
86.1621653719
 10
101.4394866244888
 20
86.07794045690001
 10
101.4341217517888
 20
85.99832942559999
 10
101.4279904618888
 20
85.92395286809999
 10
101.4210595908888
 20
85.8550298897
 10
101.4133274155888
 20
85.79209306420001
 10
101.4047599932888
 20
85.7353413426
 10
101.3953658650888
 20
85.68524668349999
 10
101.3851192571888
 20
85.6420251777
 10
101.3803969828888
 20
85.62670074119999
  0
LWPOLYLINE
  5
1571
330
213
100
AcDbEntity
  8
0
  6
Continuous
 62
     7
100
AcDbPolyline
 90
       77
 70
     0
 43
0.0
 10
103.1962432833888
 20
86.73569309840001
 10
103.2017317863888
 20
86.28741731239999
 10
103.2155816375888
 20
85.8953778086
 10
103.2346462926888
 20
85.55300475850001
 10
103.2565734756888
 20
85.2551811646
 10
103.2797907072888
 20
84.99550078770001
 10
103.3032965529888
 20
84.76793725630001
 10
103.3265119709888
 20
84.5670757533
 10
103.3490848590888
 20
84.3886781512
 10
103.3708236965888
 20
84.2292339263
 10
103.3916109230888
 20
84.08603804810001
 10
103.4113871195888
 20
83.95689482319999
 10
103.4301465623888
 20
83.83990735599999
 10
103.4478710713888
 20
83.7337252999
 10
103.4645817176888
 20
83.6370881464
 10
103.4803119971888
 20
83.5489153346
 10
103.4950012957888
 20
83.4688242416
 10
103.5084512955888
 20
83.39725736050001
 10
103.5217920235888
 20
83.32782522229999
 10
103.5347735795888
 20
83.2616433241
 10
103.5470611312888
 20
83.20017724659999
 10
103.5587974416888
 20
83.14248473959999
 10
103.5720190568888
 20
83.0786231611
 10
103.5871078558888
 20
83.0071340191
 10
103.6044006025888
 20
82.92692397020001
 10
103.6243152968888
 20
82.83669178069999
 10
103.6473459322888
 20
82.73500714349999
 10
103.6740593180888
 20
82.62038052159999
 10
103.7050724670888
 20
82.4914121121
 10
103.7411855795888
 20
82.34630453040001
 10
103.7833797874888
 20
82.18300120390001
 10
103.8327932482888
 20
81.9994023429
 10
103.8908096263888
 20
81.79317515500001
 10
103.9590644240888
 20
81.5619085458
 10
104.0395571176888
 20
81.30290969329999
 10
104.1346633359888
 20
81.01340646169999
 10
104.2348579396888
 20
80.72505388720001
 10
104.3265344424888
 20
80.4741882555
 10
104.4106736741888
 20
80.25356711970001
 10
104.4881173339888
 20
80.0578217648
 10
104.5595805570888
 20
79.88291593300001
 10
104.6254091839888
 20
79.72622308369999
 10
104.6864249043888
 20
79.5845399657
 10
104.7431598438888
 20
79.4558888725
 10
104.7941611764888
 20
79.34203617139999
 10
104.8493964313888
 20
79.2233352741
 10
104.9246625279888
 20
79.07653245689999
 10
105.0166504385888
 20
78.9173853109
 10
105.1330061041888
 20
78.7395518209
 10
105.2696736910888
 20
78.55663956229999
 10
105.4176859338888
 20
78.3830210095
 10
105.5767543183888
 20
78.2190601578
 10
105.7459897181888
 20
78.06569903979999
 10
105.9247531412888
 20
77.923570153
 10
106.1121761941888
 20
77.79329698889999
 10
106.3075399215888
 20
77.67543425689999
 10
106.5057026266888
 20
77.5724655495
 10
106.6967844118888
 20
77.48757693589999
 10
106.8677781147888
 20
77.422715529
 10
107.0211288614888
 20
77.3729407285
 10
107.1584110304888
 20
77.3348275245
 10
107.2819550649888
 20
77.3055644215
 10
107.3935602837888
 20
77.2831321439
 10
107.4950746937888
 20
77.26596305040001
 10
107.5877968943888
 20
77.2529368063
 10
107.6717035523888
 20
77.2433123739
 10
107.7478132727888
 20
77.23634490729999
 10
107.8169612712888
 20
77.2314682184
 10
107.8791379672888
 20
77.2282493113
 10
107.9372391868888
 20
77.2262208887
 10
107.9876437019888
 20
77.22533914029999
 10
108.0283146679888
 20
77.22506936870001
 10
108.0691467502888
 20
77.2249510293
 10
108.1121014548888
 20
77.22491483569999
 10
108.1573178990888
 20
77.2249021956
 10
108.2064837333888
 20
77.22484529369999
 10
108.3182030847888
 20
77.2246349845
  0
LWPOLYLINE
  5
1572
330
213
100
AcDbEntity
  8
0
  6
Continuous
 62
     7
100
AcDbPolyline
 90
       16
 70
     0
 43
0.0
 10
101.3803956215888
 20
87.84468266200001
 10
101.3851599733888
 20
87.82920961249999
 10
101.3954259398888
 20
87.78585351149999
 10
101.4048320640888
 20
87.73561528909999
 10
101.4134035807888
 20
87.6787325601
 10
101.4211345824888
 20
87.61568044059998
 10
101.4280602663888
 20
87.5466655882
 10
101.4341830496888
 20
87.47223373629999
 10
101.4395371963888
 20
87.3926123758
 10
101.4441300436888
 20
87.30842410559999
 10
101.4479899486888
 20
87.2199605029
 10
101.4511241691888
 20
87.12795972909999
 10
101.4535524575888
 20
87.0328232591
 10
101.4552807316888
 20
86.93535037209999
 10
101.4563182511888
 20
86.83601467610001
 10
101.4566643057888
 20
86.73569309840001
  0
LWPOLYLINE
  5
1573
330
213
100
AcDbEntity
  8
0
  6
Continuous
 62
     7
100
AcDbPolyline
 90
       55
 70
     0
 43
0.0
 10
100.8392640350888
 20
86.73569365270001
 10
100.8568313090888
 20
87.57482203610001
 10
100.9094238867888
 20
88.41164653819999
 10
100.9970451058888
 20
89.2461860793
 10
101.1194327501888
 20
90.0757277581
 10
101.2678504823888
 20
90.85896832659999
 10
101.4230992786888
 20
91.53866661389999
 10
101.5785319232888
 20
92.1296832994
 10
101.7307157492888
 20
92.647461079
 10
101.8776477421888
 20
93.1042132201
 10
102.0180454036888
 20
93.5089995374
 10
102.1511487782888
 20
93.86906497129999
 10
102.2767231681888
 20
94.1907044627
 10
102.3947223750888
 20
94.4789597717
 10
102.5052311967888
 20
94.7379608527
 10
102.6086615306888
 20
94.97168182639999
 10
102.7050548724888
 20
95.1825639365
 10
102.7949529552888
 20
95.37365283979999
 10
102.8788803715888
 20
95.54750573179999
 10
102.9565353246888
 20
95.7046791139
 10
103.0292779371888
 20
95.84885459590001
 10
103.0969212016888
 20
95.98041111229999
 10
103.1592843998888
 20
96.0996696711
 10
103.2174491001888
 20
96.20917825079999
 10
103.2722913407888
 20
96.3108974542
 10
103.3223096481888
 20
96.40249895830001
 10
103.3679273784888
 20
96.48528430070001
 10
103.4108070348888
 20
96.56179074329999
 10
103.4525129545888
 20
96.63406335399999
 10
103.4948827739888
 20
96.7041987009
 10
103.5407832332888
 20
96.77626420600001
 10
103.5930221917888
 20
96.8540809153
 10
103.6534483830888
 20
96.93911553870002
 10
103.7241054812888
 20
97.0324965048
 10
103.8070294468888
 20
97.134729631
 10
103.9030167386888
 20
97.2443827444
 10
104.0160742573888
 20
97.36311255590001
 10
104.1514989729888
 20
97.49242710770001
 10
104.3102134617888
 20
97.6284449155
 10
104.4926696230888
 20
97.76689983250001
 10
104.6891106107888
 20
97.89730301870001
 10
104.8929938270888
 20
98.01460103129999
 10
105.1040454588888
 20
98.11867492120001
 10
105.3213728336888
 20
98.2090669985
 10
105.5441097127888
 20
98.28541518560001
 10
105.7714035701888
 20
98.34740419600001
 10
106.0019291757888
 20
98.3946959989
 10
106.2358322312888
 20
98.42726975879999
 10
106.4659873412888
 20
98.4445645985
 10
106.6866087462888
 20
98.44835395209999
 10
106.9078217863888
 20
98.44828448560001
 10
107.1506726001888
 20
98.44830074290001
 10
107.4157264113888
 20
98.4482909977
 10
107.7021507416888
 20
98.4482948597
 10
108.0110990227888
 20
98.44829266239999
  0
LWPOLYLINE
  5
1574
330
213
100
AcDbEntity
  8
0
  6
Continuous
 62
     7
100
AcDbPolyline
 90
       55
 70
     0
 43
0.0
 10
100.8392640350888
 20
86.73569365270001
 10
100.8568313090888
 20
85.8965641606
 10
100.9094238867888
 20
85.05973965859999
 10
100.9970451058888
 20
84.2252001175
 10
101.1194327501888
 20
83.39565843869999
 10
101.2678504823888
 20
82.61241787020001
 10
101.4230992786888
 20
81.93271958290001
 10
101.5785319232888
 20
81.3417028974
 10
101.7307157492888
 20
80.8239251178
 10
101.8776477421888
 20
80.3671729767
 10
102.0180454036888
 20
79.96238665939999
 10
102.1511487782888
 20
79.6023212255
 10
102.2767231681888
 20
79.2806817341
 10
102.3947223750888
 20
78.992426425
 10
102.5052311967888
 20
78.73342534399999
 10
102.6086615306888
 20
78.49970437039999
 10
102.7050548724888
 20
78.2888222603
 10
102.7949529552888
 20
78.097733357
 10
102.8788803715888
 20
77.9238804649
 10
102.9565353246888
 20
77.7667070828
 10
103.0292779371888
 20
77.62253160090001
 10
103.0969212016888
 20
77.49097508449999
 10
103.1592843998888
 20
77.37171652569999
 10
103.2174491001888
 20
77.2622079459
 10
103.2722913407888
 20
77.16048874260001
 10
103.3223096481888
 20
77.06888723849999
 10
103.3679273784888
 20
76.986101896
 10
103.4108070348888
 20
76.90959545350001
 10
103.4525129545888
 20
76.8373228427
 10
103.4948827739888
 20
76.7671874959
 10
103.5407832332888
 20
76.6951219908
 10
103.5930221917888
 20
76.61730528140001
 10
103.6534483830888
 20
76.5322706581
 10
103.7241054812888
 20
76.438889692
 10
103.8070294468888
 20
76.33665656579999
 10
103.9030167386888
 20
76.2270034524
 10
104.0160742573888
 20
76.10827364089999
 10
104.1514989729888
 20
75.97895908899999
 10
104.3102134617888
 20
75.8429412813
 10
104.4926696230888
 20
75.7044863643
 10
104.6891106107888
 20
75.57408317810001
 10
104.8929938270888
 20
75.4567851654
 10
105.1040454588888
 20
75.3527112756
 10
105.3213728336888
 20
75.2623191983
 10
105.5441097127888
 20
75.1859710112
 10
105.7714035701888
 20
75.12398200079999
 10
106.0019291757888
 20
75.07669019779999
 10
106.2358322312888
 20
75.0441164379
 10
106.4659873412888
 20
75.0268215982
 10
106.6866087462888
 20
75.02303224470001
 10
106.9078217863888
 20
75.0231017111
 10
107.1506726001888
 20
75.0230854538
 10
107.4157264113888
 20
75.02309519899999
 10
107.7021507416888
 20
75.02309133709999
 10
108.0110990227888
 20
75.02309353439999
  0
LWPOLYLINE
  5
1575
330
213
100
AcDbEntity
  8
0
  6
Continuous
 62
     7
100
AcDbPolyline
 90
       14
 70
     0
 43
0.0
 10
97.12415564878885
 20
71.4856930984
 10
97.12251200608884
 20
71.4570184005
 10
97.11760277328885
 20
71.4287221904
 10
97.10949274898885
 20
71.40117796040001
 10
97.09828898038885
 20
71.37474927689999
 10
97.08413935028884
 20
71.34978498169999
 10
97.06723062478886
 20
71.3266145879
 10
97.04778598838885
 20
71.30554393
 10
97.02606209798885
 20
71.2868511274
 10
97.00234569528884
 20
71.2707829133
 10
96.97694982178886
 20
71.2575513779
 10
96.95020968698884
 20
71.24733116919999
 10
96.92247824378885
 20
71.24025718750001
 10
96.89412152978885
 20
71.2364228048
  0
LWPOLYLINE
  5
1576
330
213
100
AcDbEntity
  8
0
  6
Continuous
 62
     7
100
AcDbPolyline
 90
       17
 70
     0
 43
0.0
 10
97.07659874728884
 20
101.8041672064
 10
97.07760385248883
 20
101.8286326289
 10
97.08100451778884
 20
101.8529819153
 10
97.08681089848886
 20
101.8769704995
 10
97.09495142698884
 20
101.9002149969
 10
97.10531527398885
 20
101.9224345496
 10
97.11778679588885
 20
101.9434302556
 10
97.13227144468884
 20
101.963063007
 10
97.14865441538883
 20
101.9811697894
 10
97.16675995888884
 20
101.9975500074
 10
97.18638967678884
 20
102.0120313579
 10
97.20738848328885
 20
102.0245038006
 10
97.22961901648885
 20
102.0348710931
 10
97.25286955178885
 20
102.0430112318
 10
97.27684203888884
 20
102.0488118721
 10
97.30121186348885
 20
102.0522134555
 10
97.32564742178885
 20
102.0532158809
  0
LINE
  5
1577
330
213
100
AcDbEntity
  8
0
  6
Continuous
 62
     7
100
AcDbLine
 10
97.12415564878885
 20
71.4856930984
 30
0.0
 11
97.12415564878885
 21
101.7566103049
 31
0.0
  0
LINE
  5
1578
330
213
100
AcDbEntity
  8
0
  6
Continuous
 62
     7
100
AcDbLine
 10
97.07659874728884
 20
71.4856930984
 30
0.0
 11
97.07659874728884
 21
101.8041672064
 31
0.0
  0
LINE
  5
1579
330
213
100
AcDbEntity
  8
0
  6
Continuous
 62
     7
100
AcDbLine
 10
96.89412152978885
 20
71.23569309839999
 30
0.0
 11
96.89412152978885
 21
102.2356930984
 31
0.0
  0
LWPOLYLINE
  5
157A
330
213
100
AcDbEntity
  8
0
  6
Continuous
 62
     7
100
AcDbPolyline
 90
       14
 70
     0
 43
0.0
 10
97.12415564878885
 20
101.7566103049
 10
97.12618093608885
 20
101.7864861984
 10
97.13177366758884
 20
101.8159306324
 10
97.14085307438883
 20
101.8445183786
 10
97.15328803438884
 20
101.8718365804
 10
97.16889896518885
 20
101.8974907159
 10
97.18746041798885
 20
101.9211102951
 10
97.20870433338884
 20
101.9423542105
 10
97.23232391268885
 20
101.9609156633
 10
97.25797804818883
 20
101.976526594
 10
97.28529624998884
 20
101.9889615539
 10
97.31388399598884
 20
101.9980409607
 10
97.34332842988884
 20
102.0036336921
 10
97.37320432328885
 20
102.0056589794
  0
CIRCLE
  5
199D
330
213
100
AcDbEntity
  8
0
  6
Continuous
 62
     7
100
AcDbCircle
 10
107.2691215297888
 20
86.73569309840001
 30
0.0
 40
1.448223303199999
  0
ENDSEC
  0
SECTION
  2
OBJECTS
  0
DICTIONARY
  5
C
330
0
100
AcDbDictionary
281
     1
  3
ACAD_COLOR
350
19E9
  3
ACAD_GROUP
350
D
  3
ACAD_LAYOUT
350
1A
  3
ACAD_MATERIAL
350
19BC
  3
ACAD_MLEADERSTYLE
350
1A0E
  3
ACAD_MLINESTYLE
350
17
  3
ACAD_PLOTSETTINGS
350
19
  3
ACAD_PLOTSTYLENAME
350
E
  3
ACAD_SCALELIST
350
19EC
  3
ACAD_TABLESTYLE
350
19EA
  3
ACAD_VISUALSTYLE
350
19D5
  3
ACDB_RECOMPOSE_DATA
350
1A14
  3
AcDbVariableDictionary
350
1A46
  0
DICTIONARY
  5
1A15
330
8
100
AcDbDictionary
280
     1
281
     1
  0
DICTIONARY
  5
1A55
330
10
100
AcDbDictionary
280
     1
281
     1
  3
ADSK_XREC_LAYER_RECONCILED
360
1A56
  0
DICTIONARY
  5
1A57
330
1FA
100
AcDbDictionary
280
     1
281
     1
  3
ADSK_XREC_LAYER_RECONCILED
360
1A58
  0
DICTIONARY
  5
1A59
330
1FB
100
AcDbDictionary
280
     1
281
     1
  3
ADSK_XREC_LAYER_RECONCILED
360
1A5A
  0
DICTIONARY
  5
1A5B
330
1FC
100
AcDbDictionary
280
     1
281
     1
  3
ADSK_XREC_LAYER_RECONCILED
360
1A5C
  0
DICTIONARY
  5
1A5D
330
1FD
100
AcDbDictionary
280
     1
281
     1
  3
ADSK_XREC_LAYER_RECONCILED
360
1A5E
  0
DICTIONARY
  5
1A5F
330
1FE
100
AcDbDictionary
280
     1
281
     1
  3
ADSK_XREC_LAYER_RECONCILED
360
1A60
  0
DICTIONARY
  5
1A61
330
1FF
100
AcDbDictionary
280
     1
281
     1
  3
ADSK_XREC_LAYER_RECONCILED
360
1A62
  0
DICTIONARY
  5
1A63
330
200
100
AcDbDictionary
280
     1
281
     1
  3
ADSK_XREC_LAYER_RECONCILED
360
1A64
  0
DICTIONARY
  5
1A65
330
201
100
AcDbDictionary
280
     1
281
     1
  3
ADSK_XREC_LAYER_RECONCILED
360
1A66
  0
DICTIONARY
  5
1A67
330
202
100
AcDbDictionary
280
     1
281
     1
  3
ADSK_XREC_LAYER_RECONCILED
360
1A68
  0
DICTIONARY
  5
1A69
330
203
100
AcDbDictionary
280
     1
281
     1
  3
ADSK_XREC_LAYER_RECONCILED
360
1A6A
  0
DICTIONARY
  5
1A6B
330
204
100
AcDbDictionary
280
     1
281
     1
  3
ADSK_XREC_LAYER_RECONCILED
360
1A6C
  0
DICTIONARY
  5
1A6D
330
205
100
AcDbDictionary
280
     1
281
     1
  3
ADSK_XREC_LAYER_RECONCILED
360
1A6E
  0
DICTIONARY
  5
1A6F
330
206
100
AcDbDictionary
280
     1
281
     1
  3
ADSK_XREC_LAYER_RECONCILED
360
1A70
  0
DICTIONARY
  5
1A71
330
207
100
AcDbDictionary
280
     1
281
     1
  3
ADSK_XREC_LAYER_RECONCILED
360
1A72
  0
DICTIONARY
  5
1A73
330
208
100
AcDbDictionary
280
     1
281
     1
  3
ADSK_XREC_LAYER_RECONCILED
360
1A74
  0
DICTIONARY
  5
1A75
330
209
100
AcDbDictionary
280
     1
281
     1
  3
ADSK_XREC_LAYER_RECONCILED
360
1A76
  0
DICTIONARY
  5
1A77
330
20A
100
AcDbDictionary
280
     1
281
     1
  3
ADSK_XREC_LAYER_RECONCILED
360
1A78
  0
DICTIONARY
  5
19E9
102
{ACAD_REACTORS
330
C
102
}
330
C
100
AcDbDictionary
281
     1
  0
DICTIONARY
  5
D
102
{ACAD_REACTORS
330
C
102
}
330
C
100
AcDbDictionary
281
     1
  0
DICTIONARY
  5
1A
102
{ACAD_REACTORS
330
C
102
}
330
C
100
AcDbDictionary
281
     1
  3
Layout1
350
19B8
  3
Model
350
19B7
  0
DICTIONARY
  5
19BC
102
{ACAD_REACTORS
330
C
102
}
330
C
100
AcDbDictionary
281
     1
  3
ByBlock
350
19C5
  3
ByLayer
350
19BD
  3
Global
350
19CD
  0
DICTIONARY
  5
1A0E
102
{ACAD_REACTORS
330
C
102
}
330
C
100
AcDbDictionary
281
     1
  3
Standard
350
1A0F
  0
DICTIONARY
  5
17
102
{ACAD_REACTORS
330
C
102
}
330
C
100
AcDbDictionary
281
     1
  3
Standard
350
18
  0
DICTIONARY
  5
19
102
{ACAD_REACTORS
330
C
102
}
330
C
100
AcDbDictionary
281
     1
  0
ACDBDICTIONARYWDFLT
  5
E
102
{ACAD_REACTORS
330
C
102
}
330
C
100
AcDbDictionary
281
     1
  3
Normal
350
F
100
AcDbDictionaryWithDefault
340
F
  0
DICTIONARY
  5
19EC
102
{ACAD_REACTORS
330
C
102
}
330
C
100
AcDbDictionary
281
     1
  3
A0
350
19ED
  3
A1
350
19EE
  3
A2
350
19EF
  3
A3
350
19F0
  3
A4
350
19F1
  3
A5
350
19F2
  3
A6
350
19F3
  3
A7
350
19F4
  3
A8
350
19F5
  3
A9
350
19F6
  3
B0
350
19F7
  3
B1
350
19F8
  3
B2
350
19F9
  3
B3
350
19FA
  3
B4
350
19FB
  3
B5
350
19FC
  3
B6
350
19FD
  3
B7
350
19FE
  3
B8
350
19FF
  3
B9
350
1A00
  3
C0
350
1A01
  3
C1
350
1A02
  3
C2
350
1A03
  3
C3
350
1A04
  3
C4
350
1A05
  3
C5
350
1A06
  3
C6
350
1A07
  3
C7
350
1A08
  3
C8
350
1A09
  3
C9
350
1A0A
  3
D0
350
1A0B
  3
D1
350
1A0C
  3
D2
350
1A0D
  0
DICTIONARY
  5
19EA
102
{ACAD_REACTORS
330
C
102
}
330
C
100
AcDbDictionary
281
     1
  3
Standard
350
19EB
  0
DICTIONARY
  5
19D5
102
{ACAD_REACTORS
330
C
102
}
330
C
100
AcDbDictionary
281
     1
  3
2dWireframe
350
19DB
  3
3D Hidden
350
19DD
  3
3dWireframe
350
19DC
  3
Basic
350
19DA
  3
Brighten
350
19E1
  3
ColorChange
350
19E5
  3
Conceptual
350
19DE
  3
Dim
350
19E0
  3
EdgeColorOff
350
19E8
  3
Facepattern
350
19E4
  3
Flat
350
19D6
  3
FlatWithEdges
350
19D7
  3
Gouraud
350
19D8
  3
GouraudWithEdges
350
19D9
  3
JitterOff
350
19E6
  3
Linepattern
350
19E3
  3
OverhangOff
350
19E7
  3
Realistic
350
19DF
  3
Thicken
350
19E2
  0
XRECORD
  5
1A14
102
{ACAD_REACTORS
330
C
102
}
330
C
100
AcDbXrecord
280
     1
 90
        1
330
19EB
  0
DICTIONARY
  5
1A46
102
{ACAD_REACTORS
330
C
102
}
330
C
100
AcDbDictionary
281
     1
  3
CANNOSCALE
350
1A49
  3
CMLEADERSTYLE
350
1A48
  3
CTABLESTYLE
350
1A47
  3
DIMASSOC
350
1A4C
  3
INDEXCTL
350
1A4B
  3
LAYEREVAL
350
1A8C
  3
LAYERNOTIFY
350
1A8D
  3
LIGHTINGUNITS
350
1A8B
  3
MSLTSCALE
350
1A8A
  3
SORTENTS
350
1A4A
  3
XCLIPFRAME
350
1A4D
  0
XRECORD
  5
1A56
102
{ACAD_REACTORS
330
1A55
102
}
330
1A55
100
AcDbXrecord
280
     1
290
     1
  0
XRECORD
  5
1A58
102
{ACAD_REACTORS
330
1A57
102
}
330
1A57
100
AcDbXrecord
280
     1
290
     1
  0
XRECORD
  5
1A5A
102
{ACAD_REACTORS
330
1A59
102
}
330
1A59
100
AcDbXrecord
280
     1
290
     1
  0
XRECORD
  5
1A5C
102
{ACAD_REACTORS
330
1A5B
102
}
330
1A5B
100
AcDbXrecord
280
     1
290
     1
  0
XRECORD
  5
1A5E
102
{ACAD_REACTORS
330
1A5D
102
}
330
1A5D
100
AcDbXrecord
280
     1
290
     1
  0
XRECORD
  5
1A60
102
{ACAD_REACTORS
330
1A5F
102
}
330
1A5F
100
AcDbXrecord
280
     1
290
     1
  0
XRECORD
  5
1A62
102
{ACAD_REACTORS
330
1A61
102
}
330
1A61
100
AcDbXrecord
280
     1
290
     1
  0
XRECORD
  5
1A64
102
{ACAD_REACTORS
330
1A63
102
}
330
1A63
100
AcDbXrecord
280
     1
290
     1
  0
XRECORD
  5
1A66
102
{ACAD_REACTORS
330
1A65
102
}
330
1A65
100
AcDbXrecord
280
     1
290
     1
  0
XRECORD
  5
1A68
102
{ACAD_REACTORS
330
1A67
102
}
330
1A67
100
AcDbXrecord
280
     1
290
     1
  0
XRECORD
  5
1A6A
102
{ACAD_REACTORS
330
1A69
102
}
330
1A69
100
AcDbXrecord
280
     1
290
     1
  0
XRECORD
  5
1A6C
102
{ACAD_REACTORS
330
1A6B
102
}
330
1A6B
100
AcDbXrecord
280
     1
290
     1
  0
XRECORD
  5
1A6E
102
{ACAD_REACTORS
330
1A6D
102
}
330
1A6D
100
AcDbXrecord
280
     1
290
     1
  0
XRECORD
  5
1A70
102
{ACAD_REACTORS
330
1A6F
102
}
330
1A6F
100
AcDbXrecord
280
     1
290
     1
  0
XRECORD
  5
1A72
102
{ACAD_REACTORS
330
1A71
102
}
330
1A71
100
AcDbXrecord
280
     1
290
     1
  0
XRECORD
  5
1A74
102
{ACAD_REACTORS
330
1A73
102
}
330
1A73
100
AcDbXrecord
280
     1
290
     1
  0
XRECORD
  5
1A76
102
{ACAD_REACTORS
330
1A75
102
}
330
1A75
100
AcDbXrecord
280
     1
290
     1
  0
XRECORD
  5
1A78
102
{ACAD_REACTORS
330
1A77
102
}
330
1A77
100
AcDbXrecord
280
     1
290
     1
  0
LAYOUT
  5
19B8
102
{ACAD_REACTORS
330
1A
102
}
330
1A
100
AcDbPlotSettings
  1

  2
none_device
  4
ANSI_B_(17.00_x_11.00_Inches)
  6

 40
0.0
 41
0.0
 42
0.0
 43
0.0
 44
431.8
 45
279.4
 46
0.0
 47
0.0
 48
0.0
 49
0.0
140
0.0
141
0.0
142
1.0
143
1.0
 70
     0
 72
     0
 73
     0
 74
     0
  7

 75
     0
147
1.0
 76
     0
 77
     2
 78
   300
148
0.0
149
0.0
100
AcDbLayout
  1
Layout1
 70
     1
 71
     1
 10
0.0
 20
0.0
 11
12.0
 21
9.0
 12
0.0
 22
0.0
 32
0.0
 14
1.000000000000000E+20
 24
1.000000000000000E+20
 34
1.000000000000000E+20
 15
-1.000000000000000E+20
 25
-1.000000000000000E+20
 35
-1.000000000000000E+20
146
0.0
 13
0.0
 23
0.0
 33
0.0
 16
1.0
 26
0.0
 36
0.0
 17
0.0
 27
1.0
 37
0.0
 76
     0
330
214
  0
LAYOUT
  5
19B7
102
{ACAD_REACTORS
330
1A
102
}
330
1A
100
AcDbPlotSettings
  1

  2
none_device
  4
ANSI_B_(17.00_x_11.00_Inches)
  6

 40
0.0
 41
0.0
 42
0.0
 43
0.0
 44
431.8
 45
279.4
 46
0.0
 47
0.0
 48
0.0
 49
0.0
140
0.0
141
0.0
142
1.0
143
1.0
 70
  1024
 72
     0
 73
     0
 74
     0
  7

 75
     0
147
1.0
 76
     0
 77
     2
 78
   300
148
0.0
149
0.0
100
AcDbLayout
  1
Model
 70
     0
 71
     0
 10
0.0
 20
0.0
 11
17.0
 21
11.0
 12
0.0
 22
0.0
 32
0.0
 14
0.0
 24
0.0
 34
0.0
 15
0.0
 25
0.0
 35
0.0
146
0.0
 13
0.0
 23
0.0
 33
0.0
 16
1.0
 26
0.0
 36
0.0
 17
0.0
 27
1.0
 37
0.0
 76
     0
330
213
331
1F4
  0
MATERIAL
  5
19C5
102
{ACAD_XDICTIONARY
360
19C6
102
}
102
{ACAD_REACTORS
330
19BC
102
}
330
19BC
100
AcDbMaterial
  1
ByBlock
 72
     0
 43
0.0208333333333333
 43
0.0
 43
0.0
 43
0.0
 43
0.0
 43
0.0208333333333333
 43
0.0
 43
0.0
 43
0.0
 43
0.0
 43
1.0
 43
0.0
 43
0.0
 43
0.0
 43
0.0
 43
1.0
 77
     0
 47
0.0208333333333333
 47
0.0
 47
0.0
 47
0.0
 47
0.0
 47
0.0208333333333333
 47
0.0
 47
0.0
 47
0.0
 47
0.0
 47
1.0
 47
0.0
 47
0.0
 47
0.0
 47
0.0
 47
1.0
171
     0
 49
0.0208333333333333
 49
0.0
 49
0.0
 49
0.0
 49
0.0
 49
0.0208333333333333
 49
0.0
 49
0.0
 49
0.0
 49
0.0
 49
1.0
 49
0.0
 49
0.0
 49
0.0
 49
0.0
 49
1.0
175
     0
142
0.0208333333333333
142
0.0
142
0.0
142
0.0
142
0.0
142
0.0208333333333333
142
0.0
142
0.0
142
0.0
142
0.0
142
1.0
142
0.0
142
0.0
142
0.0
142
0.0
142
1.0
179
     0
144
0.0208333333333333
144
0.0
144
0.0
144
0.0
144
0.0
144
0.0208333333333333
144
0.0
144
0.0
144
0.0
144
0.0
144
1.0
144
0.0
144
0.0
144
0.0
144
0.0
144
1.0
147
0.0208333333333333
147
0.0
147
0.0
147
0.0
147
0.0
147
0.0208333333333333
147
0.0
147
0.0
147
0.0
147
0.0
147
1.0
147
0.0
147
0.0
147
0.0
147
0.0
147
1.0
  0
MATERIAL
  5
19BD
102
{ACAD_XDICTIONARY
360
19BE
102
}
102
{ACAD_REACTORS
330
19BC
102
}
330
19BC
100
AcDbMaterial
  1
ByLayer
 72
     0
 43
0.0208333333333333
 43
0.0
 43
0.0
 43
0.0
 43
0.0
 43
0.0208333333333333
 43
0.0
 43
0.0
 43
0.0
 43
0.0
 43
1.0
 43
0.0
 43
0.0
 43
0.0
 43
0.0
 43
1.0
 77
     0
 47
0.0208333333333333
 47
0.0
 47
0.0
 47
0.0
 47
0.0
 47
0.0208333333333333
 47
0.0
 47
0.0
 47
0.0
 47
0.0
 47
1.0
 47
0.0
 47
0.0
 47
0.0
 47
0.0
 47
1.0
171
     0
 49
0.0208333333333333
 49
0.0
 49
0.0
 49
0.0
 49
0.0
 49
0.0208333333333333
 49
0.0
 49
0.0
 49
0.0
 49
0.0
 49
1.0
 49
0.0
 49
0.0
 49
0.0
 49
0.0
 49
1.0
175
     0
142
0.0208333333333333
142
0.0
142
0.0
142
0.0
142
0.0
142
0.0208333333333333
142
0.0
142
0.0
142
0.0
142
0.0
142
1.0
142
0.0
142
0.0
142
0.0
142
0.0
142
1.0
179
     0
144
0.0208333333333333
144
0.0
144
0.0
144
0.0
144
0.0
144
0.0208333333333333
144
0.0
144
0.0
144
0.0
144
0.0
144
1.0
144
0.0
144
0.0
144
0.0
144
0.0
144
1.0
147
0.0208333333333333
147
0.0
147
0.0
147
0.0
147
0.0
147
0.0208333333333333
147
0.0
147
0.0
147
0.0
147
0.0
147
1.0
147
0.0
147
0.0
147
0.0
147
0.0
147
1.0
  0
MATERIAL
  5
19CD
102
{ACAD_XDICTIONARY
360
19CE
102
}
102
{ACAD_REACTORS
330
19BC
102
}
330
19BC
100
AcDbMaterial
  1
Global
 72
     0
 43
0.0208333333333333
 43
0.0
 43
0.0
 43
0.0
 43
0.0
 43
0.0208333333333333
 43
0.0
 43
0.0
 43
0.0
 43
0.0
 43
1.0
 43
0.0
 43
0.0
 43
0.0
 43
0.0
 43
1.0
 77
     0
 47
0.0208333333333333
 47
0.0
 47
0.0
 47
0.0
 47
0.0
 47
0.0208333333333333
 47
0.0
 47
0.0
 47
0.0
 47
0.0
 47
1.0
 47
0.0
 47
0.0
 47
0.0
 47
0.0
 47
1.0
171
     0
 49
0.0208333333333333
 49
0.0
 49
0.0
 49
0.0
 49
0.0
 49
0.0208333333333333
 49
0.0
 49
0.0
 49
0.0
 49
0.0
 49
1.0
 49
0.0
 49
0.0
 49
0.0
 49
0.0
 49
1.0
175
     0
142
0.0208333333333333
142
0.0
142
0.0
142
0.0
142
0.0
142
0.0208333333333333
142
0.0
142
0.0
142
0.0
142
0.0
142
1.0
142
0.0
142
0.0
142
0.0
142
0.0
142
1.0
179
     0
144
0.0208333333333333
144
0.0
144
0.0
144
0.0
144
0.0
144
0.0208333333333333
144
0.0
144
0.0
144
0.0
144
0.0
144
1.0
144
0.0
144
0.0
144
0.0
144
0.0
144
1.0
147
0.0208333333333333
147
0.0
147
0.0
147
0.0
147
0.0
147
0.0208333333333333
147
0.0
147
0.0
147
0.0
147
0.0
147
1.0
147
0.0
147
0.0
147
0.0
147
0.0
147
1.0
  0
MLEADERSTYLE
  5
1A0F
102
{ACAD_REACTORS
330
1A0E
102
}
330
1A0E
100
AcDbMLeaderStyle
170
     2
171
     1
172
     0
 90
        2
 40
0.0
 41
0.0
173
     1
 91
-1056964608
340
14
 92
       -2
290
     1
 42
0.09
291
     1
 43
0.36
  3
Standard
 44
0.18
300

342
11
174
     1
178
     6
175
     1
176
     0
 93
-1056964608
 45
0.18
292
     0
297
     0
 46
0.18
 94
-1056964608
 47
1.0
 49
1.0
140
1.0
293
     1
141
0.0
294
     1
177
     0
142
1.0
295
     0
296
     0
143
0.125
1001
ACAD_MLEADERVER
1070
     2
  0
MLINESTYLE
  5
18
102
{ACAD_REACTORS
330
17
102
}
330
17
100
AcDbMlineStyle
  2
STANDARD
 70
     0
  3

 62
   256
 51
90.0
 52
90.0
 71
     2
 49
0.5
 62
   256
  6
BYLAYER
 49
-0.5
 62
   256
  6
BYLAYER
  0
ACDBPLACEHOLDER
  5
F
102
{ACAD_REACTORS
330
E
102
}
330
E
  0
SCALE
  5
19ED
102
{ACAD_REACTORS
330
19EC
102
}
330
19EC
100
AcDbScale
 70
     0
300
1:1
140
1.0
141
1.0
290
     1
  0
SCALE
  5
19EE
102
{ACAD_REACTORS
330
19EC
102
}
330
19EC
100
AcDbScale
 70
     0
300
1:2
140
1.0
141
2.0
290
     0
  0
SCALE
  5
19EF
102
{ACAD_REACTORS
330
19EC
102
}
330
19EC
100
AcDbScale
 70
     0
300
1:4
140
1.0
141
4.0
290
     0
  0
SCALE
  5
19F0
102
{ACAD_REACTORS
330
19EC
102
}
330
19EC
100
AcDbScale
 70
     0
300
1:5
140
1.0
141
5.0
290
     0
  0
SCALE
  5
19F1
102
{ACAD_REACTORS
330
19EC
102
}
330
19EC
100
AcDbScale
 70
     0
300
1:8
140
1.0
141
8.0
290
     0
  0
SCALE
  5
19F2
102
{ACAD_REACTORS
330
19EC
102
}
330
19EC
100
AcDbScale
 70
     0
300
1:10
140
1.0
141
10.0
290
     0
  0
SCALE
  5
19F3
102
{ACAD_REACTORS
330
19EC
102
}
330
19EC
100
AcDbScale
 70
     0
300
1:16
140
1.0
141
16.0
290
     0
  0
SCALE
  5
19F4
102
{ACAD_REACTORS
330
19EC
102
}
330
19EC
100
AcDbScale
 70
     0
300
1:20
140
1.0
141
20.0
290
     0
  0
SCALE
  5
19F5
102
{ACAD_REACTORS
330
19EC
102
}
330
19EC
100
AcDbScale
 70
     0
300
1:30
140
1.0
141
30.0
290
     0
  0
SCALE
  5
19F6
102
{ACAD_REACTORS
330
19EC
102
}
330
19EC
100
AcDbScale
 70
     0
300
1:40
140
1.0
141
40.0
290
     0
  0
SCALE
  5
19F7
102
{ACAD_REACTORS
330
19EC
102
}
330
19EC
100
AcDbScale
 70
     0
300
1:50
140
1.0
141
50.0
290
     0
  0
SCALE
  5
19F8
102
{ACAD_REACTORS
330
19EC
102
}
330
19EC
100
AcDbScale
 70
     0
300
1:100
140
1.0
141
100.0
290
     0
  0
SCALE
  5
19F9
102
{ACAD_REACTORS
330
19EC
102
}
330
19EC
100
AcDbScale
 70
     0
300
2:1
140
2.0
141
1.0
290
     0
  0
SCALE
  5
19FA
102
{ACAD_REACTORS
330
19EC
102
}
330
19EC
100
AcDbScale
 70
     0
300
4:1
140
4.0
141
1.0
290
     0
  0
SCALE
  5
19FB
102
{ACAD_REACTORS
330
19EC
102
}
330
19EC
100
AcDbScale
 70
     0
300
8:1
140
8.0
141
1.0
290
     0
  0
SCALE
  5
19FC
102
{ACAD_REACTORS
330
19EC
102
}
330
19EC
100
AcDbScale
 70
     0
300
10:1
140
10.0
141
1.0
290
     0
  0
SCALE
  5
19FD
102
{ACAD_REACTORS
330
19EC
102
}
330
19EC
100
AcDbScale
 70
     0
300
100:1
140
100.0
141
1.0
290
     0
  0
SCALE
  5
19FE
102
{ACAD_REACTORS
330
19EC
102
}
330
19EC
100
AcDbScale
 70
     0
300
1/128" = 1'-0"
140
0.0078125
141
12.0
290
     0
  0
SCALE
  5
19FF
102
{ACAD_REACTORS
330
19EC
102
}
330
19EC
100
AcDbScale
 70
     0
300
1/64" = 1'-0"
140
0.015625
141
12.0
290
     0
  0
SCALE
  5
1A00
102
{ACAD_REACTORS
330
19EC
102
}
330
19EC
100
AcDbScale
 70
     0
300
1/32" = 1'-0"
140
0.03125
141
12.0
290
     0
  0
SCALE
  5
1A01
102
{ACAD_REACTORS
330
19EC
102
}
330
19EC
100
AcDbScale
 70
     0
300
1/16" = 1'-0"
140
0.0625
141
12.0
290
     0
  0
SCALE
  5
1A02
102
{ACAD_REACTORS
330
19EC
102
}
330
19EC
100
AcDbScale
 70
     0
300
3/32" = 1'-0"
140
0.09375
141
12.0
290
     0
  0
SCALE
  5
1A03
102
{ACAD_REACTORS
330
19EC
102
}
330
19EC
100
AcDbScale
 70
     0
300
1/8" = 1'-0"
140
0.125
141
12.0
290
     0
  0
SCALE
  5
1A04
102
{ACAD_REACTORS
330
19EC
102
}
330
19EC
100
AcDbScale
 70
     0
300
3/16" = 1'-0"
140
0.1875
141
12.0
290
     0
  0
SCALE
  5
1A05
102
{ACAD_REACTORS
330
19EC
102
}
330
19EC
100
AcDbScale
 70
     0
300
1/4" = 1'-0"
140
0.25
141
12.0
290
     0
  0
SCALE
  5
1A06
102
{ACAD_REACTORS
330
19EC
102
}
330
19EC
100
AcDbScale
 70
     0
300
3/8" = 1'-0"
140
0.375
141
12.0
290
     0
  0
SCALE
  5
1A07
102
{ACAD_REACTORS
330
19EC
102
}
330
19EC
100
AcDbScale
 70
     0
300
1/2" = 1'-0"
140
0.5
141
12.0
290
     0
  0
SCALE
  5
1A08
102
{ACAD_REACTORS
330
19EC
102
}
330
19EC
100
AcDbScale
 70
     0
300
3/4" = 1'-0"
140
0.75
141
12.0
290
     0
  0
SCALE
  5
1A09
102
{ACAD_REACTORS
330
19EC
102
}
330
19EC
100
AcDbScale
 70
     0
300
1" = 1'-0"
140
1.0
141
12.0
290
     0
  0
SCALE
  5
1A0A
102
{ACAD_REACTORS
330
19EC
102
}
330
19EC
100
AcDbScale
 70
     0
300
1-1/2" = 1'-0"
140
1.5
141
12.0
290
     0
  0
SCALE
  5
1A0B
102
{ACAD_REACTORS
330
19EC
102
}
330
19EC
100
AcDbScale
 70
     0
300
3" = 1'-0"
140
3.0
141
12.0
290
     0
  0
SCALE
  5
1A0C
102
{ACAD_REACTORS
330
19EC
102
}
330
19EC
100
AcDbScale
 70
     0
300
6" = 1'-0"
140
6.0
141
12.0
290
     0
  0
SCALE
  5
1A0D
102
{ACAD_REACTORS
330
19EC
102
}
330
19EC
100
AcDbScale
 70
     0
300
1'-0" = 1'-0"
140
12.0
141
12.0
290
     0
  0
TABLESTYLE
  5
19EB
102
{ACAD_XDICTIONARY
360
1A12
102
}
102
{ACAD_REACTORS
330
19EA
102
}
330
19EA
100
AcDbTableStyle
  3
Standard
 70
     0
 71
     0
 40
0.06
 41
0.06
280
     0
281
     0
  7
STANDARD
140
0.18
170
     2
 62
     0
 63
     7
283
     0
 90
      512
 91
        0
  1

274
    -2
284
     1
 64
     0
275
    -2
285
     1
 65
     0
276
    -2
286
     1
 66
     0
277
    -2
287
     1
 67
     0
278
    -2
288
     1
 68
     0
279
    -2
289
     1
 69
     0
  7
STANDARD
140
0.25
170
     5
 62
     0
 63
     7
283
     0
 90
      512
 91
        0
  1

274
    -2
284
     1
 64
     0
275
    -2
285
     1
 65
     0
276
    -2
286
     1
 66
     0
277
    -2
287
     1
 67
     0
278
    -2
288
     1
 68
     0
279
    -2
289
     1
 69
     0
  7
STANDARD
140
0.18
170
     5
 62
     0
 63
     7
283
     0
 90
      512
 91
        0
  1

274
    -2
284
     1
 64
     0
275
    -2
285
     1
 65
     0
276
    -2
286
     1
 66
     0
277
    -2
287
     1
 67
     0
278
    -2
288
     1
 68
     0
279
    -2
289
     1
 69
     0
  0
VISUALSTYLE
  5
19DB
102
{ACAD_XDICTIONARY
360
1A28
102
}
102
{ACAD_REACTORS
330
19D5
102
}
330
19D5
100
AcDbVisualStyle
  2
2dWireframe
 70
     4
 71
     0
 72
     2
 73
     0
 90
        0
 40
-0.6
 41
-30.0
 62
     5
 63
     7
 74
     1
 91
        4
 64
     7
 65
   257
 75
     1
175
     1
 42
1.0
 92
        0
 66
   257
 43
1.0
 76
     1
 77
     6
 78
     2
 67
     7
 79
     5
170
     0
171
     0
290
     0
174
     0
 93
        1
 44
0.0
173
     0
291
     0
 45
0.0
  0
VISUALSTYLE
  5
19DD
102
{ACAD_XDICTIONARY
360
1A2C
102
}
102
{ACAD_REACTORS
330
19D5
102
}
330
19D5
100
AcDbVisualStyle
  2
3D Hidden
 70
     6
 71
     1
 72
     2
 73
     2
 90
        0
 40
-0.6
 41
-30.0
 62
     5
 63
     7
 74
     2
 91
        2
 64
     7
 65
   257
 75
     2
175
     1
 42
179.0
 92
        0
 66
   257
 43
1.0
 76
     1
 77
     6
 78
     2
 67
     7
 79
     3
170
     0
171
     0
290
     0
174
     0
 93
        1
 44
0.0
173
     0
291
     0
 45
0.0
  0
VISUALSTYLE
  5
19DC
102
{ACAD_XDICTIONARY
360
1A2A
102
}
102
{ACAD_REACTORS
330
19D5
102
}
330
19D5
100
AcDbVisualStyle
  2
3dWireframe
 70
     5
 71
     0
 72
     2
 73
     0
 90
        0
 40
-0.6
 41
-30.0
 62
     5
 63
     7
 74
     1
 91
        4
 64
     7
 65
   257
 75
     1
175
     1
 42
1.0
 92
        0
 66
   257
 43
1.0
 76
     1
 77
     6
 78
     2
 67
     7
 79
     5
170
     0
171
     0
290
     0
174
     0
 93
        1
 44
0.0
173
     0
291
     0
 45
0.0
  0
VISUALSTYLE
  5
19DA
102
{ACAD_XDICTIONARY
360
1A26
102
}
102
{ACAD_REACTORS
330
19D5
102
}
330
19D5
100
AcDbVisualStyle
  2
Basic
 70
     7
 71
     1
 72
     0
 73
     1
 90
        0
 40
-0.6
 41
-30.0
 62
     5
 63
     7
 74
     0
 91
        4
 64
     7
 65
   257
 75
     1
175
     1
 42
1.0
 92
        8
 66
     7
 43
1.0
 76
     1
 77
     6
 78
     2
 67
     7
 79
     5
170
     0
171
     0
290
     0
174
     0
 93
        1
 44
0.0
173
     0
291
     1
 45
0.0
  0
VISUALSTYLE
  5
19E1
102
{ACAD_XDICTIONARY
360
1A34
102
}
102
{ACAD_REACTORS
330
19D5
102
}
330
19D5
100
AcDbVisualStyle
  2
Brighten
 70
    12
 71
     2
 72
     2
 73
     0
 90
        0
 40
-0.6
 41
-30.0
 62
     5
 63
     7
 74
     1
 91
        4
 64
     7
 65
   257
 75
     1
175
     1
 42
1.0
 92
        8
 66
     7
 43
1.0
 76
     1
 77
     6
 78
     2
 67
     7
 79
     5
170
     0
171
     0
290
     0
174
     0
 93
        1
 44
50.0
173
     0
291
     1
 45
0.0
  0
VISUALSTYLE
  5
19E5
102
{ACAD_XDICTIONARY
360
1A3C
102
}
102
{ACAD_REACTORS
330
19D5
102
}
330
19D5
100
AcDbVisualStyle
  2
ColorChange
 70
    16
 71
     2
 72
     2
 73
     3
 90
        0
 40
-0.6
 41
-30.0
 62
     5
 63
     8
 74
     1
 91
        4
 64
     7
 65
   257
 75
     1
175
     1
 42
1.0
 92
        8
 66
     8
 43
1.0
 76
     1
 77
     6
 78
     2
 67
     7
 79
     5
170
     0
171
     0
290
     0
174
     0
 93
        1
 44
0.0
173
     0
291
     1
 45
0.0
  0
VISUALSTYLE
  5
19DE
102
{ACAD_XDICTIONARY
360
1A2E
102
}
102
{ACAD_REACTORS
330
19D5
102
}
330
19D5
100
AcDbVisualStyle
  2
Conceptual
 70
     9
 71
     3
 72
     2
 73
     0
 90
        0
 40
-0.6
 41
-30.0
 62
     5
 63
     7
 74
     2
 91
        2
 64
     7
 65
   257
 75
     1
175
     1
 42
179.0
 92
        8
 66
     7
 43
1.0
 76
     1
 77
     6
 78
     2
 67
     7
 79
     3
170
     0
171
     0
290
     0
174
     0
 93
        1
 44
0.0
173
     0
291
     0
 45
0.0
  0
VISUALSTYLE
  5
19E0
102
{ACAD_XDICTIONARY
360
1A32
102
}
102
{ACAD_REACTORS
330
19D5
102
}
330
19D5
100
AcDbVisualStyle
  2
Dim
 70
    11
 71
     2
 72
     2
 73
     0
 90
        0
 40
-0.6
 41
-30.0
 62
     5
 63
     7
 74
     1
 91
        4
 64
     7
 65
   257
 75
     1
175
     1
 42
1.0
 92
        8
 66
     7
 43
1.0
 76
     1
 77
     6
 78
     2
 67
     7
 79
     5
170
     0
171
     0
290
     0
174
     0
 93
        1
 44
-50.0
173
     0
291
     1
 45
0.0
  0
VISUALSTYLE
  5
19E8
102
{ACAD_XDICTIONARY
360
1A42
102
}
102
{ACAD_REACTORS
330
19D5
102
}
330
19D5
100
AcDbVisualStyle
  2
EdgeColorOff
 70
    22
 71
     2
 72
     2
 73
     0
 90
        0
 40
-0.6
 41
-30.0
 62
     5
 63
     7
 74
     1
 91
        4
 64
     7
 65
   257
 75
     1
175
     1
 42
1.0
 92
        8
 66
     7
 43
1.0
 76
     1
 77
     6
 78
     2
 67
     7
 79
     5
170
     0
171
     0
290
     0
174
     0
 93
        1
 44
0.0
173
     0
291
     1
 45
0.0
  0
VISUALSTYLE
  5
19E4
102
{ACAD_XDICTIONARY
360
1A3A
102
}
102
{ACAD_REACTORS
330
19D5
102
}
330
19D5
100
AcDbVisualStyle
  2
Facepattern
 70
    15
 71
     2
 72
     2
 73
     0
 90
        0
 40
-0.6
 41
-30.0
 62
     5
 63
     7
 74
     1
 91
        4
 64
     7
 65
   257
 75
     1
175
     1
 42
1.0
 92
        8
 66
     7
 43
1.0
 76
     1
 77
     6
 78
     2
 67
     7
 79
     5
170
     0
171
     0
290
     0
174
     0
 93
        1
 44
0.0
173
     0
291
     1
 45
0.0
  0
VISUALSTYLE
  5
19D6
102
{ACAD_XDICTIONARY
360
1A1E
102
}
102
{ACAD_REACTORS
330
19D5
102
}
330
19D5
100
AcDbVisualStyle
  2
Flat
 70
     0
 71
     2
 72
     1
 73
     1
 90
        2
 40
-0.6
 41
30.0
 62
     5
 63
     7
 74
     0
 91
        4
 64
     7
 65
   257
 75
     1
175
     1
 42
1.0
 92
        8
 66
     7
 43
1.0
 76
     1
 77
     6
 78
     2
 67
     7
 79
     5
170
     0
171
     0
290
     0
174
     0
 93
       13
 44
0.0
173
     0
291
     1
 45
0.0
  0
VISUALSTYLE
  5
19D7
102
{ACAD_XDICTIONARY
360
1A20
102
}
102
{ACAD_REACTORS
330
19D5
102
}
330
19D5
100
AcDbVisualStyle
  2
FlatWithEdges
 70
     1
 71
     2
 72
     1
 73
     1
 90
        2
 40
-0.6
 41
30.0
 62
     5
 63
     7
 74
     1
 91
        4
 64
     7
 65
   257
 75
     1
175
     1
 42
1.0
 92
        0
 66
   257
 43
1.0
 76
     1
 77
     6
 78
     2
 67
     7
 79
     5
170
     0
171
     0
290
     0
174
     0
 93
       13
 44
0.0
173
     0
291
     1
 45
0.0
  0
VISUALSTYLE
  5
19D8
102
{ACAD_XDICTIONARY
360
1A22
102
}
102
{ACAD_REACTORS
330
19D5
102
}
330
19D5
100
AcDbVisualStyle
  2
Gouraud
 70
     2
 71
     2
 72
     2
 73
     1
 90
        2
 40
-0.6
 41
30.0
 62
     5
 63
     7
 74
     0
 91
        4
 64
     7
 65
   257
 75
     1
175
     1
 42
1.0
 92
        0
 66
     7
 43
1.0
 76
     1
 77
     6
 78
     2
 67
     7
 79
     5
170
     0
171
     0
290
     0
174
     0
 93
       13
 44
0.0
173
     0
291
     1
 45
0.0
  0
VISUALSTYLE
  5
19D9
102
{ACAD_XDICTIONARY
360
1A24
102
}
102
{ACAD_REACTORS
330
19D5
102
}
330
19D5
100
AcDbVisualStyle
  2
GouraudWithEdges
 70
     3
 71
     2
 72
     2
 73
     1
 90
        2
 40
-0.6
 41
30.0
 62
     5
 63
     7
 74
     1
 91
        4
 64
     7
 65
   257
 75
     1
175
     1
 42
1.0
 92
        0
 66
   257
 43
1.0
 76
     1
 77
     6
 78
     2
 67
     7
 79
     5
170
     0
171
     0
290
     0
174
     0
 93
       13
 44
0.0
173
     0
291
     1
 45
0.0
  0
VISUALSTYLE
  5
19E6
102
{ACAD_XDICTIONARY
360
1A3E
102
}
102
{ACAD_REACTORS
330
19D5
102
}
330
19D5
100
AcDbVisualStyle
  2
JitterOff
 70
    20
 71
     2
 72
     2
 73
     0
 90
        0
 40
-0.6
 41
-30.0
 62
     5
 63
     7
 74
     1
 91
        4
 64
     7
 65
   257
 75
     1
175
     1
 42
1.0
 92
       10
 66
     7
 43
1.0
 76
     1
 77
     6
 78
     2
 67
     7
 79
     5
170
     0
171
     0
290
     0
174
     0
 93
        1
 44
0.0
173
     0
291
     1
 45
0.0
  0
VISUALSTYLE
  5
19E3
102
{ACAD_XDICTIONARY
360
1A38
102
}
102
{ACAD_REACTORS
330
19D5
102
}
330
19D5
100
AcDbVisualStyle
  2
Linepattern
 70
    14
 71
     2
 72
     2
 73
     0
 90
        0
 40
-0.6
 41
-30.0
 62
     5
 63
     7
 74
     1
 91
        4
 64
     7
 65
   257
 75
     7
175
     7
 42
1.0
 92
        8
 66
     7
 43
1.0
 76
     1
 77
     6
 78
     2
 67
     7
 79
     5
170
     0
171
     0
290
     0
174
     0
 93
        1
 44
0.0
173
     0
291
     1
 45
0.0
  0
VISUALSTYLE
  5
19E7
102
{ACAD_XDICTIONARY
360
1A40
102
}
102
{ACAD_REACTORS
330
19D5
102
}
330
19D5
100
AcDbVisualStyle
  2
OverhangOff
 70
    21
 71
     2
 72
     2
 73
     0
 90
        0
 40
-0.6
 41
-30.0
 62
     5
 63
     7
 74
     1
 91
        4
 64
     7
 65
   257
 75
     1
175
     1
 42
1.0
 92
        9
 66
     7
 43
1.0
 76
     1
 77
     6
 78
     2
 67
     7
 79
     5
170
     0
171
     0
290
     0
174
     0
 93
        1
 44
0.0
173
     0
291
     1
 45
0.0
  0
VISUALSTYLE
  5
19DF
102
{ACAD_XDICTIONARY
360
1A30
102
}
102
{ACAD_REACTORS
330
19D5
102
}
330
19D5
100
AcDbVisualStyle
  2
Realistic
 70
     8
 71
     2
 72
     2
 73
     0
 90
        0
 40
-0.6
 41
-30.0
 62
     5
 63
     7
 74
     1
 91
        0
 64
     7
 65
   257
 75
     1
175
     1
 42
1.0
 92
        8
 66
     8
 43
1.0
 76
     1
 77
     6
 78
     2
 67
     7
 79
     5
170
     0
171
     0
290
     0
174
     0
 93
       13
 44
0.0
173
     0
291
     0
 45
0.0
  0
VISUALSTYLE
  5
19E2
102
{ACAD_XDICTIONARY
360
1A36
102
}
102
{ACAD_REACTORS
330
19D5
102
}
330
19D5
100
AcDbVisualStyle
  2
Thicken
 70
    13
 71
     2
 72
     2
 73
     0
 90
        0
 40
-0.6
 41
-30.0
 62
     5
 63
     7
 74
     1
 91
        4
 64
     7
 65
   257
 75
     1
175
     1
 42
1.0
 92
       12
 66
     7
 43
1.0
 76
     1
 77
     6
 78
     2
 67
     7
 79
     5
170
     0
171
     0
290
     0
174
     0
 93
        1
 44
0.0
173
     0
291
     1
 45
0.0
  0
DICTIONARYVAR
  5
1A49
102
{ACAD_REACTORS
330
1A46
102
}
330
1A46
100
DictionaryVariables
280
     0
  1
1:1
  0
DICTIONARYVAR
  5
1A48
102
{ACAD_REACTORS
330
1A46
102
}
330
1A46
100
DictionaryVariables
280
     0
  1
STANDARD
  0
DICTIONARYVAR
  5
1A47
102
{ACAD_REACTORS
330
1A46
102
}
330
1A46
100
DictionaryVariables
280
     0
  1
STANDARD
  0
DICTIONARYVAR
  5
1A4C
102
{ACAD_REACTORS
330
1A46
102
}
330
1A46
100
DictionaryVariables
280
     0
  1
1
  0
DICTIONARYVAR
  5
1A4B
102
{ACAD_REACTORS
330
1A46
102
}
330
1A46
100
DictionaryVariables
280
     0
  1
0
  0
DICTIONARYVAR
  5
1A8C
102
{ACAD_REACTORS
330
1A46
102
}
330
1A46
100
DictionaryVariables
280
     0
  1
1
  0
DICTIONARYVAR
  5
1A8D
102
{ACAD_REACTORS
330
1A46
102
}
330
1A46
100
DictionaryVariables
280
     0
  1
15
  0
DICTIONARYVAR
  5
1A8B
102
{ACAD_REACTORS
330
1A46
102
}
330
1A46
100
DictionaryVariables
280
     0
  1
0
  0
DICTIONARYVAR
  5
1A8A
102
{ACAD_REACTORS
330
1A46
102
}
330
1A46
100
DictionaryVariables
280
     0
  1
0
  0
DICTIONARYVAR
  5
1A4A
102
{ACAD_REACTORS
330
1A46
102
}
330
1A46
100
DictionaryVariables
280
     0
  1
127
  0
DICTIONARYVAR
  5
1A4D
102
{ACAD_REACTORS
330
1A46
102
}
330
1A46
100
DictionaryVariables
280
     0
  1
0
  0
DICTIONARY
  5
19C6
330
19C5
100
AcDbDictionary
280
     1
281
     1
  3
BUMPTILE
360
19C8
  3
DIFFUSETILE
360
19C7
  3
OPACITYTILE
360
19CB
  3
REFLECTIONTILE
360
19CA
  3
REFRACTIONTILE
360
19CC
  3
SPECULARTILE
360
19C9
  0
DICTIONARY
  5
19BE
330
19BD
100
AcDbDictionary
280
     1
281
     1
  3
BUMPTILE
360
19C0
  3
DIFFUSETILE
360
19BF
  3
OPACITYTILE
360
19C3
  3
REFLECTIONTILE
360
19C2
  3
REFRACTIONTILE
360
19C4
  3
SPECULARTILE
360
19C1
  0
DICTIONARY
  5
19CE
330
19CD
100
AcDbDictionary
280
     1
281
     1
  3
BUMPTILE
360
19D0
  3
DIFFUSETILE
360
19CF
  3
OPACITYTILE
360
19D3
  3
REFLECTIONTILE
360
19D2
  3
REFRACTIONTILE
360
19D4
  3
SPECULARTILE
360
19D1
  0
DICTIONARY
  5
1A12
330
19EB
100
AcDbDictionary
280
     1
281
     1
  3
ACAD_ROUNDTRIP_2008_TABLESTYLE_CELLSTYLEMAP
360
1A95
  0
DICTIONARY
  5
1A28
330
19DB
100
AcDbDictionary
280
     1
281
     1
  3
ACAD_XREC_ROUNDTRIP
360
1A29
  0
DICTIONARY
  5
1A2C
330
19DD
100
AcDbDictionary
280
     1
281
     1
  3
ACAD_XREC_ROUNDTRIP
360
1A2D
  0
DICTIONARY
  5
1A2A
330
19DC
100
AcDbDictionary
280
     1
281
     1
  3
ACAD_XREC_ROUNDTRIP
360
1A2B
  0
DICTIONARY
  5
1A26
330
19DA
100
AcDbDictionary
280
     1
281
     1
  3
ACAD_XREC_ROUNDTRIP
360
1A27
  0
DICTIONARY
  5
1A34
330
19E1
100
AcDbDictionary
280
     1
281
     1
  3
ACAD_XREC_ROUNDTRIP
360
1A35
  0
DICTIONARY
  5
1A3C
330
19E5
100
AcDbDictionary
280
     1
281
     1
  3
ACAD_XREC_ROUNDTRIP
360
1A3D
  0
DICTIONARY
  5
1A2E
330
19DE
100
AcDbDictionary
280
     1
281
     1
  3
ACAD_XREC_ROUNDTRIP
360
1A2F
  0
DICTIONARY
  5
1A32
330
19E0
100
AcDbDictionary
280
     1
281
     1
  3
ACAD_XREC_ROUNDTRIP
360
1A33
  0
DICTIONARY
  5
1A42
330
19E8
100
AcDbDictionary
280
     1
281
     1
  3
ACAD_XREC_ROUNDTRIP
360
1A43
  0
DICTIONARY
  5
1A3A
330
19E4
100
AcDbDictionary
280
     1
281
     1
  3
ACAD_XREC_ROUNDTRIP
360
1A3B
  0
DICTIONARY
  5
1A1E
330
19D6
100
AcDbDictionary
280
     1
281
     1
  3
ACAD_XREC_ROUNDTRIP
360
1A1F
  0
DICTIONARY
  5
1A20
330
19D7
100
AcDbDictionary
280
     1
281
     1
  3
ACAD_XREC_ROUNDTRIP
360
1A21
  0
DICTIONARY
  5
1A22
330
19D8
100
AcDbDictionary
280
     1
281
     1
  3
ACAD_XREC_ROUNDTRIP
360
1A23
  0
DICTIONARY
  5
1A24
330
19D9
100
AcDbDictionary
280
     1
281
     1
  3
ACAD_XREC_ROUNDTRIP
360
1A25
  0
DICTIONARY
  5
1A3E
330
19E6
100
AcDbDictionary
280
     1
281
     1
  3
ACAD_XREC_ROUNDTRIP
360
1A3F
  0
DICTIONARY
  5
1A38
330
19E3
100
AcDbDictionary
280
     1
281
     1
  3
ACAD_XREC_ROUNDTRIP
360
1A39
  0
DICTIONARY
  5
1A40
330
19E7
100
AcDbDictionary
280
     1
281
     1
  3
ACAD_XREC_ROUNDTRIP
360
1A41
  0
DICTIONARY
  5
1A30
330
19DF
100
AcDbDictionary
280
     1
281
     1
  3
ACAD_XREC_ROUNDTRIP
360
1A31
  0
DICTIONARY
  5
1A36
330
19E2
100
AcDbDictionary
280
     1
281
     1
  3
ACAD_XREC_ROUNDTRIP
360
1A37
  0
XRECORD
  5
19C8
102
{ACAD_REACTORS
330
19C6
102
}
330
19C6
100
AcDbXrecord
280
     1
270
     1
271
     1
  0
XRECORD
  5
19C7
102
{ACAD_REACTORS
330
19C6
102
}
330
19C6
100
AcDbXrecord
280
     1
270
     1
271
     1
  0
XRECORD
  5
19CB
102
{ACAD_REACTORS
330
19C6
102
}
330
19C6
100
AcDbXrecord
280
     1
270
     1
271
     1
  0
XRECORD
  5
19CA
102
{ACAD_REACTORS
330
19C6
102
}
330
19C6
100
AcDbXrecord
280
     1
270
     1
271
     1
  0
XRECORD
  5
19CC
102
{ACAD_REACTORS
330
19C6
102
}
330
19C6
100
AcDbXrecord
280
     1
270
     1
271
     1
  0
XRECORD
  5
19C9
102
{ACAD_REACTORS
330
19C6
102
}
330
19C6
100
AcDbXrecord
280
     1
270
     1
271
     1
  0
XRECORD
  5
19C0
102
{ACAD_REACTORS
330
19BE
102
}
330
19BE
100
AcDbXrecord
280
     1
270
     1
271
     1
  0
XRECORD
  5
19BF
102
{ACAD_REACTORS
330
19BE
102
}
330
19BE
100
AcDbXrecord
280
     1
270
     1
271
     1
  0
XRECORD
  5
19C3
102
{ACAD_REACTORS
330
19BE
102
}
330
19BE
100
AcDbXrecord
280
     1
270
     1
271
     1
  0
XRECORD
  5
19C2
102
{ACAD_REACTORS
330
19BE
102
}
330
19BE
100
AcDbXrecord
280
     1
270
     1
271
     1
  0
XRECORD
  5
19C4
102
{ACAD_REACTORS
330
19BE
102
}
330
19BE
100
AcDbXrecord
280
     1
270
     1
271
     1
  0
XRECORD
  5
19C1
102
{ACAD_REACTORS
330
19BE
102
}
330
19BE
100
AcDbXrecord
280
     1
270
     1
271
     1
  0
XRECORD
  5
19D0
102
{ACAD_REACTORS
330
19CE
102
}
330
19CE
100
AcDbXrecord
280
     1
270
     1
271
     1
  0
XRECORD
  5
19CF
102
{ACAD_REACTORS
330
19CE
102
}
330
19CE
100
AcDbXrecord
280
     1
270
     1
271
     1
  0
XRECORD
  5
19D3
102
{ACAD_REACTORS
330
19CE
102
}
330
19CE
100
AcDbXrecord
280
     1
270
     1
271
     1
  0
XRECORD
  5
19D2
102
{ACAD_REACTORS
330
19CE
102
}
330
19CE
100
AcDbXrecord
280
     1
270
     1
271
     1
  0
XRECORD
  5
19D4
102
{ACAD_REACTORS
330
19CE
102
}
330
19CE
100
AcDbXrecord
280
     1
270
     1
271
     1
  0
XRECORD
  5
19D1
102
{ACAD_REACTORS
330
19CE
102
}
330
19CE
100
AcDbXrecord
280
     1
270
     1
271
     1
  0
CELLSTYLEMAP
  5
1A95
102
{ACAD_REACTORS
330
1A12
102
}
330
1A12
100
AcDbCellStyleMap
 90
        3
300
CELLSTYLE
  1
TABLEFORMAT_BEGIN
 90
        5
170
     1
 91
        0
 92
    32768
 62
   257
 93
        1
300
CONTENTFORMAT
  1
CONTENTFORMAT_BEGIN
 90
        0
 91
        0
 92
      512
 93
        0
300

 40
0.0
140
1.0
 94
        5
 62
     0
340
11
144
0.25
309
CONTENTFORMAT_END
171
     0
 94
        0
309
TABLEFORMAT_END
  1
CELLSTYLE_BEGIN
 90
        1
 91
        1
300
_TITLE
309
CELLSTYLE_END
300
CELLSTYLE
  1
TABLEFORMAT_BEGIN
 90
        5
170
     1
 91
        0
 92
        0
 62
   257
 93
        1
300
CONTENTFORMAT
  1
CONTENTFORMAT_BEGIN
 90
        0
 91
        0
 92
      512
 93
        0
300

 40
0.0
140
1.0
 94
        5
 62
     0
340
11
144
0.18
309
CONTENTFORMAT_END
171
     0
 94
        0
309
TABLEFORMAT_END
  1
CELLSTYLE_BEGIN
 90
        2
 91
        1
300
_HEADER
309
CELLSTYLE_END
300
CELLSTYLE
  1
TABLEFORMAT_BEGIN
 90
        5
170
     1
 91
        0
 92
        0
 62
   257
 93
        1
300
CONTENTFORMAT
  1
CONTENTFORMAT_BEGIN
 90
        0
 91
        0
 92
      512
 93
        0
300

 40
0.0
140
1.0
 94
        2
 62
     0
340
11
144
0.18
309
CONTENTFORMAT_END
171
     0
 94
        0
309
TABLEFORMAT_END
  1
CELLSTYLE_BEGIN
 90
        3
 91
        2
300
_DATA
309
CELLSTYLE_END
  0
XRECORD
  5
1A29
102
{ACAD_REACTORS
330
1A28
102
}
330
1A28
100
AcDbXrecord
280
     1
102
RTVSPropertyOp0
 70
     1
102
RTVSPropertyOp1
 70
     1
102
RTVSPropertyOp2
 70
     1
102
RTVSPropertyOp3
 70
     1
102
RTVSPropertyOp4
 70
     1
102
RTVSPropertyOp5
 70
     1
102
RTVSPropertyOp6
 70
     1
102
RTVSPropertyOp7
 70
     1
102
RTVSPropertyOp8
 70
     1
102
RTVSPropertyOp9
 70
     1
102
RTVSPropertyOp10
 70
     1
102
RTVSPropertyOp11
 70
     1
102
RTVSPropertyOp12
 70
     1
102
RTVSPropertyOp13
 70
     1
102
RTVSPropertyOp14
 70
     1
102
RTVSPropertyOp15
 70
     1
102
RTVSPropertyOp16
 70
     1
102
RTVSPropertyOp17
 70
     1
102
RTVSPropertyOp18
 70
     1
102
RTVSPropertyOp19
 70
     1
102
RTVSPropertyOp20
 70
     1
102
RTVSPropertyOp21
 70
     1
102
RTVSPropertyOp22
 70
     1
102
RTVSPropertyOp23
 70
     1
102
RTVSPropertyOp24
 70
     1
102
RTVSPropertyOp25
 70
     1
102
RTVSPropertyOp26
 70
     1
102
RTVSPropertyOp27
 70
     1
  0
XRECORD
  5
1A2D
102
{ACAD_REACTORS
330
1A2C
102
}
330
1A2C
100
AcDbXrecord
280
     1
102
RTVSPropertyOp0
 70
     1
102
RTVSPropertyOp1
 70
     1
102
RTVSPropertyOp2
 70
     1
102
RTVSPropertyOp3
 70
     1
102
RTVSPropertyOp4
 70
     1
102
RTVSPropertyOp5
 70
     1
102
RTVSPropertyOp6
 70
     1
102
RTVSPropertyOp7
 70
     1
102
RTVSPropertyOp8
 70
     1
102
RTVSPropertyOp9
 70
     1
102
RTVSPropertyOp10
 70
     1
102
RTVSPropertyOp11
 70
     1
102
RTVSPropertyOp12
 70
     1
102
RTVSPropertyOp13
 70
     1
102
RTVSPropertyOp14
 70
     1
102
RTVSPropertyOp15
 70
     1
102
RTVSPropertyOp16
 70
     1
102
RTVSPropertyOp17
 70
     1
102
RTVSPropertyOp18
 70
     1
102
RTVSPropertyOp19
 70
     1
102
RTVSPropertyOp20
 70
     1
102
RTVSPropertyOp21
 70
     1
102
RTVSPropertyOp22
 70
     1
102
RTVSPropertyOp23
 70
     1
102
RTVSPropertyOp24
 70
     1
102
RTVSPropertyOp25
 70
     1
102
RTVSPropertyOp26
 70
     1
102
RTVSPropertyOp27
 70
     1
  0
XRECORD
  5
1A2B
102
{ACAD_REACTORS
330
1A2A
102
}
330
1A2A
100
AcDbXrecord
280
     1
102
RTVSPropertyOp0
 70
     1
102
RTVSPropertyOp1
 70
     1
102
RTVSPropertyOp2
 70
     1
102
RTVSPropertyOp3
 70
     1
102
RTVSPropertyOp4
 70
     1
102
RTVSPropertyOp5
 70
     1
102
RTVSPropertyOp6
 70
     1
102
RTVSPropertyOp7
 70
     1
102
RTVSPropertyOp8
 70
     1
102
RTVSPropertyOp9
 70
     1
102
RTVSPropertyOp10
 70
     1
102
RTVSPropertyOp11
 70
     1
102
RTVSPropertyOp12
 70
     1
102
RTVSPropertyOp13
 70
     1
102
RTVSPropertyOp14
 70
     1
102
RTVSPropertyOp15
 70
     1
102
RTVSPropertyOp16
 70
     1
102
RTVSPropertyOp17
 70
     1
102
RTVSPropertyOp18
 70
     1
102
RTVSPropertyOp19
 70
     1
102
RTVSPropertyOp20
 70
     1
102
RTVSPropertyOp21
 70
     1
102
RTVSPropertyOp22
 70
     1
102
RTVSPropertyOp23
 70
     1
102
RTVSPropertyOp24
 70
     1
102
RTVSPropertyOp25
 70
     1
102
RTVSPropertyOp26
 70
     1
102
RTVSPropertyOp27
 70
     1
  0
XRECORD
  5
1A27
102
{ACAD_REACTORS
330
1A26
102
}
330
1A26
100
AcDbXrecord
280
     1
102
RTVSPropertyOp0
 70
     1
102
RTVSPropertyOp1
 70
     1
102
RTVSPropertyOp2
 70
     1
102
RTVSPropertyOp3
 70
     1
102
RTVSPropertyOp4
 70
     1
102
RTVSPropertyOp5
 70
     1
102
RTVSPropertyOp6
 70
     1
102
RTVSPropertyOp7
 70
     1
102
RTVSPropertyOp8
 70
     1
102
RTVSPropertyOp9
 70
     1
102
RTVSPropertyOp10
 70
     1
102
RTVSPropertyOp11
 70
     1
102
RTVSPropertyOp12
 70
     1
102
RTVSPropertyOp13
 70
     1
102
RTVSPropertyOp14
 70
     1
102
RTVSPropertyOp15
 70
     1
102
RTVSPropertyOp16
 70
     1
102
RTVSPropertyOp17
 70
     1
102
RTVSPropertyOp18
 70
     1
102
RTVSPropertyOp19
 70
     1
102
RTVSPropertyOp20
 70
     1
102
RTVSPropertyOp21
 70
     1
102
RTVSPropertyOp22
 70
     1
102
RTVSPropertyOp23
 70
     1
102
RTVSPropertyOp24
 70
     1
102
RTVSPropertyOp25
 70
     1
102
RTVSPropertyOp26
 70
     1
102
RTVSPropertyOp27
 70
     1
  0
XRECORD
  5
1A35
102
{ACAD_REACTORS
330
1A34
102
}
330
1A34
100
AcDbXrecord
280
     1
102
RTVSPropertyOp0
 70
     1
102
RTVSPropertyOp1
 70
     1
102
RTVSPropertyOp2
 70
     1
102
RTVSPropertyOp3
 70
     1
102
RTVSPropertyOp4
 70
     1
102
RTVSPropertyOp5
 70
     1
102
RTVSPropertyOp6
 70
     1
102
RTVSPropertyOp7
 70
     1
102
RTVSPropertyOp8
 70
     1
102
RTVSPropertyOp9
 70
     1
102
RTVSPropertyOp10
 70
     1
102
RTVSPropertyOp11
 70
     1
102
RTVSPropertyOp12
 70
     1
102
RTVSPropertyOp13
 70
     1
102
RTVSPropertyOp14
 70
     1
102
RTVSPropertyOp15
 70
     1
102
RTVSPropertyOp16
 70
     1
102
RTVSPropertyOp17
 70
     1
102
RTVSPropertyOp18
 70
     1
102
RTVSPropertyOp19
 70
     1
102
RTVSPropertyOp20
 70
     1
102
RTVSPropertyOp21
 70
     1
102
RTVSPropertyOp22
 70
     1
102
RTVSPropertyOp23
 70
     1
102
RTVSPropertyOp24
 70
     1
102
RTVSPropertyOp25
 70
     1
102
RTVSPropertyOp26
 70
     1
102
RTVSPropertyOp27
 70
     1
  0
XRECORD
  5
1A3D
102
{ACAD_REACTORS
330
1A3C
102
}
330
1A3C
100
AcDbXrecord
280
     1
102
RTVSPropertyOp0
 70
     1
102
RTVSPropertyOp1
 70
     1
102
RTVSPropertyOp2
 70
     1
102
RTVSPropertyOp3
 70
     1
102
RTVSPropertyOp4
 70
     1
102
RTVSPropertyOp5
 70
     1
102
RTVSPropertyOp6
 70
     1
102
RTVSPropertyOp7
 70
     1
102
RTVSPropertyOp8
 70
     1
102
RTVSPropertyOp9
 70
     1
102
RTVSPropertyOp10
 70
     1
102
RTVSPropertyOp11
 70
     1
102
RTVSPropertyOp12
 70
     1
102
RTVSPropertyOp13
 70
     1
102
RTVSPropertyOp14
 70
     1
102
RTVSPropertyOp15
 70
     1
102
RTVSPropertyOp16
 70
     1
102
RTVSPropertyOp17
 70
     1
102
RTVSPropertyOp18
 70
     1
102
RTVSPropertyOp19
 70
     1
102
RTVSPropertyOp20
 70
     1
102
RTVSPropertyOp21
 70
     1
102
RTVSPropertyOp22
 70
     1
102
RTVSPropertyOp23
 70
     1
102
RTVSPropertyOp24
 70
     1
102
RTVSPropertyOp25
 70
     1
102
RTVSPropertyOp26
 70
     1
102
RTVSPropertyOp27
 70
     1
  0
XRECORD
  5
1A2F
102
{ACAD_REACTORS
330
1A2E
102
}
330
1A2E
100
AcDbXrecord
280
     1
102
RTVSPropertyOp0
 70
     1
102
RTVSPropertyOp1
 70
     1
102
RTVSPropertyOp2
 70
     1
102
RTVSPropertyOp3
 70
     1
102
RTVSPropertyOp4
 70
     1
102
RTVSPropertyOp5
 70
     1
102
RTVSPropertyOp6
 70
     1
102
RTVSPropertyOp7
 70
     1
102
RTVSPropertyOp8
 70
     1
102
RTVSPropertyOp9
 70
     1
102
RTVSPropertyOp10
 70
     1
102
RTVSPropertyOp11
 70
     1
102
RTVSPropertyOp12
 70
     1
102
RTVSPropertyOp13
 70
     1
102
RTVSPropertyOp14
 70
     1
102
RTVSPropertyOp15
 70
     1
102
RTVSPropertyOp16
 70
     1
102
RTVSPropertyOp17
 70
     1
102
RTVSPropertyOp18
 70
     1
102
RTVSPropertyOp19
 70
     1
102
RTVSPropertyOp20
 70
     1
102
RTVSPropertyOp21
 70
     1
102
RTVSPropertyOp22
 70
     1
102
RTVSPropertyOp23
 70
     1
102
RTVSPropertyOp24
 70
     1
102
RTVSPropertyOp25
 70
     1
102
RTVSPropertyOp26
 70
     1
102
RTVSPropertyOp27
 70
     1
  0
XRECORD
  5
1A33
102
{ACAD_REACTORS
330
1A32
102
}
330
1A32
100
AcDbXrecord
280
     1
102
RTVSPropertyOp0
 70
     1
102
RTVSPropertyOp1
 70
     1
102
RTVSPropertyOp2
 70
     1
102
RTVSPropertyOp3
 70
     1
102
RTVSPropertyOp4
 70
     1
102
RTVSPropertyOp5
 70
     1
102
RTVSPropertyOp6
 70
     1
102
RTVSPropertyOp7
 70
     1
102
RTVSPropertyOp8
 70
     1
102
RTVSPropertyOp9
 70
     1
102
RTVSPropertyOp10
 70
     1
102
RTVSPropertyOp11
 70
     1
102
RTVSPropertyOp12
 70
     1
102
RTVSPropertyOp13
 70
     1
102
RTVSPropertyOp14
 70
     1
102
RTVSPropertyOp15
 70
     1
102
RTVSPropertyOp16
 70
     1
102
RTVSPropertyOp17
 70
     1
102
RTVSPropertyOp18
 70
     1
102
RTVSPropertyOp19
 70
     1
102
RTVSPropertyOp20
 70
     1
102
RTVSPropertyOp21
 70
     1
102
RTVSPropertyOp22
 70
     1
102
RTVSPropertyOp23
 70
     1
102
RTVSPropertyOp24
 70
     1
102
RTVSPropertyOp25
 70
     1
102
RTVSPropertyOp26
 70
     1
102
RTVSPropertyOp27
 70
     1
  0
XRECORD
  5
1A43
102
{ACAD_REACTORS
330
1A42
102
}
330
1A42
100
AcDbXrecord
280
     1
102
RTVSPropertyOp0
 70
     0
102
RTVSPropertyOp1
 70
     0
102
RTVSPropertyOp2
 70
     0
102
RTVSPropertyOp3
 70
     0
102
RTVSPropertyOp4
 70
     0
102
RTVSPropertyOp5
 70
     0
102
RTVSPropertyOp6
 70
     0
102
RTVSPropertyOp7
 70
     0
102
RTVSPropertyOp8
 70
     0
102
RTVSPropertyOp9
 70
     0
102
RTVSPropertyOp10
 70
     0
102
RTVSPropertyOp11
 70
     0
102
RTVSPropertyOp12
 70
     0
102
RTVSPropertyOp13
 70
     0
102
RTVSPropertyOp14
 70
     2
102
RTVSPropertyOp15
 70
     0
102
RTVSPropertyOp16
 70
     0
102
RTVSPropertyOp17
 70
     0
102
RTVSPropertyOp18
 70
     0
102
RTVSPropertyOp19
 70
     0
102
RTVSPropertyOp20
 70
     0
102
RTVSPropertyOp21
 70
     0
102
RTVSPropertyOp22
 70
     0
102
RTVSPropertyOp23
 70
     0
102
RTVSPropertyOp24
 70
     0
102
RTVSPropertyOp25
 70
     0
102
RTVSPropertyOp26
 70
     0
102
RTVSPropertyOp27
 70
     0
  0
XRECORD
  5
1A3B
102
{ACAD_REACTORS
330
1A3A
102
}
330
1A3A
100
AcDbXrecord
280
     1
102
RTVSPropertyOp0
 70
     1
102
RTVSPropertyOp1
 70
     1
102
RTVSPropertyOp2
 70
     1
102
RTVSPropertyOp3
 70
     1
102
RTVSPropertyOp4
 70
     1
102
RTVSPropertyOp5
 70
     1
102
RTVSPropertyOp6
 70
     1
102
RTVSPropertyOp7
 70
     1
102
RTVSPropertyOp8
 70
     1
102
RTVSPropertyOp9
 70
     1
102
RTVSPropertyOp10
 70
     1
102
RTVSPropertyOp11
 70
     1
102
RTVSPropertyOp12
 70
     1
102
RTVSPropertyOp13
 70
     1
102
RTVSPropertyOp14
 70
     1
102
RTVSPropertyOp15
 70
     1
102
RTVSPropertyOp16
 70
     1
102
RTVSPropertyOp17
 70
     1
102
RTVSPropertyOp18
 70
     1
102
RTVSPropertyOp19
 70
     1
102
RTVSPropertyOp20
 70
     1
102
RTVSPropertyOp21
 70
     1
102
RTVSPropertyOp22
 70
     1
102
RTVSPropertyOp23
 70
     1
102
RTVSPropertyOp24
 70
     1
102
RTVSPropertyOp25
 70
     1
102
RTVSPropertyOp26
 70
     1
102
RTVSPropertyOp27
 70
     1
  0
XRECORD
  5
1A1F
102
{ACAD_REACTORS
330
1A1E
102
}
330
1A1E
100
AcDbXrecord
280
     1
102
RTVSPropertyOp0
 70
     1
102
RTVSPropertyOp1
 70
     1
102
RTVSPropertyOp2
 70
     1
102
RTVSPropertyOp3
 70
     1
102
RTVSPropertyOp4
 70
     1
102
RTVSPropertyOp5
 70
     1
102
RTVSPropertyOp6
 70
     1
102
RTVSPropertyOp7
 70
     1
102
RTVSPropertyOp8
 70
     1
102
RTVSPropertyOp9
 70
     1
102
RTVSPropertyOp10
 70
     1
102
RTVSPropertyOp11
 70
     1
102
RTVSPropertyOp12
 70
     1
102
RTVSPropertyOp13
 70
     1
102
RTVSPropertyOp14
 70
     1
102
RTVSPropertyOp15
 70
     1
102
RTVSPropertyOp16
 70
     1
102
RTVSPropertyOp17
 70
     1
102
RTVSPropertyOp18
 70
     1
102
RTVSPropertyOp19
 70
     1
102
RTVSPropertyOp20
 70
     1
102
RTVSPropertyOp21
 70
     1
102
RTVSPropertyOp22
 70
     1
102
RTVSPropertyOp23
 70
     1
102
RTVSPropertyOp24
 70
     1
102
RTVSPropertyOp25
 70
     1
102
RTVSPropertyOp26
 70
     1
102
RTVSPropertyOp27
 70
     1
  0
XRECORD
  5
1A21
102
{ACAD_REACTORS
330
1A20
102
}
330
1A20
100
AcDbXrecord
280
     1
102
RTVSPropertyOp0
 70
     1
102
RTVSPropertyOp1
 70
     1
102
RTVSPropertyOp2
 70
     1
102
RTVSPropertyOp3
 70
     1
102
RTVSPropertyOp4
 70
     1
102
RTVSPropertyOp5
 70
     1
102
RTVSPropertyOp6
 70
     1
102
RTVSPropertyOp7
 70
     1
102
RTVSPropertyOp8
 70
     1
102
RTVSPropertyOp9
 70
     1
102
RTVSPropertyOp10
 70
     1
102
RTVSPropertyOp11
 70
     1
102
RTVSPropertyOp12
 70
     1
102
RTVSPropertyOp13
 70
     1
102
RTVSPropertyOp14
 70
     1
102
RTVSPropertyOp15
 70
     1
102
RTVSPropertyOp16
 70
     1
102
RTVSPropertyOp17
 70
     1
102
RTVSPropertyOp18
 70
     1
102
RTVSPropertyOp19
 70
     1
102
RTVSPropertyOp20
 70
     1
102
RTVSPropertyOp21
 70
     1
102
RTVSPropertyOp22
 70
     1
102
RTVSPropertyOp23
 70
     1
102
RTVSPropertyOp24
 70
     1
102
RTVSPropertyOp25
 70
     1
102
RTVSPropertyOp26
 70
     1
102
RTVSPropertyOp27
 70
     1
  0
XRECORD
  5
1A23
102
{ACAD_REACTORS
330
1A22
102
}
330
1A22
100
AcDbXrecord
280
     1
102
RTVSPropertyOp0
 70
     1
102
RTVSPropertyOp1
 70
     1
102
RTVSPropertyOp2
 70
     1
102
RTVSPropertyOp3
 70
     1
102
RTVSPropertyOp4
 70
     1
102
RTVSPropertyOp5
 70
     1
102
RTVSPropertyOp6
 70
     1
102
RTVSPropertyOp7
 70
     1
102
RTVSPropertyOp8
 70
     1
102
RTVSPropertyOp9
 70
     1
102
RTVSPropertyOp10
 70
     1
102
RTVSPropertyOp11
 70
     1
102
RTVSPropertyOp12
 70
     1
102
RTVSPropertyOp13
 70
     1
102
RTVSPropertyOp14
 70
     1
102
RTVSPropertyOp15
 70
     1
102
RTVSPropertyOp16
 70
     1
102
RTVSPropertyOp17
 70
     1
102
RTVSPropertyOp18
 70
     1
102
RTVSPropertyOp19
 70
     1
102
RTVSPropertyOp20
 70
     1
102
RTVSPropertyOp21
 70
     1
102
RTVSPropertyOp22
 70
     1
102
RTVSPropertyOp23
 70
     1
102
RTVSPropertyOp24
 70
     1
102
RTVSPropertyOp25
 70
     1
102
RTVSPropertyOp26
 70
     1
102
RTVSPropertyOp27
 70
     1
  0
XRECORD
  5
1A25
102
{ACAD_REACTORS
330
1A24
102
}
330
1A24
100
AcDbXrecord
280
     1
102
RTVSPropertyOp0
 70
     1
102
RTVSPropertyOp1
 70
     1
102
RTVSPropertyOp2
 70
     1
102
RTVSPropertyOp3
 70
     1
102
RTVSPropertyOp4
 70
     1
102
RTVSPropertyOp5
 70
     1
102
RTVSPropertyOp6
 70
     1
102
RTVSPropertyOp7
 70
     1
102
RTVSPropertyOp8
 70
     1
102
RTVSPropertyOp9
 70
     1
102
RTVSPropertyOp10
 70
     1
102
RTVSPropertyOp11
 70
     1
102
RTVSPropertyOp12
 70
     1
102
RTVSPropertyOp13
 70
     1
102
RTVSPropertyOp14
 70
     1
102
RTVSPropertyOp15
 70
     1
102
RTVSPropertyOp16
 70
     1
102
RTVSPropertyOp17
 70
     1
102
RTVSPropertyOp18
 70
     1
102
RTVSPropertyOp19
 70
     1
102
RTVSPropertyOp20
 70
     1
102
RTVSPropertyOp21
 70
     1
102
RTVSPropertyOp22
 70
     1
102
RTVSPropertyOp23
 70
     1
102
RTVSPropertyOp24
 70
     1
102
RTVSPropertyOp25
 70
     1
102
RTVSPropertyOp26
 70
     1
102
RTVSPropertyOp27
 70
     1
  0
XRECORD
  5
1A3F
102
{ACAD_REACTORS
330
1A3E
102
}
330
1A3E
100
AcDbXrecord
280
     1
102
RTVSPropertyOp0
 70
     0
102
RTVSPropertyOp1
 70
     0
102
RTVSPropertyOp2
 70
     0
102
RTVSPropertyOp3
 70
     0
102
RTVSPropertyOp4
 70
     0
102
RTVSPropertyOp5
 70
     0
102
RTVSPropertyOp6
 70
     0
102
RTVSPropertyOp7
 70
     0
102
RTVSPropertyOp8
 70
     0
102
RTVSPropertyOp9
 70
     0
102
RTVSPropertyOp10
 70
     0
102
RTVSPropertyOp11
 70
     0
102
RTVSPropertyOp12
 70
     0
102
RTVSPropertyOp13
 70
     0
102
RTVSPropertyOp14
 70
     2
102
RTVSPropertyOp15
 70
     0
102
RTVSPropertyOp16
 70
     0
102
RTVSPropertyOp17
 70
     0
102
RTVSPropertyOp18
 70
     0
102
RTVSPropertyOp19
 70
     0
102
RTVSPropertyOp20
 70
     0
102
RTVSPropertyOp21
 70
     0
102
RTVSPropertyOp22
 70
     0
102
RTVSPropertyOp23
 70
     0
102
RTVSPropertyOp24
 70
     0
102
RTVSPropertyOp25
 70
     0
102
RTVSPropertyOp26
 70
     0
102
RTVSPropertyOp27
 70
     0
  0
XRECORD
  5
1A39
102
{ACAD_REACTORS
330
1A38
102
}
330
1A38
100
AcDbXrecord
280
     1
102
RTVSPropertyOp0
 70
     1
102
RTVSPropertyOp1
 70
     1
102
RTVSPropertyOp2
 70
     1
102
RTVSPropertyOp3
 70
     1
102
RTVSPropertyOp4
 70
     1
102
RTVSPropertyOp5
 70
     1
102
RTVSPropertyOp6
 70
     1
102
RTVSPropertyOp7
 70
     1
102
RTVSPropertyOp8
 70
     1
102
RTVSPropertyOp9
 70
     1
102
RTVSPropertyOp10
 70
     1
102
RTVSPropertyOp11
 70
     1
102
RTVSPropertyOp12
 70
     1
102
RTVSPropertyOp13
 70
     1
102
RTVSPropertyOp14
 70
     1
102
RTVSPropertyOp15
 70
     1
102
RTVSPropertyOp16
 70
     1
102
RTVSPropertyOp17
 70
     1
102
RTVSPropertyOp18
 70
     1
102
RTVSPropertyOp19
 70
     1
102
RTVSPropertyOp20
 70
     1
102
RTVSPropertyOp21
 70
     1
102
RTVSPropertyOp22
 70
     1
102
RTVSPropertyOp23
 70
     1
102
RTVSPropertyOp24
 70
     1
102
RTVSPropertyOp25
 70
     1
102
RTVSPropertyOp26
 70
     1
102
RTVSPropertyOp27
 70
     1
  0
XRECORD
  5
1A41
102
{ACAD_REACTORS
330
1A40
102
}
330
1A40
100
AcDbXrecord
280
     1
102
RTVSPropertyOp0
 70
     0
102
RTVSPropertyOp1
 70
     0
102
RTVSPropertyOp2
 70
     0
102
RTVSPropertyOp3
 70
     0
102
RTVSPropertyOp4
 70
     0
102
RTVSPropertyOp5
 70
     0
102
RTVSPropertyOp6
 70
     0
102
RTVSPropertyOp7
 70
     0
102
RTVSPropertyOp8
 70
     0
102
RTVSPropertyOp9
 70
     0
102
RTVSPropertyOp10
 70
     0
102
RTVSPropertyOp11
 70
     0
102
RTVSPropertyOp12
 70
     0
102
RTVSPropertyOp13
 70
     0
102
RTVSPropertyOp14
 70
     2
102
RTVSPropertyOp15
 70
     0
102
RTVSPropertyOp16
 70
     0
102
RTVSPropertyOp17
 70
     0
102
RTVSPropertyOp18
 70
     0
102
RTVSPropertyOp19
 70
     0
102
RTVSPropertyOp20
 70
     0
102
RTVSPropertyOp21
 70
     0
102
RTVSPropertyOp22
 70
     0
102
RTVSPropertyOp23
 70
     0
102
RTVSPropertyOp24
 70
     0
102
RTVSPropertyOp25
 70
     0
102
RTVSPropertyOp26
 70
     0
102
RTVSPropertyOp27
 70
     0
  0
XRECORD
  5
1A31
102
{ACAD_REACTORS
330
1A30
102
}
330
1A30
100
AcDbXrecord
280
     1
102
RTVSPropertyOp0
 70
     1
102
RTVSPropertyOp1
 70
     1
102
RTVSPropertyOp2
 70
     1
102
RTVSPropertyOp3
 70
     1
102
RTVSPropertyOp4
 70
     1
102
RTVSPropertyOp5
 70
     1
102
RTVSPropertyOp6
 70
     1
102
RTVSPropertyOp7
 70
     1
102
RTVSPropertyOp8
 70
     1
102
RTVSPropertyOp9
 70
     1
102
RTVSPropertyOp10
 70
     1
102
RTVSPropertyOp11
 70
     1
102
RTVSPropertyOp12
 70
     1
102
RTVSPropertyOp13
 70
     1
102
RTVSPropertyOp14
 70
     1
102
RTVSPropertyOp15
 70
     1
102
RTVSPropertyOp16
 70
     1
102
RTVSPropertyOp17
 70
     1
102
RTVSPropertyOp18
 70
     1
102
RTVSPropertyOp19
 70
     1
102
RTVSPropertyOp20
 70
     1
102
RTVSPropertyOp21
 70
     1
102
RTVSPropertyOp22
 70
     1
102
RTVSPropertyOp23
 70
     1
102
RTVSPropertyOp24
 70
     1
102
RTVSPropertyOp25
 70
     1
102
RTVSPropertyOp26
 70
     1
102
RTVSPropertyOp27
 70
     1
  0
XRECORD
  5
1A37
102
{ACAD_REACTORS
330
1A36
102
}
330
1A36
100
AcDbXrecord
280
     1
102
RTVSPropertyOp0
 70
     1
102
RTVSPropertyOp1
 70
     1
102
RTVSPropertyOp2
 70
     1
102
RTVSPropertyOp3
 70
     1
102
RTVSPropertyOp4
 70
     1
102
RTVSPropertyOp5
 70
     1
102
RTVSPropertyOp6
 70
     1
102
RTVSPropertyOp7
 70
     1
102
RTVSPropertyOp8
 70
     1
102
RTVSPropertyOp9
 70
     1
102
RTVSPropertyOp10
 70
     1
102
RTVSPropertyOp11
 70
     1
102
RTVSPropertyOp12
 70
     1
102
RTVSPropertyOp13
 70
     1
102
RTVSPropertyOp14
 70
     1
102
RTVSPropertyOp15
 70
     1
102
RTVSPropertyOp16
 70
     1
102
RTVSPropertyOp17
 70
     1
102
RTVSPropertyOp18
 70
     1
102
RTVSPropertyOp19
 70
     1
102
RTVSPropertyOp20
 70
     1
102
RTVSPropertyOp21
 70
     1
102
RTVSPropertyOp22
 70
     1
102
RTVSPropertyOp23
 70
     1
102
RTVSPropertyOp24
 70
     1
102
RTVSPropertyOp25
 70
     1
102
RTVSPropertyOp26
 70
     1
102
RTVSPropertyOp27
 70
     1
  0
ENDSEC
  0
EOF
