  0
SECTION
  2
HEADER
  9
$ACADVER
  1
AC1032
  9
$ACADMAINTVER
 90
       55
  9
$DWGCODEPAGE
  3
ANSI_1252
  9
$LASTSAVEDBY
  1
mariehp
  9
$REQUIREDVERSIONS
160
                 0
  9
$INSBASE
 10
0.0
 20
0.0
 30
0.0
  9
$EXTMIN
 10
99.0716525152
 20
23.3997508588
 30
0.0
  9
$EXTMAX
 10
128.0716525152
 20
46.3883639863
 30
0.0
  9
$LIMMIN
 10
0.0
 20
0.0
  9
$LIMMAX
 10
181.3333333333
 20
117.3333333333
  9
$ORTHOMODE
 70
     0
  9
$REGENMODE
 70
     1
  9
$FILLMODE
 70
     1
  9
$QTEXTMODE
 70
     0
  9
$MIRRTEXT
 70
     0
  9
$LTSCALE
 40
9.973333333300001
  9
$ATTMODE
 70
     1
  9
$TEXTSIZE
 40
0.2
  9
$TRACEWID
 40
0.05
  9
$TEXTSTYLE
  7
STANDARD
  9
$CLAYER
  8
0
  9
$CELTYPE
  6
BYLAYER
  9
$CECOLOR
 62
   256
  9
$CELTSCALE
 40
1.0
  9
$DISPSILH
 70
     0
  9
$DIMSCALE
 40
1.0
  9
$DIMASZ
 40
2.0
  9
$DIMEXO
 40
0.0625
  9
$DIMDLI
 40
6.890666666699999
  9
$DIMRND
 40
0.0
  9
$DIMDLE
 40
0.0
  9
$DIMEXE
 40
0.125
  9
$DIMTP
 40
0.001
  9
$DIMTM
 40
0.001
  9
$DIMTXT
 40
1.333333333299999
  9
$DIMCEN
 40
1.631999999999999
  9
$DIMTSZ
 40
0.0
  9
$DIMTOL
 70
     1
  9
$DIMLIM
 70
     0
  9
$DIMTIH
 70
     1
  9
$DIMTOH
 70
     1
  9
$DIMSE1
 70
     0
  9
$DIMSE2
 70
     0
  9
$DIMTAD
 70
     0
  9
$DIMZIN
 70
     0
  9
$DIMBLK
  1
_FILLED
  9
$DIMASO
 70
     1
  9
$DIMSHO
 70
     1
  9
$DIMPOST
  1

  9
$DIMAPOST
  1

  9
$DIMALT
 70
     1
  9
$DIMALTD
 70
     2
  9
$DIMALTF
 40
25.4
  9
$DIMLFAC
 40
1.0
  9
$DIMTOFL
 70
     0
  9
$DIMTVP
 40
0.0
  9
$DIMTIX
 70
     0
  9
$DIMSOXD
 70
     0
  9
$DIMSAH
 70
     0
  9
$DIMBLK1
  1

  9
$DIMBLK2
  1

  9
$DIMSTYLE
  2
STANDARD
  9
$DIMCLRD
 70
     0
  9
$DIMCLRE
 70
     0
  9
$DIMCLRT
 70
     0
  9
$DIMTFAC
 40
1.0
  9
$DIMGAP
 40
0.09
  9
$DIMJUST
 70
     0
  9
$DIMSD1
 70
     0
  9
$DIMSD2
 70
     0
  9
$DIMTOLJ
 70
     1
  9
$DIMTZIN
 70
     0
  9
$DIMALTZ
 70
     0
  9
$DIMALTTZ
 70
     0
  9
$DIMUPT
 70
     0
  9
$DIMDEC
 70
     4
  9
$DIMTDEC
 70
     4
  9
$DIMALTU
 70
     2
  9
$DIMALTTD
 70
     2
  9
$DIMTXSTY
  7
STANDARD
  9
$DIMAUNIT
 70
     0
  9
$DIMADEC
 70
     0
  9
$DIMALTRND
 40
0.0
  9
$DIMAZIN
 70
     0
  9
$DIMDSEP
 70
    46
  9
$DIMATFIT
 70
     3
  9
$DIMFRAC
 70
     0
  9
$DIMLDRBLK
  1

  9
$DIMLUNIT
 70
     2
  9
$DIMLWD
 70
    -2
  9
$DIMLWE
 70
    -2
  9
$DIMTMOVE
 70
     0
  9
$DIMFXL
 40
1.0
  9
$DIMFXLON
 70
     0
  9
$DIMJOGANG
 40
0.7853981633974483
  9
$DIMTFILL
 70
     0
  9
$DIMTFILLCLR
 70
     0
  9
$DIMARCSYM
 70
     0
  9
$DIMLTYPE
  6

  9
$DIMLTEX1
  6

  9
$DIMLTEX2
  6

  9
$DIMTXTDIRECTION
 70
     0
  9
$LUNITS
 70
     2
  9
$LUPREC
 70
     4
  9
$SKETCHINC
 40
0.1
  9
$FILLETRAD
 40
0.0
  9
$AUNITS
 70
     0
  9
$AUPREC
 70
     0
  9
$MENU
  1
.
  9
$ELEVATION
 40
0.0
  9
$PELEVATION
 40
0.0
  9
$THICKNESS
 40
0.0
  9
$LIMCHECK
 70
     0
  9
$CHAMFERA
 40
0.0
  9
$CHAMFERB
 40
0.0
  9
$CHAMFERC
 40
0.0
  9
$CHAMFERD
 40
0.0
  9
$SKPOLY
 70
     0
  9
$TDCREATE
 40
2459690.379236111
  9
$TDUCREATE
 40
2459690.545902778
  9
$TDUPDATE
 40
2459773.555497685
  9
$TDUUPDATE
 40
2459773.722164352
  9
$TDINDWG
 40
0.0015972222
  9
$TDUSRTIMER
 40
0.0015972222
  9
$USRTIMER
 70
     1
  9
$ANGBASE
 50
0.0
  9
$ANGDIR
 70
     0
  9
$PDMODE
 70
     3
  9
$PDSIZE
 40
0.03125
  9
$PLINEWID
 40
0.0
  9
$SPLFRAME
 70
     0
  9
$SPLINETYPE
 70
     6
  9
$SPLINESEGS
 70
     8
  9
$HANDSEED
  5
5928
  9
$SURFTAB1
 70
     6
  9
$SURFTAB2
 70
     6
  9
$SURFTYPE
 70
     6
  9
$SURFU
 70
     6
  9
$SURFV
 70
     6
  9
$UCSBASE
  2

  9
$UCSNAME
  2

  9
$UCSORG
 10
0.0
 20
0.0
 30
0.0
  9
$UCSXDIR
 10
1.0
 20
0.0
 30
0.0
  9
$UCSYDIR
 10
0.0
 20
1.0
 30
0.0
  9
$UCSORTHOREF
  2

  9
$UCSORTHOVIEW
 70
     0
  9
$UCSORGTOP
 10
0.0
 20
0.0
 30
0.0
  9
$UCSORGBOTTOM
 10
0.0
 20
0.0
 30
0.0
  9
$UCSORGLEFT
 10
0.0
 20
0.0
 30
0.0
  9
$UCSORGRIGHT
 10
0.0
 20
0.0
 30
0.0
  9
$UCSORGFRONT
 10
0.0
 20
0.0
 30
0.0
  9
$UCSORGBACK
 10
0.0
 20
0.0
 30
0.0
  9
$PUCSBASE
  2

  9
$PUCSNAME
  2

  9
$PUCSORG
 10
0.0
 20
0.0
 30
0.0
  9
$PUCSXDIR
 10
1.0
 20
0.0
 30
0.0
  9
$PUCSYDIR
 10
0.0
 20
1.0
 30
0.0
  9
$PUCSORTHOREF
  2

  9
$PUCSORTHOVIEW
 70
     0
  9
$PUCSORGTOP
 10
0.0
 20
0.0
 30
0.0
  9
$PUCSORGBOTTOM
 10
0.0
 20
0.0
 30
0.0
  9
$PUCSORGLEFT
 10
0.0
 20
0.0
 30
0.0
  9
$PUCSORGRIGHT
 10
0.0
 20
0.0
 30
0.0
  9
$PUCSORGFRONT
 10
0.0
 20
0.0
 30
0.0
  9
$PUCSORGBACK
 10
0.0
 20
0.0
 30
0.0
  9
$USERI1
 70
     0
  9
$USERI2
 70
     0
  9
$USERI3
 70
     0
  9
$USERI4
 70
     0
  9
$USERI5
 70
     0
  9
$USERR1
 40
0.0
  9
$USERR2
 40
0.0
  9
$USERR3
 40
0.0
  9
$USERR4
 40
0.0
  9
$USERR5
 40
0.0
  9
$WORLDVIEW
 70
     1
  9
$SHADEDGE
 70
     3
  9
$SHADEDIF
 70
    70
  9
$TILEMODE
 70
     1
  9
$MAXACTVP
 70
    64
  9
$PINSBASE
 10
0.0
 20
0.0
 30
0.0
  9
$PLIMCHECK
 70
     0
  9
$PEXTMIN
 10
1.000000000000000E+20
 20
1.000000000000000E+20
 30
1.000000000000000E+20
  9
$PEXTMAX
 10
-1.000000000000000E+20
 20
-1.000000000000000E+20
 30
-1.000000000000000E+20
  9
$PLIMMIN
 10
0.0
 20
0.0
  9
$PLIMMAX
 10
12.0
 20
9.0
  9
$UNITMODE
 70
     0
  9
$VISRETAIN
 70
     1
  9
$PLINEGEN
 70
     0
  9
$PSLTSCALE
 70
     1
  9
$TREEDEPTH
 70
  3020
  9
$CMLSTYLE
  2
Standard
  9
$CMLJUST
 70
     0
  9
$CMLSCALE
 40
1.0
  9
$PROXYGRAPHICS
 70
     1
  9
$MEASUREMENT
 70
     0
  9
$CELWEIGHT
370
    -1
  9
$ENDCAPS
280
     0
  9
$JOINSTYLE
280
     0
  9
$LWDISPLAY
290
     0
  9
$INSUNITS
 70
     1
  9
$HYPERLINKBASE
  1

  9
$STYLESHEET
  1

  9
$XEDIT
290
     1
  9
$CEPSNTYPE
380
     0
  9
$PSTYLEMODE
290
     1
  9
$FINGERPRINTGUID
  2
{245DB33C-2DFE-264C-B179-25980774782B}
  9
$VERSIONGUID
  2
{895EEB66-71B3-B04F-BFD5-69BB100A3A06}
  9
$EXTNAMES
290
     1
  9
$PSVPSCALE
 40
0.0
  9
$OLESTARTUP
290
     0
  9
$SORTENTS
280
   127
  9
$INDEXCTL
280
     0
  9
$HIDETEXT
280
     0
  9
$XCLIPFRAME
280
     2
  9
$HALOGAP
280
     0
  9
$OBSCOLOR
 70
   257
  9
$OBSLTYPE
280
     0
  9
$INTERSECTIONDISPLAY
280
     0
  9
$INTERSECTIONCOLOR
 70
   257
  9
$DIMASSOC
280
     1
  9
$PROJECTNAME
  1

  9
$CAMERADISPLAY
290
     0
  9
$LENSLENGTH
 40
50.0
  9
$CAMERAHEIGHT
 40
0.0
  9
$STEPSPERSEC
 40
2.0
  9
$STEPSIZE
 40
6.0
  9
$3DDWFPREC
 40
2.0
  9
$PSOLWIDTH
 40
0.25
  9
$PSOLHEIGHT
 40
4.0
  9
$LOFTANG1
 40
1.570796326794896
  9
$LOFTANG2
 40
1.570796326794896
  9
$LOFTMAG1
 40
0.0
  9
$LOFTMAG2
 40
0.0
  9
$LOFTPARAM
 70
     7
  9
$LOFTNORMALS
280
     1
  9
$LATITUDE
 40
37.795
  9
$LONGITUDE
 40
-122.394
  9
$NORTHDIRECTION
 40
0.0
  9
$TIMEZONE
 70
 -8000
  9
$LIGHTGLYPHDISPLAY
280
     1
  9
$TILEMODELIGHTSYNCH
280
     1
  9
$CMATERIAL
347
5727
  9
$SOLIDHIST
280
     0
  9
$SHOWHIST
280
     1
  9
$DWFFRAME
280
     2
  9
$DGNFRAME
280
     0
  9
$REALWORLDSCALE
290
     1
  9
$INTERFERECOLOR
 62
     1
  9
$INTERFEREOBJVS
345
5749
  9
$INTERFEREVPVS
346
5746
  9
$CSHADOW
280
     0
  9
$SHADOWPLANELOCATION
 40
0.0
  0
ENDSEC
  0
SECTION
  2
CLASSES
  0
CLASS
  1
ACDBDICTIONARYWDFLT
  2
AcDbDictionaryWithDefault
  3
ObjectDBX Classes
 90
        0
 91
        1
280
     0
281
     0
  0
CLASS
  1
RASTERVARIABLES
  2
AcDbRasterVariables
  3
ISM
 90
        0
 91
        1
280
     0
281
     0
  0
CLASS
  1
IMAGEDEF
  2
AcDbRasterImageDef
  3
ISM
 90
        0
 91
        1
280
     0
281
     0
  0
CLASS
  1
IMAGEDEF_REACTOR
  2
AcDbRasterImageDefReactor
  3
ISM
 90
        1
 91
        0
280
     0
281
     0
  0
CLASS
  1
IMAGE
  2
AcDbRasterImage
  3
ISM
 90
     2175
 91
        0
280
     0
281
     1
  0
CLASS
  1
MATERIAL
  2
AcDbMaterial
  3
ObjectDBX Classes
 90
     1153
 91
        3
280
     0
281
     0
  0
CLASS
  1
VISUALSTYLE
  2
AcDbVisualStyle
  3
ObjectDBX Classes
 90
     4095
 91
       24
280
     0
281
     0
  0
CLASS
  1
TABLESTYLE
  2
AcDbTableStyle
  3
ObjectDBX Classes
 90
     4095
 91
        1
280
     0
281
     0
  0
CLASS
  1
SCALE
  2
AcDbScale
  3
ObjectDBX Classes
 90
     1153
 91
       17
280
     0
281
     0
  0
CLASS
  1
MLEADERSTYLE
  2
AcDbMLeaderStyle
  3
ACDB_MLEADERSTYLE_CLASS
 90
     4095
 91
        1
280
     0
281
     0
  0
CLASS
  1
ACDBSECTIONVIEWSTYLE
  2
AcDbSectionViewStyle
  3
ObjectDBX Classes
 90
     1025
 91
        1
280
     0
281
     0
  0
CLASS
  1
ACDBDETAILVIEWSTYLE
  2
AcDbDetailViewStyle
  3
ObjectDBX Classes
 90
     1025
 91
        1
280
     0
281
     0
  0
CLASS
  1
CELLSTYLEMAP
  2
AcDbCellStyleMap
  3
ObjectDBX Classes
 90
     1152
 91
        2
280
     0
281
     0
  0
CLASS
  1
DICTIONARYVAR
  2
AcDbDictionaryVar
  3
ObjectDBX Classes
 90
        0
 91
       21
280
     0
281
     0
  0
ENDSEC
  0
SECTION
  2
TABLES
  0
TABLE
  2
VPORT
  5
8
102
{ACAD_XDICTIONARY
360
5777
102
}
330
0
100
AcDbSymbolTable
 70
     1
  0
VPORT
  5
1F4
330
8
100
AcDbSymbolTableRecord
100
AcDbViewportTableRecord
  2
*ACTIVE
 70
     0
 10
0.0
 20
0.0
 11
1.0
 21
1.0
 12
106.8096721589008
 22
34.20936971711463
 13
0.0
 23
0.0
 14
1.0
 24
1.0
 15
0.0
 25
0.0
 16
0.0
 26
0.0
 36
1.0
 17
0.0
 27
0.0
 37
0.0
 40
52.80906989303201
 41
2.250975292587776
 42
50.0
 43
0.0
 44
0.0
 50
0.0
 51
0.0
 71
     0
 72
   100
 73
     1
 74
     1
 75
     0
 76
     0
 77
     0
 78
     0
281
     0
 65
     1
110
0.0
120
0.0
130
0.0
111
1.0
121
0.0
131
0.0
112
0.0
122
1.0
132
0.0
 79
     0
146
0.0
348
5745
 60
     3
 61
     5
292
     1
282
     1
141
0.0
142
0.0
 63
   250
421
  3355443
1001
ACAD_NAV_VCDISPLAY
1070
     3
  0
ENDTAB
  0
TABLE
  2
LTYPE
  5
5
330
0
100
AcDbSymbolTable
 70
     6
  0
LTYPE
  5
14
330
5
100
AcDbSymbolTableRecord
100
AcDbLinetypeTableRecord
  2
BYBLOCK
 70
     0
  3

 72
    65
 73
     0
 40
0.0
  0
LTYPE
  5
15
330
5
100
AcDbSymbolTableRecord
100
AcDbLinetypeTableRecord
  2
BYLAYER
 70
     0
  3

 72
    65
 73
     0
 40
0.0
  0
LTYPE
  5
16
330
5
100
AcDbSymbolTableRecord
100
AcDbLinetypeTableRecord
  2
CONTINUOUS
 70
     0
  3
Solid line
 72
    65
 73
     0
 40
0.0
  0
LTYPE
  5
1F5
330
5
100
AcDbSymbolTableRecord
100
AcDbLinetypeTableRecord
  2
CENTER
 70
     0
  3
____ _ ____ _ ____ _ ____ _ ____ _ ____ _ ____
 72
    65
 73
     4
 40
0.6
 49
0.375
 74
     0
 49
-0.075
 74
     0
 49
0.075
 74
     0
 49
-0.075
 74
     0
  0
LTYPE
  5
1F6
330
5
100
AcDbSymbolTableRecord
100
AcDbLinetypeTableRecord
  2
HIDDEN
 70
     0
  3
- - - - - - - - - - - - - - - - - - - -
 72
    65
 73
     2
 40
0.2
 49
0.1
 74
     0
 49
-0.1
 74
     0
  0
LTYPE
  5
1F7
330
5
100
AcDbSymbolTableRecord
100
AcDbLinetypeTableRecord
  2
PHANTOM
 70
     0
  3
_____ _ _ _____ _ _ _____ _ _ _____
 72
    65
 73
     6
 40
0.8
 49
0.45
 74
     0
 49
-0.05
 74
     0
 49
0.1
 74
     0
 49
-0.05
 74
     0
 49
0.1
 74
     0
 49
-0.05
 74
     0
  0
LTYPE
  5
1F8
330
5
100
AcDbSymbolTableRecord
100
AcDbLinetypeTableRecord
  2
DOT
 70
     0
  3
. . . . . . . . . . . . . . . . . . . .
 72
    65
 73
     2
 40
0.2
 49
0.1
 74
     0
 49
-0.1
 74
     0
  0
LTYPE
  5
1F9
330
5
100
AcDbSymbolTableRecord
100
AcDbLinetypeTableRecord
  2
DASHED
 70
     0
  3
- - - - - - - - - - - - - - - - - - - -
 72
    65
 73
     2
 40
0.2
 49
0.1
 74
     0
 49
-0.1
 74
     0
  0
ENDTAB
  0
TABLE
  2
LAYER
  5
2
102
{ACAD_XDICTIONARY
360
5918
102
}
330
0
100
AcDbSymbolTable
 70
    37
  0
LAYER
  5
10
102
{ACAD_XDICTIONARY
360
57E0
102
}
330
2
100
AcDbSymbolTableRecord
100
AcDbLayerTableRecord
  2
0
 70
     0
 62
     7
  6
CONTINUOUS
370
    -3
390
F
347
5737
348
0
  0
LAYER
  5
1FA
102
{ACAD_XDICTIONARY
360
57E2
102
}
330
2
100
AcDbSymbolTableRecord
100
AcDbLayerTableRecord
  2
DEFAULT_1
 70
     0
 62
     7
  6
CENTER
370
    -3
390
F
347
5737
348
0
  0
LAYER
  5
1FB
102
{ACAD_XDICTIONARY
360
57E4
102
}
330
2
100
AcDbSymbolTableRecord
100
AcDbLayerTableRecord
  2
DEFAULT_2
 70
     0
 62
     8
  6
HIDDEN
370
    -3
390
F
347
5737
348
0
  0
LAYER
  5
1FC
102
{ACAD_XDICTIONARY
360
57E6
102
}
330
2
100
AcDbSymbolTableRecord
100
AcDbLayerTableRecord
  2
DEFAULT_3
 70
     0
 62
     7
  6
PHANTOM
370
    -3
390
F
347
5737
348
0
  0
LAYER
  5
1FD
102
{ACAD_XDICTIONARY
360
57E8
102
}
330
2
100
AcDbSymbolTableRecord
100
AcDbLayerTableRecord
  2
0_DEFAULT
 70
     0
 62
     7
  6
CONTINUOUS
370
    -3
390
F
347
5737
348
0
  0
LAYER
  5
1FE
102
{ACAD_XDICTIONARY
360
57EA
102
}
330
2
100
AcDbSymbolTableRecord
100
AcDbLayerTableRecord
  2
1_CURVES
 70
     0
 62
     7
  6
CONTINUOUS
370
    -3
390
F
347
5737
348
0
  0
LAYER
  5
1FF
102
{ACAD_XDICTIONARY
360
57EC
102
}
330
2
100
AcDbSymbolTableRecord
100
AcDbLayerTableRecord
  2
1_CURVES_CHROMO_INV
 70
     0
 62
     7
  6
CONTINUOUS
370
    -3
390
F
347
5737
348
0
  0
LAYER
  5
200
102
{ACAD_XDICTIONARY
360
57EE
102
}
330
2
100
AcDbSymbolTableRecord
100
AcDbLayerTableRecord
  2
1_CURVES_DECOUPE
 70
     0
 62
     7
  6
CONTINUOUS
370
    -3
390
F
347
5737
348
0
  0
LAYER
  5
201
102
{ACAD_XDICTIONARY
360
57F0
102
}
330
2
100
AcDbSymbolTableRecord
100
AcDbLayerTableRecord
  2
1_CURVES_FOND
 70
     0
 62
     7
  6
CONTINUOUS
370
    -3
390
F
347
5737
348
0
  0
LAYER
  5
202
102
{ACAD_XDICTIONARY
360
57F2
102
}
330
2
100
AcDbSymbolTableRecord
100
AcDbLayerTableRecord
  2
1_CURVES_JETS
 70
     0
 62
     7
  6
CONTINUOUS
370
    -3
390
F
347
5737
348
0
  0
LAYER
  5
203
102
{ACAD_XDICTIONARY
360
57F4
102
}
330
2
100
AcDbSymbolTableRecord
100
AcDbLayerTableRecord
  2
1_CURVES_PLAGE
 70
     0
 62
     7
  6
CONTINUOUS
370
    -3
390
F
347
5737
348
0
  0
LAYER
  5
204
102
{ACAD_XDICTIONARY
360
57F6
102
}
330
2
100
AcDbSymbolTableRecord
100
AcDbLayerTableRecord
  2
1_CURVES_SPEC_FRONT
 70
     0
 62
     7
  6
CONTINUOUS
370
    -3
390
F
347
5737
348
0
  0
LAYER
  5
205
102
{ACAD_XDICTIONARY
360
57F8
102
}
330
2
100
AcDbSymbolTableRecord
100
AcDbLayerTableRecord
  2
1_CURVES_SPEC_RIGHT
 70
     0
 62
     7
  6
CONTINUOUS
370
    -3
390
F
347
5737
348
0
  0
LAYER
  5
206
102
{ACAD_XDICTIONARY
360
57FA
102
}
330
2
100
AcDbSymbolTableRecord
100
AcDbLayerTableRecord
  2
2_PLANES
 70
     0
 62
     7
  6
CONTINUOUS
370
    -3
390
F
347
5737
348
0
  0
LAYER
  5
207
102
{ACAD_XDICTIONARY
360
57FC
102
}
330
2
100
AcDbSymbolTableRecord
100
AcDbLayerTableRecord
  2
2_PLANES_CHROMO_INV
 70
     0
 62
     7
  6
CONTINUOUS
370
    -3
390
F
347
5737
348
0
  0
LAYER
  5
208
102
{ACAD_XDICTIONARY
360
57FE
102
}
330
2
100
AcDbSymbolTableRecord
100
AcDbLayerTableRecord
  2
2_PLANES_JETS
 70
     0
 62
     7
  6
CONTINUOUS
370
    -3
390
F
347
5737
348
0
  0
LAYER
  5
209
102
{ACAD_XDICTIONARY
360
5800
102
}
330
2
100
AcDbSymbolTableRecord
100
AcDbLayerTableRecord
  2
3_POINTS
 70
     0
 62
     7
  6
CONTINUOUS
370
    -3
390
F
347
5737
348
0
  0
LAYER
  5
20A
102
{ACAD_XDICTIONARY
360
5802
102
}
330
2
100
AcDbSymbolTableRecord
100
AcDbLayerTableRecord
  2
3_POINTS_JETS
 70
     0
 62
     7
  6
CONTINUOUS
370
    -3
390
F
347
5737
348
0
  0
LAYER
  5
20B
102
{ACAD_XDICTIONARY
360
5804
102
}
330
2
100
AcDbSymbolTableRecord
100
AcDbLayerTableRecord
  2
4_CSYS
 70
     0
 62
     7
  6
CONTINUOUS
370
    -3
390
F
347
5737
348
0
  0
LAYER
  5
20C
102
{ACAD_XDICTIONARY
360
5806
102
}
330
2
100
AcDbSymbolTableRecord
100
AcDbLayerTableRecord
  2
5_AXIS
 70
     0
 62
     7
  6
CONTINUOUS
370
    -3
390
F
347
5737
348
0
  0
LAYER
  5
20D
102
{ACAD_XDICTIONARY
360
5808
102
}
330
2
100
AcDbSymbolTableRecord
100
AcDbLayerTableRecord
  2
5_AXIS_CHROMO_INV
 70
     0
 62
     7
  6
CONTINUOUS
370
    -3
390
F
347
5737
348
0
  0
LAYER
  5
20E
102
{ACAD_XDICTIONARY
360
580A
102
}
330
2
100
AcDbSymbolTableRecord
100
AcDbLayerTableRecord
  2
5_AXIS_JETS
 70
     0
 62
     7
  6
CONTINUOUS
370
    -3
390
F
347
5737
348
0
  0
LAYER
  5
20F
102
{ACAD_XDICTIONARY
360
580C
102
}
330
2
100
AcDbSymbolTableRecord
100
AcDbLayerTableRecord
  2
6_SURFACES
 70
     0
 62
     7
  6
CONTINUOUS
370
    -3
390
F
347
5737
348
0
  0
LAYER
  5
210
102
{ACAD_XDICTIONARY
360
580E
102
}
330
2
100
AcDbSymbolTableRecord
100
AcDbLayerTableRecord
  2
6_SURFACES-OFFSET-FIBRE-ACRYLIQ
 70
     0
 62
     7
  6
CONTINUOUS
370
    -3
390
F
347
5737
348
0
  0
LAYER
  5
211
102
{ACAD_XDICTIONARY
360
5810
102
}
330
2
100
AcDbSymbolTableRecord
100
AcDbLayerTableRecord
  2
6_SURFACES-TOOLING
 70
     0
 62
     7
  6
CONTINUOUS
370
    -3
390
F
347
5737
348
0
  0
LAYER
  5
212
102
{ACAD_XDICTIONARY
360
5812
102
}
330
2
100
AcDbSymbolTableRecord
100
AcDbLayerTableRecord
  2
6_SURFACES_CHROMO_INV
 70
     0
 62
     7
  6
CONTINUOUS
370
    -3
390
F
347
5737
348
0
  0
LAYER
  5
213
102
{ACAD_XDICTIONARY
360
5814
102
}
330
2
100
AcDbSymbolTableRecord
100
AcDbLayerTableRecord
  2
6_SURFACES_RATIO-ETIREMENT
 70
     0
 62
     7
  6
CONTINUOUS
370
    -3
390
F
347
5737
348
0
  0
LAYER
  5
214
102
{ACAD_XDICTIONARY
360
5816
102
}
330
2
100
AcDbSymbolTableRecord
100
AcDbLayerTableRecord
  2
6_SURFACES_TOOLING
 70
     0
 62
     7
  6
CONTINUOUS
370
    -3
390
F
347
5737
348
0
  0
LAYER
  5
215
102
{ACAD_XDICTIONARY
360
5818
102
}
330
2
100
AcDbSymbolTableRecord
100
AcDbLayerTableRecord
  2
7_NOTES
 70
     0
 62
     7
  6
CONTINUOUS
370
    -3
390
F
347
5737
348
0
  0
LAYER
  5
216
102
{ACAD_XDICTIONARY
360
581A
102
}
330
2
100
AcDbSymbolTableRecord
100
AcDbLayerTableRecord
  2
CONTROLE
 70
     0
 62
     7
  6
CONTINUOUS
370
    -3
390
F
347
5737
348
0
  0
LAYER
  5
217
102
{ACAD_XDICTIONARY
360
581C
102
}
330
2
100
AcDbSymbolTableRecord
100
AcDbLayerTableRecord
  2
CURVE_ZONE_ROBINETTERIE
 70
     0
 62
     7
  6
CONTINUOUS
370
    -3
390
F
347
5737
348
0
  0
LAYER
  5
218
102
{ACAD_XDICTIONARY
360
581E
102
}
330
2
100
AcDbSymbolTableRecord
100
AcDbLayerTableRecord
  2
DEGAGEMENT_SERIGRAPHIE
 70
     0
 62
     7
  6
CONTINUOUS
370
    -3
390
F
347
5737
348
0
  0
LAYER
  5
219
102
{ACAD_XDICTIONARY
360
5820
102
}
330
2
100
AcDbSymbolTableRecord
100
AcDbLayerTableRecord
  2
LEDS
 70
     0
 62
     7
  6
CONTINUOUS
370
    -3
390
F
347
5737
348
0
  0
LAYER
  5
21A
102
{ACAD_XDICTIONARY
360
5822
102
}
330
2
100
AcDbSymbolTableRecord
100
AcDbLayerTableRecord
  2
MIA_PLUS_TROU
 70
     0
 62
     7
  6
CONTINUOUS
370
    -3
390
F
347
5737
348
0
  0
LAYER
  5
21B
102
{ACAD_XDICTIONARY
360
5824
102
}
330
2
100
AcDbSymbolTableRecord
100
AcDbLayerTableRecord
  2
MIA_TROU
 70
     0
 62
     7
  6
CONTINUOUS
370
    -3
390
F
347
5737
348
0
  0
LAYER
  5
21C
102
{ACAD_XDICTIONARY
360
5826
102
}
330
2
100
AcDbSymbolTableRecord
100
AcDbLayerTableRecord
  2
XSEC_DATUMS
 70
     0
 62
     7
  6
CONTINUOUS
370
    -3
390
F
347
5737
348
0
  0
LAYER
  5
21D
102
{ACAD_XDICTIONARY
360
5828
102
}
330
2
100
AcDbSymbolTableRecord
100
AcDbLayerTableRecord
  2
ZONE_ROBINETTERIE
 70
     0
 62
     7
  6
CONTINUOUS
370
    -3
390
F
347
5737
348
0
  0
ENDTAB
  0
TABLE
  2
STYLE
  5
3
330
0
100
AcDbSymbolTable
 70
     8
  0
STYLE
  5
11
330
3
100
AcDbSymbolTableRecord
100
AcDbTextStyleTableRecord
  2
STANDARD
 70
     0
 40
0.0
 41
0.8
 50
0.0
 71
     0
 42
0.2
  3
txt
  4

  0
STYLE
  5
21E
330
3
100
AcDbSymbolTableRecord
100
AcDbTextStyleTableRecord
  2
TEXTSTYLE_1
 70
     0
 40
0.0
 41
0.8
 50
0.0
 71
     0
 42
0.2
  3
gdt
  4

  0
STYLE
  5
21F
330
3
100
AcDbSymbolTableRecord
100
AcDbTextStyleTableRecord
  2
TEXTSTYLE_2
 70
     0
 40
0.0
 41
1.0
 50
0.0
 71
     0
 42
0.2
  3

  4

1001
ACAD
1000
CG Triumvirate
1071
       34
  0
STYLE
  5
220
330
3
100
AcDbSymbolTableRecord
100
AcDbTextStyleTableRecord
  2
TEXTSTYLE_3
 70
     0
 40
0.0
 41
1.0
 50
0.0
 71
     0
 42
0.2
  3

  4

1001
ACAD
1000
CG Triumvirate
1071
       34
  0
STYLE
  5
221
330
3
100
AcDbSymbolTableRecord
100
AcDbTextStyleTableRecord
  2
TEXTSTYLE_4
 70
     0
 40
0.0
 41
1.0
 50
0.0
 71
     0
 42
0.2
  3
txt
  4

  0
STYLE
  5
222
330
3
100
AcDbSymbolTableRecord
100
AcDbTextStyleTableRecord
  2
TEXTSTYLE_5
 70
     0
 40
0.0
 41
1.0
 50
0.0
 71
     0
 42
0.2
  3
txt
  4

  0
STYLE
  5
223
330
3
100
AcDbSymbolTableRecord
100
AcDbTextStyleTableRecord
  2
TEXTSTYLE_6
 70
     0
 40
0.0
 41
1.0
 50
0.0
 71
     0
 42
0.2
  3

  4

1001
ACAD
1000
CG Triumvirate
1071
       34
  0
STYLE
  5
224
330
3
100
AcDbSymbolTableRecord
100
AcDbTextStyleTableRecord
  2
TEXTSTYLE_7
 70
     0
 40
0.0
 41
0.8
 50
0.0
 71
     0
 42
0.2
  3
txt
  4

  0
ENDTAB
  0
TABLE
  2
VIEW
  5
6
330
0
100
AcDbSymbolTable
 70
     1
  0
ENDTAB
  0
TABLE
  2
UCS
  5
7
330
0
100
AcDbSymbolTable
 70
     0
  0
ENDTAB
  0
TABLE
  2
APPID
  5
9
330
0
100
AcDbSymbolTable
 70
     3
  0
APPID
  5
225
330
9
100
AcDbSymbolTableRecord
100
AcDbRegAppTableRecord
  2
ACAD
 70
     0
  0
APPID
  5
57CB
330
9
100
AcDbSymbolTableRecord
100
AcDbRegAppTableRecord
  2
ACAD_MLEADERVER
 70
     0
  0
APPID
  5
582A
330
9
100
AcDbSymbolTableRecord
100
AcDbRegAppTableRecord
  2
ACAD_NAV_VCDISPLAY
 70
     0
  0
ENDTAB
  0
TABLE
  2
DIMSTYLE
  5
A
330
0
100
AcDbSymbolTable
 70
     2
100
AcDbDimStyleTable
 71
     0
  0
DIMSTYLE
105
22E
330
A
100
AcDbSymbolTableRecord
100
AcDbDimStyleTableRecord
  2
STANDARD
 70
     0
 41
2.0
 44
0.125
 47
0.001
 48
0.001
 71
     1
 78
     4
 79
     1
140
1.333333333299999
143
2.54
170
     1
179
     3
271
     3
272
     3
284
     4
340
11
341
228
342
228
343
228
344
228
  0
DIMSTYLE
105
22F
330
A
100
AcDbSymbolTableRecord
100
AcDbDimStyleTableRecord
  2
DIMSTYLE_1
 70
     0
 41
2.0
 44
0.125
 47
0.001
 48
0.001
 78
     4
 79
     1
140
1.333333333299999
143
2.54
147
0.0625
170
     1
171
     0
179
     3
272
    16
274
     0
284
     4
340
11
341
228
342
228
343
228
344
228
  0
ENDTAB
  0
TABLE
  2
BLOCK_RECORD
  5
1
330
0
100
AcDbSymbolTable
 70
     6
  0
BLOCK_RECORD
  5
226
330
1
100
AcDbSymbolTableRecord
100
AcDbBlockTableRecord
  2
*Model_Space
340
571F
 70
     0
280
     1
281
     0
  0
BLOCK_RECORD
  5
227
330
1
100
AcDbSymbolTableRecord
100
AcDbBlockTableRecord
  2
*Paper_Space
340
5720
 70
     0
280
     1
281
     0
  0
BLOCK_RECORD
  5
228
330
1
100
AcDbSymbolTableRecord
100
AcDbBlockTableRecord
  2
_FILLED
340
0
102
{BLKREFS
102
}
 70
     0
280
     1
281
     0
  0
BLOCK_RECORD
  5
22B
330
1
100
AcDbSymbolTableRecord
100
AcDbBlockTableRecord
  2
L03-MOTEUR-CONTROLE-LED_BL2
340
0
 70
     0
280
     1
281
     0
  0
BLOCK_RECORD
  5
22C
330
1
100
AcDbSymbolTableRecord
100
AcDbBlockTableRecord
  2
L03-USAGE_INTERNE_SEULEM_BL1
340
0
 70
     0
280
     1
281
     0
  0
BLOCK_RECORD
  5
22D
330
1
100
AcDbSymbolTableRecord
100
AcDbBlockTableRecord
  2
L03-NOTE_SPECS_BAINS_BL0
340
0
 70
     0
280
     1
281
     0
  0
ENDTAB
  0
ENDSEC
  0
SECTION
  2
BLOCKS
  0
BLOCK
  5
20
330
226
100
AcDbEntity
  8
0
100
AcDbBlockBegin
  2
*Model_Space
 70
     0
 10
0.0
 20
0.0
 30
0.0
  3
*Model_Space
  1

  0
ENDBLK
  5
21
330
226
100
AcDbEntity
  8
0
100
AcDbBlockEnd
  0
BLOCK
  5
1C
330
227
100
AcDbEntity
 67
     1
  8
0
100
AcDbBlockBegin
  2
*Paper_Space
 70
     0
 10
0.0
 20
0.0
 30
0.0
  3
*Paper_Space
  1

  0
ENDBLK
  5
1D
330
227
100
AcDbEntity
 67
     1
  8
0
100
AcDbBlockEnd
  0
BLOCK
  5
2FF
330
228
100
AcDbEntity
  8
0
100
AcDbBlockBegin
  2
_FILLED
 70
     0
 10
0.0
 20
0.0
 30
0.0
  3
_FILLED
  1

  0
SOLID
  5
300
330
228
100
AcDbEntity
  8
0
  6
ByBlock
 62
     0
100
AcDbTrace
 10
0.0
 20
0.0
 30
0.0
 11
-1.0
 21
0.1666666667
 31
0.0
 12
-1.0
 22
-0.1666666667
 32
0.0
 13
-1.0
 23
-0.1666666667
 33
0.0
  0
ENDBLK
  5
301
330
228
100
AcDbEntity
  8
0
  6
ByBlock
 62
     0
100
AcDbBlockEnd
  0
BLOCK
  5
230
330
22B
100
AcDbEntity
  8
0
  6
Continuous
 62
     2
100
AcDbBlockBegin
  2
L03-MOTEUR-CONTROLE-LED_BL2
 70
     0
 10
18.7687741256
 20
79.7769995088
 30
0.0
  3
L03-MOTEUR-CONTROLE-LED_BL2
  1

  0
TEXT
  5
231
330
22B
100
AcDbEntity
  8
0
  6
Continuous
 62
     2
100
AcDbText
 10
18.2058109436
 20
79.11033258270001
 30
0.0
 40
1.333333852099999
  1
T
 41
0.9895727803714168
  7
TEXTSTYLE_2
 72
     5
 11
19.3317373075
 21
79.11033258270001
 31
0.0
100
AcDbText
  0
ELLIPSE
  5
232
330
22B
100
AcDbEntity
  8
0
  6
Continuous
 62
     7
100
AcDbEllipse
 10
18.7687741256
 20
79.7769995088
 30
0.0
 11
-1.942887567899999
 21
0.0
 31
0.0
210
0.0
220
0.0
230
1.0
 40
0.6606458385
 41
0.0
 42
6.283185307179586
  0
ENDBLK
  5
233
330
22B
100
AcDbEntity
  8
0
  6
ByBlock
 62
     0
100
AcDbBlockEnd
  0
BLOCK
  5
234
330
22C
100
AcDbEntity
  8
0
  6
Continuous
 62
     2
100
AcDbBlockBegin
  2
L03-USAGE_INTERNE_SEULEM_BL1
 70
     0
 10
122.4233755978
 20
57.7321923852
 30
0.0
  3
L03-USAGE_INTERNE_SEULEM_BL1
  1

  0
TEXT
  5
235
330
22C
100
AcDbEntity
  8
0
  6
Continuous
 62
     7
100
AcDbText
 10
116.109315296
 20
59.977226371
 30
0.0
 40
1.1626666667
  1
INTERNAL USE 
 50
9.999999999799985
 41
1.005097163394937
  7
TEXTSTYLE_3
 72
     5
 11
128.2590709167
 21
62.1195560959
 31
0.0
100
AcDbText
  0
TEXT
  5
236
330
22C
100
AcDbEntity
  8
0
  6
Continuous
 62
     7
100
AcDbText
 10
115.365631092
 20
57.9757051933
 30
0.0
 40
1.1626666667
  1
DOCUMENT ONLY
 50
10.00000000006676
 41
1.00480463189224
  7
TEXTSTYLE_3
 72
     5
 11
129.4746143207
 21
60.46349960689999
 31
0.0
100
AcDbText
  0
TEXT
  5
237
330
22C
100
AcDbEntity
  8
0
  6
Continuous
 62
     7
100
AcDbText
 10
121.1503586553
 20
57.7272771428
 30
0.0
 40
1.1626666667
  1
 
 50
9.999999999982465
 41
0.9999999893449121
  7
TEXTSTYLE_5
 72
     5
 11
122.2953618028
 21
57.9291720907
 31
0.0
100
AcDbText
  0
TEXT
  5
238
330
22C
100
AcDbEntity
  8
0
  6
Continuous
 62
     7
100
AcDbText
 10
112.7057107723
 20
53.55018273649999
 30
0.0
 40
1.1626666667
  1
DOCUMENT POUR USAGE
 50
10.00000000001811
 41
1.000408784561172
  7
TEXTSTYLE_3
 72
     5
 11
133.0655630358
 21
57.1401740138
 31
0.0
100
AcDbText
  0
TEXT
  5
239
330
22C
100
AcDbEntity
  8
0
  6
Continuous
 62
     7
100
AcDbText
 10
113.1348102183
 20
51.5334342761
 30
0.0
 40
1.1626666667
  1
A L'INTERNE SEULEMENT
 50
9.999999999781422
 41
1.011903875565177
  7
TEXTSTYLE_3
 72
     5
 11
133.3207916335
 21
55.0927674316
 31
0.0
100
AcDbText
  0
LINE
  5
23A
330
22C
100
AcDbEntity
  8
0
  6
Continuous
 62
     1
100
AcDbLine
 10
136.2799273211
 20
53.3886587672
 30
0.0
 11
136.2866862538
 21
53.3954176999
 31
0.0
  0
LINE
  5
23B
330
22C
100
AcDbEntity
  8
0
  6
Continuous
 62
     1
100
AcDbLine
 10
135.5473577547
 20
53.25948698739999
 30
0.0
 11
136.1962391998
 21
53.90836843249999
 31
0.0
  0
LINE
  5
23C
330
22C
100
AcDbEntity
  8
0
  6
Continuous
 62
     1
100
AcDbLine
 10
134.8147881883
 20
53.1303152076
 30
0.0
 11
136.1057921459
 21
54.42131916520001
 31
0.0
  0
LINE
  5
23D
330
22C
100
AcDbEntity
  8
0
  6
Continuous
 62
     1
100
AcDbLine
 10
134.0822186219
 20
53.00114342779999
 30
0.0
 11
136.0153450919
 21
54.9342698979
 31
0.0
  0
LINE
  5
23E
330
22C
100
AcDbEntity
  8
0
  6
Continuous
 62
     1
100
AcDbLine
 10
133.3496490554999
 20
52.871971648
 30
0.0
 11
135.924898038
 21
55.4472206305
 31
0.0
  0
LINE
  5
23F
330
22C
100
AcDbEntity
  8
0
  6
Continuous
 62
     1
100
AcDbLine
 10
132.617079489
 20
52.74279986819999
 30
0.0
 11
134.1580833038
 21
54.283803683
 31
0.0
  0
LINE
  5
240
330
22C
100
AcDbEntity
  8
0
  6
Continuous
 62
     1
100
AcDbLine
 10
134.7554284965
 20
54.8811488757
 30
0.0
 11
135.8344509841
 21
55.9601713632
 31
0.0
  0
LINE
  5
241
330
22C
100
AcDbEntity
  8
0
  6
Continuous
 62
     1
100
AcDbLine
 10
131.8845099226
 20
52.6136280884
 30
0.0
 11
133.4255137374
 21
54.1546319032
 31
0.0
  0
LINE
  5
242
330
22C
100
AcDbEntity
  8
0
  6
Continuous
 62
     1
100
AcDbLine
 10
134.6649814426
 20
55.3940996084
 30
0.0
 11
135.7440039301
 21
56.4731220959
 31
0.0
  0
LINE
  5
243
330
22C
100
AcDbEntity
  8
0
  6
Continuous
 62
     1
100
AcDbLine
 10
131.1519403562
 20
52.4844563086
 30
0.0
 11
132.692944171
 21
54.0254601233
 31
0.0
  0
LINE
  5
244
330
22C
100
AcDbEntity
  8
0
  6
Continuous
 62
     1
100
AcDbLine
 10
134.5745343886
 20
55.907050341
 30
0.0
 11
135.6535568762
 21
56.98607282850001
 31
0.0
  0
LINE
  5
245
330
22C
100
AcDbEntity
  8
0
  6
Continuous
 62
     1
100
AcDbLine
 10
130.4193707898
 20
52.3552845288
 30
0.0
 11
131.9603746046
 21
53.8962883435
 31
0.0
  0
LINE
  5
246
330
22C
100
AcDbEntity
  8
0
  6
Continuous
 62
     1
100
AcDbLine
 10
134.4840873347
 20
56.4200010737
 30
0.0
 11
135.5631098222
 21
57.49902356119999
 31
0.0
  0
LINE
  5
247
330
22C
100
AcDbEntity
  8
0
  6
Continuous
 62
     1
100
AcDbLine
 10
129.6868012234
 20
52.226112749
 30
0.0
 11
131.2278050381
 21
53.7671165637
 31
0.0
  0
LINE
  5
248
330
22C
100
AcDbEntity
  8
0
  6
Continuous
 62
     1
100
AcDbLine
 10
134.3936402808
 20
56.9329518064
 30
0.0
 11
135.4726627683
 21
58.01197429390001
 31
0.0
  0
LINE
  5
249
330
22C
100
AcDbEntity
  8
0
  6
Continuous
 62
     1
100
AcDbLine
 10
128.9542316569
 20
52.09694096919999
 30
0.0
 11
130.4952354717
 21
53.6379447839
 31
0.0
  0
LINE
  5
24A
330
22C
100
AcDbEntity
  8
0
  6
Continuous
 62
     1
100
AcDbLine
 10
134.3031932268
 20
57.445902539
 30
0.0
 11
135.3822157143
 21
58.52492502649999
 31
0.0
  0
LINE
  5
24B
330
22C
100
AcDbEntity
  8
0
  6
Continuous
 62
     1
100
AcDbLine
 10
128.2216620905
 20
51.96776918939999
 30
0.0
 11
129.7626659053
 21
53.5087730041
 31
0.0
  0
LINE
  5
24C
330
22C
100
AcDbEntity
  8
0
  6
Continuous
 62
     1
100
AcDbLine
 10
134.2127461729
 20
57.9588532717
 30
0.0
 11
135.2917686604
 21
59.0378757592
 31
0.0
  0
LINE
  5
24D
330
22C
100
AcDbEntity
  8
0
  6
Continuous
 62
     1
100
AcDbLine
 10
127.4890925241
 20
51.8385974095
 30
0.0
 11
129.0300963389
 21
53.37960122430001
 31
0.0
  0
LINE
  5
24E
330
22C
100
AcDbEntity
  8
0
  6
Continuous
 62
     1
100
AcDbLine
 10
134.1222991189
 20
58.4718040044
 30
0.0
 11
135.2013216064
 21
59.5508264919
 31
0.0
  0
LINE
  5
24F
330
22C
100
AcDbEntity
  8
0
  6
Continuous
 62
     1
100
AcDbLine
 10
126.7565229577
 20
51.7094256297
 30
0.0
 11
128.2975267725
 21
53.2504294445
 31
0.0
  0
LINE
  5
250
330
22C
100
AcDbEntity
  8
0
  6
Continuous
 62
     1
100
AcDbLine
 10
134.031852065
 20
58.98475473699999
 30
0.0
 11
135.1108745525
 21
60.0637772246
 31
0.0
  0
LINE
  5
251
330
22C
100
AcDbEntity
  8
0
  6
Continuous
 62
     1
100
AcDbLine
 10
126.0239533913
 20
51.5802538499
 30
0.0
 11
127.564957206
 21
53.1212576647
 31
0.0
  0
LINE
  5
252
330
22C
100
AcDbEntity
  8
0
  6
Continuous
 62
     1
100
AcDbLine
 10
133.7289724652
 20
59.2852729238
 30
0.0
 11
135.0204274986
 21
60.5767279572
 31
0.0
  0
LINE
  5
253
330
22C
100
AcDbEntity
  8
0
  6
Continuous
 62
     1
100
AcDbLine
 10
125.2913838249
 20
51.4510820701
 30
0.0
 11
126.8323876396
 21
52.99208588489999
 31
0.0
  0
LINE
  5
254
330
22C
100
AcDbEntity
  8
0
  6
Continuous
 62
     1
100
AcDbLine
 10
132.9964028987
 20
59.15610114399999
 30
0.0
 11
134.9299804446
 21
61.08967868989999
 31
0.0
  0
LINE
  5
255
330
22C
100
AcDbEntity
  8
0
  6
Continuous
 62
     1
100
AcDbLine
 10
124.5588142584
 20
51.3219102903
 30
0.0
 11
126.0998180732
 21
52.8629141051
 31
0.0
  0
LINE
  5
256
330
22C
100
AcDbEntity
  8
0
  6
Continuous
 62
     1
100
AcDbLine
 10
132.2638333323
 20
59.0269293642
 30
0.0
 11
133.2911756306
 21
60.0542716625
 31
0.0
  0
LINE
  5
257
330
22C
100
AcDbEntity
  8
0
  6
Continuous
 62
     1
100
AcDbLine
 10
133.7605109032
 20
60.52360693499999
 30
0.0
 11
134.8395333907
 21
61.60262942260001
 31
0.0
  0
LINE
  5
258
330
22C
100
AcDbEntity
  8
0
  6
Continuous
 62
     1
100
AcDbLine
 10
123.826244692
 20
51.19273851049999
 30
0.0
 11
125.3672485068
 21
52.7337423253
 31
0.0
  0
LINE
  5
259
330
22C
100
AcDbEntity
  8
0
  6
Continuous
 62
     1
100
AcDbLine
 10
131.5312637659
 20
58.89775758439999
 30
0.0
 11
132.5586058546
 21
59.92509967310001
 31
0.0
  0
LINE
  5
25A
330
22C
100
AcDbEntity
  8
0
  6
Continuous
 62
     1
100
AcDbLine
 10
133.6700638492
 20
61.0365576677
 30
0.0
 11
134.7490863367
 21
62.11558015520001
 31
0.0
  0
LINE
  5
25B
330
22C
100
AcDbEntity
  8
0
  6
Continuous
 62
     1
100
AcDbLine
 10
123.0936751256
 20
51.06356673069999
 30
0.0
 11
124.6346789404
 21
52.6045705455
 31
0.0
  0
LINE
  5
25C
330
22C
100
AcDbEntity
  8
0
  6
Continuous
 62
     1
100
AcDbLine
 10
130.7986941995
 20
58.7685858046
 30
0.0
 11
131.8260360785
 21
59.79592768359999
 31
0.0
  0
LINE
  5
25D
330
22C
100
AcDbEntity
  8
0
  6
Continuous
 62
     1
100
AcDbLine
 10
133.5796167953
 20
61.5495084004
 30
0.0
 11
134.6586392828
 21
62.6285308879
 31
0.0
  0
LINE
  5
25E
330
22C
100
AcDbEntity
  8
0
  6
Continuous
 62
     1
100
AcDbLine
 10
122.3611055592
 20
50.9343949509
 30
0.0
 11
123.902109374
 21
52.4753987657
 31
0.0
  0
LINE
  5
25F
330
22C
100
AcDbEntity
  8
0
  6
Continuous
 62
     1
100
AcDbLine
 10
130.0661246331
 20
58.6394140248
 30
0.0
 11
131.0934663025
 21
59.6667556942
 31
0.0
  0
LINE
  5
260
330
22C
100
AcDbEntity
  8
0
  6
Continuous
 62
     1
100
AcDbLine
 10
133.4891697413
 20
62.062459133
 30
0.0
 11
134.5681922288
 21
63.1414816206
 31
0.0
  0
LINE
  5
261
330
22C
100
AcDbEntity
  8
0
  6
Continuous
 62
     1
100
AcDbLine
 10
121.6285359928
 20
50.80522317109999
 30
0.0
 11
123.1695398075
 21
52.3462269859
 31
0.0
  0
LINE
  5
262
330
22C
100
AcDbEntity
  8
0
  6
Continuous
 62
     1
100
AcDbLine
 10
129.3335550666
 20
58.510242245
 30
0.0
 11
130.3608965265
 21
59.53758370479999
 31
0.0
  0
LINE
  5
263
330
22C
100
AcDbEntity
  8
0
  6
Continuous
 62
     1
100
AcDbLine
 10
133.3987226874
 20
62.57540986569999
 30
0.0
 11
134.4777451749
 21
63.65443235319999
 31
0.0
  0
LINE
  5
264
330
22C
100
AcDbEntity
  8
0
  6
Continuous
 62
     1
100
AcDbLine
 10
120.8959664263
 20
50.6760513913
 30
0.0
 11
122.4369702411
 21
52.2170552061
 31
0.0
  0
LINE
  5
265
330
22C
100
AcDbEntity
  8
0
  6
Continuous
 62
     1
100
AcDbLine
 10
128.6009855002
 20
58.38107046520001
 30
0.0
 11
129.6283267504
 21
59.4084117154
 31
0.0
  0
LINE
  5
266
330
22C
100
AcDbEntity
  8
0
  6
Continuous
 62
     1
100
AcDbLine
 10
133.3082756334
 20
63.0883605984
 30
0.0
 11
134.387298121
 21
64.1673830859
 31
0.0
  0
LINE
  5
267
330
22C
100
AcDbEntity
  8
0
  6
Continuous
 62
     1
100
AcDbLine
 10
120.1633968599
 20
50.54687961149999
 30
0.0
 11
121.7044006747
 21
52.08788342630001
 31
0.0
  0
LINE
  5
268
330
22C
100
AcDbEntity
  8
0
  6
Continuous
 62
     1
100
AcDbLine
 10
127.8684159338
 20
58.2518986854
 30
0.0
 11
128.8957569744
 21
59.27923972600001
 31
0.0
  0
LINE
  5
269
330
22C
100
AcDbEntity
  8
0
  6
Continuous
 62
     1
100
AcDbLine
 10
133.2178285795
 20
63.6013113311
 30
0.0
 11
134.296851067
 21
64.68033381859999
 31
0.0
  0
LINE
  5
26A
330
22C
100
AcDbEntity
  8
0
  6
Continuous
 62
     1
100
AcDbLine
 10
119.4308272935
 20
50.4177078317
 30
0.0
 11
120.9718311083
 21
51.9587116465
 31
0.0
  0
LINE
  5
26B
330
22C
100
AcDbEntity
  8
0
  6
Continuous
 62
     1
100
AcDbLine
 10
127.1358463674
 20
58.1227269056
 30
0.0
 11
128.1631871984
 21
59.1500677366
 31
0.0
  0
LINE
  5
26C
330
22C
100
AcDbEntity
  8
0
  6
Continuous
 62
     1
100
AcDbLine
 10
133.1273815255
 20
64.11426206369999
 30
0.0
 11
134.2064040131
 21
65.1932845512
 31
0.0
  0
LINE
  5
26D
330
22C
100
AcDbEntity
  8
0
  6
Continuous
 62
     1
100
AcDbLine
 10
118.6982577271
 20
50.2885360519
 30
0.0
 11
120.2392615419
 21
51.8295398667
 31
0.0
  0
LINE
  5
26E
330
22C
100
AcDbEntity
  8
0
  6
Continuous
 62
     1
100
AcDbLine
 10
126.403276801
 20
57.9935551258
 30
0.0
 11
127.4306174224
 21
59.0208957471
 31
0.0
  0
LINE
  5
26F
330
22C
100
AcDbEntity
  8
0
  6
Continuous
 62
     1
100
AcDbLine
 10
133.0369344716
 20
64.6272127964
 30
0.0
 11
134.1159569591
 21
65.7062352839
 31
0.0
  0
LINE
  5
270
330
22C
100
AcDbEntity
  8
0
  6
Continuous
 62
     1
100
AcDbLine
 10
117.9656881607
 20
50.1593642721
 30
0.0
 11
119.5066919755
 21
51.70036808689999
 31
0.0
  0
LINE
  5
271
330
22C
100
AcDbEntity
  8
0
  6
Continuous
 62
     1
100
AcDbLine
 10
125.6707072346
 20
57.864383346
 30
0.0
 11
126.6980476463
 21
58.89172375770001
 31
0.0
  0
LINE
  5
272
330
22C
100
AcDbEntity
  8
0
  6
Continuous
 62
     1
100
AcDbLine
 10
132.8620583702
 20
65.05573448159999
 30
0.0
 11
134.0255099052
 21
66.2191860166
 31
0.0
  0
LINE
  5
273
330
22C
100
AcDbEntity
  8
0
  6
Continuous
 62
     1
100
AcDbLine
 10
117.2331185943
 20
50.0301924923
 30
0.0
 11
118.774122409
 21
51.571196307
 31
0.0
  0
LINE
  5
274
330
22C
100
AcDbEntity
  8
0
  6
Continuous
 62
     1
100
AcDbLine
 10
124.9381376681
 20
57.7352115662
 30
0.0
 11
125.9654778703
 21
58.76255176829999
 31
0.0
  0
LINE
  5
275
330
22C
100
AcDbEntity
  8
0
  6
Continuous
 62
     1
100
AcDbLine
 10
132.1294888038
 20
64.92656270180001
 30
0.0
 11
133.6704926185
 21
66.4675665166
 31
0.0
  0
LINE
  5
276
330
22C
100
AcDbEntity
  8
0
  6
Continuous
 62
     1
100
AcDbLine
 10
116.5005490278
 20
49.90102071249999
 30
0.0
 11
118.0415528426
 21
51.4420245272
 31
0.0
  0
LINE
  5
277
330
22C
100
AcDbEntity
  8
0
  6
Continuous
 62
     1
100
AcDbLine
 10
124.2055681017
 20
57.6060397864
 30
0.0
 11
125.2329080943
 21
58.6333797789
 31
0.0
  0
LINE
  5
278
330
22C
100
AcDbEntity
  8
0
  6
Continuous
 62
     1
100
AcDbLine
 10
131.3969192374
 20
64.79739092199999
 30
0.0
 11
132.9379230521
 21
66.3383947368
 31
0.0
  0
LINE
  5
279
330
22C
100
AcDbEntity
  8
0
  6
Continuous
 62
     1
100
AcDbLine
 10
115.7679794614
 20
49.7718489327
 30
0.0
 11
117.3089832762
 21
51.3128527474
 31
0.0
  0
LINE
  5
27A
330
22C
100
AcDbEntity
  8
0
  6
Continuous
 62
     1
100
AcDbLine
 10
123.4729985353
 20
57.4768680065
 30
0.0
 11
124.5003383182
 21
58.5042077895
 31
0.0
  0
LINE
  5
27B
330
22C
100
AcDbEntity
  8
0
  6
Continuous
 62
     1
100
AcDbLine
 10
130.6643496709
 20
64.6682191422
 30
0.0
 11
132.2053534857
 21
66.20922295689999
 31
0.0
  0
LINE
  5
27C
330
22C
100
AcDbEntity
  8
0
  6
Continuous
 62
     1
100
AcDbLine
 10
115.035409895
 20
49.6426771529
 30
0.0
 11
116.5764137098
 21
51.18368096760001
 31
0.0
  0
LINE
  5
27D
330
22C
100
AcDbEntity
  8
0
  6
Continuous
 62
     1
100
AcDbLine
 10
122.7404289689
 20
57.3476962267
 30
0.0
 11
123.7677685422
 21
58.3750358001
 31
0.0
  0
LINE
  5
27E
330
22C
100
AcDbEntity
  8
0
  6
Continuous
 62
     1
100
AcDbLine
 10
129.9317801045
 20
64.5390473624
 30
0.0
 11
131.4727839193
 21
66.0800511771
 31
0.0
  0
LINE
  5
27F
330
22C
100
AcDbEntity
  8
0
  6
Continuous
 62
     1
100
AcDbLine
 10
114.3028403286
 20
49.513505373
 30
0.0
 11
115.8438441434
 21
51.0545091878
 31
0.0
  0
LINE
  5
280
330
22C
100
AcDbEntity
  8
0
  6
Continuous
 62
     1
100
AcDbLine
 10
122.0078594025
 20
57.2185244469
 30
0.0
 11
123.0351987662
 21
58.24586381060001
 31
0.0
  0
LINE
  5
281
330
22C
100
AcDbEntity
  8
0
  6
Continuous
 62
     1
100
AcDbLine
 10
129.1992105381
 20
64.40987558260001
 30
0.0
 11
130.7402143529
 21
65.95087939729999
 31
0.0
  0
LINE
  5
282
330
22C
100
AcDbEntity
  8
0
  6
Continuous
 62
     1
100
AcDbLine
 10
113.5702707622
 20
49.3843335932
 30
0.0
 11
115.1112745769
 21
50.925337408
 31
0.0
  0
LINE
  5
283
330
22C
100
AcDbEntity
  8
0
  6
Continuous
 62
     1
100
AcDbLine
 10
121.2752898361
 20
57.0893526671
 30
0.0
 11
122.3026289902
 21
58.1166918212
 31
0.0
  0
LINE
  5
284
330
22C
100
AcDbEntity
  8
0
  6
Continuous
 62
     1
100
AcDbLine
 10
128.4666409717
 20
64.28070380279999
 30
0.0
 11
130.0076447865
 21
65.82170761749999
 31
0.0
  0
LINE
  5
285
330
22C
100
AcDbEntity
  8
0
  6
Continuous
 62
     1
100
AcDbLine
 10
112.8377011957
 20
49.2551618134
 30
0.0
 11
114.3787050105
 21
50.7961656282
 31
0.0
  0
LINE
  5
286
330
22C
100
AcDbEntity
  8
0
  6
Continuous
 62
     1
100
AcDbLine
 10
120.5427202696
 20
56.96018088729999
 30
0.0
 11
121.5700592141
 21
57.9875198318
 31
0.0
  0
LINE
  5
287
330
22C
100
AcDbEntity
  8
0
  6
Continuous
 62
     1
100
AcDbLine
 10
127.7340714053
 20
64.15153202289999
 30
0.0
 11
129.27507522
 21
65.69253583770001
 31
0.0
  0
LINE
  5
288
330
22C
100
AcDbEntity
  8
0
  6
Continuous
 62
     1
100
AcDbLine
 10
112.1051316293
 20
49.1259900336
 30
0.0
 11
113.6461354441
 21
50.6669938484
 31
0.0
  0
LINE
  5
289
330
22C
100
AcDbEntity
  8
0
  6
Continuous
 62
     1
100
AcDbLine
 10
119.8101507032
 20
56.8310091075
 30
0.0
 11
120.8374894381
 21
57.8583478424
 31
0.0
  0
LINE
  5
28A
330
22C
100
AcDbEntity
  8
0
  6
Continuous
 62
     1
100
AcDbLine
 10
127.0015018388
 20
64.02236024310001
 30
0.0
 11
128.5425056536
 21
65.5633640579
 31
0.0
  0
LINE
  5
28B
330
22C
100
AcDbEntity
  8
0
  6
Continuous
 62
     1
100
AcDbLine
 10
111.3725620629
 20
48.9968182538
 30
0.0
 11
112.9135658777
 21
50.53782206859999
 31
0.0
  0
LINE
  5
28C
330
22C
100
AcDbEntity
  8
0
  6
Continuous
 62
     1
100
AcDbLine
 10
119.0775811368
 20
56.7018373277
 30
0.0
 11
120.1049196621
 21
57.729175853
 31
0.0
  0
LINE
  5
28D
330
22C
100
AcDbEntity
  8
0
  6
Continuous
 62
     1
100
AcDbLine
 10
126.2689322724
 20
63.8931884633
 30
0.0
 11
127.8099360872
 21
65.4341922781
 31
0.0
  0
LINE
  5
28E
330
22C
100
AcDbEntity
  8
0
  6
Continuous
 62
     1
100
AcDbLine
 10
110.8212412904
 20
49.0488952679
 30
0.0
 11
112.1809963113
 21
50.4086502888
 31
0.0
  0
LINE
  5
28F
330
22C
100
AcDbEntity
  8
0
  6
Continuous
 62
     1
100
AcDbLine
 10
118.3450115704
 20
56.5726655479
 30
0.0
 11
119.372349886
 21
57.60000386359999
 31
0.0
  0
LINE
  5
290
330
22C
100
AcDbEntity
  8
0
  6
Continuous
 62
     1
100
AcDbLine
 10
125.536362706
 20
63.7640166835
 30
0.0
 11
127.0773665208
 21
65.30502049829999
 31
0.0
  0
LINE
  5
291
330
22C
100
AcDbEntity
  8
0
  6
Continuous
 62
     1
100
AcDbLine
 10
110.7307942364
 20
49.56184600060001
 30
0.0
 11
111.809816724
 21
50.6408684881
 31
0.0
  0
LINE
  5
292
330
22C
100
AcDbEntity
  8
0
  6
Continuous
 62
     1
100
AcDbLine
 10
117.612442004
 20
56.44349376810001
 30
0.0
 11
118.63978011
 21
57.4708318742
 31
0.0
  0
LINE
  5
293
330
22C
100
AcDbEntity
  8
0
  6
Continuous
 62
     1
100
AcDbLine
 10
124.8037931396
 20
63.6348449037
 30
0.0
 11
126.3447969544
 21
65.17584871850001
 31
0.0
  0
LINE
  5
294
330
22C
100
AcDbEntity
  8
0
  6
Continuous
 62
     1
100
AcDbLine
 10
110.6403471825
 20
50.07479673329999
 30
0.0
 11
111.71936967
 21
51.1538192208
 31
0.0
  0
LINE
  5
295
330
22C
100
AcDbEntity
  8
0
  6
Continuous
 62
     1
100
AcDbLine
 10
116.8798724375
 20
56.3143219883
 30
0.0
 11
117.907210334
 21
57.3416598847
 31
0.0
  0
LINE
  5
296
330
22C
100
AcDbEntity
  8
0
  6
Continuous
 62
     1
100
AcDbLine
 10
124.0712235732
 20
63.5056731239
 30
0.0
 11
125.6122273879
 21
65.0466769387
 31
0.0
  0
LINE
  5
297
330
22C
100
AcDbEntity
  8
0
  6
Continuous
 62
     1
100
AcDbLine
 10
110.5499001286
 20
50.5877474659
 30
0.0
 11
111.6289226161
 21
51.6667699534
 31
0.0
  0
LINE
  5
298
330
22C
100
AcDbEntity
  8
0
  6
Continuous
 62
     1
100
AcDbLine
 10
116.1473028711
 20
56.18515020850001
 30
0.0
 11
117.174640558
 21
57.2124878953
 31
0.0
  0
LINE
  5
299
330
22C
100
AcDbEntity
  8
0
  6
Continuous
 62
     1
100
AcDbLine
 10
123.3386540068
 20
63.3765013441
 30
0.0
 11
124.8796578215
 21
64.9175051589
 31
0.0
  0
LINE
  5
29A
330
22C
100
AcDbEntity
  8
0
  6
Continuous
 62
     1
100
AcDbLine
 10
110.4594530746
 20
51.1006981986
 30
0.0
 11
111.5384755621
 21
52.17972068609999
 31
0.0
  0
LINE
  5
29B
330
22C
100
AcDbEntity
  8
0
  6
Continuous
 62
     1
100
AcDbLine
 10
115.4147333047
 20
56.0559784287
 30
0.0
 11
116.4420707819
 21
57.0833159059
 31
0.0
  0
LINE
  5
29C
330
22C
100
AcDbEntity
  8
0
  6
Continuous
 62
     1
100
AcDbLine
 10
122.6060844403
 20
63.2473295643
 30
0.0
 11
124.1470882551
 21
64.7883333791
 31
0.0
  0
LINE
  5
29D
330
22C
100
AcDbEntity
  8
0
  6
Continuous
 62
     1
100
AcDbLine
 10
110.3690060207
 20
51.6136489313
 30
0.0
 11
111.4480285082
 21
52.6926714188
 31
0.0
  0
LINE
  5
29E
330
22C
100
AcDbEntity
  8
0
  6
Continuous
 62
     1
100
AcDbLine
 10
114.6821637383
 20
55.9268066489
 30
0.0
 11
115.7095010059
 21
56.95414391649999
 31
0.0
  0
LINE
  5
29F
330
22C
100
AcDbEntity
  8
0
  6
Continuous
 62
     1
100
AcDbLine
 10
121.8735148739
 20
63.1181577845
 30
0.0
 11
123.4145186887
 21
64.6591615993
 31
0.0
  0
LINE
  5
2A0
330
22C
100
AcDbEntity
  8
0
  6
Continuous
 62
     1
100
AcDbLine
 10
110.2785589667
 20
52.1265996639
 30
0.0
 11
111.3575814542
 21
53.2056221514
 31
0.0
  0
LINE
  5
2A1
330
22C
100
AcDbEntity
  8
0
  6
Continuous
 62
     1
100
AcDbLine
 10
113.9495941719
 20
55.7976348691
 30
0.0
 11
114.9769312299
 21
56.8249719271
 31
0.0
  0
LINE
  5
2A2
330
22C
100
AcDbEntity
  8
0
  6
Continuous
 62
     1
100
AcDbLine
 10
121.1409453075
 20
62.9889860047
 30
0.0
 11
122.6819491223
 21
64.5299898195
 31
0.0
  0
LINE
  5
2A3
330
22C
100
AcDbEntity
  8
0
  6
Continuous
 62
     1
100
AcDbLine
 10
110.1881119128
 20
52.6395503966
 30
0.0
 11
111.2671344003
 21
53.7185728841
 31
0.0
  0
LINE
  5
2A4
330
22C
100
AcDbEntity
  8
0
  6
Continuous
 62
     1
100
AcDbLine
 10
113.2170246055
 20
55.6684630893
 30
0.0
 11
114.2443614538
 21
56.6957999377
 31
0.0
  0
LINE
  5
2A5
330
22C
100
AcDbEntity
  8
0
  6
Continuous
 62
     1
100
AcDbLine
 10
120.4083757411
 20
62.85981422489999
 30
0.0
 11
121.9493795559
 21
64.4008180397
 31
0.0
  0
LINE
  5
2A6
330
22C
100
AcDbEntity
  8
0
  6
Continuous
 62
     1
100
AcDbLine
 10
110.0976648588
 20
53.15250112930001
 30
0.0
 11
111.1766873464
 21
54.2315236168
 31
0.0
  0
LINE
  5
2A7
330
22C
100
AcDbEntity
  8
0
  6
Continuous
 62
     1
100
AcDbLine
 10
112.484455039
 20
55.5392913095
 30
0.0
 11
113.5117916778
 21
56.56662794819999
 31
0.0
  0
LINE
  5
2A8
330
22C
100
AcDbEntity
  8
0
  6
Continuous
 62
     1
100
AcDbLine
 10
119.6758061747
 20
62.7306424451
 30
0.0
 11
121.2168099894
 21
64.27164625989999
 31
0.0
  0
LINE
  5
2A9
330
22C
100
AcDbEntity
  8
0
  6
Continuous
 62
     1
100
AcDbLine
 10
110.0072178049
 20
53.66545186189999
 30
0.0
 11
111.0862402924
 21
54.7444743495
 31
0.0
  0
LINE
  5
2AA
330
22C
100
AcDbEntity
  8
0
  6
Continuous
 62
     1
100
AcDbLine
 10
111.7518854726
 20
55.4101195297
 30
0.0
 11
112.7792219018
 21
56.4374559588
 31
0.0
  0
LINE
  5
2AB
330
22C
100
AcDbEntity
  8
0
  6
Continuous
 62
     1
100
AcDbLine
 10
118.9432366082
 20
62.6014706653
 30
0.0
 11
120.484240423
 21
64.14247448010001
 31
0.0
  0
LINE
  5
2AC
330
22C
100
AcDbEntity
  8
0
  6
Continuous
 62
     1
100
AcDbLine
 10
109.916770751
 20
54.1784025946
 30
0.0
 11
110.9957932385
 21
55.2574250821
 31
0.0
  0
LINE
  5
2AD
330
22C
100
AcDbEntity
  8
0
  6
Continuous
 62
     1
100
AcDbLine
 10
111.0193159062
 20
55.2809477499
 30
0.0
 11
112.0466521258
 21
56.3082839694
 31
0.0
  0
LINE
  5
2AE
330
22C
100
AcDbEntity
  8
0
  6
Continuous
 62
     1
100
AcDbLine
 10
118.2106670418
 20
62.4722988855
 30
0.0
 11
119.7516708566
 21
64.0133027003
 31
0.0
  0
LINE
  5
2AF
330
22C
100
AcDbEntity
  8
0
  6
Continuous
 62
     1
100
AcDbLine
 10
109.826323697
 20
54.69135332729999
 30
0.0
 11
111.3140823497
 21
56.17911198
 31
0.0
  0
LINE
  5
2B0
330
22C
100
AcDbEntity
  8
0
  6
Continuous
 62
     1
100
AcDbLine
 10
117.4780974754
 20
62.3431271057
 30
0.0
 11
119.0191012902
 21
63.8841309205
 31
0.0
  0
LINE
  5
2B1
330
22C
100
AcDbEntity
  8
0
  6
Continuous
 62
     1
100
AcDbLine
 10
109.7358766431
 20
55.2043040599
 30
0.0
 11
110.8148991306
 21
56.2833265475
 31
0.0
  0
LINE
  5
2B2
330
22C
100
AcDbEntity
  8
0
  6
Continuous
 62
     1
100
AcDbLine
 10
116.745527909
 20
62.2139553259
 30
0.0
 11
118.2865317238
 21
63.7549591406
 31
0.0
  0
LINE
  5
2B3
330
22C
100
AcDbEntity
  8
0
  6
Continuous
 62
     1
100
AcDbLine
 10
109.6454295891
 20
55.7172547926
 30
0.0
 11
110.7244520766
 21
56.7962772801
 31
0.0
  0
LINE
  5
2B4
330
22C
100
AcDbEntity
  8
0
  6
Continuous
 62
     1
100
AcDbLine
 10
116.0129583426
 20
62.0847835461
 30
0.0
 11
117.5539621574
 21
63.62578736079999
 31
0.0
  0
LINE
  5
2B5
330
22C
100
AcDbEntity
  8
0
  6
Continuous
 62
     1
100
AcDbLine
 10
109.5549825352
 20
56.2302055253
 30
0.0
 11
110.6340050227
 21
57.3092280128
 31
0.0
  0
LINE
  5
2B6
330
22C
100
AcDbEntity
  8
0
  6
Continuous
 62
     1
100
AcDbLine
 10
115.2803887762
 20
61.9556117663
 30
0.0
 11
116.8213925909
 21
63.496615581
 31
0.0
  0
LINE
  5
2B7
330
22C
100
AcDbEntity
  8
0
  6
Continuous
 62
     1
100
AcDbLine
 10
109.4645354812
 20
56.743156258
 30
0.0
 11
110.5435579688
 21
57.8221787455
 31
0.0
  0
LINE
  5
2B8
330
22C
100
AcDbEntity
  8
0
  6
Continuous
 62
     1
100
AcDbLine
 10
114.5478192097
 20
61.8264399865
 30
0.0
 11
116.0888230245
 21
63.36744380119999
 31
0.0
  0
LINE
  5
2B9
330
22C
100
AcDbEntity
  8
0
  6
Continuous
 62
     1
100
AcDbLine
 10
109.3740884273
 20
57.2561069906
 30
0.0
 11
110.4531109148
 21
58.3351294781
 31
0.0
  0
LINE
  5
2BA
330
22C
100
AcDbEntity
  8
0
  6
Continuous
 62
     1
100
AcDbLine
 10
113.8152496433
 20
61.6972682066
 30
0.0
 11
115.3562534581
 21
63.2382720214
 31
0.0
  0
LINE
  5
2BB
330
22C
100
AcDbEntity
  8
0
  6
Continuous
 62
     1
100
AcDbLine
 10
109.2836413733
 20
57.7690577233
 30
0.0
 11
110.3626638609
 21
58.8480802108
 31
0.0
  0
LINE
  5
2BC
330
22C
100
AcDbEntity
  8
0
  6
Continuous
 62
     1
100
AcDbLine
 10
113.0826800769
 20
61.5680964268
 30
0.0
 11
114.6236838917
 21
63.1091002416
 31
0.0
  0
LINE
  5
2BD
330
22C
100
AcDbEntity
  8
0
  6
Continuous
 62
     1
100
AcDbLine
 10
109.1931943194
 20
58.28200845600001
 30
0.0
 11
110.2722168069
 21
59.3610309435
 31
0.0
  0
LINE
  5
2BE
330
22C
100
AcDbEntity
  8
0
  6
Continuous
 62
     1
100
AcDbLine
 10
112.3501105105
 20
61.438924647
 30
0.0
 11
113.8911143253
 21
62.9799284618
 31
0.0
  0
LINE
  5
2BF
330
22C
100
AcDbEntity
  8
0
  6
Continuous
 62
     1
100
AcDbLine
 10
109.1027472654999
 20
58.7949591886
 30
0.0
 11
110.181769753
 21
59.87398167609999
 31
0.0
  0
LINE
  5
2C0
330
22C
100
AcDbEntity
  8
0
  6
Continuous
 62
     1
100
AcDbLine
 10
111.6175409441
 20
61.3097528672
 30
0.0
 11
113.1585447588
 21
62.850756682
 31
0.0
  0
LINE
  5
2C1
330
22C
100
AcDbEntity
  8
0
  6
Continuous
 62
     1
100
AcDbLine
 10
109.0123002115
 20
59.3079099213
 30
0.0
 11
110.091322699
 21
60.3869324088
 31
0.0
  0
LINE
  5
2C2
330
22C
100
AcDbEntity
  8
0
  6
Continuous
 62
     1
100
AcDbLine
 10
110.8849713776
 20
61.1805810874
 30
0.0
 11
112.4259751924
 21
62.7215849022
 31
0.0
  0
LINE
  5
2C3
330
22C
100
AcDbEntity
  8
0
  6
Continuous
 62
     1
100
AcDbLine
 10
108.9218531576
 20
59.82086065399999
 30
0.0
 11
110.0008756451
 21
60.8998831415
 31
0.0
  0
LINE
  5
2C4
330
22C
100
AcDbEntity
  8
0
  6
Continuous
 62
     1
100
AcDbLine
 10
110.1524018112
 20
61.05140930760001
 30
0.0
 11
111.693405626
 21
62.5924131224
 31
0.0
  0
LINE
  5
2C5
330
22C
100
AcDbEntity
  8
0
  6
Continuous
 62
     1
100
AcDbLine
 10
108.8314061036
 20
60.3338113866
 30
0.0
 11
110.9608360596
 21
62.46324134259999
 31
0.0
  0
LINE
  5
2C6
330
22C
100
AcDbEntity
  8
0
  6
Continuous
 62
     1
100
AcDbLine
 10
108.7409590497
 20
60.8467621193
 30
0.0
 11
110.2282664932
 21
62.33406956279999
 31
0.0
  0
LINE
  5
2C7
330
22C
100
AcDbEntity
  8
0
  6
Continuous
 62
     1
100
AcDbLine
 10
108.6505119957
 20
61.359712852
 30
0.0
 11
109.4956969268
 21
62.204897783
 31
0.0
  0
LINE
  5
2C8
330
22C
100
AcDbEntity
  8
0
  6
Continuous
 62
     1
100
AcDbLine
 10
108.5600649418
 20
61.8726635846
 30
0.0
 11
108.7631273603
 21
62.07572600319999
 31
0.0
  0
ENDBLK
  5
2C9
330
22C
100
AcDbEntity
  8
0
  6
ByBlock
 62
     0
100
AcDbBlockEnd
  0
BLOCK
  5
2CA
330
22D
100
AcDbEntity
  8
0
  6
Continuous
 62
     2
100
AcDbBlockBegin
  2
L03-NOTE_SPECS_BAINS_BL0
 70
     0
 10
160.6667355398
 20
55.3331171009
 30
0.0
  3
L03-NOTE_SPECS_BAINS_BL0
  1

  0
TEXT
  5
2CB
330
22D
100
AcDbEntity
  8
0
  6
Continuous
 62
     2
100
AcDbText
 10
144.4189504636
 20
63.106550492
 30
0.0
 40
0.5
  1
Infomations Techniques/Technical Infomations
 41
1.013057755184423
  7
TEXTSTYLE_2
 72
     5
 11
159.0115430562
 21
63.106550492
 31
0.0
100
AcDbText
  0
TEXT
  5
2CC
330
22D
100
AcDbEntity
  8
0
  6
Continuous
 62
     2
100
AcDbText
 10
144.6667355398
 20
61.6664504343
 30
0.0
 40
0.6666666667
  1
NOMBRE DE JETS:     
 41
1.011916664616728
  7
TEXTSTYLE_2
 72
     5
 11
154.5111799842
 21
61.6664504343
 31
0.0
100
AcDbText
  0
TEXT
  5
2CD
330
22D
100
AcDbEntity
  8
0
  6
Continuous
 62
     2
100
AcDbText
 10
154.5111799842
 20
61.6664504343
 30
0.0
 40
0.6666666667
  1
44
 41
0.9867720164271595
  7
TEXTSTYLE_2
 72
     5
 11
155.5334022064
 21
61.6664504343
 31
0.0
100
AcDbText
  0
TEXT
  5
2CE
330
22D
100
AcDbEntity
  8
0
  6
Continuous
 62
     2
100
AcDbText
 10
144.6667355398
 20
60.6664504343
 30
0.0
 40
0.6666666667
  1
 
 41
1.059207179591827
  7
TEXTSTYLE_2
 72
     5
 11
144.9408096137999
 21
60.6664504343
 31
0.0
100
AcDbText
  0
TEXT
  5
2CF
330
22D
100
AcDbEntity
  8
0
  6
Continuous
 62
     2
100
AcDbText
 10
144.6667355398
 20
59.6664504343
 30
0.0
 40
0.6666666667
  1
NIVEAU D'EAU              GALLONS(US)        LITRES        GALLONS(UK)
 41
1.01395463634499
  7
TEXTSTYLE_2
 72
     5
 11
175.2296985027
 21
59.6664504343
 31
0.0
100
AcDbText
  0
TEXT
  5
2D0
330
22D
100
AcDbEntity
  8
0
  6
Continuous
 62
     2
100
AcDbText
 10
144.6667355398
 20
58.66645043430001
 30
0.0
 40
0.6666666667
  1
PLEIN
 41
1.002633071523468
  7
TEXTSTYLE_2
 72
     5
 11
147.3655009719
 21
58.66645043430001
 31
0.0
100
AcDbText
  0
TEXT
  5
2D1
330
22D
100
AcDbEntity
  8
0
  6
Continuous
 62
     2
100
AcDbText
 10
144.6667355398
 20
57.6664504343
 30
0.0
 40
0.6666666667
  1
HAUT T.PLEIN
 41
1.00668923031733
  7
TEXTSTYLE_2
 72
     5
 11
151.0222910953
 21
57.6664504343
 31
0.0
100
AcDbText
  0
TEXT
  5
2D2
330
22D
100
AcDbEntity
  8
0
  6
Continuous
 62
     2
100
AcDbText
 10
144.6667355398
 20
56.6664504343
 30
0.0
 40
0.6666666667
  1
MILIEU T.PLEIN
 41
1.007652585888674
  7
TEXTSTYLE_2
 72
     5
 11
151.6025380089
 21
56.6664504343
 31
0.0
100
AcDbText
  0
TEXT
  5
2D3
330
22D
100
AcDbEntity
  8
0
  6
Continuous
 62
     2
100
AcDbText
 10
144.6667355398
 20
55.6664504343
 30
0.0
 40
0.6666666667
  1
BAS T.PLEIN
 41
1.00530865596344
  7
TEXTSTYLE_2
 72
     5
 11
150.338340478
 21
55.6664504343
 31
0.0
100
AcDbText
  0
TEXT
  5
2D4
330
22D
100
AcDbEntity
  8
0
  6
Continuous
 62
     2
100
AcDbText
 10
144.6667355398
 20
54.6664504343
 30
0.0
 40
0.6666666667
  1
3" EN BAS T.PLEIN
 41
1.018706183083045
  7
TEXTSTYLE_2
 72
     5
 11
153.1235256631999
 21
54.6664504343
 31
0.0
100
AcDbText
  0
TEXT
  5
2D5
330
22D
100
AcDbEntity
  8
0
  6
Continuous
 62
     2
100
AcDbText
 10
144.6667355398
 20
53.66645043430001
 30
0.0
 40
0.6666666667
  1
 
 41
1.059207179591827
  7
TEXTSTYLE_2
 72
     5
 11
144.9408096137999
 21
53.66645043430001
 31
0.0
100
AcDbText
  0
TEXT
  5
2D6
330
22D
100
AcDbEntity
  8
0
  6
Continuous
 62
     2
100
AcDbText
 10
144.4665740341
 20
53.1196635094
 30
0.0
 40
0.5
  1
Legende/Legend
 41
1.009227457802888
  7
TEXTSTYLE_2
 72
     5
 11
149.7591666267
 21
53.1196635094
 31
0.0
100
AcDbText
  0
TEXT
  5
2D7
330
22D
100
AcDbEntity
  8
0
  6
Continuous
 62
     2
100
AcDbText
 10
150.9954089782
 20
51.6083985317
 30
0.0
 40
0.6666666667
  1
ZONE DE ROBINETTERIE
 41
0.9978908867311707
  7
TEXTSTYLE_2
 72
     5
 11
162.2521991017
 21
51.6083985317
 31
0.0
100
AcDbText
  0
TEXT
  5
2D8
330
22D
100
AcDbEntity
  8
0
  6
Continuous
 62
     2
100
AcDbText
 10
145.9156844113
 20
50.1131540173
 30
0.0
 40
0.6666666667
  1
L   :  SYSTEME LED       DC   :  DOUBLE DOSSIER CHAUFFANT
 41
1.010592021543008
  7
TEXTSTYLE_2
 72
     5
 11
173.6860547816
 21
50.1131540173
 31
0.0
100
AcDbText
  0
TEXT
  5
2D9
330
22D
100
AcDbEntity
  8
0
  6
Continuous
 62
     2
100
AcDbText
 10
145.9156844113
 20
48.77982068399999
 30
0.0
 40
0.6666666667
  1
C   :  CONTROLE
 41
1.009046208423068
  7
TEXTSTYLE_2
 72
     5
 11
153.3823510779
 21
48.77982068399999
 31
0.0
100
AcDbText
  0
TEXT
  5
2DA
330
22D
100
AcDbEntity
  8
0
  6
Continuous
 62
     2
100
AcDbText
 10
145.9156844113
 20
47.4464873507
 30
0.0
 40
0.6666666667
  1
T   :  MOTEUR
 41
1.013017531859368
  7
TEXTSTYLE_2
 72
     5
 11
152.1527214483
 21
47.4464873507
 31
0.0
100
AcDbText
  0
TEXT
  5
2DB
330
22D
100
AcDbEntity
  8
0
  6
Continuous
 62
     2
100
AcDbText
 10
157.4994322391
 20
58.66645043430001
 30
0.0
 40
0.6666666667
  1
96
 41
0.9867720164271595
  7
TEXTSTYLE_2
 72
     5
 11
158.5216544613
 21
58.66645043430001
 31
0.0
100
AcDbText
  0
TEXT
  5
2DC
330
22D
100
AcDbEntity
  8
0
  6
Continuous
 62
     2
100
AcDbText
 10
157.4994322391
 20
57.6664504343
 30
0.0
 40
0.6666666667
  1
73
 41
0.9867720164271595
  7
TEXTSTYLE_2
 72
     5
 11
158.5216544613
 21
57.6664504343
 31
0.0
100
AcDbText
  0
TEXT
  5
2DD
330
22D
100
AcDbEntity
  8
0
  6
Continuous
 62
     2
100
AcDbText
 10
157.4994322391
 20
56.6664504343
 30
0.0
 40
0.6666666667
  1
72
 41
0.9867720164271595
  7
TEXTSTYLE_2
 72
     5
 11
158.5216544613
 21
56.6664504343
 31
0.0
100
AcDbText
  0
TEXT
  5
2DE
330
22D
100
AcDbEntity
  8
0
  6
Continuous
 62
     2
100
AcDbText
 10
157.4994322391
 20
55.6664504343
 30
0.0
 40
0.6666666667
  1
71
 41
0.9867720164271595
  7
TEXTSTYLE_2
 72
     5
 11
158.5216544613
 21
55.6664504343
 31
0.0
100
AcDbText
  0
TEXT
  5
2DF
330
22D
100
AcDbEntity
  8
0
  6
Continuous
 62
     2
100
AcDbText
 10
157.4994322391
 20
54.6664504343
 30
0.0
 40
0.6666666667
  1
55
 41
0.9867720164271595
  7
TEXTSTYLE_2
 72
     5
 11
158.5216544613
 21
54.6664504343
 31
0.0
100
AcDbText
  0
TEXT
  5
2E0
330
22D
100
AcDbEntity
  8
0
  6
Continuous
 62
     2
100
AcDbText
 10
164.4196381828
 20
58.68352983640001
 30
0.0
 40
0.6666666667
  1
364
 41
0.9867720164271688
  7
TEXTSTYLE_2
 72
     5
 11
165.9529715161
 21
58.68352983640001
 31
0.0
100
AcDbText
  0
TEXT
  5
2E1
330
22D
100
AcDbEntity
  8
0
  6
Continuous
 62
     2
100
AcDbText
 10
164.4196381828
 20
57.6835298364
 30
0.0
 40
0.6666666667
  1
276
 41
0.9867720164271688
  7
TEXTSTYLE_2
 72
     5
 11
165.9529715161
 21
57.6835298364
 31
0.0
100
AcDbText
  0
TEXT
  5
2E2
330
22D
100
AcDbEntity
  8
0
  6
Continuous
 62
     2
100
AcDbText
 10
164.4196381828
 20
56.68352983640001
 30
0.0
 40
0.6666666667
  1
272
 41
0.9867720164271688
  7
TEXTSTYLE_2
 72
     5
 11
165.9529715161
 21
56.68352983640001
 31
0.0
100
AcDbText
  0
TEXT
  5
2E3
330
22D
100
AcDbEntity
  8
0
  6
Continuous
 62
     2
100
AcDbText
 10
164.4196381828
 20
55.6835298364
 30
0.0
 40
0.6666666667
  1
268
 41
0.9867720164271688
  7
TEXTSTYLE_2
 72
     5
 11
165.9529715161
 21
55.6835298364
 31
0.0
100
AcDbText
  0
TEXT
  5
2E4
330
22D
100
AcDbEntity
  8
0
  6
Continuous
 62
     2
100
AcDbText
 10
164.4196381828
 20
54.6835298364
 30
0.0
 40
0.6666666667
  1
208
 41
0.9867720164271688
  7
TEXTSTYLE_2
 72
     5
 11
165.9529715161
 21
54.6835298364
 31
0.0
100
AcDbText
  0
TEXT
  5
2E5
330
22D
100
AcDbEntity
  8
0
  6
Continuous
 62
     2
100
AcDbText
 10
171.3642771203
 20
58.66645043430001
 30
0.0
 40
0.6666666667
  1
80
 41
0.9867720164271595
  7
TEXTSTYLE_2
 72
     5
 11
172.3864993425
 21
58.66645043430001
 31
0.0
100
AcDbText
  0
TEXT
  5
2E6
330
22D
100
AcDbEntity
  8
0
  6
Continuous
 62
     2
100
AcDbText
 10
171.3642771203
 20
57.6664504343
 30
0.0
 40
0.6666666667
  1
61
 41
0.9867720164271595
  7
TEXTSTYLE_2
 72
     5
 11
172.3864993425
 21
57.6664504343
 31
0.0
100
AcDbText
  0
TEXT
  5
2E7
330
22D
100
AcDbEntity
  8
0
  6
Continuous
 62
     2
100
AcDbText
 10
171.3642771203
 20
56.6664504343
 30
0.0
 40
0.6666666667
  1
60
 41
0.9867720164271595
  7
TEXTSTYLE_2
 72
     5
 11
172.3864993425
 21
56.6664504343
 31
0.0
100
AcDbText
  0
TEXT
  5
2E8
330
22D
100
AcDbEntity
  8
0
  6
Continuous
 62
     2
100
AcDbText
 10
171.3642771203
 20
55.6664504343
 30
0.0
 40
0.6666666667
  1
59
 41
0.9867720164271595
  7
TEXTSTYLE_2
 72
     5
 11
172.3864993425
 21
55.6664504343
 31
0.0
100
AcDbText
  0
TEXT
  5
2E9
330
22D
100
AcDbEntity
  8
0
  6
Continuous
 62
     2
100
AcDbText
 10
171.3642771203
 20
54.6664504343
 30
0.0
 40
0.6666666667
  1
46
 41
0.9867720164271595
  7
TEXTSTYLE_2
 72
     5
 11
172.3864993425
 21
54.6664504343
 31
0.0
100
AcDbText
  0
LINE
  5
2EA
330
22D
100
AcDbEntity
  8
0
  6
Continuous
 62
     7
100
AcDbLine
 10
144.0000688731
 20
63.9997837676
 30
0.0
 11
144.0000688731
 21
46.6664504343
 31
0.0
  0
LINE
  5
2EB
330
22D
100
AcDbEntity
  8
0
  6
Continuous
 62
     7
100
AcDbLine
 10
144.0000688731
 20
63.9997837676
 30
0.0
 11
177.3334022064
 21
63.9997837676
 31
0.0
  0
LINE
  5
2EC
330
22D
100
AcDbEntity
  8
0
  6
Continuous
 62
     7
100
AcDbLine
 10
177.3334022064
 20
63.9997837676
 30
0.0
 11
177.3334022064
 21
46.6664504343
 31
0.0
  0
LINE
  5
2ED
330
22D
100
AcDbEntity
  8
0
  6
Continuous
 62
     7
100
AcDbLine
 10
144.0000688731
 20
46.6664504343
 30
0.0
 11
177.3334022064
 21
46.6664504343
 31
0.0
  0
LINE
  5
2EE
330
22D
100
AcDbEntity
  8
0
  6
Continuous
 62
     7
100
AcDbLine
 10
145.3334022064
 20
53.9997837676
 30
0.0
 11
176.0000688731
 21
53.9997837676
 31
0.0
  0
LINE
  5
2EF
330
22D
100
AcDbEntity
  8
0
  6
Continuous
 62
     7
100
AcDbLine
 10
145.3334022064
 20
60.9997837676
 30
0.0
 11
176.0000688731
 21
60.9997837676
 31
0.0
  0
LINE
  5
2F0
330
22D
100
AcDbEntity
  8
0
  6
Continuous
 62
     7
100
AcDbLine
 10
144.8089754324
 20
52.377948272
 30
0.0
 11
144.43995469
 21
52.0089275296
 31
0.0
  0
LINE
  5
2F1
330
22D
100
AcDbEntity
  8
0
  6
Continuous
 62
     7
100
AcDbLine
 10
145.475642099
 20
52.377948272
 30
0.0
 11
144.6776263086
 21
51.57993248149999
 31
0.0
  0
LINE
  5
2F2
330
22D
100
AcDbEntity
  8
0
  6
Continuous
 62
     7
100
AcDbLine
 10
146.1423087657
 20
52.377948272
 30
0.0
 11
145.3442929753
 21
51.57993248149999
 31
0.0
  0
LINE
  5
2F3
330
22D
100
AcDbEntity
  8
0
  6
Continuous
 62
     7
100
AcDbLine
 10
146.8089754324
 20
52.377948272
 30
0.0
 11
146.0109596419
 21
51.57993248149999
 31
0.0
  0
LINE
  5
2F4
330
22D
100
AcDbEntity
  8
0
  6
Continuous
 62
     7
100
AcDbLine
 10
147.475642099
 20
52.377948272
 30
0.0
 11
146.6776263086
 21
51.57993248149999
 31
0.0
  0
LINE
  5
2F5
330
22D
100
AcDbEntity
  8
0
  6
Continuous
 62
     7
100
AcDbLine
 10
148.1423087657
 20
52.377948272
 30
0.0
 11
147.3442929753
 21
51.57993248149999
 31
0.0
  0
LINE
  5
2F6
330
22D
100
AcDbEntity
  8
0
  6
Continuous
 62
     7
100
AcDbLine
 10
148.8089754324
 20
52.377948272
 30
0.0
 11
148.0109596419
 21
51.57993248149999
 31
0.0
  0
LINE
  5
2F7
330
22D
100
AcDbEntity
  8
0
  6
Continuous
 62
     7
100
AcDbLine
 10
149.475642099
 20
52.377948272
 30
0.0
 11
148.6776263086
 21
51.57993248149999
 31
0.0
  0
LINE
  5
2F8
330
22D
100
AcDbEntity
  8
0
  6
Continuous
 62
     7
100
AcDbLine
 10
150.1423087657
 20
52.377948272
 30
0.0
 11
149.3442929753
 21
51.57993248149999
 31
0.0
  0
LINE
  5
2F9
330
22D
100
AcDbEntity
  8
0
  6
Continuous
 62
     7
100
AcDbLine
 10
150.5857961998
 20
52.15476903939999
 30
0.0
 11
150.0109596419
 21
51.57993248149999
 31
0.0
  0
ELLIPSE
  5
2FA
330
22D
100
AcDbEntity
  8
0
  6
Continuous
 62
     7
100
AcDbEllipse
 10
146.1454713553
 20
50.4307314745
 30
0.0
 11
1.0473539356
 21
0.0
 31
0.0
210
0.0
220
0.0
230
1.0
 40
0.4938647983
 41
0.0
 42
6.283185307179586
  0
ELLIPSE
  5
2FB
330
22D
100
AcDbEntity
  8
0
  6
Continuous
 62
     7
100
AcDbEllipse
 10
146.1454713553
 20
49.09739814119999
 30
0.0
 11
1.0473539356
 21
0.0
 31
0.0
210
0.0
220
0.0
230
1.0
 40
0.4938647983
 41
0.0
 42
6.283185307179586
  0
ELLIPSE
  5
2FC
330
22D
100
AcDbEntity
  8
0
  6
Continuous
 62
     7
100
AcDbEllipse
 10
146.1454713553
 20
47.7640648079
 30
0.0
 11
1.0473539356
 21
0.0
 31
0.0
210
0.0
220
0.0
230
1.0
 40
0.4938647983
 41
0.0
 42
6.283185307179586
  0
ELLIPSE
  5
2FD
330
22D
100
AcDbEntity
  8
0
  6
Continuous
 62
     7
100
AcDbEllipse
 10
157.1641069364
 20
50.4502528316
 30
0.0
 11
1.0473539356
 21
0.0
 31
0.0
210
0.0
220
0.0
230
1.0
 40
0.4938647983
 41
0.0
 42
6.283185307179586
  0
ENDBLK
  5
2FE
330
22D
100
AcDbEntity
  8
0
  6
ByBlock
 62
     0
100
AcDbBlockEnd
  0
ENDSEC
  0
SECTION
  2
ENTITIES
  0
LINE
  5
2E15
330
226
100
AcDbEntity
  8
0
  6
Continuous
 62
     7
100
AcDbLine
 10
99.0716525152
 20
23.3997508588
 30
0.0
 11
99.0716525152
 21
46.3883639863
 31
0.0
  0
LINE
  5
2E2E
330
226
100
AcDbEntity
  8
0
  6
Continuous
 62
     7
100
AcDbLine
 10
99.0716525152
 20
23.3997508588
 30
0.0
 11
128.0716525152
 21
23.3997508588
 31
0.0
  0
LWPOLYLINE
  5
2EC4
330
226
100
AcDbEntity
  8
DEFAULT_2
  6
HIDDEN
 62
     8
100
AcDbPolyline
 90
       33
 70
     0
 43
0.0
 10
103.339639296
 20
28.5521364519
 10
103.346107808
 20
28.5077287902
 10
103.3545732722
 20
28.463602127
 10
103.3650282007
 20
28.4198305868
 10
103.3774571521
 20
28.3765241386
 10
103.3918385934
 20
28.3337909541
 10
103.4081433901
 20
28.2917203713
 10
103.4263363624
 20
28.2504076414
 10
103.44638205
 20
28.2099448385
 10
103.4682397031
 20
28.1704243763
 10
103.4918586962999
 20
28.1319309926
 10
103.5171833768
 20
28.0945505543
 10
103.5441648127
 20
28.0583573865
 10
103.5727485425
 20
28.02342763
 10
103.6028770538
 20
27.9898244698
 10
103.6344906288
 20
27.9576120996
 10
103.6675298891
 20
27.9268554808
 10
103.7019332279
 20
27.8976172119
 10
103.7376312127
 20
27.8699532151
 10
103.774553825
 20
27.8439183404
 10
103.8126313696
 20
27.8195680236
 10
103.8517954843
 20
27.7969527568
 10
103.8919579681
 20
27.7761224052
 10
103.9330377738
 20
27.7571203196
 10
103.9749338284
 20
27.739997739
 10
104.0175469888
 20
27.724796313
 10
104.0607721285
 20
27.7115457398
 10
104.1045033897
 20
27.7002715167
 10
104.1486342986
 20
27.6909962799
 10
104.1930576643
 20
27.68373432320001
 10
104.2376653167
 20
27.6784867227
 10
104.2823421554
 20
27.6752509444
 10
104.3152463132
 20
27.6741501301
  0
LINE
  5
2EC6
330
226
100
AcDbEntity
  8
DEFAULT_2
  6
HIDDEN
 62
     8
100
AcDbLine
 10
103.3396410135
 20
28.5521224641
 30
0.0
 11
101.1893842131
 21
46.0645587557
 31
0.0
  0
LINE
  5
3078
330
226
100
AcDbEntity
  8
DEFAULT_2
  6
HIDDEN
 62
     8
100
AcDbLine
 10
119.9408594292
 20
27.5729993647
 30
0.0
 11
120.1736365544
 21
27.5823555797
 31
0.0
  0
LINE
  5
3079
330
226
100
AcDbEntity
  8
DEFAULT_2
  6
HIDDEN
 62
     8
100
AcDbLine
 10
120.1736365544
 20
27.5823555797
 30
0.0
 11
120.2860980049
 21
27.5868731614
 31
0.0
  0
LINE
  5
307A
330
226
100
AcDbEntity
  8
DEFAULT_2
  6
HIDDEN
 62
     8
100
AcDbLine
 10
119.6976275475
 20
27.5632373483
 30
0.0
 11
119.9408594292
 21
27.5729993647
 31
0.0
  0
LINE
  5
307B
330
226
100
AcDbEntity
  8
DEFAULT_2
  6
HIDDEN
 62
     8
100
AcDbLine
 10
120.2860980049
 20
27.5868731614
 30
0.0
 11
120.5031878817
 21
27.5955747458
 31
0.0
  0
LINE
  5
307C
330
226
100
AcDbEntity
  8
DEFAULT_2
  6
HIDDEN
 62
     8
100
AcDbLine
 10
120.5031878817
 20
27.5955747458
 30
0.0
 11
120.7097085316
 21
27.6038120683
 31
0.0
  0
LWPOLYLINE
  5
307D
330
226
100
AcDbEntity
  8
DEFAULT_2
  6
HIDDEN
 62
     8
100
AcDbPolyline
 90
       17
 70
     0
 43
0.0
 10
120.7097085316
 20
27.6038120683
 10
120.9049206376
 20
27.6115422459
 10
120.9980223314
 20
27.615203809
 10
121.0880294583
 20
27.6187251241
 10
121.1748402847
 20
27.6221018582
 10
121.2584885539
 20
27.6253352257
 10
121.3389641979
 20
27.6284249523
 10
121.4162994607
 20
27.6313725916
 10
121.4905720034
 20
27.6341815707
 10
121.5616373636
 20
27.6368471136
 10
121.6294219120999
 20
27.6393674387
 10
121.6937935087
 20
27.641738911
 10
121.7545706466
 20
27.6439564867
 10
121.8118305756
 20
27.6460248883
 10
121.8654121315
 20
27.64794045
 10
121.9158500032
 20
27.6497244248
 10
121.9634813644
 20
27.6513905508
  0
LWPOLYLINE
  5
307E
330
226
100
AcDbEntity
  8
DEFAULT_2
  6
HIDDEN
 62
     8
100
AcDbPolyline
 90
       12
 70
     0
 43
0.0
 10
121.9634813644
 20
27.6513905508
 10
122.0520995259
 20
27.6544367544
 10
122.0937220094
 20
27.6558405986
 10
122.1338984168
 20
27.6571774003
 10
122.1726617254
 20
27.6584486293
 10
122.2102002377
 20
27.6596607022
 10
122.2463435488
 20
27.6608083685
 10
122.2810413126
 20
27.6618904855
 10
122.3141225714
 20
27.662902417
 10
122.3454220803
 20
27.6638401838
 10
122.3748741153
 20
27.6647032198
 10
122.4023585995
 20
27.6654897299
  0
LWPOLYLINE
  5
307F
330
226
100
AcDbEntity
  8
DEFAULT_2
  6
HIDDEN
 62
     8
100
AcDbPolyline
 90
       33
 70
     0
 43
0.0
 10
122.8280587172
 20
27.6741501301
 10
122.860962875
 20
27.6752509444
 10
122.9056397137
 20
27.6784867227
 10
122.950247366
 20
27.68373432320001
 10
122.9946707318
 20
27.6909962799
 10
123.0388016406
 20
27.7002715166
 10
123.0825329018
 20
27.7115457398
 10
123.1257580414
 20
27.7247963129
 10
123.1683712019
 20
27.739997739
 10
123.2102672565
 20
27.7571203195
 10
123.2513470621
 20
27.7761224051
 10
123.2915095458
 20
27.7969527567
 10
123.3306736606
 20
27.8195680235
 10
123.3687512051
 20
27.8439183402
 10
123.4056738175
 20
27.8699532148
 10
123.4413718022
 20
27.8976172116
 10
123.475775141
 20
27.92685548050001
 10
123.5088144013
 20
27.9576120994
 10
123.5404279763
 20
27.9898244695
 10
123.5705564876
 20
28.0234276297
 10
123.5991402174
 20
28.0583573861
 10
123.6261216533
 20
28.0945505539
 10
123.6514463339
 20
28.1319309921
 10
123.675065327
 20
28.1704243758
 10
123.6969229801
 20
28.209944838
 10
123.7169686677
 20
28.2504076408
 10
123.73516164
 20
28.2917203707
 10
123.7514664368
 20
28.3337909534
 10
123.7658478782
 20
28.376524138
 10
123.7782768296
 20
28.4198305863
 10
123.7887317581
 20
28.4636021266
 10
123.7971972224
 20
28.50772879
 10
123.8036657344
 20
28.5521364519
  0
LINE
  5
3080
330
226
100
AcDbEntity
  8
DEFAULT_2
  6
HIDDEN
 62
     8
100
AcDbLine
 10
122.4023585995
 20
27.6654897299
 30
0.0
 11
122.4513577734
 21
27.6668395547
 31
0.0
  0
LINE
  5
3081
330
226
100
AcDbEntity
  8
DEFAULT_2
  6
HIDDEN
 62
     8
100
AcDbLine
 10
122.4513577734
 20
27.6668395547
 30
0.0
 11
122.4924812579
 21
27.6679096009
 31
0.0
  0
LINE
  5
3082
330
226
100
AcDbEntity
  8
DEFAULT_2
  6
HIDDEN
 62
     8
100
AcDbLine
 10
115.5655947334
 20
27.4239109479
 30
0.0
 11
115.5671680186
 21
27.4239523758
 31
0.0
  0
LINE
  5
3083
330
226
100
AcDbEntity
  8
DEFAULT_2
  6
HIDDEN
 62
     8
100
AcDbLine
 10
122.4924812579
 20
27.6679096009
 30
0.0
 11
122.5260160898
 21
27.6687275215
 31
0.0
  0
LWPOLYLINE
  5
3084
330
226
100
AcDbEntity
  8
DEFAULT_2
  6
HIDDEN
 62
     8
100
AcDbPolyline
 90
       26
 70
     0
 43
0.0
 10
115.5671673427
 20
27.423952357
 10
115.6224419308
 20
27.425196645
 10
115.8163151423
 20
27.429757292
 10
116.0079156913
 20
27.4345518698
 10
116.1972349818
 20
27.4395540919
 10
116.3842485016
 20
27.4447389635
 10
116.5689424446
 20
27.4500833626
 10
116.7512948146
 20
27.45556542760001
 10
116.931291538
 20
27.461164931
 10
117.1089117153
 20
27.4668627536
 10
117.2841416649
 20
27.4726412418
 10
117.4569606736
 20
27.4784836761
 10
117.6273549627
 20
27.4843746603
 10
117.7953036504
 20
27.4902995812
 10
117.9608191431
 20
27.4962459868
 10
118.1238001863
 20
27.5021982171
 10
118.2842824779
 20
27.5081463937
 10
118.4418773352
 20
27.5140655183
 10
118.5963276285
 20
27.5199357395
 10
118.747279043
 20
27.5257336228
 10
118.894274867
 20
27.531431619
 10
119.0373714777
 20
27.5370225802
 10
119.1763416566
 20
27.54248914550001
 10
119.3115915226
 20
27.5478397369
 10
119.4433657695
 20
27.5530774683
 10
119.6976275475
 20
27.5632373483
  0
LINE
  5
3085
330
226
100
AcDbEntity
  8
DEFAULT_2
  6
HIDDEN
 62
     8
100
AcDbLine
 10
122.5260160898
 20
27.6687275215
 30
0.0
 11
122.5520243532
 21
27.6693167695
 31
0.0
  0
LINE
  5
3086
330
226
100
AcDbEntity
  8
DEFAULT_2
  6
HIDDEN
 62
     8
100
AcDbLine
 10
122.5520243532
 20
27.6693167695
 30
0.0
 11
122.5703029219
 21
27.6696973971
 31
0.0
  0
LINE
  5
3087
330
226
100
AcDbEntity
  8
DEFAULT_2
  6
HIDDEN
 62
     8
100
AcDbLine
 10
122.5703029219
 20
27.6696973971
 30
0.0
 11
122.5810295654
 21
27.6698995215
 31
0.0
  0
LINE
  5
3088
330
226
100
AcDbEntity
  8
DEFAULT_2
  6
HIDDEN
 62
     8
100
AcDbLine
 10
122.5811363557
 20
27.6699013783
 30
0.0
 11
122.8280619407
 21
27.6741501689
 31
0.0
  0
LINE
  5
3089
330
226
100
AcDbEntity
  8
DEFAULT_2
  6
HIDDEN
 62
     8
100
AcDbLine
 10
114.8430991246
 20
26.8997508588
 30
0.0
 11
112.3002059058
 21
26.8997508588
 31
0.0
  0
LINE
  5
308A
330
226
100
AcDbEntity
  8
DEFAULT_2
  6
HIDDEN
 62
     8
100
AcDbLine
 10
104.562275106
 20
27.6698995278
 30
0.0
 11
104.5810515602
 21
27.669534071
 31
0.0
  0
LINE
  5
308B
330
226
100
AcDbEntity
  8
DEFAULT_2
  6
HIDDEN
 62
     8
100
AcDbLine
 10
104.5810515602
 20
27.669534071
 30
0.0
 11
104.6031094513
 21
27.6690545768
 31
0.0
  0
LINE
  5
308C
330
226
100
AcDbEntity
  8
DEFAULT_2
  6
HIDDEN
 62
     8
100
AcDbLine
 10
104.6031094513
 20
27.6690545768
 30
0.0
 11
104.6327200802
 21
27.6683581952
 31
0.0
  0
LWPOLYLINE
  5
308D
330
226
100
AcDbEntity
  8
DEFAULT_2
  6
HIDDEN
 62
     8
100
AcDbPolyline
 90
       38
 70
     0
 43
0.0
 10
111.5225370783
 20
27.4251585902
 10
111.5767988212
 20
27.4239364794
 10
111.5778486469
 20
27.423906716
 10
111.5791124205
 20
27.4238638499
 10
111.5806257009
 20
27.4238028329
 10
111.5824276562
 20
27.4237168583
 10
111.5845270934
 20
27.4235988899
 10
111.5869568551
 20
27.4234388915
 10
111.5896790727
 20
27.42323012
 10
111.5926646676
 20
27.42296559630001
 10
111.595917675
 20
27.4226352483
 10
111.5994147155
 20
27.4222312064
 10
111.6032103658
 20
27.421735272
 10
111.6073572627
 20
27.421124957
 10
111.6118360985
 20
27.4203850498
 10
111.6166633549
 20
27.4194930119
 10
111.6217802001
 20
27.4184393122
 10
111.6271496842
 20
27.4172124719
 10
111.6327208539
 20
27.4158065416
 10
111.6384358735
 20
27.4142211662
 10
111.6442794114
 20
27.4124473128
 10
111.6502201792
 20
27.4104820254
 10
111.6562479521
 20
27.4083169334
 10
111.6623468203
 20
27.4059460997
 10
111.6685010516
 20
27.403364333
 10
111.6746934323
 20
27.4005679774
 10
111.6809114362
 20
27.3975521077
 10
111.6871407268
 20
27.3943132563
 10
111.6933683014
 20
27.3908479421
 10
111.6995805125
 20
27.3871536574
 10
111.7057639502
 20
27.3832284333
 10
111.711905007
 20
27.3790711201
 10
111.7179900469
 20
27.3746813347
 10
111.7240054433
 20
27.3700594778
 10
111.7299375259
 20
27.3652068276
 10
111.7357727721
 20
27.3601254432
 10
111.7414977037
 20
27.3548183037
 10
111.7454714568
 20
27.3509319464
  0
LINE
  5
308E
330
226
100
AcDbEntity
  8
DEFAULT_2
  6
HIDDEN
 62
     8
100
AcDbLine
 10
104.6327200802
 20
27.6683581952
 30
0.0
 11
104.66980747
 21
27.667423735
 31
0.0
  0
LINE
  5
308F
330
226
100
AcDbEntity
  8
DEFAULT_2
  6
HIDDEN
 62
     8
100
AcDbLine
 10
104.66980747
 20
27.667423735
 30
0.0
 11
104.7145502122
 21
27.6662259134
 31
0.0
  0
LWPOLYLINE
  5
3090
330
226
100
AcDbEntity
  8
DEFAULT_2
  6
HIDDEN
 62
     8
100
AcDbPolyline
 90
       26
 70
     0
 43
0.0
 10
104.7145502122
 20
27.6662259134
 10
104.7672470377
 20
27.6647374885
 10
104.796534299
 20
27.6638801296
 10
104.8276604036
 20
27.662948478
 10
104.8605596969
 20
27.6619430986
 10
104.8950667354
 20
27.6608679739
 10
104.9310001463
 20
27.6597280698
 10
104.9683403069
 20
27.6585235458
 10
105.0069139769
 20
27.657259711
 10
105.0469999583
 20
27.6559271022
 10
105.0887113286
 20
27.6545213915
 10
105.132373878
 20
27.653030799
 10
105.1782500945
 20
27.6514452677
 10
105.2266457756
 20
27.6497528872
 10
105.2779474189
 20
27.6479385113
 10
105.3321782533
 20
27.6459995951
 10
105.3894925399
 20
27.6439289601
 10
105.4498842434
 20
27.6417252452
 10
105.5134129072
 20
27.6393848414
 10
105.5800354394
 20
27.6369080646
 10
105.649773357
 20
27.6342930296
 10
105.7224908929
 20
27.6315439709
 10
105.7981190917
 20
27.6286629034
 10
105.8764764587
 20
27.6256564212
 10
105.9574149612
 20
27.622530174
 10
106.0407620336
 20
27.6192910641
  0
LINE
  5
3091
330
226
100
AcDbEntity
  8
DEFAULT_2
  6
HIDDEN
 62
     8
100
AcDbLine
 10
106.0407620336
 20
27.6192910641
 30
0.0
 11
106.2140129397
 21
27.612502489
 31
0.0
  0
LWPOLYLINE
  5
3092
330
226
100
AcDbEntity
  8
DEFAULT_2
  6
HIDDEN
 62
     8
100
AcDbPolyline
 90
       27
 70
     0
 43
0.0
 10
107.8578431733
 20
27.546803898
 10
107.9760084308
 20
27.5421323354
 10
108.0963634907
 20
27.5373979215
 10
108.2189824495
 20
27.5326021827
 10
108.3437355008
 20
27.5277549594
 10
108.4705462949
 20
27.5228642508
 10
108.5993245302
 20
27.5179388452
 10
108.7299801918
 20
27.5129876521
 10
108.8624323338
 20
27.5080191571
 10
108.9965790429
 20
27.5030428034
 10
109.1323897433
 20
27.4980656416
 10
109.2697925044
 20
27.49309654280001
 10
109.4088054422
 20
27.4881414506
 10
109.5494205573
 20
27.4832076787
 10
109.6916388511
 20
27.478302662
 10
109.8354567241
 20
27.4734344642
 10
109.9808740036
 20
27.468611526
 10
110.1278871681
 20
27.4638429232
 10
110.2764961381
 20
27.459138171
 10
110.426697329
 20
27.4545074816
 10
110.5784905835
 20
27.4499615779
 10
110.7318720827
 20
27.4455119476
 10
110.8868413598
 20
27.4411706705
 10
111.0433936794
 20
27.4369506771
 10
111.201529334
 20
27.432865533
 10
111.3612426729
 20
27.4289297767
 10
111.5225370783
 20
27.4251585902
  0
LINE
  5
3093
330
226
100
AcDbEntity
  8
DEFAULT_2
  6
HIDDEN
 62
     8
100
AcDbLine
 10
106.2140129397
 20
27.612502489
 30
0.0
 11
106.3954576748
 21
27.6053272385
 31
0.0
  0
LINE
  5
3094
330
226
100
AcDbEntity
  8
DEFAULT_2
  6
HIDDEN
 62
     8
100
AcDbLine
 10
106.3954576748
 20
27.6053272385
 30
0.0
 11
106.5845078763
 21
27.5977975718
 31
0.0
  0
LWPOLYLINE
  5
3095
330
226
100
AcDbEntity
  8
DEFAULT_2
  6
HIDDEN
 62
     8
100
AcDbPolyline
 90
        6
 70
     0
 43
0.0
 10
106.9829794126
 20
27.5818206388
 10
107.1912987043
 20
27.5734472966
 10
107.297824884
 20
27.5691681152
 10
107.4060529677
 20
27.5648255356
 10
107.5160745136
 20
27.5604185665
 10
107.8578431733
 20
27.546803898
  0
LWPOLYLINE
  5
3096
330
226
100
AcDbEntity
  8
DEFAULT_2
  6
HIDDEN
 62
     8
100
AcDbPolyline
 90
        4
 70
     0
 43
0.0
 10
106.5845078763
 20
27.5977975718
 10
106.7805651255
 20
27.5899487683
 10
106.8810057685
 20
27.5859175417
 10
106.9829794126
 20
27.5818206388
  0
LINE
  5
3101
330
226
100
AcDbEntity
  8
DEFAULT_2
  6
HIDDEN
 62
     8
100
AcDbLine
 10
112.1234292105
 20
26.9729741635
 30
0.0
 11
111.7454714882
 21
27.3509318858
 31
0.0
  0
LINE
  5
3271
330
226
100
AcDbEntity
  8
DEFAULT_2
  6
HIDDEN
 62
     8
100
AcDbLine
 10
111.5716525152
 20
42.3997508588
 30
0.0
 11
111.5716525152
 21
42.40305622
 31
0.0
  0
LINE
  5
3272
330
226
100
AcDbEntity
  8
DEFAULT_2
  6
HIDDEN
 62
     8
100
AcDbLine
 10
112.0091525152
 20
42.83697973519999
 30
0.0
 11
112.0091525152
 21
42.7767218523
 31
0.0
  0
LINE
  5
3273
330
226
100
AcDbEntity
  8
DEFAULT_2
  6
HIDDEN
 62
     8
100
AcDbLine
 10
112.0091525152
 20
41.9665085788
 30
0.0
 11
112.0091525152
 21
42.0488748218
 31
0.0
  0
LINE
  5
3274
330
226
100
AcDbEntity
  8
DEFAULT_1
  6
CENTER
 62
     7
100
AcDbLine
 10
113.5716525152
 20
28.7164175255
 30
0.0
 11
113.5716525152
 21
25.8330841922
 31
0.0
  0
LINE
  5
3275
330
226
100
AcDbEntity
  8
0
  6
Continuous
 62
     9
100
AcDbLine
 10
113.5716525152
 20
46.3512058255
 30
0.0
 11
113.5716525152
 21
46.3863496335
 31
0.0
  0
LINE
  5
32B0
330
226
100
AcDbEntity
  8
DEFAULT_2
  6
HIDDEN
 62
     8
100
AcDbLine
 10
115.1341525152
 20
42.83697973519999
 30
0.0
 11
115.1341525152
 21
42.7767218523
 31
0.0
  0
LINE
  5
32B1
330
226
100
AcDbEntity
  8
DEFAULT_2
  6
HIDDEN
 62
     8
100
AcDbLine
 10
115.1341525152
 20
41.9665085788
 30
0.0
 11
115.1341525152
 21
42.0488748218
 31
0.0
  0
LINE
  5
32B2
330
226
100
AcDbEntity
  8
DEFAULT_2
  6
HIDDEN
 62
     8
100
AcDbLine
 10
115.5716525152
 20
42.40305622
 30
0.0
 11
115.5716525152
 21
42.3997508588
 31
0.0
  0
LINE
  5
3A1A
330
226
100
AcDbEntity
  8
DEFAULT_2
  6
HIDDEN
 62
     8
100
AcDbLine
 10
112.0091525152
 20
41.9665085788
 30
0.0
 11
115.1341525152
 21
41.9665085788
 31
0.0
  0
LINE
  5
3A1B
330
226
100
AcDbEntity
  8
DEFAULT_2
  6
HIDDEN
 62
     8
100
AcDbLine
 10
112.0091525152
 20
41.96981393989999
 30
0.0
 11
115.1341525152
 21
41.96981393989999
 31
0.0
  0
LINE
  5
3A1C
330
226
100
AcDbEntity
  8
DEFAULT_2
  6
HIDDEN
 62
     8
100
AcDbLine
 10
112.0091525152
 20
42.0488748218
 30
0.0
 11
115.1341525152
 21
42.0488748218
 31
0.0
  0
LINE
  5
3A1D
330
226
100
AcDbEntity
  8
DEFAULT_2
  6
HIDDEN
 62
     8
100
AcDbLine
 10
112.2591525152
 20
42.1705840019
 30
0.0
 11
114.8841525152
 21
42.1705840019
 31
0.0
  0
LINE
  5
3AE0
330
226
100
AcDbEntity
  8
DEFAULT_2
  6
HIDDEN
 62
     8
100
AcDbLine
 10
115.3978335422
 20
27.3509318858
 30
0.0
 11
115.0198758199
 21
26.9729741635
 31
0.0
  0
LWPOLYLINE
  5
3AE1
330
226
100
AcDbEntity
  8
DEFAULT_2
  6
HIDDEN
 62
     8
100
AcDbPolyline
 90
       37
 70
     0
 43
0.0
 10
115.3978335735
 20
27.3509319463
 10
115.4015353035
 20
27.3545577243
 10
115.4068550605
 20
27.3595148138
 10
115.4123012488
 20
27.3643018383
 10
115.4178628578
 20
27.3689118668
 10
115.4235284235
 20
27.3733388218
 10
115.4292859989
 20
27.3775774311
 10
115.4351233001
 20
27.3816233153
 10
115.4410276911
 20
27.3854729449
 10
115.446986256
 20
27.3891236623
 10
115.4529859136
 20
27.3925737179
 10
115.4590131899
 20
27.3958221111
 10
115.4650542413
 20
27.398868608
 10
115.471096396
 20
27.401714447
 10
115.4771282083
 20
27.40436212510001
 10
115.4831322693
 20
27.4068123549
 10
115.4890953545
 20
27.4090686136
 10
115.4949933621
 20
27.4111314222
 10
115.5008040466
 20
27.4130037215
 10
115.5065081418
 20
27.4146908112
 10
115.512086439
 20
27.4161991114
 10
115.5175172309
 20
27.4175354727
 10
115.5227822728
 20
27.4187086359
 10
115.5278529726
 20
27.4197261173
 10
115.5327084321
 20
27.4205982384
 10
115.5373079497
 20
27.4213330405
 10
115.541613515
 20
27.4219409006
 10
115.5455962763
 20
27.4224346406
 10
115.5492194161
 20
27.4228266938
 10
115.55246981
 20
27.4231320856
 10
115.5553104136
 20
27.4233629655
 10
115.5577794142
 20
27.4235361644
 10
115.5598884843
 20
27.423663655
 10
115.5616849059
 20
27.4237571525
 10
115.5632086041
 20
27.4238253516
 10
115.5644969941
 20
27.4238748591
 10
115.5655947334
 20
27.4239109479
  0
LINE
  5
3AE2
330
226
100
AcDbEntity
  8
DEFAULT_2
  6
HIDDEN
 62
     8
100
AcDbLine
 10
114.8841525152
 20
42.5419345277
 30
0.0
 11
112.2591525152
 21
42.5419345277
 31
0.0
  0
LINE
  5
3AE3
330
226
100
AcDbEntity
  8
DEFAULT_2
  6
HIDDEN
 62
     8
100
AcDbLine
 10
115.1341525152
 20
42.7767218523
 30
0.0
 11
112.0091525152
 21
42.7767218523
 31
0.0
  0
LINE
  5
3AE4
330
226
100
AcDbEntity
  8
DEFAULT_2
  6
HIDDEN
 62
     8
100
AcDbLine
 10
115.1341525152
 20
42.8329931389
 30
0.0
 11
112.0091525152
 21
42.8329931389
 31
0.0
  0
LINE
  5
3AE5
330
226
100
AcDbEntity
  8
DEFAULT_2
  6
HIDDEN
 62
     8
100
AcDbLine
 10
115.1341525152
 20
42.8362985001
 30
0.0
 11
112.0091525152
 21
42.8362985001
 31
0.0
  0
LINE
  5
3AE6
330
226
100
AcDbEntity
  8
DEFAULT_2
  6
HIDDEN
 62
     8
100
AcDbLine
 10
115.1341525152
 20
42.83697973519999
 30
0.0
 11
112.0091525152
 21
42.83697973519999
 31
0.0
  0
LWPOLYLINE
  5
3C47
330
226
100
AcDbEntity
  8
DEFAULT_2
  6
HIDDEN
 62
     8
100
AcDbPolyline
 90
       25
 70
     0
 43
0.0
 10
125.9537968
 20
46.0635463693
 10
125.9555441982
 20
46.07530765089999
 10
125.9580051274
 20
46.0876705218
 10
125.9612979805
 20
46.1006483906
 10
125.9654681375
 20
46.1139779952
 10
125.9705250586
 20
46.12741838359999
 10
125.9765166271
 20
46.1409037086
 10
125.9834703075
 20
46.15433026819999
 10
125.9913764816
 20
46.1675518483
 10
126.0002102115
 20
46.1804365834
 10
126.0099277481
 20
46.1928599114
 10
126.0204642289
 20
46.20470365609999
 10
126.0317473788
 20
46.2158718288
 10
126.0436690167
 20
46.2262624239
 10
126.0561864847
 20
46.23585175979999
 10
126.0692270392
 20
46.24459750119999
 10
126.0827537409
 20
46.2524872259
 10
126.0967213789
 20
46.259502327
 10
126.1110852813
 20
46.2656250956
 10
126.1258008541
 20
46.270838412
 10
126.1408233783
 20
46.27512564929999
 10
126.1561077449
 20
46.2784705875
 10
126.1716081784
 20
46.2808573684
 10
126.1872845542
 20
46.2822708799
 10
126.1927582376
 20
46.28253096579999
  0
LINE
  5
3C4B
330
226
100
AcDbEntity
  8
DEFAULT_2
  6
HIDDEN
 62
     8
100
AcDbLine
 10
128.0716525152
 20
46.3511743846
 30
0.0
 11
126.1927531854
 21
46.28253319339999
 31
0.0
  0
LINE
  5
3C4C
330
226
100
AcDbEntity
  8
DEFAULT_2
  6
HIDDEN
 62
     8
100
AcDbLine
 10
99.0716525152
 20
46.35117337279999
 30
0.0
 11
100.9505242694
 21
46.2825340975
 31
0.0
  0
LINE
  5
3D0E
330
226
100
AcDbEntity
  8
DEFAULT_2
  6
HIDDEN
 62
     8
100
AcDbLine
 10
123.8597292058
 20
29.008736785
 30
0.0
 11
123.8056973274
 21
28.5686824488
 31
0.0
  0
LINE
  5
3D0F
330
226
100
AcDbEntity
  8
DEFAULT_2
  6
HIDDEN
 62
     8
100
AcDbLine
 10
123.8036640169
 20
28.5521224641
 30
0.0
 11
123.8056973274
 21
28.5686824488
 31
0.0
  0
LINE
  5
3D10
330
226
100
AcDbEntity
  8
DEFAULT_2
  6
HIDDEN
 62
     8
100
AcDbLine
 10
123.8597292058
 20
29.008736785
 30
0.0
 11
123.9095483717
 21
29.4144813304
 31
0.0
  0
LINE
  5
3D11
330
226
100
AcDbEntity
  8
DEFAULT_2
  6
HIDDEN
 62
     8
100
AcDbLine
 10
123.9095483717
 20
29.4144813304
 30
0.0
 11
125.954078864
 21
46.0658459427
 31
0.0
  0
LINE
  5
3D13
330
226
100
AcDbEntity
  8
0
  6
Continuous
 62
     9
100
AcDbLine
 10
113.5716525152
 20
46.3525727869
 30
0.0
 11
100.9328232044
 21
46.3525727867
 31
0.0
  0
LINE
  5
3D14
330
226
100
AcDbEntity
  8
DEFAULT_2
  6
HIDDEN
 62
     8
100
AcDbLine
 10
113.5716525152
 20
46.3525727869
 30
0.0
 11
126.210481826
 21
46.3525727867
 31
0.0
  0
LINE
  5
3D72
330
226
100
AcDbEntity
  8
0
  6
Continuous
 62
     7
100
AcDbLine
 10
128.0716525152
 20
46.3679709677
 30
0.0
 11
128.0716525152
 21
46.3883639863
 31
0.0
  0
LINE
  5
3D73
330
226
100
AcDbEntity
  8
0
  6
Continuous
 62
     7
100
AcDbLine
 10
128.0716525152
 20
23.3997508588
 30
0.0
 11
128.0716525152
 21
46.3624261024
 31
0.0
  0
ARC
  5
40CB
330
226
100
AcDbEntity
  8
DEFAULT_2
  6
HIDDEN
 62
     8
100
AcDbCircle
 10
104.3321830046
 20
28.674010225
 30
0.0
 40
0.9999981149999999
100
AcDbArc
 50
187.0000648584
 51
269.0271943219
  0
ARC
  5
40CC
330
226
100
AcDbEntity
  8
DEFAULT_2
  6
HIDDEN
 62
     8
100
AcDbCircle
 10
112.3002059058
 20
27.1497508588
 30
0.0
 40
0.25
100
AcDbArc
 50
225.0
 51
270.0
  0
ARC
  5
40CD
330
226
100
AcDbEntity
  8
DEFAULT_2
  6
HIDDEN
 62
     8
100
AcDbCircle
 10
111.5686949909
 20
27.1741582626
 30
0.0
 40
0.2499977883
100
AcDbArc
 50
45.0000895185
 51
88.71329409129998
  0
ARC
  5
4118
330
226
100
AcDbEntity
  8
0
  6
Continuous
 62
     9
100
AcDbCircle
 10
100.855459463
 20
45.3019126993
 30
0.0
 40
1.0535047051
100
AcDbArc
 50
85.08043106779998
 51
85.78939138
  0
ARC
  5
4119
330
226
100
AcDbEntity
  8
DEFAULT_2
  6
HIDDEN
 62
     8
100
AcDbCircle
 10
114.8430991246
 20
27.1497508588
 30
0.0
 40
0.25
100
AcDbArc
 50
270.0
 51
315.0
  0
ARC
  5
411A
330
226
100
AcDbEntity
  8
DEFAULT_2
  6
HIDDEN
 62
     8
100
AcDbCircle
 10
115.5746100395
 20
27.1741582626
 30
0.0
 40
0.2499977883
100
AcDbArc
 50
91.28670590870001
 51
134.9999104815
  0
ARC
  5
4162
330
226
100
AcDbEntity
  8
DEFAULT_2
  6
HIDDEN
 62
     8
100
AcDbCircle
 10
126.2018865201
 20
46.03270007939999
 30
0.0
 40
0.25
100
AcDbArc
 50
131.4303767909
 51
173.0
  0
ARC
  5
4163
330
226
100
AcDbEntity
  8
DEFAULT_2
  6
HIDDEN
 62
     8
100
AcDbCircle
 10
126.2018865344
 20
46.032700196
 30
0.0
 40
0.2499999998
100
AcDbArc
 50
92.0922356384
 51
131.4303767909
  0
SPLINE
  5
4771
330
226
100
AcDbEntity
  8
DEFAULT_2
  6
HIDDEN
 62
     8
100
AcDbSpline
210
0.0
220
0.0
230
1.0
 70
     8
 71
     3
 72
    23
 73
    19
 74
     0
 42
0.0000001
 43
0.0000000001
 40
0.0
 40
0.0
 40
0.0
 40
0.0
 40
0.2500000005
 40
0.3750000008
 40
0.5000000011
 40
0.6250000013000001
 40
0.7500000016
 40
0.7812500017000001
 40
0.8125000016999999
 40
0.8437500017999999
 40
0.8750000018999999
 40
0.9062500018999999
 40
0.9218750019999999
 40
0.9375000020999999
 40
0.9531250004999998
 40
0.96875
 40
0.984375
 40
1.0
 40
1.0
 40
1.0
 40
1.0
 10
113.5716525152
 20
46.2612464005
 30
0.0
 10
114.7799860692
 20
46.2612464005
 30
0.0
 10
116.5924864003
 20
46.26124640119999
 30
0.0
 10
119.0091535083
 20
46.2612463993
 30
0.0
 10
120.8216538393
 20
46.261246405
 30
0.0
 10
122.6341541704
 20
46.2612463835
 30
0.0
 10
123.9935294186
 20
46.26124644369999
 30
0.0
 10
124.8997795842
 20
46.2612463651
 30
0.0
 10
125.3529046669
 20
46.261246538
 30
0.0
 10
125.8060297496
 20
46.26124588569999
 30
0.0
 10
126.2591548325
 20
46.2612483226
 30
0.0
 10
126.6367590677
 20
46.2612407435
 30
0.0
 10
126.9388424574
 20
46.26125620089999
 30
0.0
 10
127.1654049886
 20
46.2612089685
 30
0.0
 10
127.3919675303
 20
46.2613965593
 30
0.0
 10
127.6185294418
 20
46.2619498314
 30
0.0
 10
127.8450909705
 20
46.26262358159999
 30
0.0
 10
127.9961319792
 20
46.2630794071
 30
0.0
 10
128.0716525152
 20
46.26329616609999
 30
0.0
  0
LINE
  5
4772
330
226
100
AcDbEntity
  8
5_AXIS_JETS
  6
HIDDEN
 62
     8
100
AcDbLine
 10
113.5716525154
 20
46.2276759347
 30
0.0
 11
126.2104818299
 21
46.22767594119999
 31
0.0
  0
SPLINE
  5
4773
330
226
100
AcDbEntity
  8
DEFAULT_2
  6
HIDDEN
 62
     8
100
AcDbSpline
210
0.0
220
0.0
230
1.0
 70
     8
 71
     3
 72
    16
 73
    12
 74
     0
 42
0.0000001
 43
0.0000000001
 40
0.0
 40
0.0
 40
0.0
 40
0.0
 40
0.1132609151
 40
0.2064083138
 40
0.3595361414
 40
0.4882967506000001
 40
0.6026348343
 40
0.6557522407000001
 40
0.7075255037
 40
0.8079059744
 40
1.0
 40
1.0
 40
1.0
 40
1.0
 10
101.1893842303
 20
46.0645582404
 30
0.0
 10
101.1877177071
 20
46.07813223479999
 30
0.0
 10
101.1826474769
 20
46.10267500279999
 30
0.0
 10
101.1676800749
 20
46.1435326681
 30
0.0
 10
101.1447176587
 20
46.1830201742
 30
0.0
 10
101.1128211485
 20
46.2190191308
 30
0.0
 10
101.0847250632
 20
46.2414048481
 30
0.0
 10
101.0623822505
 20
46.25562284739999
 30
0.0
 10
101.0406876655
 20
46.2676458553
 30
0.0
 10
101.0025694028
 20
46.28440409189999
 30
0.0
 10
100.9678043864
 20
46.2927777297
 30
0.0
 10
100.9447562858
 20
46.2953820755
 30
0.0
  0
SPLINE
  5
4774
330
226
100
AcDbEntity
  8
DEFAULT_2
  6
HIDDEN
 62
     8
100
AcDbSpline
210
0.0
220
0.0
230
1.0
 70
     8
 71
     3
 72
    43
 73
    39
 74
     0
 42
0.0000001
 43
0.0000000001
 40
0.0
 40
0.0
 40
0.0
 40
0.0
 40
0.0314007674
 40
0.0471038685
 40
0.0628049045
 40
0.0941883868
 40
0.1255553015
 40
0.1412357583
 40
0.1569104355
 40
0.188231404
 40
0.2195247505
 40
0.2507887478
 40
0.2820227917
 40
0.3132274291
 40
0.3444043415999999
 40
0.3755562819
 40
0.4066869687
 40
0.4378009458000001
 40
0.4689034084000001
 40
0.5
 40
0.5310965916
 40
0.5621990542000001
 40
0.5933130313000001
 40
0.6244437181000001
 40
0.6555956584000001
 40
0.6867725709000001
 40
0.7179772083
 40
0.7492112522
 40
0.7804752495000001
 40
0.8117685959999999
 40
0.8430895644999999
 40
0.8587642416999999
 40
0.8744446984999999
 40
0.9058116131999998
 40
0.9371950955
 40
0.9528961315
 40
0.9685992326
 40
1.0
 40
1.0
 40
1.0
 40
1.0
 10
112.0091525152
 20
42.7767218523
 30
0.0
 10
111.9971311959
 20
42.7767218523
 30
0.0
 10
111.9790820875
 20
42.77584384659999
 30
0.0
 10
111.9552088835
 20
42.7729276144
 30
0.0
 10
111.9315101369
 20
42.7688559453
 30
0.0
 10
111.9023105259
 20
42.7616142873
 30
0.0
 10
111.8739607541
 20
42.7515695937
 30
0.0
 10
111.8519659273
 20
42.7419147661
 30
0.0
 10
111.8304837213
 20
42.73120734849999
 30
0.0
 10
111.8046645666
 20
42.71588445889999
 30
0.0
 10
111.7756515755
 20
42.6945780612
 30
0.0
 10
111.7488852054
 20
42.67055695309999
 30
0.0
 10
111.7246252976
 20
42.6440532056
 30
0.0
 10
111.7031051092
 20
42.61532171729999
 30
0.0
 10
111.6845322061
 20
42.5846391854
 30
0.0
 10
111.6690856197
 20
42.5523010623
 30
0.0
 10
111.6569143319
 20
42.518618824
 30
0.0
 10
111.6481357088
 20
42.48391695619999
 30
0.0
 10
111.6428344216
 20
42.4485298027
 30
0.0
 10
111.6410616178
 20
42.412798337
 30
0.0
 10
111.6428344216
 20
42.3770668714
 30
0.0
 10
111.6481357088
 20
42.34167971789999
 30
0.0
 10
111.6569143319
 20
42.3069778501
 30
0.0
 10
111.6690856197
 20
42.27329561179999
 30
0.0
 10
111.6845322061
 20
42.24095748869999
 30
0.0
 10
111.7031051092
 20
42.2102749568
 30
0.0
 10
111.7246252976
 20
42.18154346849999
 30
0.0
 10
111.7488852054
 20
42.155039721
 30
0.0
 10
111.7756515755
 20
42.1310186129
 30
0.0
 10
111.8046645666
 20
42.1097122152
 30
0.0
 10
111.8304837213
 20
42.0943893256
 30
0.0
 10
111.8519659273
 20
42.083681908
 30
0.0
 10
111.8739607541
 20
42.0740270804
 30
0.0
 10
111.9023105259
 20
42.0639823868
 30
0.0
 10
111.9315101369
 20
42.05674072879999
 30
0.0
 10
111.9552088835
 20
42.0526690597
 30
0.0
 10
111.9790820875
 20
42.0497528275
 30
0.0
 10
111.9971311959
 20
42.0488748218
 30
0.0
 10
112.0091525152
 20
42.0488748218
 30
0.0
  0
SPLINE
  5
4775
330
226
100
AcDbEntity
  8
DEFAULT_2
  6
HIDDEN
 62
     8
100
AcDbSpline
210
0.0
220
0.0
230
1.0
 70
     8
 71
     3
 72
    43
 73
    39
 74
     0
 42
0.0000001
 43
0.0000000001
 40
0.0
 40
0.0
 40
0.0
 40
0.0
 40
0.0314007674
 40
0.0471038685
 40
0.0628049045
 40
0.0941883868
 40
0.1255553015
 40
0.1412357583
 40
0.1569104355
 40
0.188231404
 40
0.2195247505
 40
0.2507887478
 40
0.2820227917
 40
0.3132274291
 40
0.3444043415999999
 40
0.3755562819
 40
0.4066869687
 40
0.4378009458000001
 40
0.4689034084000001
 40
0.5
 40
0.5310965916
 40
0.5621990542000001
 40
0.5933130313000001
 40
0.6244437181000001
 40
0.6555956584000001
 40
0.6867725709000001
 40
0.7179772083
 40
0.7492112522
 40
0.7804752495000001
 40
0.8117685959999999
 40
0.8430895644999999
 40
0.8587642416999999
 40
0.8744446984999999
 40
0.9058116131999998
 40
0.9371950955
 40
0.9528961315
 40
0.9685992326
 40
1.0
 40
1.0
 40
1.0
 40
1.0
 10
115.1341525152
 20
42.0488748218
 30
0.0
 10
115.1461738345
 20
42.0488748218
 30
0.0
 10
115.164222943
 20
42.0497528275
 30
0.0
 10
115.188096147
 20
42.0526690597
 30
0.0
 10
115.2117948935
 20
42.05674072879999
 30
0.0
 10
115.2409945045
 20
42.0639823868
 30
0.0
 10
115.2693442763
 20
42.0740270804
 30
0.0
 10
115.2913391031
 20
42.083681908
 30
0.0
 10
115.3128213091
 20
42.0943893256
 30
0.0
 10
115.3386404639
 20
42.1097122152
 30
0.0
 10
115.367653455
 20
42.1310186129
 30
0.0
 10
115.394419825
 20
42.155039721
 30
0.0
 10
115.4186797329
 20
42.18154346849999
 30
0.0
 10
115.4401999212
 20
42.2102749568
 30
0.0
 10
115.4587728243
 20
42.24095748869999
 30
0.0
 10
115.4742194107
 20
42.27329561179999
 30
0.0
 10
115.4863906985
 20
42.3069778501
 30
0.0
 10
115.4951693216
 20
42.34167971789999
 30
0.0
 10
115.5004706088
 20
42.3770668714
 30
0.0
 10
115.5022434126
 20
42.412798337
 30
0.0
 10
115.5004706088
 20
42.4485298027
 30
0.0
 10
115.4951693216
 20
42.48391695619999
 30
0.0
 10
115.4863906985
 20
42.518618824
 30
0.0
 10
115.4742194107
 20
42.5523010623
 30
0.0
 10
115.4587728243
 20
42.5846391854
 30
0.0
 10
115.4401999212
 20
42.61532171729999
 30
0.0
 10
115.4186797329
 20
42.6440532056
 30
0.0
 10
115.394419825
 20
42.67055695309999
 30
0.0
 10
115.367653455
 20
42.6945780612
 30
0.0
 10
115.3386404639
 20
42.71588445889999
 30
0.0
 10
115.3128213091
 20
42.73120734849999
 30
0.0
 10
115.2913391031
 20
42.7419147661
 30
0.0
 10
115.2693442763
 20
42.7515695937
 30
0.0
 10
115.2409945045
 20
42.7616142873
 30
0.0
 10
115.2117948935
 20
42.7688559453
 30
0.0
 10
115.188096147
 20
42.7729276144
 30
0.0
 10
115.164222943
 20
42.77584384659999
 30
0.0
 10
115.1461738345
 20
42.7767218523
 30
0.0
 10
115.1341525152
 20
42.7767218523
 30
0.0
  0
SPLINE
  5
4776
330
226
100
AcDbEntity
  8
DEFAULT_2
  6
HIDDEN
 62
     8
100
AcDbSpline
210
0.0
220
0.0
230
1.0
 70
     8
 71
     3
 72
    27
 73
    23
 74
     0
 42
0.0000001
 43
0.0000000001
 40
0.0
 40
0.0
 40
0.0
 40
0.0
 40
0.062799095
 40
0.0942041723
 40
0.1256050229
 40
0.1883696017
 40
0.2511010395
 40
0.2824607575
 40
0.3138089173
 40
0.3764484687
 40
0.4390327786000001
 40
0.5015583903000001
 40
0.5640240969
 40
0.6264309938000001
 40
0.6887824433
 40
0.7199485128000001
 40
0.7511029524
 40
0.8133619537999999
 40
0.8755875383999999
 40
0.9067005504
 40
0.9378091877999999
 40
1.0
 40
1.0
 40
1.0
 40
1.0
 10
115.1341525152
 20
41.96981393989999
 30
0.0
 10
115.1484635989
 20
41.96981393989999
 30
0.0
 10
115.1699506376
 20
41.9708591899
 30
0.0
 10
115.1983711206
 20
41.9743308786
 30
0.0
 10
115.2265839241
 20
41.97917811589999
 30
0.0
 10
115.2613453606
 20
41.9877991378
 30
0.0
 10
115.2950950864
 20
41.9997571158
 30
0.0
 10
115.3212794055
 20
42.0112509522
 30
0.0
 10
115.3468534647
 20
42.023997871
 30
0.0
 10
115.3775905558
 20
42.04223939179999
 30
0.0
 10
115.412129841
 20
42.0676041861
 30
0.0
 10
115.4439945061
 20
42.0962006487
 30
0.0
 10
115.4728755403
 20
42.12775311849999
 30
0.0
 10
115.498494119
 20
42.16195579749999
 30
0.0
 10
115.5169266543
 20
42.19240743239999
 30
0.0
 10
115.5298048767
 20
42.21774330369999
 30
0.0
 10
115.5414086416
 20
42.2436647496
 30
0.0
 10
115.5534840651
 20
42.27707937829999
 30
0.0
 10
115.5621945263
 20
42.31151486559999
 30
0.0
 10
115.5670907565
 20
42.3394596751
 30
0.0
 10
115.5705965917
 20
42.3676023423
 30
0.0
 10
115.571652506
 20
42.3888837559
 30
0.0
 10
115.571652506
 20
42.40305622
 30
0.0
  0
SPLINE
  5
4777
330
226
100
AcDbEntity
  8
DEFAULT_2
  6
HIDDEN
 62
     8
100
AcDbSpline
210
0.0
220
0.0
230
1.0
 70
     8
 71
     3
 72
    27
 73
    23
 74
     0
 42
0.0000001
 43
0.0000000001
 40
0.0
 40
0.0
 40
0.0
 40
0.0
 40
0.0621908122
 40
0.0932994496
 40
0.1244124616
 40
0.1866380462
 40
0.2488970476
 40
0.2800514872
 40
0.3112175567
 40
0.3735690062
 40
0.4359759031000001
 40
0.4984416097000001
 40
0.5609672214
 40
0.6235515313000001
 40
0.6861910826999999
 40
0.7175392425
 40
0.7488989605
 40
0.8116303982999999
 40
0.8743949770999998
 40
0.9057958277
 40
0.9372009049999999
 40
1.0
 40
1.0
 40
1.0
 40
1.0
 10
111.5716525244
 20
42.40305622
 30
0.0
 10
111.5716525244
 20
42.3888837559
 30
0.0
 10
111.5727084387
 20
42.3676023423
 30
0.0
 10
111.5762142739
 20
42.3394596751
 30
0.0
 10
111.5811105042
 20
42.31151486559999
 30
0.0
 10
111.5898209653
 20
42.27707937829999
 30
0.0
 10
111.6018963888
 20
42.2436647496
 30
0.0
 10
111.6135001538
 20
42.21774330369999
 30
0.0
 10
111.6263783761
 20
42.19240743239999
 30
0.0
 10
111.6448109114
 20
42.16195579749999
 30
0.0
 10
111.6704294901
 20
42.12775311849999
 30
0.0
 10
111.6993105243
 20
42.0962006487
 30
0.0
 10
111.7311751894
 20
42.0676041861
 30
0.0
 10
111.7657144747
 20
42.04223939179999
 30
0.0
 10
111.7964515657
 20
42.023997871
 30
0.0
 10
111.8220256249
 20
42.0112509522
 30
0.0
 10
111.848209944
 20
41.9997571158
 30
0.0
 10
111.8819596698
 20
41.9877991378
 30
0.0
 10
111.9167211063
 20
41.97917811589999
 30
0.0
 10
111.9449339099
 20
41.9743308786
 30
0.0
 10
111.9733543928
 20
41.9708591899
 30
0.0
 10
111.9948414315
 20
41.96981393989999
 30
0.0
 10
112.0091525152
 20
41.96981393989999
 30
0.0
  0
SPLINE
  5
4EE0
330
226
100
AcDbEntity
  8
DEFAULT_2
  6
HIDDEN
 62
     8
100
AcDbSpline
210
0.0
220
0.0
230
1.0
 70
     8
 71
     3
 72
    29
 73
    25
 74
     0
 42
0.0000001
 43
0.0000000001
 40
0.0
 40
0.0
 40
0.0
 40
0.0
 40
0.1250000019
 40
0.2500000037
 40
0.3750000056
 40
0.5000000074000001
 40
0.6250000093
 40
0.7500000112000001
 40
0.8125000120999999
 40
0.8437500125999999
 40
0.8593750127999999
 40
0.875000013
 40
0.8906250133
 40
0.8984375134
 40
0.9062500134999998
 40
0.9140625129
 40
0.9218750124999999
 40
0.9375000045
 40
0.9531250009999999
 40
0.9609375009999999
 40
0.9687500010999999
 40
0.9843749998999999
 40
0.9921874998999999
 40
1.0
 40
1.0
 40
1.0
 40
1.0
 10
113.5716525152
 20
46.2215589275
 30
0.0
 10
114.1706133473
 20
46.2215589275
 30
0.0
 10
115.3685350116
 20
46.2215589272
 30
0.0
 10
117.165417508
 20
46.2215589285
 30
0.0
 10
118.9623000044
 20
46.2215589239
 30
0.0
 10
120.7591825008
 20
46.2215589409
 30
0.0
 10
122.5560649972
 20
46.2215588776
 30
0.0
 10
124.0534670776
 20
46.22155907449999
 30
0.0
 10
125.1016485337
 20
46.2215587226
 30
0.0
 10
125.625739262
 20
46.2215592184
 30
0.0
 10
125.9252196778
 20
46.22155841979999
 30
0.0
 10
126.1498299908
 20
46.2215609127
 30
0.0
 10
126.337005248
 20
46.22155301369999
 30
0.0
 10
126.4867454618
 20
46.22156849399999
 30
0.0
 10
126.5990505971
 20
46.2215326585
 30
0.0
 10
126.7113558122
 20
46.2216322332
 30
0.0
 10
126.8610950192
 20
46.2222143855
 30
0.0
 10
127.0482660413
 20
46.223535334
 30
0.0
 10
127.2354313773
 20
46.22547698139999
 30
0.0
 10
127.3851611921
 20
46.22724001399999
 30
0.0
 10
127.5348897375
 20
46.22910877699999
 30
0.0
 10
127.6846203026
 20
46.230812623
 30
0.0
 10
127.8343524845
 20
46.232363751
 30
0.0
 10
127.909219301
 20
46.2330661289
 30
0.0
 10
127.9466525152
 20
46.23343704279999
 30
0.0
  0
SPLINE
  5
56E3
330
226
100
AcDbEntity
  8
DEFAULT_2
  6
HIDDEN
 62
     8
100
AcDbSpline
210
0.0
220
0.0
230
1.0
 70
     8
 71
     3
 72
    27
 73
    23
 74
     0
 42
0.0000001
 43
0.0000000001
 40
0.0
 40
0.0
 40
0.0
 40
0.0
 40
0.062799081
 40
0.0942041781
 40
0.1256050211
 40
0.188369602
 40
0.25110104
 40
0.2824607578
 40
0.3138089174
 40
0.376448468
 40
0.4390327774000001
 40
0.5015583895
 40
0.5640240972
 40
0.6264309951
 40
0.6887824447
 40
0.7199485139
 40
0.7511029529000001
 40
0.8133619529
 40
0.8755875365999999
 40
0.9067005487000001
 40
0.9378091863999999
 40
1.0
 40
1.0
 40
1.0
 40
1.0
 10
112.0091525152
 20
41.9665085788
 30
0.0
 10
111.9948414347
 20
41.9665085788
 30
0.0
 10
111.9733543949
 20
41.9675538304
 30
0.0
 10
111.9449339117
 20
41.9710255141
 30
0.0
 10
111.9167211052
 20
41.9758727541
 30
0.0
 10
111.8819596697
 20
41.9844937743
 30
0.0
 10
111.848209944
 20
41.99645175469999
 30
0.0
 10
111.8220256257
 20
42.0079455928
 30
0.0
 10
111.7964515675
 20
42.0206925131
 30
0.0
 10
111.7657144776
 20
42.03893403499999
 30
0.0
 10
111.7311751902
 20
42.0642988257
 30
0.0
 10
111.6993105201
 20
42.0928952833
 30
0.0
 10
111.6704294842
 20
42.12444775249999
 30
0.0
 10
111.6448109076
 20
42.1586504339
 30
0.0
 10
111.6263783765
 20
42.18910207159999
 30
0.0
 10
111.6135001578
 20
42.21443794469999
 30
0.0
 10
111.6018963961
 20
42.2403593915
 30
0.0
 10
111.5898209738
 20
42.2737740196
 30
0.0
 10
111.5811105069
 20
42.3082095049
 30
0.0
 10
111.5762142715
 20
42.3361543134
 30
0.0
 10
111.5727084316
 20
42.3642969804
 30
0.0
 10
111.5716525152
 20
42.3855783945
 30
0.0
 10
111.5716525152
 20
42.3997508588
 30
0.0
  0
SPLINE
  5
56E4
330
226
100
AcDbEntity
  8
DEFAULT_2
  6
HIDDEN
 62
     8
100
AcDbSpline
210
0.0
220
0.0
230
1.0
 70
     8
 71
     3
 72
    23
 73
    19
 74
     0
 42
0.0000001
 43
0.0000000001
 40
0.0
 40
0.0
 40
0.0
 40
0.0
 40
0.0628040263
 40
0.1255959222
 40
0.1883652212
 40
0.2511013871
 40
0.3137953357
 40
0.3764396033
 40
0.439028627
 40
0.5015589473
 40
0.5640293591
 40
0.6264409577000001
 40
0.6887971029000001
 40
0.7511033023999999
 40
0.8133669909000001
 40
0.8755972626999998
 40
0.9378045026999998
 40
1.0
 40
1.0
 40
1.0
 40
1.0
 10
112.2591525152
 20
42.5419345277
 30
0.0
 10
112.253019174
 20
42.5419345277
 30
0.0
 10
112.2407453156
 20
42.54133764489999
 30
0.0
 10
112.2225178473
 20
42.5386602084
 30
0.0
 10
112.2046412353
 20
42.53422642949999
 30
0.0
 10
112.1872897952
 20
42.5280789504
 30
0.0
 10
112.1706299926
 20
42.5202768846
 30
0.0
 10
112.1548224196
 20
42.5108952638
 30
0.0
 10
112.1400192459
 20
42.5000243755
 30
0.0
 10
112.1263631169
 20
42.4877687673
 30
0.0
 10
112.113985551
 20
42.4742464439
 30
0.0
 10
112.1030058863
 20
42.4595875159
 30
0.0
 10
112.0935299053
 20
42.4439331736
 30
0.0
 10
112.0856490024
 20
42.4274340997
 30
0.0
 10
112.0794391613
 20
42.41024939049999
 30
0.0
 10
112.0749602582
 20
42.39254396689999
 30
0.0
 10
112.0722555392
 20
42.37449075629999
 30
0.0
 10
112.0716525152
 20
42.362333178
 30
0.0
 10
112.0716525152
 20
42.3562592648
 30
0.0
  0
SPLINE
  5
56E5
330
226
100
AcDbEntity
  8
DEFAULT_2
  6
HIDDEN
 62
     8
100
AcDbSpline
210
0.0
220
0.0
230
1.0
 70
     8
 71
     3
 72
    27
 73
    23
 74
     0
 42
0.0000001
 43
0.0000000001
 40
0.0
 40
0.0
 40
0.0
 40
0.0
 40
0.062799081
 40
0.0942041781
 40
0.1256050211
 40
0.188369602
 40
0.25110104
 40
0.2824607578
 40
0.3138089174
 40
0.376448468
 40
0.4390327774000001
 40
0.5015583895
 40
0.5640240972
 40
0.6264309951
 40
0.6887824447
 40
0.7199485139
 40
0.7511029529000001
 40
0.8133619529
 40
0.8755875365999999
 40
0.9067005487000001
 40
0.9378091863999999
 40
1.0
 40
1.0
 40
1.0
 40
1.0
 10
115.1341525152
 20
41.9665085788
 30
0.0
 10
115.1484635957
 20
41.9665085788
 30
0.0
 10
115.1699506355
 20
41.9675538304
 30
0.0
 10
115.1983711187
 20
41.9710255141
 30
0.0
 10
115.2265839252
 20
41.9758727541
 30
0.0
 10
115.2613453608
 20
41.9844937743
 30
0.0
 10
115.2950950864
 20
41.99645175469999
 30
0.0
 10
115.3212794048
 20
42.0079455928
 30
0.0
 10
115.3468534629
 20
42.0206925131
 30
0.0
 10
115.3775905528
 20
42.03893403499999
 30
0.0
 10
115.4121298402
 20
42.0642988257
 30
0.0
 10
115.4439945103
 20
42.0928952833
 30
0.0
 10
115.4728755462
 20
42.12444775249999
 30
0.0
 10
115.4984941228
 20
42.1586504339
 30
0.0
 10
115.5169266539
 20
42.18910207159999
 30
0.0
 10
115.5298048726
 20
42.21443794469999
 30
0.0
 10
115.5414086343
 20
42.2403593915
 30
0.0
 10
115.5534840567
 20
42.2737740196
 30
0.0
 10
115.5621945235
 20
42.3082095049
 30
0.0
 10
115.5670907589
 20
42.3361543134
 30
0.0
 10
115.5705965989
 20
42.3642969804
 30
0.0
 10
115.5716525152
 20
42.3855783945
 30
0.0
 10
115.5716525152
 20
42.3997508588
 30
0.0
  0
SPLINE
  5
56E6
330
226
100
AcDbEntity
  8
DEFAULT_2
  6
HIDDEN
 62
     8
100
AcDbSpline
210
0.0
220
0.0
230
1.0
 70
     8
 71
     3
 72
    23
 73
    19
 74
     0
 42
0.0000001
 43
0.0000000001
 40
0.0
 40
0.0
 40
0.0
 40
0.0
 40
0.0628040263
 40
0.1255959222
 40
0.1883652212
 40
0.2511013871
 40
0.3137953357
 40
0.3764396033
 40
0.439028627
 40
0.5015589473
 40
0.5640293591
 40
0.6264409577000001
 40
0.6887971029000001
 40
0.7511033023999999
 40
0.8133669909000001
 40
0.8755972626999998
 40
0.9378045026999998
 40
1.0
 40
1.0
 40
1.0
 40
1.0
 10
114.8841525152
 20
42.5419345277
 30
0.0
 10
114.8902858564
 20
42.5419345277
 30
0.0
 10
114.9025597148
 20
42.54133764489999
 30
0.0
 10
114.9207871831
 20
42.5386602084
 30
0.0
 10
114.9386637951
 20
42.53422642949999
 30
0.0
 10
114.9560152353
 20
42.5280789504
 30
0.0
 10
114.9726750379
 20
42.5202768846
 30
0.0
 10
114.9884826109
 20
42.5108952638
 30
0.0
 10
115.0032857846
 20
42.5000243755
 30
0.0
 10
115.0169419135
 20
42.4877687673
 30
0.0
 10
115.0293194794
 20
42.4742464439
 30
0.0
 10
115.0402991442
 20
42.4595875159
 30
0.0
 10
115.0497751251
 20
42.4439331736
 30
0.0
 10
115.057656028
 20
42.4274340997
 30
0.0
 10
115.0638658692
 20
42.41024939049999
 30
0.0
 10
115.0683447722
 20
42.39254396689999
 30
0.0
 10
115.0710494913
 20
42.37449075629999
 30
0.0
 10
115.0716525152
 20
42.362333178
 30
0.0
 10
115.0716525152
 20
42.3562592648
 30
0.0
  0
SPLINE
  5
56E7
330
226
100
AcDbEntity
  8
DEFAULT_2
  6
HIDDEN
 62
     8
100
AcDbSpline
210
0.0
220
0.0
230
1.0
 70
     8
 71
     3
 72
    27
 73
    23
 74
     0
 42
0.0000001
 43
0.0000000001
 40
0.0
 40
0.0
 40
0.0
 40
0.0
 40
0.062799095
 40
0.0942041723
 40
0.1256050229
 40
0.1883696017
 40
0.2511010395
 40
0.2824607575
 40
0.3138089173
 40
0.3764484687
 40
0.4390327786000001
 40
0.5015583903000001
 40
0.5640240969
 40
0.6264309938000001
 40
0.6887824433
 40
0.7199485128000001
 40
0.7511029524
 40
0.8133619537999999
 40
0.8755875383999999
 40
0.9067005504
 40
0.9378091877999999
 40
1.0
 40
1.0
 40
1.0
 40
1.0
 10
112.0091525152
 20
42.8362985001
 30
0.0
 10
111.9948414315
 20
42.8362985001
 30
0.0
 10
111.9733543928
 20
42.83525325
 30
0.0
 10
111.9449339099
 20
42.83178156139999
 30
0.0
 10
111.9167211063
 20
42.8269343241
 30
0.0
 10
111.8819596698
 20
42.8183133022
 30
0.0
 10
111.848209944
 20
42.80635532419999
 30
0.0
 10
111.8220256249
 20
42.7948614877
 30
0.0
 10
111.7964515657
 20
42.782114569
 30
0.0
 10
111.7657144747
 20
42.7638730482
 30
0.0
 10
111.7311751894
 20
42.7385082539
 30
0.0
 10
111.6993105243
 20
42.7099117912
 30
0.0
 10
111.6704294901
 20
42.6783593215
 30
0.0
 10
111.6448109114
 20
42.6441566425
 30
0.0
 10
111.6263783761
 20
42.6137050076
 30
0.0
 10
111.6135001538
 20
42.5883691362
 30
0.0
 10
111.6018963888
 20
42.5624476903
 30
0.0
 10
111.5898209653
 20
42.52903306159999
 30
0.0
 10
111.5811105042
 20
42.49459757429999
 30
0.0
 10
111.5762142739
 20
42.46665276489999
 30
0.0
 10
111.5727084387
 20
42.4385100977
 30
0.0
 10
111.5716525244
 20
42.417228684
 30
0.0
 10
111.5716525244
 20
42.40305622
 30
0.0
  0
SPLINE
  5
56E8
330
226
100
AcDbEntity
  8
DEFAULT_2
  6
HIDDEN
 62
     8
100
AcDbSpline
210
0.0
220
0.0
230
1.0
 70
     8
 71
     3
 72
    23
 73
    19
 74
     0
 42
0.0000001
 43
0.0000000001
 40
0.0
 40
0.0
 40
0.0
 40
0.0
 40
0.0621954973
 40
0.1244027373
 40
0.1866330091
 40
0.2488966976
 40
0.3112028971
 40
0.3735590423
 40
0.4359706409000001
 40
0.4984410527000001
 40
0.5609713730000001
 40
0.6235603967
 40
0.6862046643000001
 40
0.7488986129000001
 40
0.8116347787999998
 40
0.8744040777999998
 40
0.9371959737
 40
1.0
 40
1.0
 40
1.0
 40
1.0
 10
115.0716525152
 20
42.3562592648
 30
0.0
 10
115.0716525152
 20
42.3501853516
 30
0.0
 10
115.0710494913
 20
42.3380277733
 30
0.0
 10
115.0683447722
 20
42.3199745626
 30
0.0
 10
115.0638658692
 20
42.3022691391
 30
0.0
 10
115.057656028
 20
42.28508442989999
 30
0.0
 10
115.0497751251
 20
42.26858535589999
 30
0.0
 10
115.0402991442
 20
42.2529310137
 30
0.0
 10
115.0293194794
 20
42.2382720857
 30
0.0
 10
115.0169419135
 20
42.2247497623
 30
0.0
 10
115.0032857846
 20
42.21249415409999
 30
0.0
 10
114.9884826109
 20
42.2016232658
 30
0.0
 10
114.9726750379
 20
42.192241645
 30
0.0
 10
114.9560152353
 20
42.1844395792
 30
0.0
 10
114.9386637951
 20
42.1782921001
 30
0.0
 10
114.9207871831
 20
42.17385832109999
 30
0.0
 10
114.9025597148
 20
42.1711808846
 30
0.0
 10
114.8902858564
 20
42.1705840019
 30
0.0
 10
114.8841525152
 20
42.1705840019
 30
0.0
  0
SPLINE
  5
56E9
330
226
100
AcDbEntity
  8
DEFAULT_2
  6
HIDDEN
 62
     8
100
AcDbSpline
210
0.0
220
0.0
230
1.0
 70
     8
 71
     3
 72
    27
 73
    23
 74
     0
 42
0.0000001
 43
0.0000000001
 40
0.0
 40
0.0
 40
0.0
 40
0.0
 40
0.0621908136
 40
0.0932994513
 40
0.1244124634
 40
0.1866380471
 40
0.2488970471
 40
0.2800514861
 40
0.3112175553
 40
0.3735690049
 40
0.4359759028
 40
0.4984416105
 40
0.5609672226
 40
0.6235515320000001
 40
0.6861910826000001
 40
0.7175392422
 40
0.74889896
 40
0.8116303979999999
 40
0.8743949789
 40
0.9057958218999999
 40
0.9372009189999999
 40
1.0
 40
1.0
 40
1.0
 40
1.0
 10
115.5716525152
 20
42.3997508588
 30
0.0
 10
115.5716525152
 20
42.4139233232
 30
0.0
 10
115.5705965989
 20
42.4352047373
 30
0.0
 10
115.5670907589
 20
42.4633474043
 30
0.0
 10
115.5621945235
 20
42.4912922128
 30
0.0
 10
115.5534840567
 20
42.525727698
 30
0.0
 10
115.5414086343
 20
42.55914232619999
 30
0.0
 10
115.5298048726
 20
42.585063773
 30
0.0
 10
115.5169266539
 20
42.610399646
 30
0.0
 10
115.4984941228
 20
42.6408512838
 30
0.0
 10
115.4728755462
 20
42.67505396519999
 30
0.0
 10
115.4439945103
 20
42.7066064344
 30
0.0
 10
115.4121298402
 20
42.73520289199999
 30
0.0
 10
115.3775905528
 20
42.7605676827
 30
0.0
 10
115.3468534629
 20
42.7788092046
 30
0.0
 10
115.3212794048
 20
42.7915561248
 30
0.0
 10
115.2950950864
 20
42.80304996299999
 30
0.0
 10
115.2613453608
 20
42.81500794329999
 30
0.0
 10
115.2265839252
 20
42.8236289636
 30
0.0
 10
115.1983711187
 20
42.8284762036
 30
0.0
 10
115.1699506355
 20
42.83194788719999
 30
0.0
 10
115.1484635957
 20
42.8329931389
 30
0.0
 10
115.1341525152
 20
42.8329931389
 30
0.0
  0
SPLINE
  5
56EA
330
226
100
AcDbEntity
  8
DEFAULT_2
  6
HIDDEN
 62
     8
100
AcDbSpline
210
0.0
220
0.0
230
1.0
 70
     8
 71
     3
 72
    27
 73
    23
 74
     0
 42
0.0000001
 43
0.0000000001
 40
0.0
 40
0.0
 40
0.0
 40
0.0
 40
0.0621908122
 40
0.0932994496
 40
0.1244124616
 40
0.1866380462
 40
0.2488970476
 40
0.2800514872
 40
0.3112175567
 40
0.3735690062
 40
0.4359759031000001
 40
0.4984416097000001
 40
0.5609672214
 40
0.6235515313000001
 40
0.6861910826999999
 40
0.7175392425
 40
0.7488989605
 40
0.8116303982999999
 40
0.8743949770999998
 40
0.9057958277
 40
0.9372009049999999
 40
1.0
 40
1.0
 40
1.0
 40
1.0
 10
115.571652506
 20
42.40305622
 30
0.0
 10
115.571652506
 20
42.417228684
 30
0.0
 10
115.5705965917
 20
42.4385100977
 30
0.0
 10
115.5670907565
 20
42.46665276489999
 30
0.0
 10
115.5621945263
 20
42.49459757429999
 30
0.0
 10
115.5534840651
 20
42.52903306159999
 30
0.0
 10
115.5414086416
 20
42.5624476903
 30
0.0
 10
115.5298048767
 20
42.5883691362
 30
0.0
 10
115.5169266543
 20
42.6137050076
 30
0.0
 10
115.498494119
 20
42.6441566425
 30
0.0
 10
115.4728755403
 20
42.6783593215
 30
0.0
 10
115.4439945061
 20
42.7099117912
 30
0.0
 10
115.412129841
 20
42.7385082539
 30
0.0
 10
115.3775905558
 20
42.7638730482
 30
0.0
 10
115.3468534647
 20
42.782114569
 30
0.0
 10
115.3212794055
 20
42.7948614877
 30
0.0
 10
115.2950950864
 20
42.80635532419999
 30
0.0
 10
115.2613453606
 20
42.8183133022
 30
0.0
 10
115.2265839241
 20
42.8269343241
 30
0.0
 10
115.1983711206
 20
42.83178156139999
 30
0.0
 10
115.1699506376
 20
42.83525325
 30
0.0
 10
115.1484635989
 20
42.8362985001
 30
0.0
 10
115.1341525152
 20
42.8362985001
 30
0.0
  0
SPLINE
  5
56EB
330
226
100
AcDbEntity
  8
DEFAULT_2
  6
HIDDEN
 62
     8
100
AcDbSpline
210
0.0
220
0.0
230
1.0
 70
     8
 71
     3
 72
    23
 73
    19
 74
     0
 42
0.0000001
 43
0.0000000001
 40
0.0
 40
0.0
 40
0.0
 40
0.0
 40
0.0621954973
 40
0.1244027373
 40
0.1866330091
 40
0.2488966976
 40
0.3112028971
 40
0.3735590423
 40
0.4359706409000001
 40
0.4984410527000001
 40
0.5609713730000001
 40
0.6235603967
 40
0.6862046643000001
 40
0.7488986129000001
 40
0.8116347787999998
 40
0.8744040777999998
 40
0.9371959737
 40
1.0
 40
1.0
 40
1.0
 40
1.0
 10
112.0716525152
 20
42.3562592648
 30
0.0
 10
112.0716525152
 20
42.3501853516
 30
0.0
 10
112.0722555392
 20
42.3380277733
 30
0.0
 10
112.0749602582
 20
42.3199745626
 30
0.0
 10
112.0794391613
 20
42.3022691391
 30
0.0
 10
112.0856490024
 20
42.28508442989999
 30
0.0
 10
112.0935299053
 20
42.26858535589999
 30
0.0
 10
112.1030058863
 20
42.2529310137
 30
0.0
 10
112.113985551
 20
42.2382720857
 30
0.0
 10
112.1263631169
 20
42.2247497623
 30
0.0
 10
112.1400192459
 20
42.21249415409999
 30
0.0
 10
112.1548224196
 20
42.2016232658
 30
0.0
 10
112.1706299926
 20
42.192241645
 30
0.0
 10
112.1872897952
 20
42.1844395792
 30
0.0
 10
112.2046412353
 20
42.1782921001
 30
0.0
 10
112.2225178473
 20
42.17385832109999
 30
0.0
 10
112.2407453156
 20
42.1711808846
 30
0.0
 10
112.253019174
 20
42.1705840019
 30
0.0
 10
112.2591525152
 20
42.1705840019
 30
0.0
  0
SPLINE
  5
56EC
330
226
100
AcDbEntity
  8
DEFAULT_2
  6
HIDDEN
 62
     8
100
AcDbSpline
210
0.0
220
0.0
230
1.0
 70
     8
 71
     3
 72
    27
 73
    23
 74
     0
 42
0.0000001
 43
0.0000000001
 40
0.0
 40
0.0
 40
0.0
 40
0.0
 40
0.0621908136
 40
0.0932994513
 40
0.1244124634
 40
0.1866380471
 40
0.2488970471
 40
0.2800514861
 40
0.3112175553
 40
0.3735690049
 40
0.4359759028
 40
0.4984416105
 40
0.5609672226
 40
0.6235515320000001
 40
0.6861910826000001
 40
0.7175392422
 40
0.74889896
 40
0.8116303979999999
 40
0.8743949789
 40
0.9057958218999999
 40
0.9372009189999999
 40
1.0
 40
1.0
 40
1.0
 40
1.0
 10
111.5716525152
 20
42.3997508588
 30
0.0
 10
111.5716525152
 20
42.4139233232
 30
0.0
 10
111.5727084316
 20
42.4352047373
 30
0.0
 10
111.5762142715
 20
42.4633474043
 30
0.0
 10
111.5811105069
 20
42.4912922128
 30
0.0
 10
111.5898209738
 20
42.525727698
 30
0.0
 10
111.6018963961
 20
42.55914232619999
 30
0.0
 10
111.6135001578
 20
42.585063773
 30
0.0
 10
111.6263783765
 20
42.610399646
 30
0.0
 10
111.6448109076
 20
42.6408512838
 30
0.0
 10
111.6704294842
 20
42.67505396519999
 30
0.0
 10
111.6993105201
 20
42.7066064344
 30
0.0
 10
111.7311751902
 20
42.73520289199999
 30
0.0
 10
111.7657144776
 20
42.7605676827
 30
0.0
 10
111.7964515675
 20
42.7788092046
 30
0.0
 10
111.8220256257
 20
42.7915561248
 30
0.0
 10
111.848209944
 20
42.80304996299999
 30
0.0
 10
111.8819596697
 20
42.81500794329999
 30
0.0
 10
111.9167211052
 20
42.8236289636
 30
0.0
 10
111.9449339117
 20
42.8284762036
 30
0.0
 10
111.9733543949
 20
42.83194788719999
 30
0.0
 10
111.9948414347
 20
42.8329931389
 30
0.0
 10
112.0091525152
 20
42.8329931389
 30
0.0
  0
SPLINE
  5
5707
330
226
100
AcDbEntity
  8
DEFAULT_2
  6
HIDDEN
 62
     8
100
AcDbSpline
210
0.0
220
0.0
230
1.0
 70
     8
 71
     3
 72
    31
 73
    27
 74
     0
 42
0.0000001
 43
0.0000000001
 40
0.0
 40
0.0
 40
0.0
 40
0.0
 40
0.2500000027
 40
0.375000004
 40
0.4375000047000001
 40
0.5000000054
 40
0.5625000061
 40
0.6250000067000001
 40
0.6875000073999999
 40
0.7500000081
 40
0.8125000088
 40
0.8437500091
 40
0.8593750093
 40
0.8750000094
 40
0.8906250095999999
 40
0.8984375095
 40
0.9062500101999999
 40
0.9140625091
 40
0.9218750089
 40
0.9375000031999999
 40
0.9531250009999999
 40
0.9687500010999999
 40
0.9765625010999999
 40
0.9843750009999999
 40
0.9921875009999999
 40
1.0
 40
1.0
 40
1.0
 40
1.0
 10
113.5716525152
 20
46.3512058255
 30
0.0
 10
114.7799901168
 20
46.3512058255
 30
0.0
 10
116.5924965191
 20
46.3512058255
 30
0.0
 10
118.7070873219
 20
46.3512058256
 30
0.0
 10
119.9154249234
 20
46.35120582539999
 30
0.0
 10
120.8216781246
 20
46.35120582579999
 30
0.0
 10
121.7279313258
 20
46.3512058243
 30
0.0
 10
122.6341845269
 20
46.35120582999999
 30
0.0
 10
123.5404377281
 20
46.3512058088
 30
0.0
 10
124.4466909293
 20
46.3512058878
 30
0.0
 10
125.2019019304
 20
46.3512056421
 30
0.0
 10
125.7305496308
 20
46.3512060809
 30
0.0
 10
126.0326340315
 20
46.35120537649999
 30
0.0
 10
126.259197331
 20
46.3512075468
 30
0.0
 10
126.4480000835
 20
46.3512007458
 30
0.0
 10
126.5990422796
 20
46.3512143584
 30
0.0
 10
126.7123239445
 20
46.3511766979
 30
0.0
 10
126.8256055173
 20
46.3513862842
 30
0.0
 10
126.9766464372
 20
46.35202655319999
 30
0.0
 10
127.1654447206
 20
46.35337386239999
 30
0.0
 10
127.3919972269
 20
46.35559646709999
 30
0.0
 10
127.5807876552
 20
46.35775506569999
 30
0.0
 10
127.7318219409
 20
46.3593028029
 30
0.0
 10
127.8450983982
 20
46.3603883059
 30
0.0
 10
127.9583752991
 20
46.3614231944
 30
0.0
 10
128.0338940004
 20
46.36203457319999
 30
0.0
 10
128.0716525152
 20
46.3624261024
 30
0.0
  0
SPLINE
  5
5708
330
226
100
AcDbEntity
  8
DEFAULT_2
  6
HIDDEN
 62
     8
100
AcDbSpline
210
0.0
220
0.0
230
1.0
 70
     8
 71
     3
 72
    22
 73
    18
 74
     0
 42
0.0000001
 43
0.0000000001
 40
0.0
 40
0.0
 40
0.0
 40
0.0
 40
0.015625
 40
0.03125
 40
0.0468749999
 40
0.0624999985
 40
0.0781249988
 40
0.0937499988
 40
0.1249999989
 40
0.1562499989
 40
0.1874999989
 40
0.249999999
 40
0.3749999992
 40
0.4999999993000001
 40
0.6249999995000001
 40
0.7499999997
 40
1.0
 40
1.0
 40
1.0
 40
1.0
 10
128.0716525152
 20
46.3883639863
 30
0.0
 10
127.9961319729
 20
46.3881496128
 30
0.0
 10
127.8450909491
 20
46.3876990456
 30
0.0
 10
127.6185293904
 20
46.3870355792
 30
0.0
 10
127.3919674554
 20
46.38649050029999
 30
0.0
 10
127.1654049037
 20
46.3863161151
 30
0.0
 10
126.9388423738
 20
46.38635846289999
 30
0.0
 10
126.6367589842
 20
46.38634456689999
 30
0.0
 10
126.2591547518
 20
46.386351352
 30
0.0
 10
125.8060296717
 20
46.3863491838
 30
0.0
 10
125.2018628986
 20
46.38634988979999
 30
0.0
 10
124.1445710455
 20
46.38634944909999
 30
0.0
 10
122.6341541127
 20
46.38634969609999
 30
0.0
 10
120.8216537932
 20
46.3863496167
 30
0.0
 10
119.0091534737
 20
46.38634963789999
 30
0.0
 10
116.592486381
 20
46.3863496308
 30
0.0
 10
114.7799860615
 20
46.3863496335
 30
0.0
 10
113.5716525152
 20
46.3863496335
 30
0.0
  0
SPLINE
  5
5709
330
226
100
AcDbEntity
  8
DEFAULT_2
  6
HIDDEN
 62
     8
100
AcDbSpline
210
0.0
220
0.0
230
1.0
 70
     8
 71
     3
 72
    11
 73
     7
 74
     0
 42
0.0000001
 43
0.0000000001
 40
0.0
 40
0.0
 40
0.0
 40
0.0
 40
0.2512342792
 40
0.5037480793000001
 40
0.7543845048000001
 40
1.0
 40
1.0
 40
1.0
 40
1.0
 10
104.2942692974
 20
27.6912466435
 30
0.0
 10
104.9039583816
 20
27.6693530417
 30
0.0
 10
106.1262703023
 20
27.6207609031
 30
0.0
 10
107.9565647186
 20
27.544078024
 30
0.0
 10
109.7734642475
 20
27.4736921341
 30
0.0
 10
110.9780237026
 20
27.4374903501
 30
0.0
 10
111.57431095
 20
27.4240928247
 30
0.0
  0
LINE
  5
570A
330
226
100
AcDbEntity
  8
DEFAULT_2
  6
HIDDEN
 62
     8
100
AcDbLine
 10
128.0716525152
 20
46.2373868306
 30
0.0
 11
128.0336955911
 21
46.2370179606
 31
0.0
  0
SPLINE
  5
570B
330
226
100
AcDbEntity
  8
DEFAULT_2
  6
HIDDEN
 62
     8
100
AcDbSpline
210
0.0
220
0.0
230
1.0
 70
     8
 71
     3
 72
    17
 73
    13
 74
     0
 42
0.0000001
 43
0.0000000001
 40
0.0
 40
0.0
 40
0.0
 40
0.0
 40
0.0625000069
 40
0.1250000135
 40
0.2500000201
 40
0.3750000338
 40
0.5000000327000001
 40
0.6250000089
 40
0.7499999587000001
 40
0.8124999761999999
 40
0.8749999898999998
 40
1.0
 40
1.0
 40
1.0
 40
1.0
 10
128.0336955911
 20
46.2370179606
 30
0.0
 10
127.9982406268
 20
46.2366945967
 30
0.0
 10
127.9273302139
 20
46.2361020984
 30
0.0
 10
127.7855105454
 20
46.2347877605
 30
0.0
 10
127.6082371935
 20
46.2330119945
 30
0.0
 10
127.3955123418
 20
46.2305901659
 30
0.0
 10
127.1827840793
 20
46.2284774802
 30
0.0
 10
126.9700512364
 20
46.2268858308
 30
0.0
 10
126.7927699327
 20
46.22616028229999
 30
0.0
 10
126.6509441406
 20
46.22611738149999
 30
0.0
 10
126.5091183931
 20
46.2261212912
 30
0.0
 10
126.4027490688
 20
46.2261231872
 30
0.0
 10
126.3318361931
 20
46.22612258140001
 30
0.0
  0
LINE
  5
570C
330
226
100
AcDbEntity
  8
DEFAULT_2
  6
HIDDEN
 62
     8
100
AcDbLine
 10
126.3318361931
 20
46.22612258140001
 30
0.0
 11
113.5716525152
 21
46.2261225468
 31
0.0
  0
LINE
  5
570D
330
226
100
AcDbEntity
  8
DEFAULT_2
  6
HIDDEN
 62
     8
100
AcDbLine
 10
127.9466403125
 20
46.26292951609999
 30
0.0
 11
128.0716525152
 21
46.26329616609999
 31
0.0
  0
SPLINE
  5
570E
330
226
100
AcDbEntity
  8
DEFAULT_2
  6
HIDDEN
 62
     8
100
AcDbSpline
210
0.0
220
0.0
230
1.0
 70
     8
 71
     3
 72
    31
 73
    27
 74
     0
 42
0.0000001
 43
0.0000000001
 40
0.0
 40
0.0
 40
0.0
 40
0.0
 40
0.0078124992
 40
0.0156249992
 40
0.0234374991
 40
0.0312499991
 40
0.0468749991
 40
0.0624999969
 40
0.0781249913
 40
0.0859374933
 40
0.093749991
 40
0.1015624937
 40
0.109374993
 40
0.1249999932
 40
0.1406249933
 40
0.1562499934
 40
0.1874999937
 40
0.2499999942
 40
0.3124999946
 40
0.3749999951
 40
0.4374999956
 40
0.4999999961000001
 40
0.5624999965999999
 40
0.6249999971
 40
0.7499999981000001
 40
1.0
 40
1.0
 40
1.0
 40
1.0
 10
128.0716525152
 20
46.2373868306
 30
0.0
 10
128.0338940086
 20
46.23699434539999
 30
0.0
 10
127.9583753142
 20
46.23638173749999
 30
0.0
 10
127.8450984475
 20
46.2353427694
 30
0.0
 10
127.7318220175
 20
46.2342541747
 30
0.0
 10
127.5807878046
 20
46.2326991005
 30
0.0
 10
127.3919973149
 20
46.2305467322
 30
0.0
 10
127.1654449202
 20
46.2283103622
 30
0.0
 10
126.9766466278
 20
46.2269680366
 30
0.0
 10
126.8256057944
 20
46.22629975689999
 30
0.0
 10
126.7123241619
 20
46.2261153513
 30
0.0
 10
126.5990425096
 20
46.22611856999999
 30
0.0
 10
126.4480002982
 20
46.2261250597
 30
0.0
 10
126.2591975475
 20
46.2261212384
 30
0.0
 10
126.0326342433
 20
46.226122945
 30
0.0
 10
125.730549838
 20
46.2261223284
 30
0.0
 10
125.2019021283
 20
46.2261227048
 30
0.0
 10
124.4466911144
 20
46.22612249270001
 30
0.0
 10
123.5404378978
 20
46.2261225612
 30
0.0
 10
122.6341846812
 20
46.22612254289999
 30
0.0
 10
121.7279314646
 20
46.22612254779999
 30
0.0
 10
120.821678248
 20
46.22612254649999
 30
0.0
 10
119.9154250314
 20
46.2261225468
 30
0.0
 10
118.7070874093
 20
46.22612254669999
 30
0.0
 10
116.5924965706
 20
46.2261225468
 30
0.0
 10
114.7799901373
 20
46.2261225468
 30
0.0
 10
113.5716525152
 20
46.2261225468
 30
0.0
  0
SPLINE
  5
570F
330
226
100
AcDbEntity
  8
DEFAULT_2
  6
HIDDEN
 62
     8
100
AcDbSpline
210
0.0
220
0.0
230
1.0
 70
     8
 71
     3
 72
    26
 73
    22
 74
     0
 42
0.0000001
 43
0.0000000001
 40
0.0
 40
0.0
 40
0.0
 40
0.0
 40
0.015625
 40
0.0312499998
 40
0.0468749986
 40
0.0546874984
 40
0.0624999983
 40
0.0781249984
 40
0.0937499984
 40
0.1093749984
 40
0.1249999985
 40
0.1562499985
 40
0.1874999986
 40
0.2187499986
 40
0.2499999987
 40
0.3749999989
 40
0.4999999991000001
 40
0.6249999993
 40
0.7499999996
 40
0.8749999998000001
 40
1.0
 40
1.0
 40
1.0
 40
1.0
 10
127.9466525152
 20
46.2587966482
 30
0.0
 10
127.87178332
 20
46.2584917938
 30
0.0
 10
127.7220450217
 20
46.25786005779999
 30
0.0
 10
127.4974373989
 20
46.25695540359999
 30
0.0
 10
127.3102636181
 20
46.2563974555
 30
0.0
 10
127.1605241151
 20
46.2561760432
 30
0.0
 10
127.0107844675
 20
46.2561544913
 30
0.0
 10
126.8236099363
 20
46.25616869189999
 30
0.0
 10
126.5990004858
 20
46.2561642258
 30
0.0
 10
126.3743910388
 20
46.25616541529999
 30
0.0
 10
126.0749117748
 20
46.25616502779999
 30
0.0
 10
125.7005626953
 20
46.25616521869999
 30
0.0
 10
125.2513437997
 20
46.25616515709999
 30
0.0
 10
124.8021249042
 20
46.2561651735
 30
0.0
 10
123.903687113
 20
46.256165166
 30
0.0
 10
122.5560304264
 20
46.2561651718
 30
0.0
 10
120.7591548441
 20
46.2561651697
 30
0.0
 10
118.9622792619
 20
46.25616517029999
 30
0.0
 10
117.1654036797
 20
46.2561651701
 30
0.0
 10
115.3685280974
 20
46.2561651701
 30
0.0
 10
114.1706110426
 20
46.2561651701
 30
0.0
 10
113.5716525152
 20
46.2561651701
 30
0.0
  0
SPLINE
  5
5710
330
226
100
AcDbEntity
  8
0
  6
Continuous
 62
     7
100
AcDbSpline
210
0.0
220
0.0
230
1.0
 70
     8
 71
     3
 72
    31
 73
    27
 74
     0
 42
0.0000001
 43
0.0000000001
 40
0.0
 40
0.0
 40
0.0
 40
0.0
 40
0.007812499
 40
0.015624999
 40
0.023437499
 40
0.031249999
 40
0.046874999
 40
0.0624999966
 40
0.0781249906
 40
0.0859374913
 40
0.0937499904
 40
0.1015624912
 40
0.109374991
 40
0.1249999912
 40
0.1406249914
 40
0.1562499916
 40
0.1874999919
 40
0.2499999925
 40
0.3124999931
 40
0.3749999937
 40
0.4374999944
 40
0.499999995
 40
0.5624999956
 40
0.6249999962000001
 40
0.7499999975
 40
1.0
 40
1.0
 40
1.0
 40
1.0
 10
99.0716525152
 20
46.3624261024
 30
0.0
 10
99.10941103040002
 20
46.36203457319999
 30
0.0
 10
99.1849297331
 20
46.3614233209
 30
0.0
 10
99.29820663299999
 20
46.3603882812
 30
0.0
 10
99.41148308990001
 20
46.35930274909999
 30
0.0
 10
99.56251738120002
 20
46.35775551840001
 30
0.0
 10
99.75130780139998
 20
46.35559665299999
 30
0.0
 10
99.97786030209999
 20
46.35337225439999
 30
0.0
 10
100.1666586069
 20
46.35203158409999
 30
0.0
 10
100.3176994994
 20
46.3513792097
 30
0.0
 10
100.4309811095
 20
46.3511916576
 30
0.0
 10
100.5442627638
 20
46.3511999739
 30
0.0
 10
100.6953049637
 20
46.3512127718
 30
0.0
 10
100.8841077142
 20
46.3512036934
 30
0.0
 10
101.1106710141
 20
46.35120636829999
 30
0.0
 10
101.4127554143
 20
46.35120550969999
 30
0.0
 10
101.9414031143
 20
46.3512060531
 30
0.0
 10
102.6966141144
 20
46.35120574819999
 30
0.0
 10
103.6028673144
 20
46.3512058462
 30
0.0
 10
104.5091205145
 20
46.35120581999999
 30
0.0
 10
105.4153737146
 20
46.35120582699999
 30
0.0
 10
106.3216269147
 20
46.3512058251
 30
0.0
 10
107.2278801147
 20
46.3512058256
 30
0.0
 10
108.4362177148
 20
46.3512058255
 30
0.0
 10
110.550808515
 20
46.3512058256
 30
0.0
 10
112.3633149151
 20
46.3512058255
 30
0.0
 10
113.5716525152
 20
46.3512058255
 30
0.0
  0
SPLINE
  5
5711
330
226
100
AcDbEntity
  8
0
  6
Continuous
 62
     7
100
AcDbSpline
210
0.0
220
0.0
230
1.0
 70
     8
 71
     3
 72
    22
 73
    18
 74
     0
 42
0.0000001
 43
0.0000000001
 40
0.0
 40
0.0
 40
0.0
 40
0.0
 40
0.2500000003
 40
0.3750000005
 40
0.5000000007000001
 40
0.6250000008
 40
0.750000001
 40
0.8125000010999999
 40
0.8437500010999999
 40
0.8750000012
 40
0.9062500012
 40
0.9218750012
 40
0.9375000014999999
 40
0.9531250001
 40
0.96875
 40
0.984375
 40
1.0
 40
1.0
 40
1.0
 40
1.0
 10
113.5716525152
 20
46.3863496335
 30
0.0
 10
112.3633189689
 20
46.3863496335
 30
0.0
 10
110.5508186494
 20
46.3863496308
 30
0.0
 10
108.1341515567
 20
46.38634963779999
 30
0.0
 10
106.3216512373
 20
46.3863496169
 30
0.0
 10
104.5091509178
 20
46.38634969529999
 30
0.0
 10
102.9987339849
 20
46.38634945119999
 30
0.0
 10
101.9414421318
 20
46.3863498868
 30
0.0
 10
101.3372753587
 20
46.38634918899999
 30
0.0
 10
100.8841502786
 20
46.3863513329
 30
0.0
 10
100.5065460462
 20
46.38634462459999
 30
0.0
 10
100.2044626566
 20
46.38635834439999
 30
0.0
 10
99.97790012690002
 20
46.38631645979999
 30
0.0
 10
99.75133757489999
 20
46.3864903579
 30
0.0
 10
99.52477564
 20
46.387035615
 30
0.0
 10
99.29821408129999
 20
46.3876990369
 30
0.0
 10
99.14717305759999
 20
46.3881496128
 30
0.0
 10
99.0716525152
 20
46.3883639863
 30
0.0
  0
LINE
  5
5712
330
226
100
AcDbEntity
  8
0
  6
Continuous
 62
     7
100
AcDbLine
 10
113.5716525152
 20
46.2261225468
 30
0.0
 11
101.2046869209
 21
46.22612255539999
 31
0.0
  0
SPLINE
  5
5713
330
226
100
AcDbEntity
  8
0
  6
Continuous
 62
     7
100
AcDbSpline
210
0.0
220
0.0
230
1.0
 70
     8
 71
     3
 72
    19
 73
    15
 74
     0
 42
0.0000001
 43
0.0000000001
 40
0.0
 40
0.0
 40
0.0
 40
0.0
 40
0.125000008
 40
0.2500000159
 40
0.312500019
 40
0.3750000341
 40
0.4375000253000001
 40
0.5000000351000001
 40
0.6249999913000001
 40
0.7499999868
 40
0.8124999902999999
 40
0.8749999932999999
 40
0.9374999962999998
 40
1.0
 40
1.0
 40
1.0
 40
1.0
 10
101.2046869209
 20
46.22612255539999
 30
0.0
 10
101.1173846742
 20
46.2261225051
 30
0.0
 10
100.9427801829
 20
46.22612510649999
 30
0.0
 10
100.7245245594
 20
46.2261165971
 30
0.0
 10
100.5499200739
 20
46.2261340952
 30
0.0
 10
100.4189666601
 20
46.2260862256
 30
0.0
 10
100.2880134702
 20
46.2264010511
 30
0.0
 10
100.1134110562
 20
46.2272733235
 30
0.0
 10
99.8951621229
 20
46.2290403634
 30
0.0
 10
99.67691922540002
 20
46.23139726419999
 30
0.0
 10
99.50232548850001
 20
46.23333507509999
 30
0.0
 10
99.3713786884
 20
46.2346484563
 30
0.0
 10
99.24043118629999
 20
46.2358894589
 30
0.0
 10
99.1531319901
 20
46.2366208675
 30
0.0
 10
99.10948268370001
 20
46.2370191163
 30
0.0
  0
LINE
  5
5714
330
226
100
AcDbEntity
  8
0
  6
Continuous
 62
     7
100
AcDbLine
 10
99.10948268370001
 20
46.2370191163
 30
0.0
 11
99.0716525152
 21
46.2373868306
 31
0.0
  0
LINE
  5
5715
330
226
100
AcDbEntity
  8
0
  6
Continuous
 62
     9
100
AcDbLine
 10
100.9328107851
 20
46.3525738896
 30
0.0
 11
100.9367494394
 21
46.35137757659999
 31
0.0
  0
LINE
  5
5716
330
226
100
AcDbEntity
  8
0
  6
Continuous
 62
     9
100
AcDbLine
 10
100.9329809576
 20
46.3512057168
 30
0.0
 11
100.9328138768
 21
46.3525727872
 31
0.0
  0
SPLINE
  5
5717
330
226
100
AcDbEntity
  8
0
  6
Continuous
 62
     7
100
AcDbSpline
210
0.0
220
0.0
230
1.0
 70
     8
 71
     3
 72
    31
 73
    27
 74
     0
 42
0.0000001
 43
0.0000000001
 40
0.0
 40
0.0
 40
0.0
 40
0.0
 40
0.2500000019
 40
0.3750000029
 40
0.4375000033
 40
0.5000000038
 40
0.5625000043
 40
0.6250000048
 40
0.6875000053
 40
0.7500000057
 40
0.8125000062000001
 40
0.8437500065000001
 40
0.8593750066
 40
0.8750000067
 40
0.8906250066
 40
0.8984375063999999
 40
0.906250009
 40
0.9140625063999999
 40
0.9218750089
 40
0.9375000031
 40
0.9531250009
 40
0.9687500009
 40
0.9765625009
 40
0.9843750007999998
 40
0.9921875007999998
 40
1.0
 40
1.0
 40
1.0
 40
1.0
 10
113.5716525152
 20
46.2261225468
 30
0.0
 10
112.3633148927
 20
46.2261225468
 30
0.0
 10
110.550808459
 20
46.2261225468
 30
0.0
 10
108.4362176197
 20
46.2261225468
 30
0.0
 10
107.2278799972
 20
46.22612254669999
 30
0.0
 10
106.3216267803
 20
46.22612254699999
 30
0.0
 10
105.4153735635
 20
46.2261225459
 30
0.0
 10
104.5091203466
 20
46.22612254989999
 30
0.0
 10
103.6028671297
 20
46.22612253529999
 30
0.0
 10
102.6966139129
 20
46.2261225895
 30
0.0
 10
101.9414028988
 20
46.22612242
 30
0.0
 10
101.412755189
 20
46.2261227235
 30
0.0
 10
101.1106707834
 20
46.22612225109999
 30
0.0
 10
100.8841074808
 20
46.22612359819999
 30
0.0
 10
100.6953047278
 20
46.22611971989999
 30
0.0
 10
100.5442625182
 20
46.22612777959999
 30
0.0
 10
100.4309808575
 20
46.22610477600001
 30
0.0
 10
100.317699243
 20
46.22630310169999
 30
0.0
 10
100.1666584014
 20
46.2269662752
 30
0.0
 10
99.9778601114
 20
46.2283110267
 30
0.0
 10
99.75130771439999
 20
46.2305464602
 30
0.0
 10
99.5625172271
 20
46.2326992191
 30
0.0
 10
99.41148301270001
 20
46.23425414839999
 30
0.0
 10
99.29820658290001
 20
46.2353427675
 30
0.0
 10
99.1849297165
 20
46.2363817705
 30
0.0
 10
99.1094110218
 20
46.23699434539999
 30
0.0
 10
99.0716525152
 20
46.2373868306
 30
0.0
  0
ENDSEC
  0
SECTION
  2
OBJECTS
  0
DICTIONARY
  5
C
330
0
100
AcDbDictionary
281
     1
  3
ACAD_CIP_PREVIOUS_PRODUCT_INFO
350
57DF
  3
ACAD_COLOR
350
5758
  3
ACAD_DETAILVIEWSTYLE
350
5771
  3
ACAD_GROUP
350
D
  3
ACAD_IMAGE_DICT
350
571D
  3
ACAD_IMAGE_VARS
350
571E
  3
ACAD_LAYOUT
350
1A
  3
ACAD_MATERIAL
350
5726
  3
ACAD_MLEADERSTYLE
350
576D
  3
ACAD_MLINESTYLE
350
17
  3
ACAD_PLOTSETTINGS
350
19
  3
ACAD_PLOTSTYLENAME
350
E
  3
ACAD_SCALELIST
350
575B
  3
ACAD_SECTIONVIEWSTYLE
350
576F
  3
ACAD_TABLESTYLE
350
5759
  3
ACAD_VISUALSTYLE
350
573F
  3
ACDB_RECOMPOSE_DATA
350
5927
  3
AcDbVariableDictionary
350
57D0
  0
DICTIONARY
  5
5777
330
8
100
AcDbDictionary
280
     1
281
     1
  0
DICTIONARY
  5
5918
330
2
100
AcDbDictionary
280
     1
281
     1
  3
ACAD_LAYERSTATES
360
5919
  0
DICTIONARY
  5
57E0
330
10
100
AcDbDictionary
280
     1
281
     1
  3
ADSK_XREC_LAYER_RECONCILED
360
57E1
  0
DICTIONARY
  5
57E2
330
1FA
100
AcDbDictionary
280
     1
281
     1
  3
ADSK_XREC_LAYER_RECONCILED
360
57E3
  0
DICTIONARY
  5
57E4
330
1FB
100
AcDbDictionary
280
     1
281
     1
  3
ADSK_XREC_LAYER_RECONCILED
360
57E5
  0
DICTIONARY
  5
57E6
330
1FC
100
AcDbDictionary
280
     1
281
     1
  3
ADSK_XREC_LAYER_RECONCILED
360
57E7
  0
DICTIONARY
  5
57E8
330
1FD
100
AcDbDictionary
280
     1
281
     1
  3
ADSK_XREC_LAYER_RECONCILED
360
57E9
  0
DICTIONARY
  5
57EA
330
1FE
100
AcDbDictionary
280
     1
281
     1
  3
ADSK_XREC_LAYER_RECONCILED
360
57EB
  0
DICTIONARY
  5
57EC
330
1FF
100
AcDbDictionary
280
     1
281
     1
  3
ADSK_XREC_LAYER_RECONCILED
360
57ED
  0
DICTIONARY
  5
57EE
330
200
100
AcDbDictionary
280
     1
281
     1
  3
ADSK_XREC_LAYER_RECONCILED
360
57EF
  0
DICTIONARY
  5
57F0
330
201
100
AcDbDictionary
280
     1
281
     1
  3
ADSK_XREC_LAYER_RECONCILED
360
57F1
  0
DICTIONARY
  5
57F2
330
202
100
AcDbDictionary
280
     1
281
     1
  3
ADSK_XREC_LAYER_RECONCILED
360
57F3
  0
DICTIONARY
  5
57F4
330
203
100
AcDbDictionary
280
     1
281
     1
  3
ADSK_XREC_LAYER_RECONCILED
360
57F5
  0
DICTIONARY
  5
57F6
330
204
100
AcDbDictionary
280
     1
281
     1
  3
ADSK_XREC_LAYER_RECONCILED
360
57F7
  0
DICTIONARY
  5
57F8
330
205
100
AcDbDictionary
280
     1
281
     1
  3
ADSK_XREC_LAYER_RECONCILED
360
57F9
  0
DICTIONARY
  5
57FA
330
206
100
AcDbDictionary
280
     1
281
     1
  3
ADSK_XREC_LAYER_RECONCILED
360
57FB
  0
DICTIONARY
  5
57FC
330
207
100
AcDbDictionary
280
     1
281
     1
  3
ADSK_XREC_LAYER_RECONCILED
360
57FD
  0
DICTIONARY
  5
57FE
330
208
100
AcDbDictionary
280
     1
281
     1
  3
ADSK_XREC_LAYER_RECONCILED
360
57FF
  0
DICTIONARY
  5
5800
330
209
100
AcDbDictionary
280
     1
281
     1
  3
ADSK_XREC_LAYER_RECONCILED
360
5801
  0
DICTIONARY
  5
5802
330
20A
100
AcDbDictionary
280
     1
281
     1
  3
ADSK_XREC_LAYER_RECONCILED
360
5803
  0
DICTIONARY
  5
5804
330
20B
100
AcDbDictionary
280
     1
281
     1
  3
ADSK_XREC_LAYER_RECONCILED
360
5805
  0
DICTIONARY
  5
5806
330
20C
100
AcDbDictionary
280
     1
281
     1
  3
ADSK_XREC_LAYER_RECONCILED
360
5807
  0
DICTIONARY
  5
5808
330
20D
100
AcDbDictionary
280
     1
281
     1
  3
ADSK_XREC_LAYER_RECONCILED
360
5809
  0
DICTIONARY
  5
580A
330
20E
100
AcDbDictionary
280
     1
281
     1
  3
ADSK_XREC_LAYER_RECONCILED
360
580B
  0
DICTIONARY
  5
580C
330
20F
100
AcDbDictionary
280
     1
281
     1
  3
ADSK_XREC_LAYER_RECONCILED
360
580D
  0
DICTIONARY
  5
580E
330
210
100
AcDbDictionary
280
     1
281
     1
  3
ADSK_XREC_LAYER_RECONCILED
360
580F
  0
DICTIONARY
  5
5810
330
211
100
AcDbDictionary
280
     1
281
     1
  3
ADSK_XREC_LAYER_RECONCILED
360
5811
  0
DICTIONARY
  5
5812
330
212
100
AcDbDictionary
280
     1
281
     1
  3
ADSK_XREC_LAYER_RECONCILED
360
5813
  0
DICTIONARY
  5
5814
330
213
100
AcDbDictionary
280
     1
281
     1
  3
ADSK_XREC_LAYER_RECONCILED
360
5815
  0
DICTIONARY
  5
5816
330
214
100
AcDbDictionary
280
     1
281
     1
  3
ADSK_XREC_LAYER_RECONCILED
360
5817
  0
DICTIONARY
  5
5818
330
215
100
AcDbDictionary
280
     1
281
     1
  3
ADSK_XREC_LAYER_RECONCILED
360
5819
  0
DICTIONARY
  5
581A
330
216
100
AcDbDictionary
280
     1
281
     1
  3
ADSK_XREC_LAYER_RECONCILED
360
581B
  0
DICTIONARY
  5
581C
330
217
100
AcDbDictionary
280
     1
281
     1
  3
ADSK_XREC_LAYER_RECONCILED
360
581D
  0
DICTIONARY
  5
581E
330
218
100
AcDbDictionary
280
     1
281
     1
  3
ADSK_XREC_LAYER_RECONCILED
360
581F
  0
DICTIONARY
  5
5820
330
219
100
AcDbDictionary
280
     1
281
     1
  3
ADSK_XREC_LAYER_RECONCILED
360
5821
  0
DICTIONARY
  5
5822
330
21A
100
AcDbDictionary
280
     1
281
     1
  3
ADSK_XREC_LAYER_RECONCILED
360
5823
  0
DICTIONARY
  5
5824
330
21B
100
AcDbDictionary
280
     1
281
     1
  3
ADSK_XREC_LAYER_RECONCILED
360
5825
  0
DICTIONARY
  5
5826
330
21C
100
AcDbDictionary
280
     1
281
     1
  3
ADSK_XREC_LAYER_RECONCILED
360
5827
  0
DICTIONARY
  5
5828
330
21D
100
AcDbDictionary
280
     1
281
     1
  3
ADSK_XREC_LAYER_RECONCILED
360
5829
  0
XRECORD
  5
57DF
102
{ACAD_REACTORS
330
C
102
}
330
C
100
AcDbXrecord
280
     1
300
ACDLT
300
2019
300
ACDLT_F_S
  0
DICTIONARY
  5
5758
102
{ACAD_REACTORS
330
C
102
}
330
C
100
AcDbDictionary
281
     1
  0
DICTIONARY
  5
5771
102
{ACAD_REACTORS
330
C
102
}
330
C
100
AcDbDictionary
281
     1
  3
Imperial24
350
5772
  0
DICTIONARY
  5
D
102
{ACAD_REACTORS
330
C
102
}
330
C
100
AcDbDictionary
281
     1
  0
DICTIONARY
  5
571D
330
C
100
AcDbDictionary
281
     1
  3
a0001309_2_img_1
350
5721
  0
RASTERVARIABLES
  5
571E
330
C
100
AcDbRasterVariables
 90
        0
 70
     0
 71
     1
 72
     5
  0
DICTIONARY
  5
1A
102
{ACAD_REACTORS
330
C
102
}
330
C
100
AcDbDictionary
281
     1
  3
Layout1
350
5720
  3
Model
350
571F
  0
DICTIONARY
  5
5726
102
{ACAD_REACTORS
330
C
102
}
330
C
100
AcDbDictionary
281
     1
  3
ByBlock
350
572F
  3
ByLayer
350
5727
  3
Global
350
5737
  0
DICTIONARY
  5
576D
102
{ACAD_REACTORS
330
C
102
}
330
C
100
AcDbDictionary
281
     1
  3
Standard
350
576E
  0
DICTIONARY
  5
17
102
{ACAD_REACTORS
330
C
102
}
330
C
100
AcDbDictionary
281
     1
  3
Standard
350
18
  0
DICTIONARY
  5
19
102
{ACAD_REACTORS
330
C
102
}
330
C
100
AcDbDictionary
281
     1
  0
ACDBDICTIONARYWDFLT
  5
E
102
{ACAD_REACTORS
330
C
102
}
330
C
100
AcDbDictionary
281
     1
  3
Normal
350
F
100
AcDbDictionaryWithDefault
340
F
  0
DICTIONARY
  5
575B
102
{ACAD_REACTORS
330
C
102
}
330
C
100
AcDbDictionary
281
     1
  3
A0
350
575C
  3
A1
350
575D
  3
A2
350
575E
  3
A3
350
575F
  3
A4
350
5760
  3
A5
350
5761
  3
A6
350
5762
  3
A7
350
5763
  3
A8
350
5764
  3
A9
350
5765
  3
B0
350
5766
  3
B1
350
5767
  3
B2
350
5768
  3
B3
350
5769
  3
B4
350
576A
  3
B5
350
576B
  3
B6
350
576C
  0
DICTIONARY
  5
576F
102
{ACAD_REACTORS
330
C
102
}
330
C
100
AcDbDictionary
281
     1
  3
Imperial24
350
5770
  0
DICTIONARY
  5
5759
102
{ACAD_REACTORS
330
C
102
}
330
C
100
AcDbDictionary
281
     1
  3
Standard
350
575A
  0
DICTIONARY
  5
573F
102
{ACAD_REACTORS
330
C
102
}
330
C
100
AcDbDictionary
281
     1
  3
2dWireframe
350
5745
  3
Basic
350
5744
  3
Brighten
350
574B
  3
ColorChange
350
574F
  3
Conceptual
350
5748
  3
Dim
350
574A
  3
EdgeColorOff
350
5757
  3
Facepattern
350
574E
  3
Flat
350
5740
  3
FlatWithEdges
350
5741
  3
Gouraud
350
5742
  3
GouraudWithEdges
350
5743
  3
Hidden
350
5747
  3
JitterOff
350
5755
  3
Linepattern
350
574D
  3
OverhangOff
350
5756
  3
Realistic
350
5749
  3
Shaded
350
5754
  3
Shaded with edges
350
5753
  3
Shades of Gray
350
5750
  3
Sketchy
350
5751
  3
Thicken
350
574C
  3
Wireframe
350
5746
  3
X-Ray
350
5752
  0
XRECORD
  5
5927
102
{ACAD_REACTORS
330
C
102
}
330
C
100
AcDbXrecord
280
     1
 90
        1
330
575A
  0
DICTIONARY
  5
57D0
102
{ACAD_REACTORS
330
C
102
}
330
C
100
AcDbDictionary
281
     1
  3
CANNOSCALE
350
57D5
  3
CMLEADERSTYLE
350
57D2
  3
CTABLESTYLE
350
57D1
  3
CVIEWDETAILSTYLE
350
57D3
  3
CVIEWSECTIONSTYLE
350
57D4
  3
DIMASSOC
350
57D8
  3
INDEXCTL
350
57D7
  3
LAYEREVAL
350
5924
  3
LAYERNOTIFY
350
5925
  3
LIGHTINGUNITS
350
5923
  3
MSLTSCALE
350
5922
  3
SORTENTS
350
57D6
  0
DICTIONARY
  5
5919
102
{ACAD_REACTORS
330
5918
102
}
330
5918
100
AcDbDictionary
281
     1
  0
XRECORD
  5
57E1
102
{ACAD_REACTORS
330
57E0
102
}
330
57E0
100
AcDbXrecord
280
     1
290
     1
  0
XRECORD
  5
57E3
102
{ACAD_REACTORS
330
57E2
102
}
330
57E2
100
AcDbXrecord
280
     1
290
     1
  0
XRECORD
  5
57E5
102
{ACAD_REACTORS
330
57E4
102
}
330
57E4
100
AcDbXrecord
280
     1
290
     1
  0
XRECORD
  5
57E7
102
{ACAD_REACTORS
330
57E6
102
}
330
57E6
100
AcDbXrecord
280
     1
290
     1
  0
XRECORD
  5
57E9
102
{ACAD_REACTORS
330
57E8
102
}
330
57E8
100
AcDbXrecord
280
     1
290
     1
  0
XRECORD
  5
57EB
102
{ACAD_REACTORS
330
57EA
102
}
330
57EA
100
AcDbXrecord
280
     1
290
     1
  0
XRECORD
  5
57ED
102
{ACAD_REACTORS
330
57EC
102
}
330
57EC
100
AcDbXrecord
280
     1
290
     1
  0
XRECORD
  5
57EF
102
{ACAD_REACTORS
330
57EE
102
}
330
57EE
100
AcDbXrecord
280
     1
290
     1
  0
XRECORD
  5
57F1
102
{ACAD_REACTORS
330
57F0
102
}
330
57F0
100
AcDbXrecord
280
     1
290
     1
  0
XRECORD
  5
57F3
102
{ACAD_REACTORS
330
57F2
102
}
330
57F2
100
AcDbXrecord
280
     1
290
     1
  0
XRECORD
  5
57F5
102
{ACAD_REACTORS
330
57F4
102
}
330
57F4
100
AcDbXrecord
280
     1
290
     1
  0
XRECORD
  5
57F7
102
{ACAD_REACTORS
330
57F6
102
}
330
57F6
100
AcDbXrecord
280
     1
290
     1
  0
XRECORD
  5
57F9
102
{ACAD_REACTORS
330
57F8
102
}
330
57F8
100
AcDbXrecord
280
     1
290
     1
  0
XRECORD
  5
57FB
102
{ACAD_REACTORS
330
57FA
102
}
330
57FA
100
AcDbXrecord
280
     1
290
     1
  0
XRECORD
  5
57FD
102
{ACAD_REACTORS
330
57FC
102
}
330
57FC
100
AcDbXrecord
280
     1
290
     1
  0
XRECORD
  5
57FF
102
{ACAD_REACTORS
330
57FE
102
}
330
57FE
100
AcDbXrecord
280
     1
290
     1
  0
XRECORD
  5
5801
102
{ACAD_REACTORS
330
5800
102
}
330
5800
100
AcDbXrecord
280
     1
290
     1
  0
XRECORD
  5
5803
102
{ACAD_REACTORS
330
5802
102
}
330
5802
100
AcDbXrecord
280
     1
290
     1
  0
XRECORD
  5
5805
102
{ACAD_REACTORS
330
5804
102
}
330
5804
100
AcDbXrecord
280
     1
290
     1
  0
XRECORD
  5
5807
102
{ACAD_REACTORS
330
5806
102
}
330
5806
100
AcDbXrecord
280
     1
290
     1
  0
XRECORD
  5
5809
102
{ACAD_REACTORS
330
5808
102
}
330
5808
100
AcDbXrecord
280
     1
290
     1
  0
XRECORD
  5
580B
102
{ACAD_REACTORS
330
580A
102
}
330
580A
100
AcDbXrecord
280
     1
290
     1
  0
XRECORD
  5
580D
102
{ACAD_REACTORS
330
580C
102
}
330
580C
100
AcDbXrecord
280
     1
290
     1
  0
XRECORD
  5
580F
102
{ACAD_REACTORS
330
580E
102
}
330
580E
100
AcDbXrecord
280
     1
290
     1
  0
XRECORD
  5
5811
102
{ACAD_REACTORS
330
5810
102
}
330
5810
100
AcDbXrecord
280
     1
290
     1
  0
XRECORD
  5
5813
102
{ACAD_REACTORS
330
5812
102
}
330
5812
100
AcDbXrecord
280
     1
290
     1
  0
XRECORD
  5
5815
102
{ACAD_REACTORS
330
5814
102
}
330
5814
100
AcDbXrecord
280
     1
290
     1
  0
XRECORD
  5
5817
102
{ACAD_REACTORS
330
5816
102
}
330
5816
100
AcDbXrecord
280
     1
290
     1
  0
XRECORD
  5
5819
102
{ACAD_REACTORS
330
5818
102
}
330
5818
100
AcDbXrecord
280
     1
290
     1
  0
XRECORD
  5
581B
102
{ACAD_REACTORS
330
581A
102
}
330
581A
100
AcDbXrecord
280
     1
290
     1
  0
XRECORD
  5
581D
102
{ACAD_REACTORS
330
581C
102
}
330
581C
100
AcDbXrecord
280
     1
290
     1
  0
XRECORD
  5
581F
102
{ACAD_REACTORS
330
581E
102
}
330
581E
100
AcDbXrecord
280
     1
290
     1
  0
XRECORD
  5
5821
102
{ACAD_REACTORS
330
5820
102
}
330
5820
100
AcDbXrecord
280
     1
290
     1
  0
XRECORD
  5
5823
102
{ACAD_REACTORS
330
5822
102
}
330
5822
100
AcDbXrecord
280
     1
290
     1
  0
XRECORD
  5
5825
102
{ACAD_REACTORS
330
5824
102
}
330
5824
100
AcDbXrecord
280
     1
290
     1
  0
XRECORD
  5
5827
102
{ACAD_REACTORS
330
5826
102
}
330
5826
100
AcDbXrecord
280
     1
290
     1
  0
XRECORD
  5
5829
102
{ACAD_REACTORS
330
5828
102
}
330
5828
100
AcDbXrecord
280
     1
290
     1
  0
ACDBDETAILVIEWSTYLE
  5
5772
102
{ACAD_REACTORS
330
5771
102
}
330
5771
100
AcDbModelDocViewStyle
 70
     0
  3
Imperial24
290
     0
300
Imperial24
 90
        0
100
AcDbDetailViewStyle
 70
     0
 71
     0
 90
        3
 71
     1
340
11
 62
   256
 40
0.24
340
0
 62
   256
 40
0.24
300

 40
0.36
280
     3
 71
     2
340
16
 90
       25
 62
   256
 71
     3
340
11
 62
   256
 40
0.24
 90
        1
 40
0.75
 90
        1
300
%<\AcVar ViewType \f "%tc1">% %<\AcVar ViewDetailId>%\PSCALE %<\AcVar ViewScale \f "%sn">%
 71
     4
340
16
 90
       25
 62
   256
340
16
 90
       25
 62
   256
280
     0
  0
IMAGEDEF
  5
5721
102
{ACAD_REACTORS
330
571D
102
}
330
571D
100
AcDbRasterImageDef
 90
        0
  1
a0001309_2_img_1.png
 10
6619.0
 20
5716.0
 11
0.0066666667
 21
0.0066666667
280
     1
281
     0
  0
LAYOUT
  5
5720
102
{ACAD_REACTORS
330
1A
102
}
330
1A
100
AcDbPlotSettings
  1

  2
none_device
  4
ANSI_B_(17.00_x_11.00_Inches)
  6

 40
0.0
 41
0.0
 42
0.0
 43
0.0
 44
431.8
 45
279.4
 46
0.0
 47
0.0
 48
0.0
 49
0.0
140
0.0
141
0.0
142
1.0
143
1.0
 70
     0
 72
     0
 73
     0
 74
     0
  7

 75
     0
147
1.0
 76
     0
 77
     2
 78
   300
148
0.0
149
0.0
100
AcDbLayout
  1
Layout1
 70
     1
 71
     1
 10
0.0
 20
0.0
 11
12.0
 21
9.0
 12
0.0
 22
0.0
 32
0.0
 14
1.000000000000000E+20
 24
1.000000000000000E+20
 34
1.000000000000000E+20
 15
-1.000000000000000E+20
 25
-1.000000000000000E+20
 35
-1.000000000000000E+20
146
0.0
 13
0.0
 23
0.0
 33
0.0
 16
1.0
 26
0.0
 36
0.0
 17
0.0
 27
1.0
 37
0.0
 76
     0
330
227
  0
LAYOUT
  5
571F
102
{ACAD_REACTORS
330
1A
102
}
330
1A
100
AcDbPlotSettings
  1

  2
none_device
  4
ANSI_B_(17.00_x_11.00_Inches)
  6

 40
0.0
 41
0.0
 42
0.0
 43
0.0
 44
431.8
 45
279.4
 46
0.0
 47
0.0
 48
0.0
 49
0.0
140
0.0
141
0.0
142
1.0
143
1.0
 70
  1024
 72
     0
 73
     0
 74
     0
  7

 75
     0
147
1.0
 76
     0
 77
     2
 78
   300
148
0.0
149
0.0
100
AcDbLayout
  1
Model
 70
     0
 71
     0
 10
0.0
 20
0.0
 11
17.0
 21
11.0
 12
0.0
 22
0.0
 32
0.0
 14
0.0
 24
0.0
 34
0.0
 15
0.0
 25
0.0
 35
0.0
146
0.0
 13
0.0
 23
0.0
 33
0.0
 16
1.0
 26
0.0
 36
0.0
 17
0.0
 27
1.0
 37
0.0
 76
     0
330
226
331
1F4
  0
MATERIAL
  5
572F
102
{ACAD_XDICTIONARY
360
5730
102
}
102
{ACAD_REACTORS
330
5726
102
}
330
5726
100
AcDbMaterial
  1
ByBlock
 72
     0
 43
0.0208333333333333
 43
0.0
 43
0.0
 43
0.0
 43
0.0
 43
0.0208333333333333
 43
0.0
 43
0.0
 43
0.0
 43
0.0
 43
1.0
 43
0.0
 43
0.0
 43
0.0
 43
0.0
 43
1.0
 77
     0
 47
0.0208333333333333
 47
0.0
 47
0.0
 47
0.0
 47
0.0
 47
0.0208333333333333
 47
0.0
 47
0.0
 47
0.0
 47
0.0
 47
1.0
 47
0.0
 47
0.0
 47
0.0
 47
0.0
 47
1.0
171
     0
 49
0.0208333333333333
 49
0.0
 49
0.0
 49
0.0
 49
0.0
 49
0.0208333333333333
 49
0.0
 49
0.0
 49
0.0
 49
0.0
 49
1.0
 49
0.0
 49
0.0
 49
0.0
 49
0.0
 49
1.0
175
     0
142
0.0208333333333333
142
0.0
142
0.0
142
0.0
142
0.0
142
0.0208333333333333
142
0.0
142
0.0
142
0.0
142
0.0
142
1.0
142
0.0
142
0.0
142
0.0
142
0.0
142
1.0
179
     0
144
0.0208333333333333
144
0.0
144
0.0
144
0.0
144
0.0
144
0.0208333333333333
144
0.0
144
0.0
144
0.0
144
0.0
144
1.0
144
0.0
144
0.0
144
0.0
144
0.0
144
1.0
147
0.0208333333333333
147
0.0
147
0.0
147
0.0
147
0.0
147
0.0208333333333333
147
0.0
147
0.0
147
0.0
147
0.0
147
1.0
147
0.0
147
0.0
147
0.0
147
0.0
147
1.0
  0
MATERIAL
  5
5727
102
{ACAD_XDICTIONARY
360
5728
102
}
102
{ACAD_REACTORS
330
5726
102
}
330
5726
100
AcDbMaterial
  1
ByLayer
 72
     0
 43
0.0208333333333333
 43
0.0
 43
0.0
 43
0.0
 43
0.0
 43
0.0208333333333333
 43
0.0
 43
0.0
 43
0.0
 43
0.0
 43
1.0
 43
0.0
 43
0.0
 43
0.0
 43
0.0
 43
1.0
 77
     0
 47
0.0208333333333333
 47
0.0
 47
0.0
 47
0.0
 47
0.0
 47
0.0208333333333333
 47
0.0
 47
0.0
 47
0.0
 47
0.0
 47
1.0
 47
0.0
 47
0.0
 47
0.0
 47
0.0
 47
1.0
171
     0
 49
0.0208333333333333
 49
0.0
 49
0.0
 49
0.0
 49
0.0
 49
0.0208333333333333
 49
0.0
 49
0.0
 49
0.0
 49
0.0
 49
1.0
 49
0.0
 49
0.0
 49
0.0
 49
0.0
 49
1.0
175
     0
142
0.0208333333333333
142
0.0
142
0.0
142
0.0
142
0.0
142
0.0208333333333333
142
0.0
142
0.0
142
0.0
142
0.0
142
1.0
142
0.0
142
0.0
142
0.0
142
0.0
142
1.0
179
     0
144
0.0208333333333333
144
0.0
144
0.0
144
0.0
144
0.0
144
0.0208333333333333
144
0.0
144
0.0
144
0.0
144
0.0
144
1.0
144
0.0
144
0.0
144
0.0
144
0.0
144
1.0
147
0.0208333333333333
147
0.0
147
0.0
147
0.0
147
0.0
147
0.0208333333333333
147
0.0
147
0.0
147
0.0
147
0.0
147
1.0
147
0.0
147
0.0
147
0.0
147
0.0
147
1.0
  0
MATERIAL
  5
5737
102
{ACAD_XDICTIONARY
360
5738
102
}
102
{ACAD_REACTORS
330
5726
102
}
330
5726
100
AcDbMaterial
  1
Global
 72
     0
 43
0.0208333333333333
 43
0.0
 43
0.0
 43
0.0
 43
0.0
 43
0.0208333333333333
 43
0.0
 43
0.0
 43
0.0
 43
0.0
 43
1.0
 43
0.0
 43
0.0
 43
0.0
 43
0.0
 43
1.0
 77
     0
 47
0.0208333333333333
 47
0.0
 47
0.0
 47
0.0
 47
0.0
 47
0.0208333333333333
 47
0.0
 47
0.0
 47
0.0
 47
0.0
 47
1.0
 47
0.0
 47
0.0
 47
0.0
 47
0.0
 47
1.0
171
     0
 49
0.0208333333333333
 49
0.0
 49
0.0
 49
0.0
 49
0.0
 49
0.0208333333333333
 49
0.0
 49
0.0
 49
0.0
 49
0.0
 49
1.0
 49
0.0
 49
0.0
 49
0.0
 49
0.0
 49
1.0
175
     0
142
0.0208333333333333
142
0.0
142
0.0
142
0.0
142
0.0
142
0.0208333333333333
142
0.0
142
0.0
142
0.0
142
0.0
142
1.0
142
0.0
142
0.0
142
0.0
142
0.0
142
1.0
179
     0
144
0.0208333333333333
144
0.0
144
0.0
144
0.0
144
0.0
144
0.0208333333333333
144
0.0
144
0.0
144
0.0
144
0.0
144
1.0
144
0.0
144
0.0
144
0.0
144
0.0
144
1.0
147
0.0208333333333333
147
0.0
147
0.0
147
0.0
147
0.0
147
0.0208333333333333
147
0.0
147
0.0
147
0.0
147
0.0
147
1.0
147
0.0
147
0.0
147
0.0
147
0.0
147
1.0
  0
MLEADERSTYLE
  5
576E
102
{ACAD_REACTORS
330
576D
102
}
330
576D
100
AcDbMLeaderStyle
179
     2
170
     2
171
     1
172
     0
 90
        2
 40
0.0
 41
0.0
173
     1
 91
-1056964608
340
14
 92
       -2
290
     1
 42
0.09
291
     1
 43
0.36
  3
Standard
 44
0.18
300

342
11
174
     1
178
     6
175
     1
176
     0
 93
-1056964608
 45
0.18
292
     0
297
     0
 46
0.18
 94
-1056964608
 47
1.0
 49
1.0
140
1.0
293
     1
141
0.0
294
     1
177
     0
142
1.0
295
     0
296
     0
143
0.125
271
     0
272
     9
273
     9
298
     0
  0
MLINESTYLE
  5
18
102
{ACAD_REACTORS
330
17
102
}
330
17
100
AcDbMlineStyle
  2
STANDARD
 70
     0
  3

 62
   256
 51
90.0
 52
90.0
 71
     2
 49
0.5
 62
   256
  6
BYLAYER
 49
-0.5
 62
   256
  6
BYLAYER
  0
ACDBPLACEHOLDER
  5
F
102
{ACAD_REACTORS
330
E
102
}
330
E
  0
SCALE
  5
575C
102
{ACAD_REACTORS
330
575B
102
}
330
575B
100
AcDbScale
 70
     0
300
1:1
140
1.0
141
1.0
290
     1
  0
SCALE
  5
575D
102
{ACAD_REACTORS
330
575B
102
}
330
575B
100
AcDbScale
 70
     0
300
1/128" = 1'-0"
140
0.0078125
141
12.0
290
     0
  0
SCALE
  5
575E
102
{ACAD_REACTORS
330
575B
102
}
330
575B
100
AcDbScale
 70
     0
300
1/64" = 1'-0"
140
0.015625
141
12.0
290
     0
  0
SCALE
  5
575F
102
{ACAD_REACTORS
330
575B
102
}
330
575B
100
AcDbScale
 70
     0
300
1/32" = 1'-0"
140
0.03125
141
12.0
290
     0
  0
SCALE
  5
5760
102
{ACAD_REACTORS
330
575B
102
}
330
575B
100
AcDbScale
 70
     0
300
1/16" = 1'-0"
140
0.0625
141
12.0
290
     0
  0
SCALE
  5
5761
102
{ACAD_REACTORS
330
575B
102
}
330
575B
100
AcDbScale
 70
     0
300
3/32" = 1'-0"
140
0.09375
141
12.0
290
     0
  0
SCALE
  5
5762
102
{ACAD_REACTORS
330
575B
102
}
330
575B
100
AcDbScale
 70
     0
300
1/8" = 1'-0"
140
0.125
141
12.0
290
     0
  0
SCALE
  5
5763
102
{ACAD_REACTORS
330
575B
102
}
330
575B
100
AcDbScale
 70
     0
300
3/16" = 1'-0"
140
0.1875
141
12.0
290
     0
  0
SCALE
  5
5764
102
{ACAD_REACTORS
330
575B
102
}
330
575B
100
AcDbScale
 70
     0
300
1/4" = 1'-0"
140
0.25
141
12.0
290
     0
  0
SCALE
  5
5765
102
{ACAD_REACTORS
330
575B
102
}
330
575B
100
AcDbScale
 70
     0
300
3/8" = 1'-0"
140
0.375
141
12.0
290
     0
  0
SCALE
  5
5766
102
{ACAD_REACTORS
330
575B
102
}
330
575B
100
AcDbScale
 70
     0
300
1/2" = 1'-0"
140
0.5
141
12.0
290
     0
  0
SCALE
  5
5767
102
{ACAD_REACTORS
330
575B
102
}
330
575B
100
AcDbScale
 70
     0
300
3/4" = 1'-0"
140
0.75
141
12.0
290
     0
  0
SCALE
  5
5768
102
{ACAD_REACTORS
330
575B
102
}
330
575B
100
AcDbScale
 70
     0
300
1" = 1'-0"
140
1.0
141
12.0
290
     0
  0
SCALE
  5
5769
102
{ACAD_REACTORS
330
575B
102
}
330
575B
100
AcDbScale
 70
     0
300
1-1/2" = 1'-0"
140
1.5
141
12.0
290
     0
  0
SCALE
  5
576A
102
{ACAD_REACTORS
330
575B
102
}
330
575B
100
AcDbScale
 70
     0
300
3" = 1'-0"
140
3.0
141
12.0
290
     0
  0
SCALE
  5
576B
102
{ACAD_REACTORS
330
575B
102
}
330
575B
100
AcDbScale
 70
     0
300
6" = 1'-0"
140
6.0
141
12.0
290
     0
  0
SCALE
  5
576C
102
{ACAD_REACTORS
330
575B
102
}
330
575B
100
AcDbScale
 70
     0
300
1'-0" = 1'-0"
140
12.0
141
12.0
290
     0
  0
ACDBSECTIONVIEWSTYLE
  5
5770
102
{ACAD_REACTORS
330
576F
102
}
330
576F
100
AcDbModelDocViewStyle
 70
     0
  3
Imperial24
290
     0
300
Imperial24
 90
        0
100
AcDbSectionViewStyle
 70
     0
 71
     0
 90
       78
 71
     1
340
11
 62
   256
 40
0.24
340
0
340
0
 62
   256
 40
0.24
300
I, O, Q, S, X, Z
 40
0.48
 90
        3
 40
0.18
 90
        1
 71
     2
340
16
 90
       25
 62
   256
340
16
 90
       50
 62
   256
 40
0.24
 40
0.0
 40
0.24
 71
     3
340
11
 62
   256
 40
0.24
 90
        1
 40
0.75
 90
        1
300
%<\AcVar ViewType \f "%tc1">% %<\AcVar ViewSectionStartId>%-%<\AcVar ViewSectionEndId>%\PSCALE %<\AcVar ViewScale \f "%sn">%
 71
     4
 62
   256
 62
   257
300
ANSI31
 40
1.0
 90
        0
290
     0
290
     0
 90
        6
 40
0.0
 40
1.570796326794896
 40
0.2617993877991494
 40
1.308996938995747
 40
-0.2617993877991494
 40
1.832595714594046
  0
TABLESTYLE
  5
575A
102
{ACAD_XDICTIONARY
360
5774
102
}
102
{ACAD_REACTORS
330
5759
102
}
330
5759
100
AcDbTableStyle
280
     0
  3
Standard
 70
     0
 71
     0
 40
0.06
 41
0.06
280
     0
281
     0
  7
STANDARD
140
0.18
170
     2
 62
     0
 63
     7
283
     0
 90
      512
 91
        0
  1

274
    -2
284
     1
 64
     0
275
    -2
285
     1
 65
     0
276
    -2
286
     1
 66
     0
277
    -2
287
     1
 67
     0
278
    -2
288
     1
 68
     0
279
    -2
289
     1
 69
     0
  7
STANDARD
140
0.25
170
     5
 62
     0
 63
     7
283
     0
 90
      512
 91
        0
  1

274
    -2
284
     1
 64
     0
275
    -2
285
     1
 65
     0
276
    -2
286
     1
 66
     0
277
    -2
287
     1
 67
     0
278
    -2
288
     1
 68
     0
279
    -2
289
     1
 69
     0
  7
STANDARD
140
0.18
170
     5
 62
     0
 63
     7
283
     0
 90
      512
 91
        0
  1

274
    -2
284
     1
 64
     0
275
    -2
285
     1
 65
     0
276
    -2
286
     1
 66
     0
277
    -2
287
     1
 67
     0
278
    -2
288
     1
 68
     0
279
    -2
289
     1
 69
     0
  0
VISUALSTYLE
  5
5745
102
{ACAD_REACTORS
330
573F
102
}
330
573F
100
AcDbVisualStyle
  2
2dWireframe
 70
     4
177
     3
291
     0
 70
    58
 90
        0
176
     1
 90
        2
176
     1
 90
        0
176
     1
 90
        0
176
     1
 40
0.6
176
     1
 40
30.0
176
     1
 62
     7
176
     1
 90
        1
176
     1
 90
        4
176
     1
 62
     7
176
     1
 62
   257
176
     1
 90
        1
176
     1
 90
        1
176
     1
 40
1.0
176
     1
 90
        0
176
     1
 62
   257
176
     1
 40
1.0
176
     1
 90
        1
176
     1
 90
        6
176
     1
 90
        2
176
     1
 62
     7
176
     1
 90
        5
176
     1
 90
        0
176
     1
 90
        0
176
     1
290
     0
176
     1
 90
        1
176
     1
 40
0.0
176
     1
 90
        0
176
     1
290
     1
176
     1
290
     1
176
     1
290
     0
176
     1
290
     0
176
     1
290
     0
176
     1
290
     0
176
     1
290
     0
176
     1
290
     0
176
     1
290
     0
176
     1
 90
       50
176
     1
 40
0.0
176
     1
 40
1.0
176
     1
 90
        0
176
     1
 62
    18
420
        0
176
     1
 90
       50
176
     1
 90
        3
176
     1
 62
     5
420
      255
176
     1
290
     0
176
     1
 90
       50
176
     1
 90
       50
176
     1
 90
       50
176
     1
290
     0
176
     1
 90
       50
176
     1
 62
   256
176
     0
 40
1.0
176
     0
 90
        2
176
     1
  1
strokes_ogs.tif
176
     1
290
     0
176
     1
 40
1.0
176
     1
 40
1.0
176
     1
  0
VISUALSTYLE
  5
5744
102
{ACAD_REACTORS
330
573F
102
}
330
573F
100
AcDbVisualStyle
  2
Basic
 70
     7
177
     3
291
     1
 70
    58
 90
        1
176
     1
 90
        0
176
     1
 90
        1
176
     1
 90
        0
176
     1
 40
0.6
176
     1
 40
30.0
176
     1
 62
     7
176
     1
 90
        0
176
     1
 90
        4
176
     1
 62
     7
176
     1
 62
   257
176
     1
 90
        1
176
     1
 90
        1
176
     1
 40
1.0
176
     1
 90
        8
176
     1
 62
     7
176
     1
 40
1.0
176
     1
 90
        1
176
     1
 90
        6
176
     1
 90
        2
176
     1
 62
     7
176
     1
 90
        5
176
     1
 90
        0
176
     1
 90
        0
176
     1
290
     0
176
     1
 90
        1
176
     1
 40
0.0
176
     1
 90
        0
176
     1
290
     0
176
     1
290
     1
176
     1
290
     1
176
     1
290
     0
176
     1
290
     0
176
     1
290
     0
176
     1
290
     0
176
     1
290
     0
176
     1
290
     0
176
     1
 90
       50
176
     1
 40
0.0
176
     1
 40
1.0
176
     1
 90
        0
176
     1
 62
    18
420
        0
176
     1
 90
       50
176
     1
 90
        3
176
     1
 62
     5
420
      255
176
     1
290
     0
176
     1
 90
       50
176
     1
 90
       50
176
     1
 90
       50
176
     1
290
     0
176
     1
 90
       50
176
     1
 62
   256
176
     0
 40
1.0
176
     0
 90
        2
176
     1
  1
strokes_ogs.tif
176
     1
290
     0
176
     1
 40
1.0
176
     1
 40
1.0
176
     1
  0
VISUALSTYLE
  5
574B
102
{ACAD_REACTORS
330
573F
102
}
330
573F
100
AcDbVisualStyle
  2
Brighten
 70
    12
177
     3
291
     1
 70
    58
 90
        2
176
     1
 90
        2
176
     1
 90
        0
176
     1
 90
        0
176
     1
 40
0.6
176
     1
 40
30.0
176
     1
 62
     7
176
     1
 90
        1
176
     1
 90
        4
176
     1
 62
     7
176
     1
 62
   257
176
     1
 90
        1
176
     1
 90
        1
176
     1
 40
1.0
176
     1
 90
        8
176
     1
 62
     7
176
     1
 40
1.0
176
     1
 90
        1
176
     1
 90
        6
176
     1
 90
        2
176
     1
 62
     7
176
     1
 90
        5
176
     1
 90
        0
176
     1
 90
        0
176
     1
290
     0
176
     1
 90
        1
176
     1
 40
50.0
176
     1
 90
        0
176
     1
290
     0
176
     1
290
     1
176
     1
290
     1
176
     1
290
     0
176
     1
290
     0
176
     1
290
     0
176
     1
290
     0
176
     1
290
     0
176
     1
290
     0
176
     1
 90
       50
176
     1
 40
0.0
176
     1
 40
1.0
176
     1
 90
        0
176
     1
 62
    18
420
        0
176
     1
 90
       50
176
     1
 90
        3
176
     1
 62
     5
420
      255
176
     1
290
     0
176
     1
 90
       50
176
     1
 90
       50
176
     1
 90
       50
176
     1
290
     0
176
     1
 90
       50
176
     1
 62
   256
176
     0
 40
1.0
176
     0
 90
        2
176
     1
  1
strokes_ogs.tif
176
     1
290
     0
176
     1
 40
1.0
176
     1
 40
1.0
176
     1
  0
VISUALSTYLE
  5
574F
102
{ACAD_REACTORS
330
573F
102
}
330
573F
100
AcDbVisualStyle
  2
ColorChange
 70
    16
177
     3
291
     1
 70
    58
 90
        2
176
     1
 90
        2
176
     1
 90
        3
176
     1
 90
        0
176
     1
 40
0.6
176
     1
 40
30.0
176
     1
 62
     8
176
     1
 90
        1
176
     1
 90
        4
176
     1
 62
     7
176
     1
 62
   257
176
     1
 90
        1
176
     1
 90
        1
176
     1
 40
1.0
176
     1
 90
        8
176
     1
 62
     8
176
     1
 40
1.0
176
     1
 90
        1
176
     1
 90
        6
176
     1
 90
        2
176
     1
 62
     7
176
     1
 90
        5
176
     1
 90
        0
176
     1
 90
        0
176
     1
290
     0
176
     1
 90
        1
176
     1
 40
0.0
176
     1
 90
        0
176
     1
290
     0
176
     1
290
     1
176
     1
290
     1
176
     1
290
     0
176
     1
290
     0
176
     1
290
     0
176
     1
290
     0
176
     1
290
     0
176
     1
290
     0
176
     1
 90
       50
176
     1
 40
0.0
176
     1
 40
1.0
176
     1
 90
        0
176
     1
 62
    18
420
        0
176
     1
 90
       50
176
     1
 90
        3
176
     1
 62
     5
420
      255
176
     1
290
     0
176
     1
 90
       50
176
     1
 90
       50
176
     1
 90
       50
176
     1
290
     0
176
     1
 90
       50
176
     1
 62
   256
176
     0
 40
1.0
176
     0
 90
        2
176
     1
  1
strokes_ogs.tif
176
     1
290
     0
176
     1
 40
1.0
176
     1
 40
1.0
176
     1
  0
VISUALSTYLE
  5
5748
102
{ACAD_REACTORS
330
573F
102
}
330
573F
100
AcDbVisualStyle
  2
Conceptual
 70
     9
177
     3
291
     0
 70
    58
 90
        3
176
     1
 90
        2
176
     1
 90
        0
176
     1
 90
        0
176
     1
 40
0.6
176
     1
 40
30.0
176
     1
 62
     7
176
     1
 90
        2
176
     1
 90
        2
176
     1
 62
     7
176
     1
 62
   257
176
     1
 90
        1
176
     1
 90
        1
176
     1
 40
179.0
176
     1
 90
        8
176
     1
 62
     7
176
     1
 40
1.0
176
     1
 90
        1
176
     1
 90
        6
176
     1
 90
        2
176
     1
 62
     7
176
     1
 90
        3
176
     1
 90
        0
176
     1
 90
        0
176
     1
290
     0
176
     1
 90
        1
176
     1
 40
0.0
176
     1
 90
        0
176
     1
290
     0
176
     1
290
     1
176
     1
290
     1
176
     1
290
     0
176
     1
290
     0
176
     1
290
     0
176
     1
290
     0
176
     1
290
     0
176
     1
290
     0
176
     1
 90
       50
176
     1
 40
0.0
176
     1
 40
1.0
176
     1
 90
        0
176
     1
 62
    18
420
        0
176
     1
 90
       50
176
     1
 90
        3
176
     1
 62
     5
420
      255
176
     1
290
     0
176
     1
 90
       50
176
     1
 90
       50
176
     1
 90
       50
176
     1
290
     0
176
     1
 90
       50
176
     1
 62
   256
176
     0
 40
1.0
176
     0
 90
        2
176
     1
  1
strokes_ogs.tif
176
     1
290
     0
176
     1
 40
1.0
176
     1
 40
1.0
176
     1
  0
VISUALSTYLE
  5
574A
102
{ACAD_REACTORS
330
573F
102
}
330
573F
100
AcDbVisualStyle
  2
Dim
 70
    11
177
     3
291
     1
 70
    58
 90
        2
176
     1
 90
        2
176
     1
 90
        0
176
     1
 90
        0
176
     1
 40
0.6
176
     1
 40
30.0
176
     1
 62
     7
176
     1
 90
        1
176
     1
 90
        4
176
     1
 62
     7
176
     1
 62
   257
176
     1
 90
        1
176
     1
 90
        1
176
     1
 40
1.0
176
     1
 90
        8
176
     1
 62
     7
176
     1
 40
1.0
176
     1
 90
        1
176
     1
 90
        6
176
     1
 90
        2
176
     1
 62
     7
176
     1
 90
        5
176
     1
 90
        0
176
     1
 90
        0
176
     1
290
     0
176
     1
 90
        1
176
     1
 40
-50.0
176
     1
 90
        0
176
     1
290
     0
176
     1
290
     1
176
     1
290
     1
176
     1
290
     0
176
     1
290
     0
176
     1
290
     0
176
     1
290
     0
176
     1
290
     0
176
     1
290
     0
176
     1
 90
       50
176
     1
 40
0.0
176
     1
 40
1.0
176
     1
 90
        0
176
     1
 62
    18
420
        0
176
     1
 90
       50
176
     1
 90
        3
176
     1
 62
     5
420
      255
176
     1
290
     0
176
     1
 90
       50
176
     1
 90
       50
176
     1
 90
       50
176
     1
290
     0
176
     1
 90
       50
176
     1
 62
   256
176
     0
 40
1.0
176
     0
 90
        2
176
     1
  1
strokes_ogs.tif
176
     1
290
     0
176
     1
 40
1.0
176
     1
 40
1.0
176
     1
  0
VISUALSTYLE
  5
5757
102
{ACAD_REACTORS
330
573F
102
}
330
573F
100
AcDbVisualStyle
  2
EdgeColorOff
 70
    22
177
     3
291
     1
 70
    58
 90
        2
176
     0
 90
        2
176
     0
 90
        0
176
     0
 90
        0
176
     0
 40
0.6
176
     0
 40
30.0
176
     0
 62
     7
176
     0
 90
        1
176
     0
 90
        4
176
     0
 62
     7
176
     0
 62
   257
176
     0
 90
        1
176
     0
 90
        1
176
     0
 40
1.0
176
     0
 90
        8
176
     2
 62
     7
176
     0
 40
1.0
176
     0
 90
        1
176
     0
 90
        6
176
     0
 90
        2
176
     0
 62
     7
176
     0
 90
        5
176
     0
 90
        0
176
     0
 90
        0
176
     0
290
     0
176
     0
 90
        1
176
     0
 40
0.0
176
     0
 90
        0
176
     0
290
     0
176
     1
290
     1
176
     1
290
     1
176
     1
290
     0
176
     1
290
     0
176
     1
290
     0
176
     1
290
     0
176
     1
290
     0
176
     1
290
     0
176
     1
 90
       50
176
     0
 40
0.0
176
     0
 40
1.0
176
     0
 90
        0
176
     0
 62
    18
420
        0
176
     0
 90
       50
176
     0
 90
        3
176
     0
 62
     5
420
      255
176
     0
290
     0
176
     1
 90
       50
176
     0
 90
       50
176
     0
 90
       50
176
     0
290
     0
176
     1
 90
       50
176
     0
 62
   256
176
     0
 40
1.0
176
     0
 90
        2
176
     0
  1
strokes_ogs.tif
176
     0
290
     0
176
     1
 40
1.0
176
     0
 40
1.0
176
     0
  0
VISUALSTYLE
  5
574E
102
{ACAD_REACTORS
330
573F
102
}
330
573F
100
AcDbVisualStyle
  2
Facepattern
 70
    15
177
     3
291
     1
 70
    58
 90
        2
176
     1
 90
        2
176
     1
 90
        0
176
     1
 90
        0
176
     1
 40
0.6
176
     1
 40
30.0
176
     1
 62
     7
176
     1
 90
        1
176
     1
 90
        4
176
     1
 62
     7
176
     1
 62
   257
176
     1
 90
        1
176
     1
 90
        1
176
     1
 40
1.0
176
     1
 90
        8
176
     1
 62
     7
176
     1
 40
1.0
176
     1
 90
        1
176
     1
 90
        6
176
     1
 90
        2
176
     1
 62
     7
176
     1
 90
        5
176
     1
 90
        0
176
     1
 90
        0
176
     1
290
     0
176
     1
 90
        1
176
     1
 40
0.0
176
     1
 90
        0
176
     1
290
     0
176
     1
290
     1
176
     1
290
     1
176
     1
290
     0
176
     1
290
     0
176
     1
290
     0
176
     1
290
     0
176
     1
290
     0
176
     1
290
     0
176
     1
 90
       50
176
     1
 40
0.0
176
     1
 40
1.0
176
     1
 90
        0
176
     1
 62
    18
420
        0
176
     1
 90
       50
176
     1
 90
        3
176
     1
 62
     5
420
      255
176
     1
290
     0
176
     1
 90
       50
176
     1
 90
       50
176
     1
 90
       50
176
     1
290
     0
176
     1
 90
       50
176
     1
 62
   256
176
     0
 40
1.0
176
     0
 90
        2
176
     1
  1
strokes_ogs.tif
176
     1
290
     0
176
     1
 40
1.0
176
     1
 40
1.0
176
     1
  0
VISUALSTYLE
  5
5740
102
{ACAD_REACTORS
330
573F
102
}
330
573F
100
AcDbVisualStyle
  2
Flat
 70
     0
177
     3
291
     1
 70
    58
 90
        2
176
     1
 90
        1
176
     1
 90
        1
176
     1
 90
        2
176
     1
 40
0.6
176
     1
 40
30.0
176
     1
 62
     7
176
     1
 90
        0
176
     1
 90
        0
176
     1
 62
     7
176
     1
 62
   257
176
     1
 90
        1
176
     1
 90
        1
176
     1
 40
1.0
176
     1
 90
        8
176
     1
 62
     7
176
     1
 40
1.0
176
     1
 90
        1
176
     1
 90
        6
176
     1
 90
        2
176
     1
 62
     7
176
     1
 90
        5
176
     1
 90
        0
176
     1
 90
        0
176
     1
290
     0
176
     1
 90
       13
176
     1
 40
0.0
176
     1
 90
        0
176
     1
290
     0
176
     1
290
     1
176
     1
290
     1
176
     1
290
     0
176
     1
290
     0
176
     1
290
     0
176
     1
290
     0
176
     1
290
     0
176
     1
290
     0
176
     1
 90
       50
176
     1
 40
0.0
176
     1
 40
1.0
176
     1
 90
        0
176
     1
 62
    18
420
        0
176
     1
 90
       50
176
     1
 90
        3
176
     1
 62
     5
420
      255
176
     1
290
     0
176
     1
 90
       50
176
     1
 90
       50
176
     1
 90
       50
176
     1
290
     0
176
     1
 90
       50
176
     1
 62
   256
176
     0
 40
1.0
176
     0
 90
        2
176
     1
  1
strokes_ogs.tif
176
     1
290
     0
176
     1
 40
1.0
176
     1
 40
1.0
176
     1
  0
VISUALSTYLE
  5
5741
102
{ACAD_REACTORS
330
573F
102
}
330
573F
100
AcDbVisualStyle
  2
FlatWithEdges
 70
     1
177
     3
291
     1
 70
    58
 90
        2
176
     1
 90
        1
176
     1
 90
        1
176
     1
 90
        2
176
     1
 40
0.6
176
     1
 40
30.0
176
     1
 62
     7
176
     1
 90
        1
176
     1
 90
        0
176
     1
 62
     7
176
     1
 62
   257
176
     1
 90
        1
176
     1
 90
        1
176
     1
 40
1.0
176
     1
 90
        0
176
     1
 62
   257
176
     1
 40
1.0
176
     1
 90
        1
176
     1
 90
        6
176
     1
 90
        2
176
     1
 62
     7
176
     1
 90
        5
176
     1
 90
        0
176
     1
 90
        0
176
     1
290
     0
176
     1
 90
       13
176
     1
 40
0.0
176
     1
 90
        0
176
     1
290
     0
176
     1
290
     1
176
     1
290
     1
176
     1
290
     0
176
     1
290
     0
176
     1
290
     0
176
     1
290
     0
176
     1
290
     0
176
     1
290
     0
176
     1
 90
       50
176
     1
 40
0.0
176
     1
 40
1.0
176
     1
 90
        0
176
     1
 62
    18
420
        0
176
     1
 90
       50
176
     1
 90
        3
176
     1
 62
     5
420
      255
176
     1
290
     0
176
     1
 90
       50
176
     1
 90
       50
176
     1
 90
       50
176
     1
290
     0
176
     1
 90
       50
176
     1
 62
   256
176
     0
 40
1.0
176
     0
 90
        2
176
     1
  1
strokes_ogs.tif
176
     1
290
     0
176
     1
 40
1.0
176
     1
 40
1.0
176
     1
  0
VISUALSTYLE
  5
5742
102
{ACAD_REACTORS
330
573F
102
}
330
573F
100
AcDbVisualStyle
  2
Gouraud
 70
     2
177
     3
291
     1
 70
    58
 90
        2
176
     1
 90
        2
176
     1
 90
        1
176
     1
 90
        2
176
     1
 40
0.6
176
     1
 40
30.0
176
     1
 62
     7
176
     1
 90
        0
176
     1
 90
        0
176
     1
 62
     7
176
     1
 62
   257
176
     1
 90
        1
176
     1
 90
        1
176
     1
 40
1.0
176
     1
 90
        0
176
     1
 62
     7
176
     1
 40
1.0
176
     1
 90
        1
176
     1
 90
        6
176
     1
 90
        2
176
     1
 62
     7
176
     1
 90
        5
176
     1
 90
        0
176
     1
 90
        0
176
     1
290
     0
176
     1
 90
       13
176
     1
 40
0.0
176
     1
 90
        0
176
     1
290
     0
176
     1
290
     1
176
     1
290
     1
176
     1
290
     0
176
     1
290
     0
176
     1
290
     0
176
     1
290
     0
176
     1
290
     0
176
     1
290
     0
176
     1
 90
       50
176
     1
 40
0.0
176
     1
 40
1.0
176
     1
 90
        0
176
     1
 62
    18
420
        0
176
     1
 90
       50
176
     1
 90
        3
176
     1
 62
     5
420
      255
176
     1
290
     0
176
     1
 90
       50
176
     1
 90
       50
176
     1
 90
       50
176
     1
290
     0
176
     1
 90
       50
176
     1
 62
   256
176
     0
 40
1.0
176
     0
 90
        2
176
     1
  1
strokes_ogs.tif
176
     1
290
     0
176
     1
 40
1.0
176
     1
 40
1.0
176
     1
  0
VISUALSTYLE
  5
5743
102
{ACAD_REACTORS
330
573F
102
}
330
573F
100
AcDbVisualStyle
  2
GouraudWithEdges
 70
     3
177
     3
291
     1
 70
    58
 90
        2
176
     1
 90
        2
176
     1
 90
        1
176
     1
 90
        2
176
     1
 40
0.6
176
     1
 40
30.0
176
     1
 62
     7
176
     1
 90
        1
176
     1
 90
        0
176
     1
 62
     7
176
     1
 62
   257
176
     1
 90
        1
176
     1
 90
        1
176
     1
 40
1.0
176
     1
 90
        0
176
     1
 62
   257
176
     1
 40
1.0
176
     1
 90
        1
176
     1
 90
        6
176
     1
 90
        2
176
     1
 62
     7
176
     1
 90
        5
176
     1
 90
        0
176
     1
 90
        0
176
     1
290
     0
176
     1
 90
       13
176
     1
 40
0.0
176
     1
 90
        0
176
     1
290
     0
176
     1
290
     1
176
     1
290
     1
176
     1
290
     0
176
     1
290
     0
176
     1
290
     0
176
     1
290
     0
176
     1
290
     0
176
     1
290
     0
176
     1
 90
       50
176
     1
 40
0.0
176
     1
 40
1.0
176
     1
 90
        0
176
     1
 62
    18
420
        0
176
     1
 90
       50
176
     1
 90
        3
176
     1
 62
     5
420
      255
176
     1
290
     0
176
     1
 90
       50
176
     1
 90
       50
176
     1
 90
       50
176
     1
290
     0
176
     1
 90
       50
176
     1
 62
   256
176
     0
 40
1.0
176
     0
 90
        2
176
     1
  1
strokes_ogs.tif
176
     1
290
     0
176
     1
 40
1.0
176
     1
 40
1.0
176
     1
  0
VISUALSTYLE
  5
5747
102
{ACAD_REACTORS
330
573F
102
}
330
573F
100
AcDbVisualStyle
  2
Hidden
 70
     6
177
     3
291
     0
 70
    58
 90
        1
176
     1
 90
        2
176
     1
 90
        2
176
     1
 90
        0
176
     1
 40
0.6
176
     1
 40
30.0
176
     1
 62
     7
176
     1
 90
        2
176
     1
 90
        2
176
     1
 62
     7
176
     1
 62
   257
176
     1
 90
        2
176
     1
 90
        1
176
     1
 40
40.0
176
     1
 90
        0
176
     1
 62
   257
176
     1
 40
1.0
176
     1
 90
        1
176
     1
 90
        6
176
     1
 90
        2
176
     1
 62
     7
176
     1
 90
        3
176
     1
 90
        0
176
     1
 90
        0
176
     1
290
     0
176
     1
 90
        1
176
     1
 40
0.0
176
     1
 90
        0
176
     1
290
     0
176
     1
290
     1
176
     1
290
     1
176
     1
290
     0
176
     1
290
     0
176
     1
290
     0
176
     1
290
     0
176
     1
290
     0
176
     1
290
     0
176
     1
 90
       50
176
     1
 40
0.0
176
     1
 40
1.0
176
     1
 90
        0
176
     1
 62
    18
420
        0
176
     1
 90
       50
176
     1
 90
        3
176
     1
 62
     5
420
      255
176
     1
290
     0
176
     1
 90
       50
176
     1
 90
       50
176
     1
 90
       50
176
     1
290
     0
176
     1
 90
       50
176
     1
 62
   256
176
     0
 40
1.0
176
     0
 90
        2
176
     1
  1
strokes_ogs.tif
176
     1
290
     0
176
     1
 40
1.0
176
     1
 40
1.0
176
     1
  0
VISUALSTYLE
  5
5755
102
{ACAD_REACTORS
330
573F
102
}
330
573F
100
AcDbVisualStyle
  2
JitterOff
 70
    20
177
     3
291
     1
 70
    58
 90
        2
176
     0
 90
        2
176
     0
 90
        0
176
     0
 90
        0
176
     0
 40
0.6
176
     0
 40
30.0
176
     0
 62
     7
176
     0
 90
        1
176
     0
 90
        4
176
     0
 62
     7
176
     0
 62
   257
176
     0
 90
        1
176
     0
 90
        1
176
     0
 40
1.0
176
     0
 90
       10
176
     2
 62
     7
176
     0
 40
1.0
176
     0
 90
        1
176
     0
 90
        6
176
     0
 90
        2
176
     0
 62
     7
176
     0
 90
        5
176
     0
 90
        0
176
     0
 90
        0
176
     0
290
     0
176
     0
 90
        1
176
     0
 40
0.0
176
     0
 90
        0
176
     0
290
     0
176
     1
290
     1
176
     1
290
     1
176
     1
290
     0
176
     1
290
     0
176
     1
290
     0
176
     1
290
     0
176
     1
290
     0
176
     1
290
     0
176
     1
 90
       50
176
     0
 40
0.0
176
     0
 40
1.0
176
     0
 90
        0
176
     0
 62
    18
420
        0
176
     0
 90
       50
176
     0
 90
        3
176
     0
 62
     5
420
      255
176
     0
290
     0
176
     1
 90
       50
176
     0
 90
       50
176
     0
 90
       50
176
     0
290
     0
176
     1
 90
       50
176
     0
 62
   256
176
     0
 40
1.0
176
     0
 90
        2
176
     0
  1
strokes_ogs.tif
176
     0
290
     0
176
     1
 40
1.0
176
     0
 40
1.0
176
     0
  0
VISUALSTYLE
  5
574D
102
{ACAD_REACTORS
330
573F
102
}
330
573F
100
AcDbVisualStyle
  2
Linepattern
 70
    14
177
     3
291
     1
 70
    58
 90
        2
176
     1
 90
        2
176
     1
 90
        0
176
     1
 90
        0
176
     1
 40
0.6
176
     1
 40
30.0
176
     1
 62
     7
176
     1
 90
        1
176
     1
 90
        4
176
     1
 62
     7
176
     1
 62
   257
176
     1
 90
        7
176
     1
 90
        7
176
     1
 40
1.0
176
     1
 90
        8
176
     1
 62
     7
176
     1
 40
1.0
176
     1
 90
        1
176
     1
 90
        6
176
     1
 90
        2
176
     1
 62
     7
176
     1
 90
        5
176
     1
 90
        0
176
     1
 90
        0
176
     1
290
     0
176
     1
 90
        1
176
     1
 40
0.0
176
     1
 90
        0
176
     1
290
     0
176
     1
290
     1
176
     1
290
     1
176
     1
290
     0
176
     1
290
     0
176
     1
290
     0
176
     1
290
     0
176
     1
290
     0
176
     1
290
     0
176
     1
 90
       50
176
     1
 40
0.0
176
     1
 40
1.0
176
     1
 90
        0
176
     1
 62
    18
420
        0
176
     1
 90
       50
176
     1
 90
        3
176
     1
 62
     5
420
      255
176
     1
290
     0
176
     1
 90
       50
176
     1
 90
       50
176
     1
 90
       50
176
     1
290
     0
176
     1
 90
       50
176
     1
 62
   256
176
     0
 40
1.0
176
     0
 90
        2
176
     1
  1
strokes_ogs.tif
176
     1
290
     0
176
     1
 40
1.0
176
     1
 40
1.0
176
     1
  0
VISUALSTYLE
  5
5756
102
{ACAD_REACTORS
330
573F
102
}
330
573F
100
AcDbVisualStyle
  2
OverhangOff
 70
    21
177
     3
291
     1
 70
    58
 90
        2
176
     0
 90
        2
176
     0
 90
        0
176
     0
 90
        0
176
     0
 40
0.6
176
     0
 40
30.0
176
     0
 62
     7
176
     0
 90
        1
176
     0
 90
        4
176
     0
 62
     7
176
     0
 62
   257
176
     0
 90
        1
176
     0
 90
        1
176
     0
 40
1.0
176
     0
 90
        9
176
     2
 62
     7
176
     0
 40
1.0
176
     0
 90
        1
176
     0
 90
        6
176
     0
 90
        2
176
     0
 62
     7
176
     0
 90
        5
176
     0
 90
        0
176
     0
 90
        0
176
     0
290
     0
176
     0
 90
        1
176
     0
 40
0.0
176
     0
 90
        0
176
     0
290
     0
176
     1
290
     1
176
     1
290
     1
176
     1
290
     0
176
     1
290
     0
176
     1
290
     0
176
     1
290
     0
176
     1
290
     0
176
     1
290
     0
176
     1
 90
       50
176
     0
 40
0.0
176
     0
 40
1.0
176
     0
 90
        0
176
     0
 62
    18
420
        0
176
     0
 90
       50
176
     0
 90
        3
176
     0
 62
     5
420
      255
176
     0
290
     0
176
     1
 90
       50
176
     0
 90
       50
176
     0
 90
       50
176
     0
290
     0
176
     1
 90
       50
176
     0
 62
   256
176
     0
 40
1.0
176
     0
 90
        2
176
     0
  1
strokes_ogs.tif
176
     0
290
     0
176
     1
 40
1.0
176
     0
 40
1.0
176
     0
  0
VISUALSTYLE
  5
5749
102
{ACAD_REACTORS
330
573F
102
}
330
573F
100
AcDbVisualStyle
  2
Realistic
 70
     8
177
     3
291
     0
 70
    58
 90
        2
176
     1
 90
        2
176
     1
 90
        0
176
     1
 90
        2
176
     1
 40
0.6
176
     1
 40
30.0
176
     1
 62
     7
176
     1
 90
        0
176
     1
 90
        0
176
     1
 62
     7
176
     1
 62
   257
176
     1
 90
        1
176
     1
 90
        1
176
     1
 40
1.0
176
     1
 90
        8
176
     1
 62
   257
176
     1
 40
1.0
176
     1
 90
        1
176
     1
 90
        6
176
     1
 90
        2
176
     1
 62
     7
176
     1
 90
        3
176
     1
 90
        0
176
     1
 90
        0
176
     1
290
     0
176
     1
 90
       13
176
     1
 40
0.0
176
     1
 90
        0
176
     1
290
     0
176
     1
290
     1
176
     1
290
     1
176
     1
290
     0
176
     1
290
     0
176
     1
290
     0
176
     1
290
     0
176
     1
290
     0
176
     1
290
     0
176
     1
 90
       50
176
     1
 40
0.0
176
     1
 40
1.0
176
     1
 90
        0
176
     1
 62
    18
420
        0
176
     1
 90
       50
176
     1
 90
        3
176
     1
 62
     5
420
      255
176
     1
290
     0
176
     1
 90
       50
176
     1
 90
       50
176
     1
 90
       50
176
     1
290
     0
176
     1
 90
       50
176
     1
 62
   256
176
     0
 40
1.0
176
     0
 90
        2
176
     1
  1
strokes_ogs.tif
176
     1
290
     0
176
     1
 40
1.0
176
     1
 40
1.0
176
     1
  0
VISUALSTYLE
  5
5754
102
{ACAD_REACTORS
330
573F
102
}
330
573F
100
AcDbVisualStyle
  2
Shaded
 70
    27
177
     3
291
     0
 70
    58
 90
        2
176
     1
 90
        2
176
     1
 90
        1
176
     1
 90
        2
176
     1
 40
0.6
176
     1
 40
30.0
176
     1
 62
     7
176
     1
 90
        0
176
     1
 90
        4
176
     1
 62
     7
176
     1
 62
   257
176
     1
 90
        1
176
     1
 90
        1
176
     1
 40
1.0
176
     1
 90
        8
176
     1
 62
   257
176
     1
 40
1.0
176
     1
 90
        1
176
     1
 90
        6
176
     1
 90
        2
176
     1
 62
     8
176
     1
 90
        3
176
     1
 90
        0
176
     1
 90
        0
176
     1
290
     0
176
     1
 90
        5
176
     1
 40
0.0
176
     1
 90
        0
176
     1
290
     0
176
     1
290
     1
176
     1
290
     1
176
     1
290
     0
176
     1
290
     0
176
     1
290
     0
176
     1
290
     0
176
     1
290
     0
176
     1
290
     0
176
     1
 90
       50
176
     1
 40
0.0
176
     1
 40
1.0
176
     1
 90
        0
176
     1
 62
    18
420
        0
176
     1
 90
       50
176
     1
 90
        3
176
     1
 62
     5
420
      255
176
     1
290
     0
176
     1
 90
       50
176
     1
 90
       50
176
     1
 90
       50
176
     1
290
     0
176
     1
 90
       50
176
     1
 62
   256
176
     0
 40
1.0
176
     0
 90
        2
176
     1
  1
strokes_ogs.tif
176
     1
290
     0
176
     1
 40
1.0
176
     1
 40
1.0
176
     1
  0
VISUALSTYLE
  5
5753
102
{ACAD_REACTORS
330
573F
102
}
330
573F
100
AcDbVisualStyle
  2
Shaded with edges
 70
    26
177
     3
291
     0
 70
    58
 90
        2
176
     1
 90
        2
176
     1
 90
        1
176
     1
 90
        2
176
     1
 40
0.6
176
     1
 40
30.0
176
     1
 62
     7
176
     1
 90
        1
176
     1
 90
        2
176
     1
 62
     7
176
     1
 62
   257
176
     1
 90
        2
176
     1
 90
        1
176
     1
 40
1.0
176
     1
 90
        8
176
     1
 62
   257
176
     1
 40
1.0
176
     1
 90
        1
176
     1
 90
        6
176
     1
 90
        2
176
     1
 62
     7
176
     1
 90
        3
176
     1
 90
        0
176
     1
 90
        0
176
     1
290
     0
176
     1
 90
        5
176
     1
 40
0.0
176
     1
 90
        0
176
     1
290
     0
176
     1
290
     1
176
     1
290
     1
176
     1
290
     0
176
     1
290
     0
176
     1
290
     0
176
     1
290
     0
176
     1
290
     0
176
     1
290
     0
176
     1
 90
       50
176
     1
 40
0.0
176
     1
 40
1.0
176
     1
 90
        0
176
     1
 62
    18
420
        0
176
     1
 90
       50
176
     1
 90
        3
176
     1
 62
     5
420
      255
176
     1
290
     0
176
     1
 90
       50
176
     1
 90
       50
176
     1
 90
       50
176
     1
290
     0
176
     1
 90
       50
176
     1
 62
   256
176
     0
 40
1.0
176
     0
 90
        2
176
     1
  1
strokes_ogs.tif
176
     1
290
     0
176
     1
 40
1.0
176
     1
 40
1.0
176
     1
  0
VISUALSTYLE
  5
5750
102
{ACAD_REACTORS
330
573F
102
}
330
573F
100
AcDbVisualStyle
  2
Shades of Gray
 70
    23
177
     3
291
     0
 70
    58
 90
        2
176
     1
 90
        2
176
     1
 90
        3
176
     1
 90
        0
176
     1
 40
0.6
176
     1
 40
30.0
176
     1
 62
     7
176
     1
 90
        2
176
     1
 90
        2
176
     1
 62
     7
176
     1
 62
     7
176
     1
 90
        1
176
     1
 90
        1
176
     1
 40
40.0
176
     1
 90
        8
176
     1
 62
     7
176
     1
 40
1.0
176
     1
 90
        1
176
     1
 90
        6
176
     1
 90
        2
176
     1
 62
     7
176
     1
 90
        3
176
     1
 90
        0
176
     1
 90
        0
176
     1
290
     0
176
     1
 90
        1
176
     1
 40
0.0
176
     1
 90
        0
176
     1
290
     0
176
     1
290
     1
176
     1
290
     1
176
     1
290
     0
176
     1
290
     0
176
     1
290
     0
176
     1
290
     0
176
     1
290
     0
176
     1
290
     0
176
     1
 90
       50
176
     1
 40
0.0
176
     1
 40
1.0
176
     1
 90
        0
176
     1
 62
    18
420
        0
176
     1
 90
       50
176
     1
 90
        3
176
     1
 62
     5
420
      255
176
     1
290
     0
176
     1
 90
       50
176
     1
 90
       50
176
     1
 90
       50
176
     1
290
     0
176
     1
 90
       50
176
     1
 62
   256
176
     0
 40
1.0
176
     0
 90
        2
176
     1
  1
strokes_ogs.tif
176
     1
290
     0
176
     1
 40
1.0
176
     1
 40
1.0
176
     1
  0
VISUALSTYLE
  5
5751
102
{ACAD_REACTORS
330
573F
102
}
330
573F
100
AcDbVisualStyle
  2
Sketchy
 70
    24
177
     3
291
     0
 70
    58
 90
        1
176
     1
 90
        2
176
     1
 90
        2
176
     1
 90
        0
176
     1
 40
0.6
176
     1
 40
30.0
176
     1
 62
     7
176
     1
 90
        2
176
     1
 90
        2
176
     1
 62
     7
176
     1
 62
     7
176
     1
 90
        1
176
     1
 90
        1
176
     1
 40
40.0
176
     1
 90
       11
176
     1
 62
     7
176
     1
 40
1.0
176
     1
 90
        1
176
     1
 90
        6
176
     1
 90
        2
176
     1
 62
     7
176
     1
 90
        6
176
     1
 90
        0
176
     1
 90
        0
176
     1
290
     0
176
     1
 90
        1
176
     1
 40
0.0
176
     1
 90
        0
176
     1
290
     0
176
     1
290
     1
176
     1
290
     1
176
     1
290
     0
176
     1
290
     0
176
     1
290
     0
176
     1
290
     0
176
     1
290
     0
176
     1
290
     0
176
     1
 90
       50
176
     1
 40
0.0
176
     1
 40
1.0
176
     1
 90
        0
176
     1
 62
    18
420
        0
176
     1
 90
       50
176
     1
 90
        3
176
     1
 62
     5
420
      255
176
     1
290
     0
176
     1
 90
       50
176
     1
 90
       50
176
     1
 90
       50
176
     1
290
     0
176
     1
 90
       50
176
     1
 62
   256
176
     0
 40
1.0
176
     0
 90
        2
176
     1
  1
strokes_ogs.tif
176
     1
290
     0
176
     1
 40
1.0
176
     1
 40
1.0
176
     1
  0
VISUALSTYLE
  5
574C
102
{ACAD_REACTORS
330
573F
102
}
330
573F
100
AcDbVisualStyle
  2
Thicken
 70
    13
177
     3
291
     1
 70
    58
 90
        2
176
     1
 90
        2
176
     1
 90
        0
176
     1
 90
        0
176
     1
 40
0.6
176
     1
 40
30.0
176
     1
 62
     7
176
     1
 90
        1
176
     1
 90
        4
176
     1
 62
     7
176
     1
 62
   257
176
     1
 90
        1
176
     1
 90
        1
176
     1
 40
1.0
176
     1
 90
       12
176
     1
 62
     7
176
     1
 40
1.0
176
     1
 90
        1
176
     1
 90
        6
176
     1
 90
        2
176
     1
 62
     7
176
     1
 90
        5
176
     1
 90
        0
176
     1
 90
        0
176
     1
290
     0
176
     1
 90
        1
176
     1
 40
0.0
176
     1
 90
        0
176
     1
290
     0
176
     1
290
     1
176
     1
290
     1
176
     1
290
     0
176
     1
290
     0
176
     1
290
     0
176
     1
290
     0
176
     1
290
     0
176
     1
290
     0
176
     1
 90
       50
176
     1
 40
0.0
176
     1
 40
1.0
176
     1
 90
        0
176
     1
 62
    18
420
        0
176
     1
 90
       50
176
     1
 90
        3
176
     1
 62
     5
420
      255
176
     1
290
     0
176
     1
 90
       50
176
     1
 90
       50
176
     1
 90
       50
176
     1
290
     0
176
     1
 90
       50
176
     1
 62
   256
176
     0
 40
1.0
176
     0
 90
        2
176
     1
  1
strokes_ogs.tif
176
     1
290
     0
176
     1
 40
1.0
176
     1
 40
1.0
176
     1
  0
VISUALSTYLE
  5
5746
102
{ACAD_REACTORS
330
573F
102
}
330
573F
100
AcDbVisualStyle
  2
Wireframe
 70
     5
177
     3
291
     0
 70
    58
 90
        0
176
     1
 90
        2
176
     1
 90
        0
176
     1
 90
        0
176
     1
 40
0.6
176
     1
 40
30.0
176
     1
 62
     7
176
     1
 90
        1
176
     1
 90
        4
176
     1
 62
     7
176
     1
 62
   257
176
     1
 90
        1
176
     1
 90
        1
176
     1
 40
1.0
176
     1
 90
        0
176
     1
 62
   257
176
     1
 40
1.0
176
     1
 90
        1
176
     1
 90
        6
176
     1
 90
        2
176
     1
 62
     7
176
     1
 90
        3
176
     1
 90
        0
176
     1
 90
        0
176
     1
290
     0
176
     1
 90
        1
176
     1
 40
0.0
176
     1
 90
        0
176
     1
290
     0
176
     1
290
     1
176
     1
290
     1
176
     1
290
     0
176
     1
290
     0
176
     1
290
     0
176
     1
290
     0
176
     1
290
     0
176
     1
290
     0
176
     1
 90
       50
176
     1
 40
0.0
176
     1
 40
1.0
176
     1
 90
        0
176
     1
 62
    18
420
        0
176
     1
 90
       50
176
     1
 90
        3
176
     1
 62
     5
420
      255
176
     1
290
     0
176
     1
 90
       50
176
     1
 90
       50
176
     1
 90
       50
176
     1
290
     0
176
     1
 90
       50
176
     1
 62
   256
176
     0
 40
1.0
176
     0
 90
        2
176
     1
  1
strokes_ogs.tif
176
     1
290
     0
176
     1
 40
1.0
176
     1
 40
1.0
176
     1
  0
VISUALSTYLE
  5
5752
102
{ACAD_REACTORS
330
573F
102
}
330
573F
100
AcDbVisualStyle
  2
X-Ray
 70
    25
177
     3
291
     0
 70
    58
 90
        2
176
     1
 90
        2
176
     1
 90
        1
176
     1
 90
        1
176
     1
 40
0.5
176
     1
 40
30.0
176
     1
 62
     7
176
     1
 90
        1
176
     1
 90
        0
176
     1
 62
     7
176
     1
 62
   257
176
     1
 90
        1
176
     1
 90
        1
176
     1
 40
1.0
176
     1
 90
        8
176
     1
 62
     7
176
     1
 40
1.0
176
     1
 90
        1
176
     1
 90
        6
176
     1
 90
        2
176
     1
 62
     7
176
     1
 90
        3
176
     1
 90
        0
176
     1
 90
        0
176
     1
290
     0
176
     1
 90
       13
176
     1
 40
0.0
176
     1
 90
        0
176
     1
290
     0
176
     1
290
     1
176
     1
290
     1
176
     1
290
     0
176
     1
290
     0
176
     1
290
     0
176
     1
290
     0
176
     1
290
     0
176
     1
290
     0
176
     1
 90
       50
176
     1
 40
0.0
176
     1
 40
1.0
176
     1
 90
        0
176
     1
 62
    18
420
        0
176
     1
 90
       50
176
     1
 90
        3
176
     1
 62
     5
420
      255
176
     1
290
     0
176
     1
 90
       50
176
     1
 90
       50
176
     1
 90
       50
176
     1
290
     0
176
     1
 90
       50
176
     1
 62
   256
176
     0
 40
1.0
176
     0
 90
        2
176
     1
  1
strokes_ogs.tif
176
     1
290
     0
176
     1
 40
1.0
176
     1
 40
1.0
176
     1
  0
DICTIONARYVAR
  5
57D5
102
{ACAD_REACTORS
330
57D0
102
}
330
57D0
100
DictionaryVariables
280
     0
  1
1:1
  0
DICTIONARYVAR
  5
57D2
102
{ACAD_REACTORS
330
57D0
102
}
330
57D0
100
DictionaryVariables
280
     0
  1
STANDARD
  0
DICTIONARYVAR
  5
57D1
102
{ACAD_REACTORS
330
57D0
102
}
330
57D0
100
DictionaryVariables
280
     0
  1
STANDARD
  0
DICTIONARYVAR
  5
57D3
102
{ACAD_REACTORS
330
57D0
102
}
330
57D0
100
DictionaryVariables
280
     0
  1
Imperial24
  0
DICTIONARYVAR
  5
57D4
102
{ACAD_REACTORS
330
57D0
102
}
330
57D0
100
DictionaryVariables
280
     0
  1
Imperial24
  0
DICTIONARYVAR
  5
57D8
102
{ACAD_REACTORS
330
57D0
102
}
330
57D0
100
DictionaryVariables
280
     0
  1
1
  0
DICTIONARYVAR
  5
57D7
102
{ACAD_REACTORS
330
57D0
102
}
330
57D0
100
DictionaryVariables
280
     0
  1
0
  0
DICTIONARYVAR
  5
5924
102
{ACAD_REACTORS
330
57D0
102
}
330
57D0
100
DictionaryVariables
280
     0
  1
1
  0
DICTIONARYVAR
  5
5925
102
{ACAD_REACTORS
330
57D0
102
}
330
57D0
100
DictionaryVariables
280
     0
  1
15
  0
DICTIONARYVAR
  5
5923
102
{ACAD_REACTORS
330
57D0
102
}
330
57D0
100
DictionaryVariables
280
     0
  1
0
  0
DICTIONARYVAR
  5
5922
102
{ACAD_REACTORS
330
57D0
102
}
330
57D0
100
DictionaryVariables
280
     0
  1
0
  0
DICTIONARYVAR
  5
57D6
102
{ACAD_REACTORS
330
57D0
102
}
330
57D0
100
DictionaryVariables
280
     0
  1
127
  0
DICTIONARY
  5
5730
330
572F
100
AcDbDictionary
280
     1
281
     1
  3
BUMPTILE
360
5732
  3
DIFFUSETILE
360
5731
  3
OPACITYTILE
360
5735
  3
REFLECTIONTILE
360
5734
  3
REFRACTIONTILE
360
5736
  3
SPECULARTILE
360
5733
  0
DICTIONARY
  5
5728
330
5727
100
AcDbDictionary
280
     1
281
     1
  3
BUMPTILE
360
572A
  3
DIFFUSETILE
360
5729
  3
OPACITYTILE
360
572D
  3
REFLECTIONTILE
360
572C
  3
REFRACTIONTILE
360
572E
  3
SPECULARTILE
360
572B
  0
DICTIONARY
  5
5738
330
5737
100
AcDbDictionary
280
     1
281
     1
  3
BUMPTILE
360
573A
  3
DIFFUSETILE
360
5739
  3
OPACITYTILE
360
573D
  3
REFLECTIONTILE
360
573C
  3
REFRACTIONTILE
360
573E
  3
SPECULARTILE
360
573B
  0
DICTIONARY
  5
5774
330
575A
100
AcDbDictionary
280
     1
281
     1
  3
ACAD_ROUNDTRIP_2008_TABLESTYLE_CELLSTYLEMAP
360
5926
  0
XRECORD
  5
5732
102
{ACAD_REACTORS
330
5730
102
}
330
5730
100
AcDbXrecord
280
     1
270
     1
271
     1
  0
XRECORD
  5
5731
102
{ACAD_REACTORS
330
5730
102
}
330
5730
100
AcDbXrecord
280
     1
270
     1
271
     1
  0
XRECORD
  5
5735
102
{ACAD_REACTORS
330
5730
102
}
330
5730
100
AcDbXrecord
280
     1
270
     1
271
     1
  0
XRECORD
  5
5734
102
{ACAD_REACTORS
330
5730
102
}
330
5730
100
AcDbXrecord
280
     1
270
     1
271
     1
  0
XRECORD
  5
5736
102
{ACAD_REACTORS
330
5730
102
}
330
5730
100
AcDbXrecord
280
     1
270
     1
271
     1
  0
XRECORD
  5
5733
102
{ACAD_REACTORS
330
5730
102
}
330
5730
100
AcDbXrecord
280
     1
270
     1
271
     1
  0
XRECORD
  5
572A
102
{ACAD_REACTORS
330
5728
102
}
330
5728
100
AcDbXrecord
280
     1
270
     1
271
     1
  0
XRECORD
  5
5729
102
{ACAD_REACTORS
330
5728
102
}
330
5728
100
AcDbXrecord
280
     1
270
     1
271
     1
  0
XRECORD
  5
572D
102
{ACAD_REACTORS
330
5728
102
}
330
5728
100
AcDbXrecord
280
     1
270
     1
271
     1
  0
XRECORD
  5
572C
102
{ACAD_REACTORS
330
5728
102
}
330
5728
100
AcDbXrecord
280
     1
270
     1
271
     1
  0
XRECORD
  5
572E
102
{ACAD_REACTORS
330
5728
102
}
330
5728
100
AcDbXrecord
280
     1
270
     1
271
     1
  0
XRECORD
  5
572B
102
{ACAD_REACTORS
330
5728
102
}
330
5728
100
AcDbXrecord
280
     1
270
     1
271
     1
  0
XRECORD
  5
573A
102
{ACAD_REACTORS
330
5738
102
}
330
5738
100
AcDbXrecord
280
     1
270
     1
271
     1
  0
XRECORD
  5
5739
102
{ACAD_REACTORS
330
5738
102
}
330
5738
100
AcDbXrecord
280
     1
270
     1
271
     1
  0
XRECORD
  5
573D
102
{ACAD_REACTORS
330
5738
102
}
330
5738
100
AcDbXrecord
280
     1
270
     1
271
     1
  0
XRECORD
  5
573C
102
{ACAD_REACTORS
330
5738
102
}
330
5738
100
AcDbXrecord
280
     1
270
     1
271
     1
  0
XRECORD
  5
573E
102
{ACAD_REACTORS
330
5738
102
}
330
5738
100
AcDbXrecord
280
     1
270
     1
271
     1
  0
XRECORD
  5
573B
102
{ACAD_REACTORS
330
5738
102
}
330
5738
100
AcDbXrecord
280
     1
270
     1
271
     1
  0
CELLSTYLEMAP
  5
5926
102
{ACAD_REACTORS
330
5774
102
}
330
5774
100
AcDbCellStyleMap
 90
        3
300
CELLSTYLE
  1
TABLEFORMAT_BEGIN
 90
        5
170
     1
 91
        0
 92
    32768
 62
   257
 93
        1
300
CONTENTFORMAT
  1
CONTENTFORMAT_BEGIN
 90
        0
 91
        0
 92
      512
 93
        0
300

 40
0.0
140
1.0
 94
        5
 62
     0
340
11
144
0.25
309
CONTENTFORMAT_END
171
     0
 94
        0
309
TABLEFORMAT_END
  1
CELLSTYLE_BEGIN
 90
        1
 91
        1
300
_TITLE
309
CELLSTYLE_END
300
CELLSTYLE
  1
TABLEFORMAT_BEGIN
 90
        5
170
     1
 91
        0
 92
        0
 62
   257
 93
        1
300
CONTENTFORMAT
  1
CONTENTFORMAT_BEGIN
 90
        0
 91
        0
 92
      512
 93
        0
300

 40
0.0
140
1.0
 94
        5
 62
     0
340
11
144
0.18
309
CONTENTFORMAT_END
171
     0
 94
        0
309
TABLEFORMAT_END
  1
CELLSTYLE_BEGIN
 90
        2
 91
        1
300
_HEADER
309
CELLSTYLE_END
300
CELLSTYLE
  1
TABLEFORMAT_BEGIN
 90
        5
170
     1
 91
        0
 92
        0
 62
   257
 93
        1
300
CONTENTFORMAT
  1
CONTENTFORMAT_BEGIN
 90
        0
 91
        0
 92
      512
 93
        0
300

 40
0.0
140
1.0
 94
        2
 62
     0
340
11
144
0.18
309
CONTENTFORMAT_END
171
     0
 94
        0
309
TABLEFORMAT_END
  1
CELLSTYLE_BEGIN
 90
        3
 91
        2
300
_DATA
309
CELLSTYLE_END
  0
ENDSEC
  0
SECTION
  2
ACDSDATA
 70
     2
 71
     8
  0
ACDSSCHEMA
 90
        0
  1
AcDb_Thumbnail_Schema
  2
AcDbDs::ID
280
    10
 91
        8
  2
Thumbnail_Data
280
    15
 91
        0
101
ACDSRECORD
 95
        0
 90
        1
  2
AcDbDs::TreatedAsObjectData
280
     1
291
     1
101
ACDSRECORD
 95
        0
 90
        2
  2
AcDbDs::Legacy
280
     1
291
     1
101
ACDSRECORD
  1
AcDbDs::ID
 90
        3
  2
AcDs:Indexable
280
     1
291
     1
101
ACDSRECORD
  1
AcDbDs::ID
 90
        4
  2
AcDbDs::HandleAttribute
280
     7
282
     1
  0
ACDSSCHEMA
 90
        1
  1
AcDbDs::TreatedAsObjectDataSchema
  2
AcDbDs::TreatedAsObjectData
280
     1
 91
        0
  0
ACDSSCHEMA
 90
        2
  1
AcDbDs::LegacySchema
  2
AcDbDs::Legacy
280
     1
 91
        0
  0
ACDSSCHEMA
 90
        3
  1
AcDbDs::IndexedPropertySchema
  2
AcDs:Indexable
280
     1
 91
        0
  0
ACDSSCHEMA
 90
        4
  1
AcDbDs::HandleAttributeSchema
  2
AcDbDs::HandleAttribute
280
     7
 91
        1
284
     1
  0
ACDSRECORD
 90
        0
  2
AcDbDs::ID
280
    10
320
571F
  2
Thumbnail_Data
280
    15
 94
     1075
310
89504E470D0A1A0A0000000D49484452000001000000007108030000000DA58D8400000300504C5445212830FFFFFF2128300000000000000000000000000000000000000000000000000000330000660000990000CC0000FF0033000033330033660033990033CC0033FF0066000066330066660066990066CC0066FF0099
310
000099330099660099990099CC0099FF00CC0000CC3300CC6600CC9900CCCC00CCFF00FF0000FF3300FF6600FF9900FFCC00FFFF3300003300333300663300993300CC3300FF3333003333333333663333993333CC3333FF3366003366333366663366993366CC3366FF3399003399333399663399993399CC3399FF33CC00
310
33CC3333CC6633CC9933CCCC33CCFF33FF0033FF3333FF6633FF9933FFCC33FFFF6600006600336600666600996600CC6600FF6633006633336633666633996633CC6633FF6666006666336666666666996666CC6666FF6699006699336699666699996699CC6699FF66CC0066CC3366CC6666CC9966CCCC66CCFF66FF0066
310
FF3366FF6666FF9966FFCC66FFFF9900009900339900669900999900CC9900FF9933009933339933669933999933CC9933FF9966009966339966669966999966CC9966FF9999009999339999669999999999CC9999FF99CC0099CC3399CC6699CC9999CCCC99CCFF99FF0099FF3399FF6699FF9999FFCC99FFFFCC0000CC00
310
33CC0066CC0099CC00CCCC00FFCC3300CC3333CC3366CC3399CC33CCCC33FFCC6600CC6633CC6666CC6699CC66CCCC66FFCC9900CC9933CC9966CC9999CC99CCCC99FFCCCC00CCCC33CCCC66CCCC99CCCCCCCCCCFFCCFF00CCFF33CCFF66CCFF99CCFFCCCCFFFFFF0000FF0033FF0066FF0099FF00CCFF00FFFF3300FF3333
310
FF3366FF3399FF33CCFF33FFFF6600FF6633FF6666FF6699FF66CCFF66FFFF9900FF9933FF9966FF9999FF99CCFF99FFFFCC00FFCC33FFCC66FFCC99FFCCCCFFCCFFFFFF00FFFF33FFFF66FFFF99FFFFCCFFFFFF0000000D0D0D1A1A1A2828283535354343435050505D5D5D6B6B6B787878868686939393A1A1A1AEAEAEBB
310
BBBBC9C9C9D6D6D6E4E4E4F1F1F1FFFFFF0000000000000000000000000000000000000000000000000000000000002E4550F1000000EE4944415478DAEDDABB0E82501045D1F9FF6F9D96DEF888521810B471CE5A89D16828DC5E06126F1500000000000000FCDAB2A36F6AF578BDB83EFF7F809D06FDB4FEDE8F17D7A307
310
0438F933F6FDE80101CE15E80A0F5083029415208000EFBE62EF5EEC67CF80CD003D2AC0F612A8D800BB23203940FC7D8053203C400F3B055A0043D00A10400033C00A880D70B440577880F81910BF02043003B267400F0CD00208903D03E2031882E9010E15080AB00405E88F03F4C800AF7FC3573BE36E9BC8DEBD9F7015
310
786C04DCDC21317F83C492BC43E4FB8F05987A2728800002CC09F09D0200000000000000E0A80B245B8A4F14D344570000000049454E44AE426082
  0
ENDSEC
  0
EOF
