  0
SECTION
  2
HEADER
  9
$ACADVER
  1
AC1021
  9
$ACADMAINTVER
 70
    50
  9
$DWGCODEPAGE
  3
ANSI_1252
  9
$LASTSAVEDBY
  1
francoisbu
  9
$INSBASE
 10
0.0
 20
0.0
 30
0.0
  9
$EXTMIN
 10
16.1132610634
 20
21.9458728219
 30
0.0
  9
$EXTMAX
 10
84.0904339381
 20
46.8772630968
 30
0.0
  9
$LIMMIN
 10
0.0
 20
0.0
  9
$LIMMAX
 10
181.3333333333
 20
117.3333333333
  9
$ORTHOMODE
 70
     0
  9
$REGENMODE
 70
     1
  9
$FILLMODE
 70
     1
  9
$QTEXTMODE
 70
     0
  9
$MIRRTEXT
 70
     0
  9
$LTSCALE
 40
9.973333333300001
  9
$ATTMODE
 70
     1
  9
$TEXTSIZE
 40
0.2
  9
$TRACEWID
 40
0.05
  9
$TEXTSTYLE
  7
STANDARD
  9
$CLAYER
  8
0
  9
$CELTYPE
  6
BYLAYER
  9
$CECOLOR
 62
   256
  9
$CELTSCALE
 40
1.0
  9
$DISPSILH
 70
     0
  9
$DIMSCALE
 40
1.0
  9
$DIMASZ
 40
2.0
  9
$DIMEXO
 40
0.0625
  9
$DIMDLI
 40
6.890666666699999
  9
$DIMRND
 40
0.0
  9
$DIMDLE
 40
0.0
  9
$DIMEXE
 40
0.125
  9
$DIMTP
 40
0.00001
  9
$DIMTM
 40
0.00001
  9
$DIMTXT
 40
1.333333333299999
  9
$DIMCEN
 40
1.631999999999999
  9
$DIMTSZ
 40
0.0
  9
$DIMTOL
 70
     1
  9
$DIMLIM
 70
     0
  9
$DIMTIH
 70
     1
  9
$DIMTOH
 70
     1
  9
$DIMSE1
 70
     0
  9
$DIMSE2
 70
     0
  9
$DIMTAD
 70
     0
  9
$DIMZIN
 70
     0
  9
$DIMBLK
  1
_FILLED
  9
$DIMASO
 70
     1
  9
$DIMSHO
 70
     1
  9
$DIMPOST
  1

  9
$DIMAPOST
  1

  9
$DIMALT
 70
     0
  9
$DIMALTD
 70
     2
  9
$DIMALTF
 40
25.4
  9
$DIMLFAC
 40
1.0
  9
$DIMTOFL
 70
     0
  9
$DIMTVP
 40
0.0
  9
$DIMTIX
 70
     0
  9
$DIMSOXD
 70
     0
  9
$DIMSAH
 70
     0
  9
$DIMBLK1
  1

  9
$DIMBLK2
  1

  9
$DIMSTYLE
  2
STANDARD
  9
$DIMCLRD
 70
     0
  9
$DIMCLRE
 70
     0
  9
$DIMCLRT
 70
     0
  9
$DIMTFAC
 40
1.0
  9
$DIMGAP
 40
0.09
  9
$DIMJUST
 70
     0
  9
$DIMSD1
 70
     0
  9
$DIMSD2
 70
     0
  9
$DIMTOLJ
 70
     1
  9
$DIMTZIN
 70
     0
  9
$DIMALTZ
 70
     0
  9
$DIMALTTZ
 70
     0
  9
$DIMUPT
 70
     0
  9
$DIMDEC
 70
     4
  9
$DIMTDEC
 70
     4
  9
$DIMALTU
 70
     2
  9
$DIMALTTD
 70
     2
  9
$DIMTXSTY
  7
STANDARD
  9
$DIMAUNIT
 70
     0
  9
$DIMADEC
 70
     0
  9
$DIMALTRND
 40
0.0
  9
$DIMAZIN
 70
     0
  9
$DIMDSEP
 70
    46
  9
$DIMATFIT
 70
     3
  9
$DIMFRAC
 70
     0
  9
$DIMLDRBLK
  1

  9
$DIMLUNIT
 70
     2
  9
$DIMLWD
 70
    -2
  9
$DIMLWE
 70
    -2
  9
$DIMTMOVE
 70
     0
  9
$DIMFXL
 40
1.0
  9
$DIMFXLON
 70
     0
  9
$DIMJOGANG
 40
0.7853981633974483
  9
$DIMTFILL
 70
     0
  9
$DIMTFILLCLR
 70
     0
  9
$DIMARCSYM
 70
     0
  9
$DIMLTYPE
  6

  9
$DIMLTEX1
  6

  9
$DIMLTEX2
  6

  9
$LUNITS
 70
     2
  9
$LUPREC
 70
     4
  9
$SKETCHINC
 40
0.1
  9
$FILLETRAD
 40
0.0
  9
$AUNITS
 70
     0
  9
$AUPREC
 70
     0
  9
$MENU
  1
.
  9
$ELEVATION
 40
0.0
  9
$PELEVATION
 40
0.0
  9
$THICKNESS
 40
0.0
  9
$LIMCHECK
 70
     0
  9
$CHAMFERA
 40
0.0
  9
$CHAMFERB
 40
0.0
  9
$CHAMFERC
 40
0.0
  9
$CHAMFERD
 40
0.0
  9
$SKPOLY
 70
     0
  9
$TDCREATE
 40
2456461.542503820
  9
$TDUCREATE
 40
2456461.709170486
  9
$TDUPDATE
 40
2456566.371374039
  9
$TDUUPDATE
 40
2456566.538040706
  9
$TDINDWG
 40
0.0025658218
  9
$TDUSRTIMER
 40
0.0025658218
  9
$USRTIMER
 70
     1
  9
$ANGBASE
 50
0.0
  9
$ANGDIR
 70
     0
  9
$PDMODE
 70
     3
  9
$PDSIZE
 40
0.03125
  9
$PLINEWID
 40
0.0
  9
$SPLFRAME
 70
     0
  9
$SPLINETYPE
 70
     6
  9
$SPLINESEGS
 70
     8
  9
$HANDSEED
  5
16CD
  9
$SURFTAB1
 70
     6
  9
$SURFTAB2
 70
     6
  9
$SURFTYPE
 70
     6
  9
$SURFU
 70
     6
  9
$SURFV
 70
     6
  9
$UCSBASE
  2

  9
$UCSNAME
  2

  9
$UCSORG
 10
0.0
 20
0.0
 30
0.0
  9
$UCSXDIR
 10
1.0
 20
0.0
 30
0.0
  9
$UCSYDIR
 10
0.0
 20
1.0
 30
0.0
  9
$UCSORTHOREF
  2

  9
$UCSORTHOVIEW
 70
     0
  9
$UCSORGTOP
 10
0.0
 20
0.0
 30
0.0
  9
$UCSORGBOTTOM
 10
0.0
 20
0.0
 30
0.0
  9
$UCSORGLEFT
 10
0.0
 20
0.0
 30
0.0
  9
$UCSORGRIGHT
 10
0.0
 20
0.0
 30
0.0
  9
$UCSORGFRONT
 10
0.0
 20
0.0
 30
0.0
  9
$UCSORGBACK
 10
0.0
 20
0.0
 30
0.0
  9
$PUCSBASE
  2

  9
$PUCSNAME
  2

  9
$PUCSORG
 10
0.0
 20
0.0
 30
0.0
  9
$PUCSXDIR
 10
1.0
 20
0.0
 30
0.0
  9
$PUCSYDIR
 10
0.0
 20
1.0
 30
0.0
  9
$PUCSORTHOREF
  2

  9
$PUCSORTHOVIEW
 70
     0
  9
$PUCSORGTOP
 10
0.0
 20
0.0
 30
0.0
  9
$PUCSORGBOTTOM
 10
0.0
 20
0.0
 30
0.0
  9
$PUCSORGLEFT
 10
0.0
 20
0.0
 30
0.0
  9
$PUCSORGRIGHT
 10
0.0
 20
0.0
 30
0.0
  9
$PUCSORGFRONT
 10
0.0
 20
0.0
 30
0.0
  9
$PUCSORGBACK
 10
0.0
 20
0.0
 30
0.0
  9
$USERI1
 70
     0
  9
$USERI2
 70
     0
  9
$USERI3
 70
     0
  9
$USERI4
 70
     0
  9
$USERI5
 70
     0
  9
$USERR1
 40
0.0
  9
$USERR2
 40
0.0
  9
$USERR3
 40
0.0
  9
$USERR4
 40
0.0
  9
$USERR5
 40
0.0
  9
$WORLDVIEW
 70
     1
  9
$SHADEDGE
 70
     3
  9
$SHADEDIF
 70
    70
  9
$TILEMODE
 70
     1
  9
$MAXACTVP
 70
    64
  9
$PINSBASE
 10
0.0
 20
0.0
 30
0.0
  9
$PLIMCHECK
 70
     0
  9
$PEXTMIN
 10
1.000000000000000E+20
 20
1.000000000000000E+20
 30
1.000000000000000E+20
  9
$PEXTMAX
 10
-1.000000000000000E+20
 20
-1.000000000000000E+20
 30
-1.000000000000000E+20
  9
$PLIMMIN
 10
0.0
 20
0.0
  9
$PLIMMAX
 10
12.0
 20
9.0
  9
$UNITMODE
 70
     0
  9
$VISRETAIN
 70
     1
  9
$PLINEGEN
 70
     0
  9
$PSLTSCALE
 70
     1
  9
$TREEDEPTH
 70
  3020
  9
$CMLSTYLE
  2
Standard
  9
$CMLJUST
 70
     0
  9
$CMLSCALE
 40
1.0
  9
$PROXYGRAPHICS
 70
     1
  9
$MEASUREMENT
 70
     0
  9
$CELWEIGHT
370
    -1
  9
$ENDCAPS
280
     0
  9
$JOINSTYLE
280
     0
  9
$LWDISPLAY
290
     0
  9
$INSUNITS
 70
     1
  9
$HYPERLINKBASE
  1

  9
$STYLESHEET
  1

  9
$XEDIT
290
     1
  9
$CEPSNTYPE
380
     0
  9
$PSTYLEMODE
290
     1
  9
$FINGERPRINTGUID
  2
{D224AAFE-DF86-4DB5-ABF0-222785578DC9}
  9
$VERSIONGUID
  2
{7EA317D3-7335-4092-985D-C849FA5F8D41}
  9
$EXTNAMES
290
     1
  9
$PSVPSCALE
 40
0.0
  9
$OLESTARTUP
290
     0
  9
$SORTENTS
280
   127
  9
$INDEXCTL
280
     0
  9
$HIDETEXT
280
     0
  9
$XCLIPFRAME
290
     0
  9
$HALOGAP
280
     0
  9
$OBSCOLOR
 70
   257
  9
$OBSLTYPE
280
     0
  9
$INTERSECTIONDISPLAY
280
     0
  9
$INTERSECTIONCOLOR
 70
   257
  9
$DIMASSOC
280
     1
  9
$PROJECTNAME
  1

  9
$CAMERADISPLAY
290
     0
  9
$LENSLENGTH
 40
50.0
  9
$CAMERAHEIGHT
 40
0.0
  9
$STEPSPERSEC
 40
2.0
  9
$STEPSIZE
 40
6.0
  9
$3DDWFPREC
 40
2.0
  9
$PSOLWIDTH
 40
0.25
  9
$PSOLHEIGHT
 40
4.0
  9
$LOFTANG1
 40
1.570796326794896
  9
$LOFTANG2
 40
1.570796326794896
  9
$LOFTMAG1
 40
0.0
  9
$LOFTMAG2
 40
0.0
  9
$LOFTPARAM
 70
     7
  9
$LOFTNORMALS
280
     1
  9
$LATITUDE
 40
37.795
  9
$LONGITUDE
 40
-122.394
  9
$NORTHDIRECTION
 40
0.0
  9
$TIMEZONE
 70
 -8000
  9
$LIGHTGLYPHDISPLAY
280
     1
  9
$TILEMODELIGHTSYNCH
280
     1
  9
$CMATERIAL
347
15CB
  9
$SOLIDHIST
280
     1
  9
$SHOWHIST
280
     1
  9
$DWFFRAME
280
     2
  9
$DGNFRAME
280
     0
  9
$REALWORLDSCALE
290
     1
  9
$INTERFERECOLOR
 62
     1
  9
$INTERFEREOBJVS
345
15ED
  9
$INTERFEREVPVS
346
15EA
  9
$CSHADOW
280
     0
  9
$SHADOWPLANELOCATION
 40
0.0
  0
ENDSEC
  0
SECTION
  2
CLASSES
  0
CLASS
  1
ACDBDICTIONARYWDFLT
  2
AcDbDictionaryWithDefault
  3
ObjectDBX Classes
 90
        0
 91
        1
280
     0
281
     0
  0
CLASS
  1
MATERIAL
  2
AcDbMaterial
  3
ObjectDBX Classes
 90
     1153
 91
        3
280
     0
281
     0
  0
CLASS
  1
VISUALSTYLE
  2
AcDbVisualStyle
  3
ObjectDBX Classes
 90
     4095
 91
       19
280
     0
281
     0
  0
CLASS
  1
TABLESTYLE
  2
AcDbTableStyle
  3
ObjectDBX Classes
 90
     4095
 91
        1
280
     0
281
     0
  0
CLASS
  1
SCALE
  2
AcDbScale
  3
ObjectDBX Classes
 90
     1153
 91
       33
280
     0
281
     0
  0
CLASS
  1
MLEADERSTYLE
  2
AcDbMLeaderStyle
  3
ACDB_MLEADERSTYLE_CLASS
 90
     4095
 91
        1
280
     0
281
     0
  0
CLASS
  1
CELLSTYLEMAP
  2
AcDbCellStyleMap
  3
ObjectDBX Classes
 90
     1152
 91
        2
280
     0
281
     0
  0
CLASS
  1
DICTIONARYVAR
  2
AcDbDictionaryVar
  3
ObjectDBX Classes
 90
        0
 91
       11
280
     0
281
     0
  0
ENDSEC
  0
SECTION
  2
TABLES
  0
TABLE
  2
VPORT
  5
8
102
{ACAD_XDICTIONARY
360
1623
102
}
330
0
100
AcDbSymbolTable
 70
     1
  0
VPORT
  5
1F4
330
8
100
AcDbSymbolTableRecord
100
AcDbViewportTableRecord
  2
*ACTIVE
 70
     0
 10
0.0
 20
0.0
 11
1.0
 21
1.0
 12
50.10292370157751
 22
36.92713508061402
 13
0.0
 23
0.0
 14
1.0
 24
1.0
 15
0.0
 25
0.0
 16
0.0
 26
0.0
 36
1.0
 17
0.0
 27
0.0
 37
0.0
 40
28.30453970499892
 41
2.41111111111111
 42
50.0
 43
0.0
 44
0.0
 50
0.0
 51
0.0
 71
     0
 72
   100
 73
     1
 74
     1
 75
     0
 76
     0
 77
     0
 78
     0
281
     0
 65
     1
110
0.0
120
0.0
130
0.0
111
1.0
121
0.0
131
0.0
112
0.0
122
1.0
132
0.0
 79
     0
146
0.0
348
15E9
 60
     3
 61
     5
292
     1
282
     1
141
0.0
142
0.0
 63
   250
421
  3355443
  0
ENDTAB
  0
TABLE
  2
LTYPE
  5
5
330
0
100
AcDbSymbolTable
 70
     6
  0
LTYPE
  5
14
330
5
100
AcDbSymbolTableRecord
100
AcDbLinetypeTableRecord
  2
BYBLOCK
 70
     0
  3

 72
    65
 73
     0
 40
0.0
  0
LTYPE
  5
15
330
5
100
AcDbSymbolTableRecord
100
AcDbLinetypeTableRecord
  2
BYLAYER
 70
     0
  3

 72
    65
 73
     0
 40
0.0
  0
LTYPE
  5
16
330
5
100
AcDbSymbolTableRecord
100
AcDbLinetypeTableRecord
  2
CONTINUOUS
 70
     0
  3
Solid line
 72
    65
 73
     0
 40
0.0
  0
LTYPE
  5
1F5
330
5
100
AcDbSymbolTableRecord
100
AcDbLinetypeTableRecord
  2
CENTER
 70
     0
  3
____ _ ____ _ ____ _ ____ _ ____ _ ____ _ ____
 72
    65
 73
     4
 40
0.6
 49
0.375
 74
     0
 49
-0.075
 74
     0
 49
0.075
 74
     0
 49
-0.075
 74
     0
  0
LTYPE
  5
1F6
330
5
100
AcDbSymbolTableRecord
100
AcDbLinetypeTableRecord
  2
HIDDEN
 70
     0
  3
- - - - - - - - - - - - - - - - - - - -
 72
    65
 73
     2
 40
0.2
 49
0.1
 74
     0
 49
-0.1
 74
     0
  0
LTYPE
  5
1F7
330
5
100
AcDbSymbolTableRecord
100
AcDbLinetypeTableRecord
  2
PHANTOM
 70
     0
  3
_____ _ _ _____ _ _ _____ _ _ _____
 72
    65
 73
     6
 40
0.8
 49
0.45
 74
     0
 49
-0.05
 74
     0
 49
0.1
 74
     0
 49
-0.05
 74
     0
 49
0.1
 74
     0
 49
-0.05
 74
     0
  0
LTYPE
  5
1F8
330
5
100
AcDbSymbolTableRecord
100
AcDbLinetypeTableRecord
  2
DOT
 70
     0
  3
. . . . . . . . . . . . . . . . . . . .
 72
    65
 73
     2
 40
0.2
 49
0.1
 74
     0
 49
-0.1
 74
     0
  0
LTYPE
  5
1F9
330
5
100
AcDbSymbolTableRecord
100
AcDbLinetypeTableRecord
  2
DASHED
 70
     0
  3
- - - - - - - - - - - - - - - - - - - -
 72
    65
 73
     2
 40
0.2
 49
0.1
 74
     0
 49
-0.1
 74
     0
  0
ENDTAB
  0
TABLE
  2
LAYER
  5
2
330
0
100
AcDbSymbolTable
 70
    40
  0
LAYER
  5
10
102
{ACAD_XDICTIONARY
360
1663
102
}
330
2
100
AcDbSymbolTableRecord
100
AcDbLayerTableRecord
  2
0
 70
     0
 62
     7
  6
CONTINUOUS
370
    -3
390
F
347
15DB
  0
LAYER
  5
1FA
102
{ACAD_XDICTIONARY
360
1665
102
}
330
2
100
AcDbSymbolTableRecord
100
AcDbLayerTableRecord
  2
DEFAULT_1
 70
     0
 62
     7
  6
CENTER
370
    -3
390
F
347
15DB
  0
LAYER
  5
1FB
102
{ACAD_XDICTIONARY
360
1667
102
}
330
2
100
AcDbSymbolTableRecord
100
AcDbLayerTableRecord
  2
DEFAULT_2
 70
     0
 62
     7
  6
HIDDEN
370
    -3
390
F
347
15DB
  0
LAYER
  5
1FC
102
{ACAD_XDICTIONARY
360
1669
102
}
330
2
100
AcDbSymbolTableRecord
100
AcDbLayerTableRecord
  2
DEFAULT_3
 70
     0
 62
     7
  6
PHANTOM
370
    -3
390
F
347
15DB
  0
LAYER
  5
1FD
102
{ACAD_XDICTIONARY
360
166B
102
}
330
2
100
AcDbSymbolTableRecord
100
AcDbLayerTableRecord
  2
1_CURVES
 70
     0
 62
     7
  6
CONTINUOUS
370
    -3
390
F
347
15DB
  0
LAYER
  5
1FE
102
{ACAD_XDICTIONARY
360
166D
102
}
330
2
100
AcDbSymbolTableRecord
100
AcDbLayerTableRecord
  2
1_CURVES_CONDUIT
 70
     0
 62
     7
  6
CONTINUOUS
370
    -3
390
F
347
15DB
  0
LAYER
  5
1FF
102
{ACAD_XDICTIONARY
360
166F
102
}
330
2
100
AcDbSymbolTableRecord
100
AcDbLayerTableRecord
  2
1_CURVES_DRW
 70
     0
 62
     7
  6
CONTINUOUS
370
    -3
390
F
347
15DB
  0
LAYER
  5
200
102
{ACAD_XDICTIONARY
360
1671
102
}
330
2
100
AcDbSymbolTableRecord
100
AcDbLayerTableRecord
  2
1_CURVES_JETS
 70
     0
 62
     7
  6
CONTINUOUS
370
    -3
390
F
347
15DB
  0
LAYER
  5
201
102
{ACAD_XDICTIONARY
360
1673
102
}
330
2
100
AcDbSymbolTableRecord
100
AcDbLayerTableRecord
  2
1_CURVES_PATINS
 70
     0
 62
     7
  6
CONTINUOUS
370
    -3
390
F
347
15DB
  0
LAYER
  5
202
102
{ACAD_XDICTIONARY
360
1675
102
}
330
2
100
AcDbSymbolTableRecord
100
AcDbLayerTableRecord
  2
1_CURVES_RESURFACAGE
 70
     0
 62
     7
  6
CONTINUOUS
370
    -3
390
F
347
15DB
  0
LAYER
  5
203
102
{ACAD_XDICTIONARY
360
1677
102
}
330
2
100
AcDbSymbolTableRecord
100
AcDbLayerTableRecord
  2
1_CURVES_SPEC_DROP_IN
 70
     0
 62
     7
  6
CONTINUOUS
370
    -3
390
F
347
15DB
  0
LAYER
  5
204
102
{ACAD_XDICTIONARY
360
1679
102
}
330
2
100
AcDbSymbolTableRecord
100
AcDbLayerTableRecord
  2
1_CURVES_SPEC_FS
 70
     0
 62
     7
  6
CONTINUOUS
370
    -3
390
F
347
15DB
  0
LAYER
  5
205
102
{ACAD_XDICTIONARY
360
167B
102
}
330
2
100
AcDbSymbolTableRecord
100
AcDbLayerTableRecord
  2
2_PLANES
 70
     0
 62
     7
  6
CONTINUOUS
370
    -3
390
F
347
15DB
  0
LAYER
  5
206
102
{ACAD_XDICTIONARY
360
167D
102
}
330
2
100
AcDbSymbolTableRecord
100
AcDbLayerTableRecord
  2
2_PLANES_JETS
 70
     0
 62
     7
  6
CONTINUOUS
370
    -3
390
F
347
15DB
  0
LAYER
  5
207
102
{ACAD_XDICTIONARY
360
167F
102
}
330
2
100
AcDbSymbolTableRecord
100
AcDbLayerTableRecord
  2
3_POINTS
 70
     0
 62
     7
  6
CONTINUOUS
370
    -3
390
F
347
15DB
  0
LAYER
  5
208
102
{ACAD_XDICTIONARY
360
1681
102
}
330
2
100
AcDbSymbolTableRecord
100
AcDbLayerTableRecord
  2
3_POINTS_JETS
 70
     0
 62
     7
  6
CONTINUOUS
370
    -3
390
F
347
15DB
  0
LAYER
  5
209
102
{ACAD_XDICTIONARY
360
1683
102
}
330
2
100
AcDbSymbolTableRecord
100
AcDbLayerTableRecord
  2
4_CSYS
 70
     0
 62
     7
  6
CONTINUOUS
370
    -3
390
F
347
15DB
  0
LAYER
  5
20A
102
{ACAD_XDICTIONARY
360
1685
102
}
330
2
100
AcDbSymbolTableRecord
100
AcDbLayerTableRecord
  2
5_AXIS
 70
     0
 62
     7
  6
CONTINUOUS
370
    -3
390
F
347
15DB
  0
LAYER
  5
20B
102
{ACAD_XDICTIONARY
360
1687
102
}
330
2
100
AcDbSymbolTableRecord
100
AcDbLayerTableRecord
  2
5_AXIS_JETS
 70
     0
 62
     7
  6
CONTINUOUS
370
    -3
390
F
347
15DB
  0
LAYER
  5
20C
102
{ACAD_XDICTIONARY
360
1689
102
}
330
2
100
AcDbSymbolTableRecord
100
AcDbLayerTableRecord
  2
6_AIRE_CONDUIT
 70
     0
 62
     7
  6
CONTINUOUS
370
    -3
390
F
347
15DB
  0
LAYER
  5
20D
102
{ACAD_XDICTIONARY
360
168B
102
}
330
2
100
AcDbSymbolTableRecord
100
AcDbLayerTableRecord
  2
6_SURFACES
 70
     0
 62
     7
  6
CONTINUOUS
370
    -3
390
F
347
15DB
  0
LAYER
  5
20E
102
{ACAD_XDICTIONARY
360
168D
102
}
330
2
100
AcDbSymbolTableRecord
100
AcDbLayerTableRecord
  2
6_SURFACES-TETE
 70
     0
 62
     7
  6
CONTINUOUS
370
    -3
390
F
347
15DB
  0
LAYER
  5
20F
102
{ACAD_XDICTIONARY
360
168F
102
}
330
2
100
AcDbSymbolTableRecord
100
AcDbLayerTableRecord
  2
6_SURFACES-TOOLING
 70
     0
 62
     7
  6
CONTINUOUS
370
    -3
390
F
347
15DB
  0
LAYER
  5
210
102
{ACAD_XDICTIONARY
360
1691
102
}
330
2
100
AcDbSymbolTableRecord
100
AcDbLayerTableRecord
  2
6_SURFACES_AIRE
 70
     0
 62
     7
  6
CONTINUOUS
370
    -3
390
F
347
15DB
  0
LAYER
  5
211
102
{ACAD_XDICTIONARY
360
1693
102
}
330
2
100
AcDbSymbolTableRecord
100
AcDbLayerTableRecord
  2
6_SURFACES_AROMACLOUD
 70
     0
 62
     7
  6
CONTINUOUS
370
    -3
390
F
347
15DB
  0
LAYER
  5
212
102
{ACAD_XDICTIONARY
360
1695
102
}
330
2
100
AcDbSymbolTableRecord
100
AcDbLayerTableRecord
  2
6_SURFACES_DROP_IN
 70
     0
 62
     7
  6
CONTINUOUS
370
    -3
390
F
347
15DB
  0
LAYER
  5
213
102
{ACAD_XDICTIONARY
360
1697
102
}
330
2
100
AcDbSymbolTableRecord
100
AcDbLayerTableRecord
  2
6_SURFACES_FIBRE_ACRYLIQUE
 70
     0
 62
     7
  6
CONTINUOUS
370
    -3
390
F
347
15DB
  0
LAYER
  5
214
102
{ACAD_XDICTIONARY
360
1699
102
}
330
2
100
AcDbSymbolTableRecord
100
AcDbLayerTableRecord
  2
6_SURFACES_FS
 70
     0
 62
     7
  6
CONTINUOUS
370
    -3
390
F
347
15DB
  0
LAYER
  5
215
102
{ACAD_XDICTIONARY
360
169B
102
}
330
2
100
AcDbSymbolTableRecord
100
AcDbLayerTableRecord
  2
6_SURFACES_OFFSET_FIBRE_ACRYLIQ
 70
     0
 62
     7
  6
CONTINUOUS
370
    -3
390
F
347
15DB
  0
LAYER
  5
216
102
{ACAD_XDICTIONARY
360
169D
102
}
330
2
100
AcDbSymbolTableRecord
100
AcDbLayerTableRecord
  2
6_SURFACES_POUR_CONDUIT
 70
     0
 62
     7
  6
CONTINUOUS
370
    -3
390
F
347
15DB
  0
LAYER
  5
217
102
{ACAD_XDICTIONARY
360
169F
102
}
330
2
100
AcDbSymbolTableRecord
100
AcDbLayerTableRecord
  2
6_SURFACES_POUR_HFL
 70
     0
 62
     7
  6
CONTINUOUS
370
    -3
390
F
347
15DB
  0
LAYER
  5
218
102
{ACAD_XDICTIONARY
360
16A1
102
}
330
2
100
AcDbSymbolTableRecord
100
AcDbLayerTableRecord
  2
6_SURFACES_POUR_TROP_PLEIN
 70
     0
 62
     7
  6
CONTINUOUS
370
    -3
390
F
347
15DB
  0
LAYER
  5
219
102
{ACAD_XDICTIONARY
360
16A3
102
}
330
2
100
AcDbSymbolTableRecord
100
AcDbLayerTableRecord
  2
6_SURFACES_ROBINETERIE
 70
     0
 62
     7
  6
CONTINUOUS
370
    -3
390
F
347
15DB
  0
LAYER
  5
21A
102
{ACAD_XDICTIONARY
360
16A5
102
}
330
2
100
AcDbSymbolTableRecord
100
AcDbLayerTableRecord
  2
6_SURFACES_TOOLING
 70
     0
 62
     7
  6
CONTINUOUS
370
    -3
390
F
347
15DB
  0
LAYER
  5
21B
102
{ACAD_XDICTIONARY
360
16A7
102
}
330
2
100
AcDbSymbolTableRecord
100
AcDbLayerTableRecord
  2
6_SURFACES_TOOLING_DROP_IN
 70
     0
 62
     7
  6
CONTINUOUS
370
    -3
390
F
347
15DB
  0
LAYER
  5
21C
102
{ACAD_XDICTIONARY
360
16A9
102
}
330
2
100
AcDbSymbolTableRecord
100
AcDbLayerTableRecord
  2
6_SURFACES_TOOLING_FS
 70
     0
 62
     7
  6
CONTINUOUS
370
    -3
390
F
347
15DB
  0
LAYER
  5
21D
102
{ACAD_XDICTIONARY
360
16AB
102
}
330
2
100
AcDbSymbolTableRecord
100
AcDbLayerTableRecord
  2
7_NOTES
 70
     0
 62
     7
  6
CONTINUOUS
370
    -3
390
F
347
15DB
  0
LAYER
  5
21E
102
{ACAD_XDICTIONARY
360
16AD
102
}
330
2
100
AcDbSymbolTableRecord
100
AcDbLayerTableRecord
  2
8_TOL_GEOM
 70
     0
 62
     7
  6
CONTINUOUS
370
    -3
390
F
347
15DB
  0
LAYER
  5
21F
102
{ACAD_XDICTIONARY
360
16AF
102
}
330
2
100
AcDbSymbolTableRecord
100
AcDbLayerTableRecord
  2
NONE
 70
     0
 62
     7
  6
CONTINUOUS
370
    -3
390
F
347
15DB
  0
LAYER
  5
220
102
{ACAD_XDICTIONARY
360
16B1
102
}
330
2
100
AcDbSymbolTableRecord
100
AcDbLayerTableRecord
  2
XSEC_DATUMS
 70
     0
 62
     7
  6
CONTINUOUS
370
    -3
390
F
347
15DB
  0
ENDTAB
  0
TABLE
  2
STYLE
  5
3
330
0
100
AcDbSymbolTable
 70
     8
  0
STYLE
  5
11
330
3
100
AcDbSymbolTableRecord
100
AcDbTextStyleTableRecord
  2
STANDARD
 70
     0
 40
0.0
 41
0.8
 50
0.0
 71
     0
 42
0.2
  3
txt
  4

  0
STYLE
  5
221
330
3
100
AcDbSymbolTableRecord
100
AcDbTextStyleTableRecord
  2
TEXTSTYLE_1
 70
     0
 40
0.0
 41
0.8
 50
0.0
 71
     0
 42
0.2
  3
gdt
  4

  0
STYLE
  5
222
330
3
100
AcDbSymbolTableRecord
100
AcDbTextStyleTableRecord
  2
TEXTSTYLE_2
 70
     0
 40
0.0
 41
1.0
 50
0.0
 71
     0
 42
0.2
  3
trium.ttf
  4

  0
STYLE
  5
223
330
3
100
AcDbSymbolTableRecord
100
AcDbTextStyleTableRecord
  2
TEXTSTYLE_3
 70
     0
 40
0.0
 41
1.0
 50
0.0
 71
     0
 42
0.2
  3
trium.ttf
  4

  0
STYLE
  5
224
330
3
100
AcDbSymbolTableRecord
100
AcDbTextStyleTableRecord
  2
TEXTSTYLE_4
 70
     0
 40
0.0
 41
1.0
 50
0.0
 71
     0
 42
0.2
  3
txt_____.ttf
  4

1001
ACAD
1000
txt
1071
        2
  0
STYLE
  5
225
330
3
100
AcDbSymbolTableRecord
100
AcDbTextStyleTableRecord
  2
TEXTSTYLE_5
 70
     0
 40
0.0
 41
1.0
 50
0.0
 71
     0
 42
0.2
  3
txt_____.ttf
  4

1001
ACAD
1000
txt
1071
        2
  0
STYLE
  5
226
330
3
100
AcDbSymbolTableRecord
100
AcDbTextStyleTableRecord
  2
TEXTSTYLE_6
 70
     0
 40
0.0
 41
1.0
 50
0.0
 71
     0
 42
0.2
  3
trium.ttf
  4

  0
STYLE
  5
227
330
3
100
AcDbSymbolTableRecord
100
AcDbTextStyleTableRecord
  2
TEXTSTYLE_7
 70
     0
 40
0.0
 41
0.8
 50
0.0
 71
     0
 42
0.2
  3
txt_____.ttf
  4

1001
ACAD
1000
txt
1071
        2
  0
ENDTAB
  0
TABLE
  2
VIEW
  5
6
330
0
100
AcDbSymbolTable
 70
     0
  0
ENDTAB
  0
TABLE
  2
UCS
  5
7
330
0
100
AcDbSymbolTable
 70
     0
  0
ENDTAB
  0
TABLE
  2
APPID
  5
9
330
0
100
AcDbSymbolTable
 70
     2
  0
APPID
  5
228
330
9
100
AcDbSymbolTableRecord
100
AcDbRegAppTableRecord
  2
ACAD
 70
     0
  0
APPID
  5
1653
330
9
100
AcDbSymbolTableRecord
100
AcDbRegAppTableRecord
  2
ACAD_MLEADERVER
 70
     0
  0
ENDTAB
  0
TABLE
  2
DIMSTYLE
  5
A
330
0
100
AcDbSymbolTable
 70
     6
100
AcDbDimStyleTable
 71
     0
  0
DIMSTYLE
105
246
330
A
100
AcDbSymbolTableRecord
100
AcDbDimStyleTableRecord
  2
STANDARD
 70
     0
 41
2.0
 44
0.125
 47
0.00001
 48
0.00001
 71
     1
 78
     4
140
1.333333333299999
271
     5
272
     5
284
     4
340
11
341
22B
342
22B
343
22B
344
22B
  0
DIMSTYLE
105
247
330
A
100
AcDbSymbolTableRecord
100
AcDbDimStyleTableRecord
  2
DIMSTYLE_1
 70
     0
 41
2.0
 44
0.125
 47
0.00001
 48
0.00001
 78
     4
140
1.333333333299999
147
0.0625
284
     4
340
11
341
22B
342
22B
343
22B
344
22B
  0
DIMSTYLE
105
248
330
A
100
AcDbSymbolTableRecord
100
AcDbDimStyleTableRecord
  2
DIMSTYLE_2
 70
     0
 41
2.0
 44
0.125
 47
0.00001
 48
0.00001
 78
     4
140
1.333333333299999
147
0.0625
271
     6
272
     6
284
     4
340
11
341
22B
342
22B
343
22B
344
22B
  0
DIMSTYLE
105
249
330
A
100
AcDbSymbolTableRecord
100
AcDbDimStyleTableRecord
  2
DIMSTYLE_3
 70
     0
 41
2.0
 44
0.125
 47
0.00001
 48
0.00001
 78
     4
140
1.333333333299999
147
0.0625
271
     3
272
     3
284
     4
340
11
341
22B
342
22B
343
22B
344
22B
  0
DIMSTYLE
105
24A
330
A
100
AcDbSymbolTableRecord
100
AcDbDimStyleTableRecord
  2
DIMSTYLE_4
 70
     0
 41
2.0
 44
0.125
 47
1.0
 48
1.0
 78
     4
140
1.333333333299999
271
     0
272
     0
284
     4
340
11
341
22B
342
22B
343
22B
344
22B
  0
DIMSTYLE
105
24B
330
A
100
AcDbSymbolTableRecord
100
AcDbDimStyleTableRecord
  2
DIMSTYLE_5
 70
     0
 41
2.0
 44
0.125
 47
0.5
 48
0.5
 78
     4
140
1.333333333299999
271
     0
272
     0
284
     4
340
11
341
22B
342
22B
343
22B
344
22B
  0
ENDTAB
  0
TABLE
  2
BLOCK_RECORD
  5
1
330
0
100
AcDbSymbolTable
 70
    27
  0
BLOCK_RECORD
  5
229
330
1
100
AcDbSymbolTableRecord
100
AcDbBlockTableRecord
  2
*Model_Space
340
15C5
 70
     0
280
     1
281
     0
  0
BLOCK_RECORD
  5
22A
330
1
100
AcDbSymbolTableRecord
100
AcDbBlockTableRecord
  2
*Paper_Space
340
15C6
 70
     0
280
     1
281
     0
  0
BLOCK_RECORD
  5
22B
330
1
100
AcDbSymbolTableRecord
100
AcDbBlockTableRecord
  2
_FILLED
340
0
102
{BLKREFS
331
330
331
331
331
339
331
33A
331
342
331
343
331
34B
331
34C
331
354
331
355
331
35D
331
35E
331
36E
331
36F
331
377
331
378
331
381
331
382
331
38A
331
38B
331
393
331
394
331
39D
331
39E
331
3A6
331
3A7
331
3B0
331
3B1
331
3BA
331
3BB
331
3DE
331
3DF
331
3E7
331
3E8
102
}
 70
     0
280
     1
281
     0
  0
BLOCK_RECORD
  5
241
330
1
100
AcDbSymbolTableRecord
100
AcDbBlockTableRecord
  2
SYMBOL_9_BL4
340
0
 70
     0
280
     1
281
     0
  0
BLOCK_RECORD
  5
242
330
1
100
AcDbSymbolTableRecord
100
AcDbBlockTableRecord
  2
SYMBOL_5_BL3
340
0
 70
     0
280
     1
281
     0
  0
BLOCK_RECORD
  5
243
330
1
100
AcDbSymbolTableRecord
100
AcDbBlockTableRecord
  2
SYMBOL_3_BL2
340
0
 70
     0
280
     1
281
     0
  0
BLOCK_RECORD
  5
244
330
1
100
AcDbSymbolTableRecord
100
AcDbBlockTableRecord
  2
SYMBOL_7_BL1
340
0
 70
     0
280
     1
281
     0
  0
BLOCK_RECORD
  5
245
330
1
100
AcDbSymbolTableRecord
100
AcDbBlockTableRecord
  2
SYMBOL_0_BL0
340
0
 70
     0
280
     1
281
     0
  0
ENDTAB
  0
ENDSEC
  0
SECTION
  2
BLOCKS
  0
BLOCK
  5
20
330
229
100
AcDbEntity
  8
0
100
AcDbBlockBegin
  2
*Model_Space
 70
     0
 10
0.0
 20
0.0
 30
0.0
  3
*Model_Space
  1

  0
ENDBLK
  5
21
330
229
100
AcDbEntity
  8
0
100
AcDbBlockEnd
  0
BLOCK
  5
1C
330
22A
100
AcDbEntity
 67
     1
  8
0
100
AcDbBlockBegin
  2
*Paper_Space
 70
     0
 10
0.0
 20
0.0
 30
0.0
  3
*Paper_Space
  1

  0
ENDBLK
  5
1D
330
22A
100
AcDbEntity
 67
     1
  8
0
100
AcDbBlockEnd
  0
BLOCK
  5
327
330
22B
100
AcDbEntity
  8
0
100
AcDbBlockBegin
  2
_FILLED
 70
     0
 10
0.0
 20
0.0
 30
0.0
  3
_FILLED
  1

  0
SOLID
  5
328
330
22B
100
AcDbEntity
  8
0
  6
ByBlock
 62
     0
100
AcDbTrace
 10
0.0
 20
0.0
 30
0.0
 11
-1.0
 21
0.1666666667
 31
0.0
 12
-1.0
 22
-0.1666666667
 32
0.0
 13
-1.0
 23
-0.1666666667
 33
0.0
  0
ENDBLK
  5
329
330
22B
100
AcDbEntity
  8
0
  6
ByBlock
 62
     0
100
AcDbBlockEnd
  0
BLOCK
  5
24C
330
241
100
AcDbEntity
  8
0
  6
Continuous
 62
     7
100
AcDbBlockBegin
  2
SYMBOL_9_BL4
 70
     0
 10
50.2122134751
 20
63.7220524502
 30
0.0
  3
SYMBOL_9_BL4
  1

  0
TEXT
  5
24D
330
241
100
AcDbEntity
  8
0
  6
Continuous
 62
     7
100
AcDbText
 10
49.54554654909999
 20
63.05538552419999
 30
0.0
 40
1.333333852099999
  1
C
  7
TEXTSTYLE_2
100
AcDbText
  0
ELLIPSE
  5
24E
330
241
100
AcDbEntity
  8
0
  6
Continuous
 62
     7
100
AcDbEllipse
 10
50.2122134751
 20
63.7220524502
 30
0.0
 11
-1.942887567899999
 21
0.0
 31
0.0
210
0.0
220
0.0
230
1.0
 40
0.6606458385
 41
0.0
 42
6.283185307179586
  0
ENDBLK
  5
24F
330
241
100
AcDbEntity
  8
0
  6
ByBlock
 62
     0
100
AcDbBlockEnd
  0
BLOCK
  5
250
330
242
100
AcDbEntity
  8
0
  6
Continuous
 62
     7
100
AcDbBlockBegin
  2
SYMBOL_5_BL3
 70
     0
 10
55.1058313533
 20
67.81556584669999
 30
0.0
  3
SYMBOL_5_BL3
  1

  0
TEXT
  5
251
330
242
100
AcDbEntity
  8
0
  6
Continuous
 62
     7
100
AcDbText
 10
54.6176325983
 20
67.09118226930001
 30
0.0
 40
1.333333852099999
  1
L
 50
5.0
  7
TEXTSTYLE_2
100
AcDbText
  0
TEXT
  5
252
330
242
100
AcDbEntity
  8
0
  6
Continuous
 62
     7
100
AcDbText
 10
50.4368192312
 20
66.73786673069999
 30
0.0
 40
1.333333852099999
  1
11
 50
5.0
  7
TEXTSTYLE_2
100
AcDbText
  0
TEXT
  5
253
330
242
100
AcDbEntity
  8
0
  6
Continuous
 62
     7
100
AcDbText
 10
57.85438566919999
 20
67.386819705
 30
0.0
 40
1.333333852099999
  1
12
 50
5.0
  7
TEXTSTYLE_2
100
AcDbText
  0
ELLIPSE
  5
254
330
242
100
AcDbEntity
  8
0
  6
Continuous
 62
     7
100
AcDbEllipse
 10
55.085913311
 20
67.8013650084
 30
0.0
 11
-1.9354942941
 21
-0.1693338091
 31
0.0
210
0.0
220
0.0
230
1.0
 40
0.6606458385
 41
0.0
 42
6.283185307179586
  0
ENDBLK
  5
255
330
242
100
AcDbEntity
  8
0
  6
ByBlock
 62
     0
100
AcDbBlockEnd
  0
BLOCK
  5
256
330
243
100
AcDbEntity
  8
0
  6
Continuous
 62
     7
100
AcDbBlockBegin
  2
SYMBOL_3_BL2
 70
     0
 10
37.7096062797
 20
91.68235163979998
 30
0.0
  3
SYMBOL_3_BL2
  1

  0
TEXT
  5
257
330
243
100
AcDbEntity
  8
0
  6
Continuous
 62
     7
100
AcDbText
 10
37.354612249
 20
90.88419825249999
 30
0.0
 40
1.333333852099999
  1
L
 50
15.0
  7
TEXTSTYLE_2
100
AcDbText
  0
TEXT
  5
258
330
243
100
AcDbEntity
  8
0
  6
Continuous
 62
     7
100
AcDbText
 10
33.7923630449
 20
89.9425450897
 30
0.0
 40
1.333333852099999
  1
5
 50
15.0
  7
TEXTSTYLE_2
100
AcDbText
  0
TEXT
  5
259
330
243
100
AcDbEntity
  8
0
  6
Continuous
 62
     7
100
AcDbText
 10
40.9845504801
 20
91.86968590479999
 30
0.0
 40
1.333333852099999
  1
6
 50
15.0
  7
TEXTSTYLE_2
100
AcDbText
  0
ELLIPSE
  5
25A
330
243
100
AcDbEntity
  8
0
  6
Continuous
 62
     7
100
AcDbEllipse
 10
37.6924567869
 20
91.6649078124
 30
0.0
 11
-1.8766852794
 21
-0.5028563051
 31
0.0
210
0.0
220
0.0
230
1.0
 40
0.6606458385
 41
0.0
 42
6.283185307179586
  0
ENDBLK
  5
25B
330
243
100
AcDbEntity
  8
0
  6
ByBlock
 62
     0
100
AcDbBlockEnd
  0
BLOCK
  5
25C
330
244
100
AcDbEntity
  8
0
  6
Continuous
 62
     7
100
AcDbBlockBegin
  2
SYMBOL_7_BL1
 70
     0
 10
129.2682312935
 20
53.3169987059
 30
0.0
  3
SYMBOL_7_BL1
  1

  0
TEXT
  5
25D
330
244
100
AcDbEntity
  8
0
  6
Continuous
 62
     7
100
AcDbText
 10
122.9541709917
 20
55.5620326917
 30
0.0
 40
1.1626666667
  1
INTERNAL USE 
 50
10.0
  7
TEXTSTYLE_3
100
AcDbText
  0
TEXT
  5
25E
330
244
100
AcDbEntity
  8
0
  6
Continuous
 62
     7
100
AcDbText
 10
122.2104867877
 20
53.56051151399999
 30
0.0
 40
1.1626666667
  1
DOCUMENT ONLY
 50
10.0
  7
TEXTSTYLE_3
100
AcDbText
  0
TEXT
  5
25F
330
244
100
AcDbEntity
  8
0
  6
Continuous
 62
     7
100
AcDbText
 10
127.995214351
 20
53.3120834635
 30
0.0
 40
1.1626666667
  1
 
 50
10.0
  7
TEXTSTYLE_5
100
AcDbText
  0
TEXT
  5
260
330
244
100
AcDbEntity
  8
0
  6
Continuous
 62
     7
100
AcDbText
 10
119.550566468
 20
49.1349890572
 30
0.0
 40
1.1626666667
  1
DOCUMENT POUR USAGE
 50
10.0
  7
TEXTSTYLE_3
100
AcDbText
  0
TEXT
  5
261
330
244
100
AcDbEntity
  8
0
  6
Continuous
 62
     7
100
AcDbText
 10
119.979665914
 20
47.1182405968
 30
0.0
 40
1.1626666667
  1
A L'INTERNE SEULEMENT
 50
10.0
  7
TEXTSTYLE_3
100
AcDbText
  0
LINE
  5
262
330
244
100
AcDbEntity
  8
0
  6
Continuous
 62
     1
100
AcDbLine
 10
143.1247830168
 20
48.973465088
 30
0.0
 11
143.1315419495
 21
48.9802240206
 31
0.0
  0
LINE
  5
263
330
244
100
AcDbEntity
  8
0
  6
Continuous
 62
     1
100
AcDbLine
 10
142.3922134504
 20
48.8442933081
 30
0.0
 11
143.0410948955
 21
49.49317475329999
 31
0.0
  0
LINE
  5
264
330
244
100
AcDbEntity
  8
0
  6
Continuous
 62
     1
100
AcDbLine
 10
141.659643884
 20
48.7151215283
 30
0.0
 11
142.9506478416
 21
50.0061254859
 31
0.0
  0
LINE
  5
265
330
244
100
AcDbEntity
  8
0
  6
Continuous
 62
     1
100
AcDbLine
 10
140.9270743176
 20
48.5859497485
 30
0.0
 11
142.8602007876
 21
50.51907621859999
 31
0.0
  0
LINE
  5
266
330
244
100
AcDbEntity
  8
0
  6
Continuous
 62
     1
100
AcDbLine
 10
140.1945047512
 20
48.45677796869999
 30
0.0
 11
142.7697537337
 21
51.03202695130001
 31
0.0
  0
LINE
  5
267
330
244
100
AcDbEntity
  8
0
  6
Continuous
 62
     1
100
AcDbLine
 10
139.4619351847
 20
48.3276061889
 30
0.0
 11
141.0029389995
 21
49.8686100037
 31
0.0
  0
LINE
  5
268
330
244
100
AcDbEntity
  8
0
  6
Continuous
 62
     1
100
AcDbLine
 10
141.6002841922
 20
50.4659551964
 30
0.0
 11
142.6793066798
 21
51.5449776839
 31
0.0
  0
LINE
  5
269
330
244
100
AcDbEntity
  8
0
  6
Continuous
 62
     1
100
AcDbLine
 10
138.7293656183
 20
48.19843440909999
 30
0.0
 11
140.2703694331
 21
49.7394382239
 31
0.0
  0
LINE
  5
26A
330
244
100
AcDbEntity
  8
0
  6
Continuous
 62
     1
100
AcDbLine
 10
141.5098371383
 20
50.9789059291
 30
0.0
 11
142.5888596258
 21
52.0579284166
 31
0.0
  0
LINE
  5
26B
330
244
100
AcDbEntity
  8
0
  6
Continuous
 62
     1
100
AcDbLine
 10
137.9967960519
 20
48.06926262930001
 30
0.0
 11
139.5377998667
 21
49.6102664441
 31
0.0
  0
LINE
  5
26C
330
244
100
AcDbEntity
  8
0
  6
Continuous
 62
     1
100
AcDbLine
 10
141.4193900844
 20
51.4918566618
 30
0.0
 11
142.4984125719
 21
52.5708791493
 31
0.0
  0
LINE
  5
26D
330
244
100
AcDbEntity
  8
0
  6
Continuous
 62
     1
100
AcDbLine
 10
137.2642264855
 20
47.94009084949999
 30
0.0
 11
138.8052303003
 21
49.4810946643
 31
0.0
  0
LINE
  5
26E
330
244
100
AcDbEntity
  8
0
  6
Continuous
 62
     1
100
AcDbLine
 10
141.3289430304
 20
52.00480739439999
 30
0.0
 11
142.4079655179
 21
53.08382988189999
 31
0.0
  0
LINE
  5
26F
330
244
100
AcDbEntity
  8
0
  6
Continuous
 62
     1
100
AcDbLine
 10
136.5316569191
 20
47.8109190697
 30
0.0
 11
138.0726607338
 21
49.3519228845
 31
0.0
  0
LINE
  5
270
330
244
100
AcDbEntity
  8
0
  6
Continuous
 62
     1
100
AcDbLine
 10
141.2384959765
 20
52.5177581271
 30
0.0
 11
142.3175184639999
 21
53.5967806146
 31
0.0
  0
LINE
  5
271
330
244
100
AcDbEntity
  8
0
  6
Continuous
 62
     1
100
AcDbLine
 10
135.7990873527
 20
47.6817472899
 30
0.0
 11
137.3400911674
 21
49.2227511047
 31
0.0
  0
LINE
  5
272
330
244
100
AcDbEntity
  8
0
  6
Continuous
 62
     1
100
AcDbLine
 10
141.1480489225
 20
53.03070885979999
 30
0.0
 11
142.22707141
 21
54.10973134729999
 31
0.0
  0
LINE
  5
273
330
244
100
AcDbEntity
  8
0
  6
Continuous
 62
     1
100
AcDbLine
 10
135.0665177862
 20
47.5525755101
 30
0.0
 11
136.607521601
 21
49.09357932489999
 31
0.0
  0
LINE
  5
274
330
244
100
AcDbEntity
  8
0
  6
Continuous
 62
     1
100
AcDbLine
 10
141.0576018686
 20
53.54365959239999
 30
0.0
 11
142.1366243561
 21
54.62268208
 31
0.0
  0
LINE
  5
275
330
244
100
AcDbEntity
  8
0
  6
Continuous
 62
     1
100
AcDbLine
 10
134.3339482198
 20
47.42340373029999
 30
0.0
 11
135.8749520346
 21
48.9644075451
 31
0.0
  0
LINE
  5
276
330
244
100
AcDbEntity
  8
0
  6
Continuous
 62
     1
100
AcDbLine
 10
140.9671548146
 20
54.0566103251
 30
0.0
 11
142.0461773022
 21
55.1356328126
 31
0.0
  0
LINE
  5
277
330
244
100
AcDbEntity
  8
0
  6
Continuous
 62
     1
100
AcDbLine
 10
133.6013786534
 20
47.29423195049999
 30
0.0
 11
135.1423824682
 21
48.8352357653
 31
0.0
  0
LINE
  5
278
330
244
100
AcDbEntity
  8
0
  6
Continuous
 62
     1
100
AcDbLine
 10
140.8767077607
 20
54.56956105779999
 30
0.0
 11
141.9557302482
 21
55.6485835453
 31
0.0
  0
LINE
  5
279
330
244
100
AcDbEntity
  8
0
  6
Continuous
 62
     1
100
AcDbLine
 10
132.868809087
 20
47.16506017069999
 30
0.0
 11
134.4098129018
 21
48.7060639855
 31
0.0
  0
LINE
  5
27A
330
244
100
AcDbEntity
  8
0
  6
Continuous
 62
     1
100
AcDbLine
 10
140.5738281609
 20
54.8700792446
 30
0.0
 11
141.8652831943
 21
56.161534278
 31
0.0
  0
LINE
  5
27B
330
244
100
AcDbEntity
  8
0
  6
Continuous
 62
     1
100
AcDbLine
 10
132.1362395206
 20
47.0358883909
 30
0.0
 11
133.6772433353
 21
48.57689220560001
 31
0.0
  0
LINE
  5
27C
330
244
100
AcDbEntity
  8
0
  6
Continuous
 62
     1
100
AcDbLine
 10
139.8412585944
 20
54.74090746479999
 30
0.0
 11
141.7748361403
 21
56.6744850106
 31
0.0
  0
LINE
  5
27D
330
244
100
AcDbEntity
  8
0
  6
Continuous
 62
     1
100
AcDbLine
 10
131.4036699541
 20
46.90671661109999
 30
0.0
 11
132.9446737689
 21
48.4477204258
 31
0.0
  0
LINE
  5
27E
330
244
100
AcDbEntity
  8
0
  6
Continuous
 62
     1
100
AcDbLine
 10
139.108689028
 20
54.6117356849
 30
0.0
 11
140.1360313263
 21
55.63907798319999
 31
0.0
  0
LINE
  5
27F
330
244
100
AcDbEntity
  8
0
  6
Continuous
 62
     1
100
AcDbLine
 10
140.6053665989
 20
56.1084132558
 30
0.0
 11
141.6843890864
 21
57.1874357433
 31
0.0
  0
LINE
  5
280
330
244
100
AcDbEntity
  8
0
  6
Continuous
 62
     1
100
AcDbLine
 10
130.6711003877
 20
46.7775448313
 30
0.0
 11
132.2121042025
 21
48.318548646
 31
0.0
  0
LINE
  5
281
330
244
100
AcDbEntity
  8
0
  6
Continuous
 62
     1
100
AcDbLine
 10
138.3761194616
 20
54.4825639051
 30
0.0
 11
139.4034615503
 21
55.5099059938
 31
0.0
  0
LINE
  5
282
330
244
100
AcDbEntity
  8
0
  6
Continuous
 62
     1
100
AcDbLine
 10
140.5149195449
 20
56.6213639885
 30
0.0
 11
141.5939420324
 21
57.700386476
 31
0.0
  0
LINE
  5
283
330
244
100
AcDbEntity
  8
0
  6
Continuous
 62
     1
100
AcDbLine
 10
129.9385308213
 20
46.64837305149999
 30
0.0
 11
131.4795346361
 21
48.18937686619999
 31
0.0
  0
LINE
  5
284
330
244
100
AcDbEntity
  8
0
  6
Continuous
 62
     1
100
AcDbLine
 10
137.6435498952
 20
54.35339212529999
 30
0.0
 11
138.6708917742
 21
55.3807340044
 31
0.0
  0
LINE
  5
285
330
244
100
AcDbEntity
  8
0
  6
Continuous
 62
     1
100
AcDbLine
 10
140.424472491
 20
57.13431472109999
 30
0.0
 11
141.5034949785
 21
58.2133372086
 31
0.0
  0
LINE
  5
286
330
244
100
AcDbEntity
  8
0
  6
Continuous
 62
     1
100
AcDbLine
 10
129.2059612549
 20
46.51920127159999
 30
0.0
 11
130.7469650697
 21
48.0602050864
 31
0.0
  0
LINE
  5
287
330
244
100
AcDbEntity
  8
0
  6
Continuous
 62
     1
100
AcDbLine
 10
136.9109803288
 20
54.2242203455
 30
0.0
 11
137.9383219982
 21
55.25156201499999
 31
0.0
  0
LINE
  5
288
330
244
100
AcDbEntity
  8
0
  6
Continuous
 62
     1
100
AcDbLine
 10
140.334025437
 20
57.6472654538
 30
0.0
 11
141.4130479245
 21
58.7262879413
 31
0.0
  0
LINE
  5
289
330
244
100
AcDbEntity
  8
0
  6
Continuous
 62
     1
100
AcDbLine
 10
128.4733916885
 20
46.3900294918
 30
0.0
 11
130.0143955032
 21
47.9310333066
 31
0.0
  0
LINE
  5
28A
330
244
100
AcDbEntity
  8
0
  6
Continuous
 62
     1
100
AcDbLine
 10
136.1784107624
 20
54.09504856569999
 30
0.0
 11
137.2057522222
 21
55.1223900255
 31
0.0
  0
LINE
  5
28B
330
244
100
AcDbEntity
  8
0
  6
Continuous
 62
     1
100
AcDbLine
 10
140.2435783831
 20
58.16021618649999
 30
0.0
 11
141.3226008706
 21
59.239238674
 31
0.0
  0
LINE
  5
28C
330
244
100
AcDbEntity
  8
0
  6
Continuous
 62
     1
100
AcDbLine
 10
127.7408221221
 20
46.26085771199999
 30
0.0
 11
129.2818259368
 21
47.8018615268
 31
0.0
  0
LINE
  5
28D
330
244
100
AcDbEntity
  8
0
  6
Continuous
 62
     1
100
AcDbLine
 10
135.4458411959
 20
53.9658767859
 30
0.0
 11
136.4731824461
 21
54.9932180361
 31
0.0
  0
LINE
  5
28E
330
244
100
AcDbEntity
  8
0
  6
Continuous
 62
     1
100
AcDbLine
 10
140.1531313291
 20
58.6731669191
 30
0.0
 11
141.2321538167
 21
59.75218940659999
 31
0.0
  0
LINE
  5
28F
330
244
100
AcDbEntity
  8
0
  6
Continuous
 62
     1
100
AcDbLine
 10
127.0082525556
 20
46.1316859322
 30
0.0
 11
128.5492563704
 21
47.672689747
 31
0.0
  0
LINE
  5
290
330
244
100
AcDbEntity
  8
0
  6
Continuous
 62
     1
100
AcDbLine
 10
134.7132716295
 20
53.8367050061
 30
0.0
 11
135.7406126701
 21
54.8640460467
 31
0.0
  0
LINE
  5
291
330
244
100
AcDbEntity
  8
0
  6
Continuous
 62
     1
100
AcDbLine
 10
140.0626842752
 20
59.1861176518
 30
0.0
 11
141.1417067627
 21
60.2651401393
 31
0.0
  0
LINE
  5
292
330
244
100
AcDbEntity
  8
0
  6
Continuous
 62
     1
100
AcDbLine
 10
126.2756829892
 20
46.00251415239999
 30
0.0
 11
127.816686804
 21
47.5435179672
 31
0.0
  0
LINE
  5
293
330
244
100
AcDbEntity
  8
0
  6
Continuous
 62
     1
100
AcDbLine
 10
133.9807020630999
 20
53.7075332263
 30
0.0
 11
135.0080428941
 21
54.7348740573
 31
0.0
  0
LINE
  5
294
330
244
100
AcDbEntity
  8
0
  6
Continuous
 62
     1
100
AcDbLine
 10
139.9722372213
 20
59.6990683845
 30
0.0
 11
141.0512597088
 21
60.778090872
 31
0.0
  0
LINE
  5
295
330
244
100
AcDbEntity
  8
0
  6
Continuous
 62
     1
100
AcDbLine
 10
125.5431134228
 20
45.8733423726
 30
0.0
 11
127.0841172376
 21
47.4143461874
 31
0.0
  0
LINE
  5
296
330
244
100
AcDbEntity
  8
0
  6
Continuous
 62
     1
100
AcDbLine
 10
133.2481324967
 20
53.5783614465
 30
0.0
 11
134.2754731181
 21
54.60570206789999
 31
0.0
  0
LINE
  5
297
330
244
100
AcDbEntity
  8
0
  6
Continuous
 62
     1
100
AcDbLine
 10
139.8817901673
 20
60.2120191171
 30
0.0
 11
140.9608126548
 21
61.2910416046
 31
0.0
  0
LINE
  5
298
330
244
100
AcDbEntity
  8
0
  6
Continuous
 62
     1
100
AcDbLine
 10
124.8105438564
 20
45.74417059279999
 30
0.0
 11
126.3515476712
 21
47.2851744076
 31
0.0
  0
LINE
  5
299
330
244
100
AcDbEntity
  8
0
  6
Continuous
 62
     1
100
AcDbLine
 10
132.5155629303
 20
53.4491896667
 30
0.0
 11
133.542903342
 21
54.4765300785
 31
0.0
  0
LINE
  5
29A
330
244
100
AcDbEntity
  8
0
  6
Continuous
 62
     1
100
AcDbLine
 10
139.7069140659
 20
60.6405408023
 30
0.0
 11
140.8703656009
 21
61.8039923373
 31
0.0
  0
LINE
  5
29B
330
244
100
AcDbEntity
  8
0
  6
Continuous
 62
     1
100
AcDbLine
 10
124.07797429
 20
45.614998813
 30
0.0
 11
125.6189781047
 21
47.15600262779999
 31
0.0
  0
LINE
  5
29C
330
244
100
AcDbEntity
  8
0
  6
Continuous
 62
     1
100
AcDbLine
 10
131.7829933638
 20
53.3200178869
 30
0.0
 11
132.810333566
 21
54.3473580891
 31
0.0
  0
LINE
  5
29D
330
244
100
AcDbEntity
  8
0
  6
Continuous
 62
     1
100
AcDbLine
 10
138.9743444995
 20
60.5113690225
 30
0.0
 11
140.5153483143
 21
62.05237283729999
 31
0.0
  0
LINE
  5
29E
330
244
100
AcDbEntity
  8
0
  6
Continuous
 62
     1
100
AcDbLine
 10
123.3454047235
 20
45.4858270332
 30
0.0
 11
124.8864085383
 21
47.026830848
 31
0.0
  0
LINE
  5
29F
330
244
100
AcDbEntity
  8
0
  6
Continuous
 62
     1
100
AcDbLine
 10
131.0504237974
 20
53.1908461071
 30
0.0
 11
132.07776379
 21
54.21818609959999
 31
0.0
  0
LINE
  5
2A0
330
244
100
AcDbEntity
  8
0
  6
Continuous
 62
     1
100
AcDbLine
 10
138.2417749331
 20
60.3821972427
 30
0.0
 11
139.7827787478
 21
61.9232010575
 31
0.0
  0
LINE
  5
2A1
330
244
100
AcDbEntity
  8
0
  6
Continuous
 62
     1
100
AcDbLine
 10
122.6128351571
 20
45.35665525339999
 30
0.0
 11
124.1538389719
 21
46.89765906819999
 31
0.0
  0
LINE
  5
2A2
330
244
100
AcDbEntity
  8
0
  6
Continuous
 62
     1
100
AcDbLine
 10
130.317854231
 20
53.06167432729999
 30
0.0
 11
131.3451940139
 21
54.0890141102
 31
0.0
  0
LINE
  5
2A3
330
244
100
AcDbEntity
  8
0
  6
Continuous
 62
     1
100
AcDbLine
 10
137.5092053666
 20
60.25302546289999
 30
0.0
 11
139.0502091814
 21
61.7940292777
 31
0.0
  0
LINE
  5
2A4
330
244
100
AcDbEntity
  8
0
  6
Continuous
 62
     1
100
AcDbLine
 10
121.8802655907
 20
45.22748347359999
 30
0.0
 11
123.4212694055
 21
46.7684872884
 31
0.0
  0
LINE
  5
2A5
330
244
100
AcDbEntity
  8
0
  6
Continuous
 62
     1
100
AcDbLine
 10
129.5852846645999
 20
52.9325025475
 30
0.0
 11
130.6126242379
 21
53.9598421208
 31
0.0
  0
LINE
  5
2A6
330
244
100
AcDbEntity
  8
0
  6
Continuous
 62
     1
100
AcDbLine
 10
136.7766358002
 20
60.1238536831
 30
0.0
 11
138.317639615
 21
61.6648574979
 31
0.0
  0
LINE
  5
2A7
330
244
100
AcDbEntity
  8
0
  6
Continuous
 62
     1
100
AcDbLine
 10
121.1476960243
 20
45.09831169379999
 30
0.0
 11
122.6886998391
 21
46.6393155086
 31
0.0
  0
LINE
  5
2A8
330
244
100
AcDbEntity
  8
0
  6
Continuous
 62
     1
100
AcDbLine
 10
128.8527150982
 20
52.8033307677
 30
0.0
 11
129.8800544619
 21
53.8306701314
 31
0.0
  0
LINE
  5
2A9
330
244
100
AcDbEntity
  8
0
  6
Continuous
 62
     1
100
AcDbLine
 10
136.0440662338
 20
59.9946819033
 30
0.0
 11
137.5850700486
 21
61.53568571810001
 31
0.0
  0
LINE
  5
2AA
330
244
100
AcDbEntity
  8
0
  6
Continuous
 62
     1
100
AcDbLine
 10
120.4151264579
 20
44.96913991399999
 30
0.0
 11
121.9561302727
 21
46.5101437288
 31
0.0
  0
LINE
  5
2AB
330
244
100
AcDbEntity
  8
0
  6
Continuous
 62
     1
100
AcDbLine
 10
128.1201455318
 20
52.6741589879
 30
0.0
 11
129.1474846859
 21
53.701498142
 31
0.0
  0
LINE
  5
2AC
330
244
100
AcDbEntity
  8
0
  6
Continuous
 62
     1
100
AcDbLine
 10
135.3114966674
 20
59.8655101235
 30
0.0
 11
136.8525004822
 21
61.4065139383
 31
0.0
  0
LINE
  5
2AD
330
244
100
AcDbEntity
  8
0
  6
Continuous
 62
     1
100
AcDbLine
 10
119.6825568915
 20
44.8399681342
 30
0.0
 11
121.2235607062
 21
46.380971949
 31
0.0
  0
LINE
  5
2AE
330
244
100
AcDbEntity
  8
0
  6
Continuous
 62
     1
100
AcDbLine
 10
127.3875759653
 20
52.5449872081
 30
0.0
 11
128.4149149098
 21
53.5723261526
 31
0.0
  0
LINE
  5
2AF
330
244
100
AcDbEntity
  8
0
  6
Continuous
 62
     1
100
AcDbLine
 10
134.578927101
 20
59.7363383437
 30
0.0
 11
136.1199309157
 21
61.27734215850001
 31
0.0
  0
LINE
  5
2B0
330
244
100
AcDbEntity
  8
0
  6
Continuous
 62
     1
100
AcDbLine
 10
118.949987325
 20
44.71079635439999
 30
0.0
 11
120.4909911398
 21
46.25180016909999
 31
0.0
  0
LINE
  5
2B1
330
244
100
AcDbEntity
  8
0
  6
Continuous
 62
     1
100
AcDbLine
 10
126.6550063989
 20
52.4158154283
 30
0.0
 11
127.6823451338
 21
53.4431541631
 31
0.0
  0
LINE
  5
2B2
330
244
100
AcDbEntity
  8
0
  6
Continuous
 62
     1
100
AcDbLine
 10
133.8463575346
 20
59.6071665639
 30
0.0
 11
135.3873613493
 21
61.1481703787
 31
0.0
  0
LINE
  5
2B3
330
244
100
AcDbEntity
  8
0
  6
Continuous
 62
     1
100
AcDbLine
 10
118.2174177586
 20
44.5816245746
 30
0.0
 11
119.7584215734
 21
46.1226283893
 31
0.0
  0
LINE
  5
2B4
330
244
100
AcDbEntity
  8
0
  6
Continuous
 62
     1
100
AcDbLine
 10
125.9224368325
 20
52.28664364850001
 30
0.0
 11
126.9497753578
 21
53.3139821737
 31
0.0
  0
LINE
  5
2B5
330
244
100
AcDbEntity
  8
0
  6
Continuous
 62
     1
100
AcDbLine
 10
133.1137879681
 20
59.4779947841
 30
0.0
 11
134.6547917829
 21
61.0189985989
 31
0.0
  0
LINE
  5
2B6
330
244
100
AcDbEntity
  8
0
  6
Continuous
 62
     1
100
AcDbLine
 10
117.6660969861
 20
44.6337015887
 30
0.0
 11
119.025852007
 21
45.9934566095
 31
0.0
  0
LINE
  5
2B7
330
244
100
AcDbEntity
  8
0
  6
Continuous
 62
     1
100
AcDbLine
 10
125.1898672661
 20
52.15747186859999
 30
0.0
 11
126.2172055817
 21
53.1848101843
 31
0.0
  0
LINE
  5
2B8
330
244
100
AcDbEntity
  8
0
  6
Continuous
 62
     1
100
AcDbLine
 10
132.3812184017
 20
59.3488230043
 30
0.0
 11
133.9222222165
 21
60.8898268191
 31
0.0
  0
LINE
  5
2B9
330
244
100
AcDbEntity
  8
0
  6
Continuous
 62
     1
100
AcDbLine
 10
117.5756499322
 20
45.1466523213
 30
0.0
 11
118.6546724197
 21
46.22567480879999
 31
0.0
  0
LINE
  5
2BA
330
244
100
AcDbEntity
  8
0
  6
Continuous
 62
     1
100
AcDbLine
 10
124.4572976997
 20
52.0283000888
 30
0.0
 11
125.4846358057
 21
53.0556381949
 31
0.0
  0
LINE
  5
2BB
330
244
100
AcDbEntity
  8
0
  6
Continuous
 62
     1
100
AcDbLine
 10
131.6486488353
 20
59.2196512245
 30
0.0
 11
133.1896526501
 21
60.7606550392
 31
0.0
  0
LINE
  5
2BC
330
244
100
AcDbEntity
  8
0
  6
Continuous
 62
     1
100
AcDbLine
 10
117.4852028782
 20
45.65960305399999
 30
0.0
 11
118.5642253657
 21
46.7386255415
 31
0.0
  0
LINE
  5
2BD
330
244
100
AcDbEntity
  8
0
  6
Continuous
 62
     1
100
AcDbLine
 10
123.7247281333
 20
51.89912830899999
 30
0.0
 11
124.7520660297
 21
52.9264662055
 31
0.0
  0
LINE
  5
2BE
330
244
100
AcDbEntity
  8
0
  6
Continuous
 62
     1
100
AcDbLine
 10
130.9160792689
 20
59.0904794447
 30
0.0
 11
132.4570830837
 21
60.63148325939999
 31
0.0
  0
LINE
  5
2BF
330
244
100
AcDbEntity
  8
0
  6
Continuous
 62
     1
100
AcDbLine
 10
117.3947558243
 20
46.1725537867
 30
0.0
 11
118.4737783118
 21
47.25157627419999
 31
0.0
  0
LINE
  5
2C0
330
244
100
AcDbEntity
  8
0
  6
Continuous
 62
     1
100
AcDbLine
 10
122.9921585668
 20
51.7699565292
 30
0.0
 11
124.0194962537
 21
52.79729421609999
 31
0.0
  0
LINE
  5
2C1
330
244
100
AcDbEntity
  8
0
  6
Continuous
 62
     1
100
AcDbLine
 10
130.1835097025
 20
58.96130766489999
 30
0.0
 11
131.7245135172
 21
60.5023114796
 31
0.0
  0
LINE
  5
2C2
330
244
100
AcDbEntity
  8
0
  6
Continuous
 62
     1
100
AcDbLine
 10
117.3043087703
 20
46.6855045193
 30
0.0
 11
118.3833312578
 21
47.7645270069
 31
0.0
  0
LINE
  5
2C3
330
244
100
AcDbEntity
  8
0
  6
Continuous
 62
     1
100
AcDbLine
 10
122.2595890004
 20
51.6407847494
 30
0.0
 11
123.2869264776
 21
52.6681222266
 31
0.0
  0
LINE
  5
2C4
330
244
100
AcDbEntity
  8
0
  6
Continuous
 62
     1
100
AcDbLine
 10
129.450940136
 20
58.8321358851
 30
0.0
 11
130.9919439508
 21
60.37313969979999
 31
0.0
  0
LINE
  5
2C5
330
244
100
AcDbEntity
  8
0
  6
Continuous
 62
     1
100
AcDbLine
 10
117.2138617164
 20
47.19845525199999
 30
0.0
 11
118.2928842039
 21
48.2774777395
 31
0.0
  0
LINE
  5
2C6
330
244
100
AcDbEntity
  8
0
  6
Continuous
 62
     1
100
AcDbLine
 10
121.527019434
 20
51.5116129696
 30
0.0
 11
122.5543567016
 21
52.53895023720001
 31
0.0
  0
LINE
  5
2C7
330
244
100
AcDbEntity
  8
0
  6
Continuous
 62
     1
100
AcDbLine
 10
128.7183705696
 20
58.7029641052
 30
0.0
 11
130.2593743844
 21
60.24396792
 31
0.0
  0
LINE
  5
2C8
330
244
100
AcDbEntity
  8
0
  6
Continuous
 62
     1
100
AcDbLine
 10
117.1234146624
 20
47.7114059847
 30
0.0
 11
118.20243715
 21
48.7904284722
 31
0.0
  0
LINE
  5
2C9
330
244
100
AcDbEntity
  8
0
  6
Continuous
 62
     1
100
AcDbLine
 10
120.7944498676
 20
51.3824411898
 30
0.0
 11
121.8217869256
 21
52.40977824779999
 31
0.0
  0
LINE
  5
2CA
330
244
100
AcDbEntity
  8
0
  6
Continuous
 62
     1
100
AcDbLine
 10
127.9858010032
 20
58.5737923254
 30
0.0
 11
129.526804818
 21
60.1147961402
 31
0.0
  0
LINE
  5
2CB
330
244
100
AcDbEntity
  8
0
  6
Continuous
 62
     1
100
AcDbLine
 10
117.0329676085
 20
48.2243567173
 30
0.0
 11
118.111990096
 21
49.3033792049
 31
0.0
  0
LINE
  5
2CC
330
244
100
AcDbEntity
  8
0
  6
Continuous
 62
     1
100
AcDbLine
 10
120.0618803012
 20
51.25326941
 30
0.0
 11
121.0892171495
 21
52.2806062584
 31
0.0
  0
LINE
  5
2CD
330
244
100
AcDbEntity
  8
0
  6
Continuous
 62
     1
100
AcDbLine
 10
127.2532314368
 20
58.44462054560001
 30
0.0
 11
128.7942352516
 21
59.9856243604
 31
0.0
  0
LINE
  5
2CE
330
244
100
AcDbEntity
  8
0
  6
Continuous
 62
     1
100
AcDbLine
 10
116.9425205546
 20
48.73730745
 30
0.0
 11
118.0215430421
 21
49.8163299375
 31
0.0
  0
LINE
  5
2CF
330
244
100
AcDbEntity
  8
0
  6
Continuous
 62
     1
100
AcDbLine
 10
119.3293107347
 20
51.1240976302
 30
0.0
 11
120.3566473735
 21
52.151434269
 31
0.0
  0
LINE
  5
2D0
330
244
100
AcDbEntity
  8
0
  6
Continuous
 62
     1
100
AcDbLine
 10
126.5206618704
 20
58.3154487658
 30
0.0
 11
128.0616656851
 21
59.8564525806
 31
0.0
  0
LINE
  5
2D1
330
244
100
AcDbEntity
  8
0
  6
Continuous
 62
     1
100
AcDbLine
 10
116.8520735006
 20
49.2502581827
 30
0.0
 11
117.9310959881
 21
50.32928067020001
 31
0.0
  0
LINE
  5
2D2
330
244
100
AcDbEntity
  8
0
  6
Continuous
 62
     1
100
AcDbLine
 10
118.5967411683
 20
50.9949258504
 30
0.0
 11
119.6240775975
 21
52.0222622796
 31
0.0
  0
LINE
  5
2D3
330
244
100
AcDbEntity
  8
0
  6
Continuous
 62
     1
100
AcDbLine
 10
125.788092304
 20
58.186276986
 30
0.0
 11
127.3290961187
 21
59.7272808008
 31
0.0
  0
LINE
  5
2D4
330
244
100
AcDbEntity
  8
0
  6
Continuous
 62
     1
100
AcDbLine
 10
116.7616264467
 20
49.7632089153
 30
0.0
 11
117.8406489342
 21
50.84223140289999
 31
0.0
  0
LINE
  5
2D5
330
244
100
AcDbEntity
  8
0
  6
Continuous
 62
     1
100
AcDbLine
 10
117.8641716019
 20
50.8657540706
 30
0.0
 11
118.8915078215
 21
51.89309029010001
 31
0.0
  0
LINE
  5
2D6
330
244
100
AcDbEntity
  8
0
  6
Continuous
 62
     1
100
AcDbLine
 10
125.0555227375
 20
58.05710520619999
 30
0.0
 11
126.5965265523
 21
59.598109021
 31
0.0
  0
LINE
  5
2D7
330
244
100
AcDbEntity
  8
0
  6
Continuous
 62
     1
100
AcDbLine
 10
116.6711793927
 20
50.276159648
 30
0.0
 11
118.1589380454
 21
51.7639183007
 31
0.0
  0
LINE
  5
2D8
330
244
100
AcDbEntity
  8
0
  6
Continuous
 62
     1
100
AcDbLine
 10
124.3229531711
 20
57.9279334264
 30
0.0
 11
125.8639569859
 21
59.46893724119999
 31
0.0
  0
LINE
  5
2D9
330
244
100
AcDbEntity
  8
0
  6
Continuous
 62
     1
100
AcDbLine
 10
116.5807323388
 20
50.7891103807
 30
0.0
 11
117.6597548263
 21
51.8681328682
 31
0.0
  0
LINE
  5
2DA
330
244
100
AcDbEntity
  8
0
  6
Continuous
 62
     1
100
AcDbLine
 10
123.5903836047
 20
57.7987616466
 30
0.0
 11
125.1313874195
 21
59.33976546140001
 31
0.0
  0
LINE
  5
2DB
330
244
100
AcDbEntity
  8
0
  6
Continuous
 62
     1
100
AcDbLine
 10
116.4902852848
 20
51.3020611134
 30
0.0
 11
117.5693077723
 21
52.3810836009
 31
0.0
  0
LINE
  5
2DC
330
244
100
AcDbEntity
  8
0
  6
Continuous
 62
     1
100
AcDbLine
 10
122.8578140383
 20
57.6695898668
 30
0.0
 11
124.3988178531
 21
59.21059368159999
 31
0.0
  0
LINE
  5
2DD
330
244
100
AcDbEntity
  8
0
  6
Continuous
 62
     1
100
AcDbLine
 10
116.3998382309
 20
51.815011846
 30
0.0
 11
117.4788607184
 21
52.8940343335
 31
0.0
  0
LINE
  5
2DE
330
244
100
AcDbEntity
  8
0
  6
Continuous
 62
     1
100
AcDbLine
 10
122.1252444719
 20
57.540418087
 30
0.0
 11
123.6662482866
 21
59.08142190180001
 31
0.0
  0
LINE
  5
2DF
330
244
100
AcDbEntity
  8
0
  6
Continuous
 62
     1
100
AcDbLine
 10
116.3093911769
 20
52.32796257869999
 30
0.0
 11
117.3884136645
 21
53.4069850662
 31
0.0
  0
LINE
  5
2E0
330
244
100
AcDbEntity
  8
0
  6
Continuous
 62
     1
100
AcDbLine
 10
121.3926749054
 20
57.4112463072
 30
0.0
 11
122.9336787202
 21
58.952250122
 31
0.0
  0
LINE
  5
2E1
330
244
100
AcDbEntity
  8
0
  6
Continuous
 62
     1
100
AcDbLine
 10
116.218944123
 20
52.8409133114
 30
0.0
 11
117.2979666105
 21
53.91993579890001
 31
0.0
  0
LINE
  5
2E2
330
244
100
AcDbEntity
  8
0
  6
Continuous
 62
     1
100
AcDbLine
 10
120.660105339
 20
57.2820745274
 30
0.0
 11
122.2011091538
 21
58.8230783422
 31
0.0
  0
LINE
  5
2E3
330
244
100
AcDbEntity
  8
0
  6
Continuous
 62
     1
100
AcDbLine
 10
116.1284970691
 20
53.353864044
 30
0.0
 11
117.2075195566
 21
54.43288653149999
 31
0.0
  0
LINE
  5
2E4
330
244
100
AcDbEntity
  8
0
  6
Continuous
 62
     1
100
AcDbLine
 10
119.9275357726
 20
57.1529027476
 30
0.0
 11
121.4685395874
 21
58.6939065624
 31
0.0
  0
LINE
  5
2E5
330
244
100
AcDbEntity
  8
0
  6
Continuous
 62
     1
100
AcDbLine
 10
116.0380500151
 20
53.8668147767
 30
0.0
 11
117.1170725026
 21
54.9458372642
 31
0.0
  0
LINE
  5
2E6
330
244
100
AcDbEntity
  8
0
  6
Continuous
 62
     1
100
AcDbLine
 10
119.1949662062
 20
57.0237309678
 30
0.0
 11
120.735970021
 21
58.5647347826
 31
0.0
  0
LINE
  5
2E7
330
244
100
AcDbEntity
  8
0
  6
Continuous
 62
     1
100
AcDbLine
 10
115.9476029612
 20
54.3797655094
 30
0.0
 11
117.0266254487
 21
55.45878799689999
 31
0.0
  0
LINE
  5
2E8
330
244
100
AcDbEntity
  8
0
  6
Continuous
 62
     1
100
AcDbLine
 10
118.4623966398
 20
56.894559188
 30
0.0
 11
120.0034004546
 21
58.43556300270001
 31
0.0
  0
LINE
  5
2E9
330
244
100
AcDbEntity
  8
0
  6
Continuous
 62
     1
100
AcDbLine
 10
115.8571559072
 20
54.892716242
 30
0.0
 11
116.9361783947
 21
55.9717387296
 31
0.0
  0
LINE
  5
2EA
330
244
100
AcDbEntity
  8
0
  6
Continuous
 62
     1
100
AcDbLine
 10
117.7298270734
 20
56.76538740819999
 30
0.0
 11
119.2708308881
 21
58.3063912229
 31
0.0
  0
LINE
  5
2EB
330
244
100
AcDbEntity
  8
0
  6
Continuous
 62
     1
100
AcDbLine
 10
115.7667088533
 20
55.4056669747
 30
0.0
 11
116.8457313408
 21
56.4846894622
 31
0.0
  0
LINE
  5
2EC
330
244
100
AcDbEntity
  8
0
  6
Continuous
 62
     1
100
AcDbLine
 10
116.9972575069
 20
56.6362156284
 30
0.0
 11
118.5382613217
 21
58.17721944310001
 31
0.0
  0
LINE
  5
2ED
330
244
100
AcDbEntity
  8
0
  6
Continuous
 62
     1
100
AcDbLine
 10
115.6762617993
 20
55.91861770739999
 30
0.0
 11
117.8056917553
 21
58.0480476633
 31
0.0
  0
LINE
  5
2EE
330
244
100
AcDbEntity
  8
0
  6
Continuous
 62
     1
100
AcDbLine
 10
115.5858147454
 20
56.43156843999999
 30
0.0
 11
117.0731221889
 21
57.9188758835
 31
0.0
  0
LINE
  5
2EF
330
244
100
AcDbEntity
  8
0
  6
Continuous
 62
     1
100
AcDbLine
 10
115.4953676915
 20
56.94451917270001
 30
0.0
 11
116.3405526225
 21
57.7897041037
 31
0.0
  0
LINE
  5
2F0
330
244
100
AcDbEntity
  8
0
  6
Continuous
 62
     1
100
AcDbLine
 10
115.4049206375
 20
57.45746990539999
 30
0.0
 11
115.607983056
 21
57.6605323239
 31
0.0
  0
ENDBLK
  5
2F1
330
244
100
AcDbEntity
  8
0
  6
ByBlock
 62
     0
100
AcDbBlockEnd
  0
BLOCK
  5
2F2
330
245
100
AcDbEntity
  8
0
  6
Continuous
 62
     7
100
AcDbBlockBegin
  2
SYMBOL_0_BL0
 70
     0
 10
160.6601712342
 20
55.33869125399999
 30
0.0
  3
SYMBOL_0_BL0
  1

  0
TEXT
  5
2F3
330
245
100
AcDbEntity
  8
0
  6
Continuous
 62
     7
100
AcDbText
 10
144.4123861581
 20
63.1121246451
 30
0.0
 40
0.5
  1
Infomations Techniques/Technical Infomations
  7
TEXTSTYLE_2
100
AcDbText
  0
TEXT
  5
2F4
330
245
100
AcDbEntity
  8
0
  6
Continuous
 62
     7
100
AcDbText
 10
144.6601712342
 20
61.6720245874
 30
0.0
 40
0.6666666667
  1
NOMBRE DE JETS:     
  7
TEXTSTYLE_2
100
AcDbText
  0
TEXT
  5
2F5
330
245
100
AcDbEntity
  8
0
  6
Continuous
 62
     7
100
AcDbText
 10
154.5046156787
 20
61.6720245874
 30
0.0
 40
0.6666666667
  1
37
  7
TEXTSTYLE_2
100
AcDbText
  0
TEXT
  5
2F6
330
245
100
AcDbEntity
  8
0
  6
Continuous
 62
     7
100
AcDbText
 10
144.6601712342
 20
60.67202458739999
 30
0.0
 40
0.6666666667
  1
 
  7
TEXTSTYLE_2
100
AcDbText
  0
TEXT
  5
2F7
330
245
100
AcDbEntity
  8
0
  6
Continuous
 62
     7
100
AcDbText
 10
144.6601712342
 20
59.6720245874
 30
0.0
 40
0.6666666667
  1
NIVEAU D'EAU              GALLONS(US)        LITRES        GALLONS(UK)
  7
TEXTSTYLE_2
100
AcDbText
  0
TEXT
  5
2F8
330
245
100
AcDbEntity
  8
0
  6
Continuous
 62
     7
100
AcDbText
 10
144.6601712342
 20
58.67202458739999
 30
0.0
 40
0.6666666667
  1
PLEIN
  7
TEXTSTYLE_2
100
AcDbText
  0
TEXT
  5
2F9
330
245
100
AcDbEntity
  8
0
  6
Continuous
 62
     7
100
AcDbText
 10
144.6601712342
 20
57.67202458739999
 30
0.0
 40
0.6666666667
  1
HAUT T.PLEIN
  7
TEXTSTYLE_2
100
AcDbText
  0
TEXT
  5
2FA
330
245
100
AcDbEntity
  8
0
  6
Continuous
 62
     7
100
AcDbText
 10
144.6601712342
 20
56.6720245874
 30
0.0
 40
0.6666666667
  1
MILIEU T.PLEIN
  7
TEXTSTYLE_2
100
AcDbText
  0
TEXT
  5
2FB
330
245
100
AcDbEntity
  8
0
  6
Continuous
 62
     7
100
AcDbText
 10
144.6601712342
 20
55.67202458739999
 30
0.0
 40
0.6666666667
  1
BAS T.PLEIN
  7
TEXTSTYLE_2
100
AcDbText
  0
TEXT
  5
2FC
330
245
100
AcDbEntity
  8
0
  6
Continuous
 62
     7
100
AcDbText
 10
144.6601712342
 20
54.6720245874
 30
0.0
 40
0.6666666667
  1
3" EN BAS T.PLEIN
  7
TEXTSTYLE_2
100
AcDbText
  0
TEXT
  5
2FD
330
245
100
AcDbEntity
  8
0
  6
Continuous
 62
     7
100
AcDbText
 10
144.6601712342
 20
53.67202458739999
 30
0.0
 40
0.6666666667
  1
 
  7
TEXTSTYLE_2
100
AcDbText
  0
TEXT
  5
2FE
330
245
100
AcDbEntity
  8
0
  6
Continuous
 62
     7
100
AcDbText
 10
144.4600097286
 20
53.1252376625
 30
0.0
 40
0.5
  1
Legende/Legend
  7
TEXTSTYLE_2
100
AcDbText
  0
TEXT
  5
2FF
330
245
100
AcDbEntity
  8
0
  6
Continuous
 62
     7
100
AcDbText
 10
150.9888446727
 20
51.6139726849
 30
0.0
 40
0.6666666667
  1
ZONE DE ROBINETTERIE
  7
TEXTSTYLE_2
100
AcDbText
  0
TEXT
  5
300
330
245
100
AcDbEntity
  8
0
  6
Continuous
 62
     7
100
AcDbText
 10
145.9091201057
 20
50.1187281704
 30
0.0
 40
0.6666666667
  1
L   :  SYSTEME LED       DC   :  DOUBLE DOSSIER CHAUFFANT
  7
TEXTSTYLE_2
100
AcDbText
  0
TEXT
  5
301
330
245
100
AcDbEntity
  8
0
  6
Continuous
 62
     7
100
AcDbText
 10
145.9091201057
 20
48.7853948371
 30
0.0
 40
0.6666666667
  1
C   :  CONTROLE
  7
TEXTSTYLE_2
100
AcDbText
  0
TEXT
  5
302
330
245
100
AcDbEntity
  8
0
  6
Continuous
 62
     7
100
AcDbText
 10
145.9091201057
 20
47.4520615038
 30
0.0
 40
0.6666666667
  1
T   :  MOTEUR
  7
TEXTSTYLE_2
100
AcDbText
  0
TEXT
  5
303
330
245
100
AcDbEntity
  8
0
  6
Continuous
 62
     7
100
AcDbText
 10
157.4928679335
 20
58.67202458739999
 30
0.0
 40
0.6666666667
  1
83
  7
TEXTSTYLE_2
100
AcDbText
  0
TEXT
  5
304
330
245
100
AcDbEntity
  8
0
  6
Continuous
 62
     7
100
AcDbText
 10
157.4928679335
 20
57.67202458739999
 30
0.0
 40
0.6666666667
  1
65
  7
TEXTSTYLE_2
100
AcDbText
  0
TEXT
  5
305
330
245
100
AcDbEntity
  8
0
  6
Continuous
 62
     7
100
AcDbText
 10
157.4928679335
 20
56.6720245874
 30
0.0
 40
0.6666666667
  1
64
  7
TEXTSTYLE_2
100
AcDbText
  0
TEXT
  5
306
330
245
100
AcDbEntity
  8
0
  6
Continuous
 62
     7
100
AcDbText
 10
157.4928679335
 20
55.67202458739999
 30
0.0
 40
0.6666666667
  1
63
  7
TEXTSTYLE_2
100
AcDbText
  0
TEXT
  5
307
330
245
100
AcDbEntity
  8
0
  6
Continuous
 62
     7
100
AcDbText
 10
157.4928679335
 20
54.6720245874
 30
0.0
 40
0.6666666667
  1
50
  7
TEXTSTYLE_2
100
AcDbText
  0
TEXT
  5
308
330
245
100
AcDbEntity
  8
0
  6
Continuous
 62
     7
100
AcDbText
 10
164.4130738772
 20
58.68910398949999
 30
0.0
 40
0.6666666667
  1
315
  7
TEXTSTYLE_2
100
AcDbText
  0
TEXT
  5
309
330
245
100
AcDbEntity
  8
0
  6
Continuous
 62
     7
100
AcDbText
 10
164.4130738772
 20
57.6891039895
 30
0.0
 40
0.6666666667
  1
247
  7
TEXTSTYLE_2
100
AcDbText
  0
TEXT
  5
30A
330
245
100
AcDbEntity
  8
0
  6
Continuous
 62
     7
100
AcDbText
 10
164.4130738772
 20
56.6891039895
 30
0.0
 40
0.6666666667
  1
243
  7
TEXTSTYLE_2
100
AcDbText
  0
TEXT
  5
30B
330
245
100
AcDbEntity
  8
0
  6
Continuous
 62
     7
100
AcDbText
 10
164.4130738772
 20
55.68910398949999
 30
0.0
 40
0.6666666667
  1
240
  7
TEXTSTYLE_2
100
AcDbText
  0
TEXT
  5
30C
330
245
100
AcDbEntity
  8
0
  6
Continuous
 62
     7
100
AcDbText
 10
164.4130738772
 20
54.6891039895
 30
0.0
 40
0.6666666667
  1
188
  7
TEXTSTYLE_2
100
AcDbText
  0
TEXT
  5
30D
330
245
100
AcDbEntity
  8
0
  6
Continuous
 62
     7
100
AcDbText
 10
171.3577128147
 20
58.67202458739999
 30
0.0
 40
0.6666666667
  1
69
  7
TEXTSTYLE_2
100
AcDbText
  0
TEXT
  5
30E
330
245
100
AcDbEntity
  8
0
  6
Continuous
 62
     7
100
AcDbText
 10
171.3577128147
 20
57.67202458739999
 30
0.0
 40
0.6666666667
  1
54
  7
TEXTSTYLE_2
100
AcDbText
  0
TEXT
  5
30F
330
245
100
AcDbEntity
  8
0
  6
Continuous
 62
     7
100
AcDbText
 10
171.3577128147
 20
56.6720245874
 30
0.0
 40
0.6666666667
  1
53
  7
TEXTSTYLE_2
100
AcDbText
  0
TEXT
  5
310
330
245
100
AcDbEntity
  8
0
  6
Continuous
 62
     7
100
AcDbText
 10
171.3577128147
 20
55.67202458739999
 30
0.0
 40
0.6666666667
  1
53
  7
TEXTSTYLE_2
100
AcDbText
  0
TEXT
  5
311
330
245
100
AcDbEntity
  8
0
  6
Continuous
 62
     7
100
AcDbText
 10
171.3577128147
 20
54.6720245874
 30
0.0
 40
0.6666666667
  1
41
  7
TEXTSTYLE_2
100
AcDbText
  0
LINE
  5
312
330
245
100
AcDbEntity
  8
0
  6
Continuous
 62
     7
100
AcDbLine
 10
143.9935045675
 20
64.00535792069999
 30
0.0
 11
143.9935045675
 21
46.67202458739999
 31
0.0
  0
LINE
  5
313
330
245
100
AcDbEntity
  8
0
  6
Continuous
 62
     7
100
AcDbLine
 10
143.9935045675
 20
64.00535792069999
 30
0.0
 11
177.3268379009
 21
64.00535792069999
 31
0.0
  0
LINE
  5
314
330
245
100
AcDbEntity
  8
0
  6
Continuous
 62
     7
100
AcDbLine
 10
177.3268379009
 20
64.00535792069999
 30
0.0
 11
177.3268379009
 21
46.67202458739999
 31
0.0
  0
LINE
  5
315
330
245
100
AcDbEntity
  8
0
  6
Continuous
 62
     7
100
AcDbLine
 10
143.9935045675
 20
46.67202458739999
 30
0.0
 11
177.3268379009
 21
46.67202458739999
 31
0.0
  0
LINE
  5
316
330
245
100
AcDbEntity
  8
0
  6
Continuous
 62
     7
100
AcDbLine
 10
145.3268379009
 20
54.0053579207
 30
0.0
 11
175.9935045675
 21
54.0053579207
 31
0.0
  0
LINE
  5
317
330
245
100
AcDbEntity
  8
0
  6
Continuous
 62
     7
100
AcDbLine
 10
145.3268379009
 20
61.0053579207
 30
0.0
 11
175.9935045675
 21
61.0053579207
 31
0.0
  0
LINE
  5
318
330
245
100
AcDbEntity
  8
0
  6
Continuous
 62
     7
100
AcDbLine
 10
144.8024111268
 20
52.3835224251
 30
0.0
 11
144.4333903845
 21
52.0145016827
 31
0.0
  0
LINE
  5
319
330
245
100
AcDbEntity
  8
0
  6
Continuous
 62
     7
100
AcDbLine
 10
145.4690777935
 20
52.3835224251
 30
0.0
 11
144.671062003
 21
51.5855066346
 31
0.0
  0
LINE
  5
31A
330
245
100
AcDbEntity
  8
0
  6
Continuous
 62
     7
100
AcDbLine
 10
146.1357444601
 20
52.3835224251
 30
0.0
 11
145.3377286697
 21
51.5855066346
 31
0.0
  0
LINE
  5
31B
330
245
100
AcDbEntity
  8
0
  6
Continuous
 62
     7
100
AcDbLine
 10
146.8024111268
 20
52.3835224251
 30
0.0
 11
146.0043953364
 21
51.5855066346
 31
0.0
  0
LINE
  5
31C
330
245
100
AcDbEntity
  8
0
  6
Continuous
 62
     7
100
AcDbLine
 10
147.4690777935
 20
52.3835224251
 30
0.0
 11
146.671062003
 21
51.5855066346
 31
0.0
  0
LINE
  5
31D
330
245
100
AcDbEntity
  8
0
  6
Continuous
 62
     7
100
AcDbLine
 10
148.1357444601
 20
52.3835224251
 30
0.0
 11
147.3377286697
 21
51.5855066346
 31
0.0
  0
LINE
  5
31E
330
245
100
AcDbEntity
  8
0
  6
Continuous
 62
     7
100
AcDbLine
 10
148.8024111268
 20
52.3835224251
 30
0.0
 11
148.0043953364
 21
51.5855066346
 31
0.0
  0
LINE
  5
31F
330
245
100
AcDbEntity
  8
0
  6
Continuous
 62
     7
100
AcDbLine
 10
149.4690777935
 20
52.3835224251
 30
0.0
 11
148.671062003
 21
51.5855066346
 31
0.0
  0
LINE
  5
320
330
245
100
AcDbEntity
  8
0
  6
Continuous
 62
     7
100
AcDbLine
 10
150.1357444601
 20
52.3835224251
 30
0.0
 11
149.3377286697
 21
51.5855066346
 31
0.0
  0
LINE
  5
321
330
245
100
AcDbEntity
  8
0
  6
Continuous
 62
     7
100
AcDbLine
 10
150.5792318943
 20
52.1603431925
 30
0.0
 11
150.0043953364
 21
51.5855066346
 31
0.0
  0
ELLIPSE
  5
322
330
245
100
AcDbEntity
  8
0
  6
Continuous
 62
     7
100
AcDbEllipse
 10
146.1389070497
 20
50.4363056276
 30
0.0
 11
1.0473539356
 21
0.0
 31
0.0
210
0.0
220
0.0
230
1.0
 40
0.4938647983
 41
0.0
 42
6.283185307179586
  0
ELLIPSE
  5
323
330
245
100
AcDbEntity
  8
0
  6
Continuous
 62
     7
100
AcDbEllipse
 10
146.1389070497
 20
49.1029722943
 30
0.0
 11
1.0473539356
 21
0.0
 31
0.0
210
0.0
220
0.0
230
1.0
 40
0.4938647983
 41
0.0
 42
6.283185307179586
  0
ELLIPSE
  5
324
330
245
100
AcDbEntity
  8
0
  6
Continuous
 62
     7
100
AcDbEllipse
 10
146.1389070497
 20
47.769638961
 30
0.0
 11
1.0473539356
 21
0.0
 31
0.0
210
0.0
220
0.0
230
1.0
 40
0.4938647983
 41
0.0
 42
6.283185307179586
  0
ELLIPSE
  5
325
330
245
100
AcDbEntity
  8
0
  6
Continuous
 62
     7
100
AcDbEllipse
 10
157.1575426308
 20
50.4558269847
 30
0.0
 11
1.0473539356
 21
0.0
 31
0.0
210
0.0
220
0.0
230
1.0
 40
0.4938647983
 41
0.0
 42
6.283185307179586
  0
ENDBLK
  5
326
330
245
100
AcDbEntity
  8
0
  6
ByBlock
 62
     0
100
AcDbBlockEnd
  0
ENDSEC
  0
SECTION
  2
ENTITIES
  0
LINE
  5
1515
330
229
100
AcDbEntity
  8
0
  6
Continuous
 62
     7
100
AcDbLine
 10
16.1137367261
 20
46.74136862890001
 30
0.0
 11
16.165535778
 21
46.14930275649999
 31
0.0
  0
LWPOLYLINE
  5
1516
330
229
100
AcDbEntity
  8
0
  6
Continuous
 62
     7
100
AcDbPolyline
 90
        7
 70
     0
 43
0.0
 10
24.0117134919
 20
22.2277053858
 10
23.0943421652
 20
25.9114648107
 10
22.2287012877
 20
29.6077223377
 10
21.4149609737
 20
33.3157515848
 10
20.6532811539
 20
37.0348237854
 10
19.943811526
 20
40.7642080051
 10
19.2866915127
 20
44.503171358
  0
LWPOLYLINE
  5
1518
330
229
100
AcDbEntity
  8
0
  6
Continuous
 62
     7
100
AcDbPolyline
 90
        4
 70
     0
 43
0.0
 10
24.4550992988
 20
21.9459422566
 10
24.4842738433
 20
21.9459672739
 10
24.5679709816
 20
21.9460441661
 10
24.6752013358
 20
21.946146226
  0
LWPOLYLINE
  5
1519
330
229
100
AcDbEntity
  8
0
  6
Continuous
 62
     7
100
AcDbPolyline
 90
       24
 70
     0
 43
0.0
 10
24.6752013358
 20
21.946146226
 10
26.487678414
 20
21.9477373643
 10
26.8597075276
 20
21.948007929
 10
27.2704106337
 20
21.9482839786
 10
27.7224362766
 20
21.9485633546
 10
28.2194809059
 20
21.9488426183
 10
28.765190335
 20
21.9491186697
 10
29.3608146088
 20
21.949388857
 10
30.0061855482
 20
21.9496483204
 10
30.70180633670001
 20
21.9498949716
 10
31.4493997734
 20
21.9501276771
 10
32.2508003371
 20
21.9503444407
 10
33.1066039433
 20
21.9505433538
 10
34.0147601533
 20
21.9507220909
 10
34.9727607658
 20
21.9508828827
 10
35.9785103762
 20
21.9510276208
 10
37.0304048191
 20
21.9511546355
 10
38.12684961969999
 20
21.9512606783
 10
39.2662459349
 20
21.9513480352
 10
40.4473131676
 20
21.9514191994
 10
41.6717155561
 20
21.9514742973
 10
42.9427555519
 20
21.9515132399
 10
44.26379074209999
 20
21.9515386859
 10
54.56614828180001
 20
21.95155188
  0
LWPOLYLINE
  5
151A
330
229
100
AcDbEntity
  8
0
  6
Continuous
 62
     7
100
AcDbPolyline
 90
        4
 70
     0
 43
0.0
 10
54.56614828180001
 20
21.95155188
 10
55.9404337556
 20
21.9515386783
 10
57.2613914056
 20
21.9515132288
 10
58.5323589014
 20
21.9514742835
  0
LWPOLYLINE
  5
151B
330
229
100
AcDbEntity
  8
0
  6
Continuous
 62
     7
100
AcDbPolyline
 90
       18
 70
     0
 43
0.0
 10
58.5323589014
 20
21.9514742835
 10
60.93769588699999
 20
21.9513480184
 10
62.07703284529999
 20
21.9512606624
 10
63.1734242141
 20
21.9511546187
 10
64.2252713346
 20
21.951027609
 10
65.2309799236
 20
21.9508828754
 10
66.1889461175
 20
21.9507220888
 10
67.0970756022
 20
21.9505433573
 10
67.9528604491
 20
21.9503444497
 10
68.75424909180001
 20
21.9501276901
 10
69.5018343389
 20
21.9498949901
 10
70.19744993239999
 20
21.9496483432
 10
70.8428187242
 20
21.9493888828
 10
71.43844581199999
 20
21.9491186979
 10
71.98416277619999
 20
21.9488426448
 10
72.48121556520001
 20
21.948563381
 10
72.93324721239999
 20
21.9482840026
 10
73.34395344649999
 20
21.9480079529
  0
LWPOLYLINE
  5
151C
330
229
100
AcDbEntity
  8
0
  6
Continuous
 62
     7
100
AcDbPolyline
 90
        4
 70
     0
 43
0.0
 10
73.34395344649999
 20
21.9480079529
 10
74.0510442257
 20
21.9474757389
 10
74.3508453556
 20
21.9472279201
 10
74.61746355609999
 20
21.9469971664
  0
LINE
  5
151D
330
229
100
AcDbEntity
  8
0
  6
Continuous
 62
     7
100
AcDbLine
 10
75.7194227352
 20
21.9459672737
 30
0.0
 11
75.7485957024
 21
21.9459422572
 31
0.0
  0
LINE
  5
151E
330
229
100
AcDbEntity
  8
0
  6
Continuous
 62
     7
100
AcDbLine
 10
75.7485957024
 20
21.9459422572
 30
0.0
 11
75.82830896199999
 21
21.945873069
 31
0.0
  0
LWPOLYLINE
  5
151F
330
229
100
AcDbEntity
  8
0
  6
Continuous
 62
     7
100
AcDbPolyline
 90
        6
 70
     0
 43
0.0
 10
74.61746355609999
 20
21.9469971664
 10
75.0608923874
 20
21.9465896344
 10
75.24180768749999
 20
21.9464191738
 10
75.397391826
 20
21.9462716099
 10
75.5284966696
 20
21.9461462237
 10
75.7194227352
 20
21.9459672737
  0
LINE
  5
1520
330
229
100
AcDbEntity
  8
0
  6
Continuous
 62
     7
100
AcDbLine
 10
24.4550992988
 20
21.9459422566
 30
0.0
 11
24.3724517924
 21
21.9458811808
 31
0.0
  0
LINE
  5
1521
330
229
100
AcDbEntity
  8
0
  6
Continuous
 62
     7
100
AcDbLine
 10
19.1413909973
 20
44.69021538069999
 30
0.0
 11
16.3133617466
 21
45.94250046169999
 31
0.0
  0
LINE
  5
1522
330
229
100
AcDbEntity
  8
0
  6
Continuous
 62
     7
100
AcDbLine
 10
81.06230380120001
 20
44.69021529089999
 30
0.0
 11
83.8903332808
 21
45.9425004732
 31
0.0
  0
LINE
  5
1523
330
229
100
AcDbEntity
  8
0
  6
Continuous
 62
     7
100
AcDbLine
 10
19.1413909973
 20
44.69021538069999
 30
0.0
 11
19.2517082596
 21
44.69496653149999
 31
0.0
  0
LWPOLYLINE
  5
1524
330
229
100
AcDbEntity
  8
0
  6
Continuous
 62
     7
100
AcDbPolyline
 90
       40
 70
     0
 43
0.0
 10
19.2517082596
 20
44.69496653149999
 10
19.4452291251
 20
44.7032411264
 10
19.5780115927
 20
44.7088867276
 10
19.7353697684
 20
44.71554810189999
 10
19.9180212432
 20
44.7232435588
 10
20.1269376096
 20
44.73200013729999
 10
20.3633621916
 20
44.74185388569999
 10
20.6288335057
 20
44.7528502868
 10
20.9247265293
 20
44.76502480729999
 10
21.2522731389
 20
44.77840369009999
 10
21.6133298802
 20
44.7930349276
 10
22.0103290107
 20
44.8089849581
 10
22.4459998089
 20
44.8263260906
 10
22.9234390682
 20
44.84513801479999
 10
23.4460962613
 20
44.86550557109999
 10
24.0177335618
 20
44.88751526589999
 10
24.6424697143
 20
44.9112546581
 10
25.3248862672
 20
44.9368134129
 10
26.0700042744
 20
44.96427855119999
 10
26.8831947664
 20
44.99372645979999
 10
27.7701368858
 20
45.0252157459
 10
28.7366593976
 20
45.05877477520001
 10
29.7887270369
 20
45.09439293989999
 10
30.9322510822
 20
45.1320038822
 10
32.1668354515
 20
45.17127722529999
 10
33.4791754588
 20
45.21144399399999
 10
34.858526609
 20
45.2518174134
 10
36.3024344295
 20
45.2919325002
 10
37.8019850798
 20
45.33110257789999
 10
39.3437928786
 20
45.36851269189999
 10
40.9135364971
 20
45.4033370314
 10
42.4622960695
 20
45.4341266406
 10
43.8737474827
 20
45.458744841
 10
45.1093598359
 20
45.4772838658
 10
46.20138784549999
 20
45.49105466119999
 10
47.17055685720001
 20
45.50098864999999
 10
48.0300035833
 20
45.5077991902
 10
48.7949113213
 20
45.5121101891
 10
49.48045362
 20
45.51442642869999
 10
50.10184750069999
 20
45.5151330257
  0
LWPOLYLINE
  5
1525
330
229
100
AcDbEntity
  8
0
  6
Continuous
 62
     7
100
AcDbPolyline
 90
       10
 70
     0
 43
0.0
 10
38.0626639096
 20
45.94757745999999
 10
35.03610269900001
 20
45.94641060879999
 10
33.6130546039
 20
45.945870283
 10
32.2527182742
 20
45.9453742257
 10
30.9581873931
 20
45.94492937819999
 10
29.7353024797
 20
45.94454131729999
 10
28.5896091657
 20
45.94421132159999
 10
27.5220749698
 20
45.9439351646
 10
26.5294168997
 20
45.9437053455
 10
25.6069933213
 20
45.9435144154
  0
LINE
  5
1526
330
229
100
AcDbEntity
  8
0
  6
Continuous
 62
     7
100
AcDbLine
 10
16.372411478
 20
45.9425189834
 30
0.0
 11
16.3133617466
 21
45.94250046169999
 31
0.0
  0
LWPOLYLINE
  5
1527
330
229
100
AcDbEntity
  8
0
  6
Continuous
 62
     7
100
AcDbPolyline
 90
        6
 70
     0
 43
0.0
 10
17.9580474931
 20
45.9426198039
 10
17.4255227671
 20
45.9426065495
 10
17.1984184931
 20
45.9425996976
 10
16.9967511067
 20
45.94259142819999
 10
16.8203080119
 20
45.94258114359999
 10
16.372411478
 20
45.9425189834
  0
LINE
  5
1528
330
229
100
AcDbEntity
  8
0
  6
Continuous
 62
     7
100
AcDbLine
 10
82.32679684409999
 20
45.94261757069999
 30
0.0
 11
82.0211109549
 21
45.94262613899999
 31
0.0
  0
LWPOLYLINE
  5
1529
330
229
100
AcDbEntity
  8
0
  6
Continuous
 62
     7
100
AcDbPolyline
 90
        3
 70
     0
 43
0.0
 10
83.06772029680001
 20
45.9425972805
 10
82.8489580869
 20
45.94260446609999
 10
82.32679684409999
 20
45.94261757069999
  0
LWPOLYLINE
  5
152A
330
229
100
AcDbEntity
  8
0
  6
Continuous
 62
     7
100
AcDbPolyline
 90
       10
 70
     0
 43
0.0
 10
25.6069933213
 20
45.9435144154
 10
21.3096669116
 20
45.9428656643
 10
20.7649216461
 20
45.94280701109999
 10
20.2606908255
 20
45.94275776569999
 10
19.7943774578
 20
45.9427173425
 10
19.3636355773
 20
45.94268530149999
 10
18.9663674436
 20
45.94266071569999
 10
18.6007135618
 20
45.9426422667
 10
18.2650675379
 20
45.9426289883
 10
17.9580474931
 20
45.9426198039
  0
LWPOLYLINE
  5
152B
330
229
100
AcDbEntity
  8
0
  6
Continuous
 62
     7
100
AcDbPolyline
 90
        8
 70
     0
 43
0.0
 10
50.10184750069999
 20
45.9502365235
 10
48.2884009676
 20
45.9501750208
 10
46.50161603879999
 20
45.949984215
 10
44.7371152124
 20
45.9496669675
 10
43.0037193876
 20
45.9492406
 10
41.3093315574
 20
45.9487311543
 10
39.660509717
 20
45.9481676133
 10
38.0626639096
 20
45.94757745999999
  0
LINE
  5
152C
330
229
100
AcDbEntity
  8
0
  6
Continuous
 62
     7
100
AcDbLine
 10
83.9654339381
 20
46.8772630968
 30
0.0
 11
16.2382610634
 21
46.8772630968
 31
0.0
  0
LWPOLYLINE
  5
152D
330
229
100
AcDbEntity
  8
0
  6
Continuous
 62
     7
100
AcDbPolyline
 90
       21
 70
     0
 43
0.0
 10
82.0211109549
 20
45.94262613899999
 10
81.31446747060001
 20
45.9426563747
 10
80.9098001413
 20
45.9426805437
 10
80.46781338770001
 20
45.9427126046
 10
79.9858293453
 20
45.9427537885
 10
79.46085002930001
 20
45.9428047328
 10
78.88953322829999
 20
45.9428661917
 10
78.26819889859999
 20
45.9429395734
 10
77.59283633359999
 20
45.9430266685
 10
76.85911663189999
 20
45.94312976979999
 10
76.0624377691
 20
45.9432529249
 10
75.19788678640001
 20
45.9434014142
 10
74.26021917869999
 20
45.9435817787
 10
73.2440120934
 20
45.94380201999999
 10
72.14351585
 20
45.94407079879999
 10
70.9552022348
 20
45.9443971314
 10
69.6864908922
 20
45.9447856704
 10
68.3481633389
 20
45.94523464479999
 10
66.94248832550001
 20
45.9457398359
 10
65.47097701770001
 20
45.94629422699999
 10
62.3418940131
 20
45.94750124509999
  0
LWPOLYLINE
  5
152E
330
229
100
AcDbEntity
  8
0
  6
Continuous
 62
     7
100
AcDbPolyline
 90
        4
 70
     0
 43
0.0
 10
83.68173222939999
 20
45.9425484741
 10
83.5662741308
 20
45.94256428939999
 10
83.42570167439999
 20
45.9425778677
 10
83.06772029680001
 20
45.9425972805
  0
LWPOLYLINE
  5
152F
330
229
100
AcDbEntity
  8
0
  6
Continuous
 62
     7
100
AcDbPolyline
 90
        8
 70
     0
 43
0.0
 10
62.3418940131
 20
45.94750124509999
 10
60.6927620013
 20
45.9481139543
 10
58.996144811
 20
45.94869812219999
 10
57.2635362185
 20
45.94922303819999
 10
55.506239274
 20
45.94965844079999
 10
53.7194693508
 20
45.9499817121
 10
51.91314154
 20
45.9501751718
 10
50.10184750069999
 20
45.9502365235
  0
LWPOLYLINE
  5
1530
330
229
100
AcDbEntity
  8
0
  6
Continuous
 62
     7
100
AcDbPolyline
 90
        4
 70
     0
 43
0.0
 10
83.8903332808
 20
45.9425004732
 10
83.8769561558
 20
45.9425055551
 10
83.83736307380001
 20
45.9425173905
 10
83.68173222939999
 20
45.9425484741
  0
LWPOLYLINE
  5
1531
330
229
100
AcDbEntity
  8
0
  6
Continuous
 62
     7
100
AcDbPolyline
 90
       39
 70
     0
 43
0.0
 10
50.10184750069999
 20
45.5151330257
 10
51.26962541010001
 20
45.51270357659999
 10
52.4707893047
 20
45.5056700731
 10
53.8484220517
 20
45.4927818713
 10
55.3712175971
 20
45.4733910302
 10
56.9572683896
 20
45.44823310229999
 10
58.5340559906
 20
45.41883530949999
 10
60.0785420779
 20
45.38627846909999
 10
61.58107806060001
 20
45.3513913716
 10
63.0337487076
 20
45.3149144294
 10
64.43098117879999
 20
45.2774796009
 10
65.7687400033
 20
45.23962669409999
 10
67.0420059833
 20
45.2018798022
 10
68.2425850809
 20
45.1648308829
 10
69.363805199
 20
45.1290092575
 10
70.40539863959999
 20
45.094712213
 10
71.3712543683
 20
45.062056813
 10
72.2660451601
 20
45.0310885609
 10
73.0944296159
 20
45.00181505739999
 10
73.86102250499999
 20
44.9742137649
 10
74.5701830489
 20
44.94824519109999
 10
75.22597362029999
 20
44.9238592976
 10
75.8322042971
 20
44.9009978177
 10
76.39238645129999
 20
44.8795991816
 10
76.9097160829
 20
44.85960183249999
 10
77.3871367215
 20
44.84094398399999
 10
77.8273629295
 20
44.8235644082
 10
78.2328464225
 20
44.8074051842
 10
78.6057706726
 20
44.7924131398
 10
78.9480658824
 20
44.77854028369999
 10
79.2614165216
 20
44.7657443543
 10
79.54726974329999
 20
44.7539891922
 10
79.80684089100001
 20
44.74324511619999
 10
80.04112112060001
 20
44.7334891172
 10
80.25087814469999
 20
44.7247052631
 10
80.436655959
 20
44.71688508869999
 10
80.5987760812
 20
44.71002787819999
 10
80.73733620369999
 20
44.7041410197
 10
80.85216342189999
 20
44.69924227699999
  0
LINE
  5
1532
330
229
100
AcDbEntity
  8
0
  6
Continuous
 62
     7
100
AcDbLine
 10
80.85216342189999
 20
44.69924227699999
 30
0.0
 11
81.0085511639
 21
44.69253478569999
 31
0.0
  0
LINE
  5
1533
330
229
100
AcDbEntity
  8
0
  6
Continuous
 62
     7
100
AcDbLine
 10
81.0085511639
 20
44.69253478569999
 30
0.0
 11
81.06230380120001
 21
44.69021529089999
 31
0.0
  0
LWPOLYLINE
  5
1534
330
229
100
AcDbEntity
  8
0
  6
Continuous
 62
     7
100
AcDbPolyline
 90
        7
 70
     0
 43
0.0
 10
76.19198150959999
 20
22.2277053858
 10
77.1093528352
 20
25.9114648062
 10
77.97499371169999
 20
29.6077223287
 10
78.7887340249
 20
33.3157515711
 10
79.55041384399999
 20
37.0348237672
 10
80.25988347130001
 20
40.7642079823
 10
80.91700348419999
 20
44.5031713306
  0
LINE
  5
1535
330
229
100
AcDbEntity
  8
0
  6
Continuous
 62
     7
100
AcDbLine
 10
84.0899582754
 20
46.74136862890001
 30
0.0
 11
84.0381592241
 21
46.14930276419999
 31
0.0
  0
ARC
  5
15B4
330
229
100
AcDbEntity
  8
0
  6
Continuous
 62
     7
100
AcDbCircle
 10
75.82873939809999
 20
22.3208728219
 30
0.0
 40
0.375
100
AcDbArc
 50
269.93423326
 51
345.6143972661
  0
ARC
  5
15B5
330
229
100
AcDbEntity
  8
0
  6
Continuous
 62
     7
100
AcDbCircle
 10
24.3749556016
 20
22.320872822
 30
0.0
 40
0.375
100
AcDbArc
 50
194.3856028058
 51
269.6174433001
  0
ARC
  5
15B6
330
229
100
AcDbEntity
  8
0
  6
Continuous
 62
     7
100
AcDbCircle
 10
83.7891103481
 20
46.1710917213
 30
0.0
 40
0.249999999
100
AcDbArc
 50
293.8843339692
 51
354.9999989683
  0
ARC
  5
15B7
330
229
100
AcDbEntity
  8
0
  6
Continuous
 62
     7
100
AcDbCircle
 10
16.4145846839
 20
46.1710917203
 30
0.0
 40
0.2499999982999999
100
AcDbArc
 50
185.000001983
 51
246.1156660302
  0
ARC
  5
15B8
330
229
100
AcDbEntity
  8
0
  6
Continuous
 62
     7
100
AcDbCircle
 10
19.0401681147
 20
44.4616242513
 30
0.0
 40
0.2499999976
100
AcDbArc
 50
9.566283613699999
 51
66.115665553
  0
ARC
  5
15B9
330
229
100
AcDbEntity
  8
0
  6
Continuous
 62
     7
100
AcDbCircle
 10
81.16352664819999
 20
44.4616242633
 30
0.0
 40
0.2499999883
100
AcDbArc
 50
113.884336412
 51
170.4337163805
  0
ARC
  5
15BA
330
229
100
AcDbEntity
  8
0
  6
Continuous
 62
     7
100
AcDbCircle
 10
16.2382610634
 20
46.7522630968
 30
0.0
 40
0.125
100
AcDbArc
 50
90.0
 51
184.9996777061
  0
ARC
  5
15BB
330
229
100
AcDbEntity
  8
0
  6
Continuous
 62
     7
100
AcDbCircle
 10
83.9654339381
 20
46.7522630968
 30
0.0
 40
0.125
100
AcDbArc
 50
355.0000874659
 51
90.0
  0
ENDSEC
  0
SECTION
  2
OBJECTS
  0
DICTIONARY
  5
C
330
0
100
AcDbDictionary
281
     1
  3
ACAD_COLOR
350
15F7
  3
ACAD_GROUP
350
D
  3
ACAD_LAYOUT
350
1A
  3
ACAD_MATERIAL
350
15CA
  3
ACAD_MLEADERSTYLE
350
161C
  3
ACAD_MLINESTYLE
350
17
  3
ACAD_PLOTSETTINGS
350
19
  3
ACAD_PLOTSTYLENAME
350
E
  3
ACAD_SCALELIST
350
15FA
  3
ACAD_TABLESTYLE
350
15F8
  3
ACAD_VISUALSTYLE
350
15E3
  3
ACDB_RECOMPOSE_DATA
350
1622
  3
AcDbVariableDictionary
350
1654
  0
DICTIONARY
  5
1623
330
8
100
AcDbDictionary
280
     1
281
     1
  0
DICTIONARY
  5
1663
330
10
100
AcDbDictionary
280
     1
281
     1
  3
ADSK_XREC_LAYER_RECONCILED
360
1664
  0
DICTIONARY
  5
1665
330
1FA
100
AcDbDictionary
280
     1
281
     1
  3
ADSK_XREC_LAYER_RECONCILED
360
1666
  0
DICTIONARY
  5
1667
330
1FB
100
AcDbDictionary
280
     1
281
     1
  3
ADSK_XREC_LAYER_RECONCILED
360
1668
  0
DICTIONARY
  5
1669
330
1FC
100
AcDbDictionary
280
     1
281
     1
  3
ADSK_XREC_LAYER_RECONCILED
360
166A
  0
DICTIONARY
  5
166B
330
1FD
100
AcDbDictionary
280
     1
281
     1
  3
ADSK_XREC_LAYER_RECONCILED
360
166C
  0
DICTIONARY
  5
166D
330
1FE
100
AcDbDictionary
280
     1
281
     1
  3
ADSK_XREC_LAYER_RECONCILED
360
166E
  0
DICTIONARY
  5
166F
330
1FF
100
AcDbDictionary
280
     1
281
     1
  3
ADSK_XREC_LAYER_RECONCILED
360
1670
  0
DICTIONARY
  5
1671
330
200
100
AcDbDictionary
280
     1
281
     1
  3
ADSK_XREC_LAYER_RECONCILED
360
1672
  0
DICTIONARY
  5
1673
330
201
100
AcDbDictionary
280
     1
281
     1
  3
ADSK_XREC_LAYER_RECONCILED
360
1674
  0
DICTIONARY
  5
1675
330
202
100
AcDbDictionary
280
     1
281
     1
  3
ADSK_XREC_LAYER_RECONCILED
360
1676
  0
DICTIONARY
  5
1677
330
203
100
AcDbDictionary
280
     1
281
     1
  3
ADSK_XREC_LAYER_RECONCILED
360
1678
  0
DICTIONARY
  5
1679
330
204
100
AcDbDictionary
280
     1
281
     1
  3
ADSK_XREC_LAYER_RECONCILED
360
167A
  0
DICTIONARY
  5
167B
330
205
100
AcDbDictionary
280
     1
281
     1
  3
ADSK_XREC_LAYER_RECONCILED
360
167C
  0
DICTIONARY
  5
167D
330
206
100
AcDbDictionary
280
     1
281
     1
  3
ADSK_XREC_LAYER_RECONCILED
360
167E
  0
DICTIONARY
  5
167F
330
207
100
AcDbDictionary
280
     1
281
     1
  3
ADSK_XREC_LAYER_RECONCILED
360
1680
  0
DICTIONARY
  5
1681
330
208
100
AcDbDictionary
280
     1
281
     1
  3
ADSK_XREC_LAYER_RECONCILED
360
1682
  0
DICTIONARY
  5
1683
330
209
100
AcDbDictionary
280
     1
281
     1
  3
ADSK_XREC_LAYER_RECONCILED
360
1684
  0
DICTIONARY
  5
1685
330
20A
100
AcDbDictionary
280
     1
281
     1
  3
ADSK_XREC_LAYER_RECONCILED
360
1686
  0
DICTIONARY
  5
1687
330
20B
100
AcDbDictionary
280
     1
281
     1
  3
ADSK_XREC_LAYER_RECONCILED
360
1688
  0
DICTIONARY
  5
1689
330
20C
100
AcDbDictionary
280
     1
281
     1
  3
ADSK_XREC_LAYER_RECONCILED
360
168A
  0
DICTIONARY
  5
168B
330
20D
100
AcDbDictionary
280
     1
281
     1
  3
ADSK_XREC_LAYER_RECONCILED
360
168C
  0
DICTIONARY
  5
168D
330
20E
100
AcDbDictionary
280
     1
281
     1
  3
ADSK_XREC_LAYER_RECONCILED
360
168E
  0
DICTIONARY
  5
168F
330
20F
100
AcDbDictionary
280
     1
281
     1
  3
ADSK_XREC_LAYER_RECONCILED
360
1690
  0
DICTIONARY
  5
1691
330
210
100
AcDbDictionary
280
     1
281
     1
  3
ADSK_XREC_LAYER_RECONCILED
360
1692
  0
DICTIONARY
  5
1693
330
211
100
AcDbDictionary
280
     1
281
     1
  3
ADSK_XREC_LAYER_RECONCILED
360
1694
  0
DICTIONARY
  5
1695
330
212
100
AcDbDictionary
280
     1
281
     1
  3
ADSK_XREC_LAYER_RECONCILED
360
1696
  0
DICTIONARY
  5
1697
330
213
100
AcDbDictionary
280
     1
281
     1
  3
ADSK_XREC_LAYER_RECONCILED
360
1698
  0
DICTIONARY
  5
1699
330
214
100
AcDbDictionary
280
     1
281
     1
  3
ADSK_XREC_LAYER_RECONCILED
360
169A
  0
DICTIONARY
  5
169B
330
215
100
AcDbDictionary
280
     1
281
     1
  3
ADSK_XREC_LAYER_RECONCILED
360
169C
  0
DICTIONARY
  5
169D
330
216
100
AcDbDictionary
280
     1
281
     1
  3
ADSK_XREC_LAYER_RECONCILED
360
169E
  0
DICTIONARY
  5
169F
330
217
100
AcDbDictionary
280
     1
281
     1
  3
ADSK_XREC_LAYER_RECONCILED
360
16A0
  0
DICTIONARY
  5
16A1
330
218
100
AcDbDictionary
280
     1
281
     1
  3
ADSK_XREC_LAYER_RECONCILED
360
16A2
  0
DICTIONARY
  5
16A3
330
219
100
AcDbDictionary
280
     1
281
     1
  3
ADSK_XREC_LAYER_RECONCILED
360
16A4
  0
DICTIONARY
  5
16A5
330
21A
100
AcDbDictionary
280
     1
281
     1
  3
ADSK_XREC_LAYER_RECONCILED
360
16A6
  0
DICTIONARY
  5
16A7
330
21B
100
AcDbDictionary
280
     1
281
     1
  3
ADSK_XREC_LAYER_RECONCILED
360
16A8
  0
DICTIONARY
  5
16A9
330
21C
100
AcDbDictionary
280
     1
281
     1
  3
ADSK_XREC_LAYER_RECONCILED
360
16AA
  0
DICTIONARY
  5
16AB
330
21D
100
AcDbDictionary
280
     1
281
     1
  3
ADSK_XREC_LAYER_RECONCILED
360
16AC
  0
DICTIONARY
  5
16AD
330
21E
100
AcDbDictionary
280
     1
281
     1
  3
ADSK_XREC_LAYER_RECONCILED
360
16AE
  0
DICTIONARY
  5
16AF
330
21F
100
AcDbDictionary
280
     1
281
     1
  3
ADSK_XREC_LAYER_RECONCILED
360
16B0
  0
DICTIONARY
  5
16B1
330
220
100
AcDbDictionary
280
     1
281
     1
  3
ADSK_XREC_LAYER_RECONCILED
360
16B2
  0
DICTIONARY
  5
15F7
102
{ACAD_REACTORS
330
C
102
}
330
C
100
AcDbDictionary
281
     1
  0
DICTIONARY
  5
D
102
{ACAD_REACTORS
330
C
102
}
330
C
100
AcDbDictionary
281
     1
  0
DICTIONARY
  5
1A
102
{ACAD_REACTORS
330
C
102
}
330
C
100
AcDbDictionary
281
     1
  3
Layout1
350
15C6
  3
Model
350
15C5
  0
DICTIONARY
  5
15CA
102
{ACAD_REACTORS
330
C
102
}
330
C
100
AcDbDictionary
281
     1
  3
ByBlock
350
15D3
  3
ByLayer
350
15CB
  3
Global
350
15DB
  0
DICTIONARY
  5
161C
102
{ACAD_REACTORS
330
C
102
}
330
C
100
AcDbDictionary
281
     1
  3
Standard
350
161D
  0
DICTIONARY
  5
17
102
{ACAD_REACTORS
330
C
102
}
330
C
100
AcDbDictionary
281
     1
  3
Standard
350
18
  0
DICTIONARY
  5
19
102
{ACAD_REACTORS
330
C
102
}
330
C
100
AcDbDictionary
281
     1
  0
ACDBDICTIONARYWDFLT
  5
E
102
{ACAD_REACTORS
330
C
102
}
330
C
100
AcDbDictionary
281
     1
  3
Normal
350
F
100
AcDbDictionaryWithDefault
340
F
  0
DICTIONARY
  5
15FA
102
{ACAD_REACTORS
330
C
102
}
330
C
100
AcDbDictionary
281
     1
  3
A0
350
15FB
  3
A1
350
15FC
  3
A2
350
15FD
  3
A3
350
15FE
  3
A4
350
15FF
  3
A5
350
1600
  3
A6
350
1601
  3
A7
350
1602
  3
A8
350
1603
  3
A9
350
1604
  3
B0
350
1605
  3
B1
350
1606
  3
B2
350
1607
  3
B3
350
1608
  3
B4
350
1609
  3
B5
350
160A
  3
B6
350
160B
  3
B7
350
160C
  3
B8
350
160D
  3
B9
350
160E
  3
C0
350
160F
  3
C1
350
1610
  3
C2
350
1611
  3
C3
350
1612
  3
C4
350
1613
  3
C5
350
1614
  3
C6
350
1615
  3
C7
350
1616
  3
C8
350
1617
  3
C9
350
1618
  3
D0
350
1619
  3
D1
350
161A
  3
D2
350
161B
  0
DICTIONARY
  5
15F8
102
{ACAD_REACTORS
330
C
102
}
330
C
100
AcDbDictionary
281
     1
  3
Standard
350
15F9
  0
DICTIONARY
  5
15E3
102
{ACAD_REACTORS
330
C
102
}
330
C
100
AcDbDictionary
281
     1
  3
2dWireframe
350
15E9
  3
3D Hidden
350
15EB
  3
3dWireframe
350
15EA
  3
Basic
350
15E8
  3
Brighten
350
15EF
  3
ColorChange
350
15F3
  3
Conceptual
350
15EC
  3
Dim
350
15EE
  3
EdgeColorOff
350
15F6
  3
Facepattern
350
15F2
  3
Flat
350
15E4
  3
FlatWithEdges
350
15E5
  3
Gouraud
350
15E6
  3
GouraudWithEdges
350
15E7
  3
JitterOff
350
15F4
  3
Linepattern
350
15F1
  3
OverhangOff
350
15F5
  3
Realistic
350
15ED
  3
Thicken
350
15F0
  0
XRECORD
  5
1622
102
{ACAD_REACTORS
330
C
102
}
330
C
100
AcDbXrecord
280
     1
 90
        1
330
15F9
  0
DICTIONARY
  5
1654
102
{ACAD_REACTORS
330
C
102
}
330
C
100
AcDbDictionary
281
     1
  3
CANNOSCALE
350
1657
  3
CMLEADERSTYLE
350
1656
  3
CTABLESTYLE
350
1655
  3
DIMASSOC
350
165A
  3
INDEXCTL
350
1659
  3
LAYEREVAL
350
16BB
  3
LAYERNOTIFY
350
16BC
  3
LIGHTINGUNITS
350
16BA
  3
MSLTSCALE
350
16B9
  3
SORTENTS
350
1658
  3
XCLIPFRAME
350
165B
  0
XRECORD
  5
1664
102
{ACAD_REACTORS
330
1663
102
}
330
1663
100
AcDbXrecord
280
     1
290
     1
  0
XRECORD
  5
1666
102
{ACAD_REACTORS
330
1665
102
}
330
1665
100
AcDbXrecord
280
     1
290
     1
  0
XRECORD
  5
1668
102
{ACAD_REACTORS
330
1667
102
}
330
1667
100
AcDbXrecord
280
     1
290
     1
  0
XRECORD
  5
166A
102
{ACAD_REACTORS
330
1669
102
}
330
1669
100
AcDbXrecord
280
     1
290
     1
  0
XRECORD
  5
166C
102
{ACAD_REACTORS
330
166B
102
}
330
166B
100
AcDbXrecord
280
     1
290
     1
  0
XRECORD
  5
166E
102
{ACAD_REACTORS
330
166D
102
}
330
166D
100
AcDbXrecord
280
     1
290
     1
  0
XRECORD
  5
1670
102
{ACAD_REACTORS
330
166F
102
}
330
166F
100
AcDbXrecord
280
     1
290
     1
  0
XRECORD
  5
1672
102
{ACAD_REACTORS
330
1671
102
}
330
1671
100
AcDbXrecord
280
     1
290
     1
  0
XRECORD
  5
1674
102
{ACAD_REACTORS
330
1673
102
}
330
1673
100
AcDbXrecord
280
     1
290
     1
  0
XRECORD
  5
1676
102
{ACAD_REACTORS
330
1675
102
}
330
1675
100
AcDbXrecord
280
     1
290
     1
  0
XRECORD
  5
1678
102
{ACAD_REACTORS
330
1677
102
}
330
1677
100
AcDbXrecord
280
     1
290
     1
  0
XRECORD
  5
167A
102
{ACAD_REACTORS
330
1679
102
}
330
1679
100
AcDbXrecord
280
     1
290
     1
  0
XRECORD
  5
167C
102
{ACAD_REACTORS
330
167B
102
}
330
167B
100
AcDbXrecord
280
     1
290
     1
  0
XRECORD
  5
167E
102
{ACAD_REACTORS
330
167D
102
}
330
167D
100
AcDbXrecord
280
     1
290
     1
  0
XRECORD
  5
1680
102
{ACAD_REACTORS
330
167F
102
}
330
167F
100
AcDbXrecord
280
     1
290
     1
  0
XRECORD
  5
1682
102
{ACAD_REACTORS
330
1681
102
}
330
1681
100
AcDbXrecord
280
     1
290
     1
  0
XRECORD
  5
1684
102
{ACAD_REACTORS
330
1683
102
}
330
1683
100
AcDbXrecord
280
     1
290
     1
  0
XRECORD
  5
1686
102
{ACAD_REACTORS
330
1685
102
}
330
1685
100
AcDbXrecord
280
     1
290
     1
  0
XRECORD
  5
1688
102
{ACAD_REACTORS
330
1687
102
}
330
1687
100
AcDbXrecord
280
     1
290
     1
  0
XRECORD
  5
168A
102
{ACAD_REACTORS
330
1689
102
}
330
1689
100
AcDbXrecord
280
     1
290
     1
  0
XRECORD
  5
168C
102
{ACAD_REACTORS
330
168B
102
}
330
168B
100
AcDbXrecord
280
     1
290
     1
  0
XRECORD
  5
168E
102
{ACAD_REACTORS
330
168D
102
}
330
168D
100
AcDbXrecord
280
     1
290
     1
  0
XRECORD
  5
1690
102
{ACAD_REACTORS
330
168F
102
}
330
168F
100
AcDbXrecord
280
     1
290
     1
  0
XRECORD
  5
1692
102
{ACAD_REACTORS
330
1691
102
}
330
1691
100
AcDbXrecord
280
     1
290
     1
  0
XRECORD
  5
1694
102
{ACAD_REACTORS
330
1693
102
}
330
1693
100
AcDbXrecord
280
     1
290
     1
  0
XRECORD
  5
1696
102
{ACAD_REACTORS
330
1695
102
}
330
1695
100
AcDbXrecord
280
     1
290
     1
  0
XRECORD
  5
1698
102
{ACAD_REACTORS
330
1697
102
}
330
1697
100
AcDbXrecord
280
     1
290
     1
  0
XRECORD
  5
169A
102
{ACAD_REACTORS
330
1699
102
}
330
1699
100
AcDbXrecord
280
     1
290
     1
  0
XRECORD
  5
169C
102
{ACAD_REACTORS
330
169B
102
}
330
169B
100
AcDbXrecord
280
     1
290
     1
  0
XRECORD
  5
169E
102
{ACAD_REACTORS
330
169D
102
}
330
169D
100
AcDbXrecord
280
     1
290
     1
  0
XRECORD
  5
16A0
102
{ACAD_REACTORS
330
169F
102
}
330
169F
100
AcDbXrecord
280
     1
290
     1
  0
XRECORD
  5
16A2
102
{ACAD_REACTORS
330
16A1
102
}
330
16A1
100
AcDbXrecord
280
     1
290
     1
  0
XRECORD
  5
16A4
102
{ACAD_REACTORS
330
16A3
102
}
330
16A3
100
AcDbXrecord
280
     1
290
     1
  0
XRECORD
  5
16A6
102
{ACAD_REACTORS
330
16A5
102
}
330
16A5
100
AcDbXrecord
280
     1
290
     1
  0
XRECORD
  5
16A8
102
{ACAD_REACTORS
330
16A7
102
}
330
16A7
100
AcDbXrecord
280
     1
290
     1
  0
XRECORD
  5
16AA
102
{ACAD_REACTORS
330
16A9
102
}
330
16A9
100
AcDbXrecord
280
     1
290
     1
  0
XRECORD
  5
16AC
102
{ACAD_REACTORS
330
16AB
102
}
330
16AB
100
AcDbXrecord
280
     1
290
     1
  0
XRECORD
  5
16AE
102
{ACAD_REACTORS
330
16AD
102
}
330
16AD
100
AcDbXrecord
280
     1
290
     1
  0
XRECORD
  5
16B0
102
{ACAD_REACTORS
330
16AF
102
}
330
16AF
100
AcDbXrecord
280
     1
290
     1
  0
XRECORD
  5
16B2
102
{ACAD_REACTORS
330
16B1
102
}
330
16B1
100
AcDbXrecord
280
     1
290
     1
  0
LAYOUT
  5
15C6
102
{ACAD_REACTORS
330
1A
102
}
330
1A
100
AcDbPlotSettings
  1

  2
none_device
  4
ANSI_B_(17.00_x_11.00_Inches)
  6

 40
0.0
 41
0.0
 42
0.0
 43
0.0
 44
431.8
 45
279.4
 46
0.0
 47
0.0
 48
0.0
 49
0.0
140
0.0
141
0.0
142
1.0
143
1.0
 70
     0
 72
     0
 73
     0
 74
     0
  7

 75
     0
147
1.0
 76
     0
 77
     2
 78
   300
148
0.0
149
0.0
100
AcDbLayout
  1
Layout1
 70
     1
 71
     1
 10
0.0
 20
0.0
 11
12.0
 21
9.0
 12
0.0
 22
0.0
 32
0.0
 14
1.000000000000000E+20
 24
1.000000000000000E+20
 34
1.000000000000000E+20
 15
-1.000000000000000E+20
 25
-1.000000000000000E+20
 35
-1.000000000000000E+20
146
0.0
 13
0.0
 23
0.0
 33
0.0
 16
1.0
 26
0.0
 36
0.0
 17
0.0
 27
1.0
 37
0.0
 76
     0
330
22A
  0
LAYOUT
  5
15C5
102
{ACAD_REACTORS
330
1A
102
}
330
1A
100
AcDbPlotSettings
  1

  2
none_device
  4
ANSI_B_(17.00_x_11.00_Inches)
  6

 40
0.0
 41
0.0
 42
0.0
 43
0.0
 44
431.8
 45
279.4
 46
0.0
 47
0.0
 48
0.0
 49
0.0
140
0.0
141
0.0
142
1.0
143
1.0
 70
  1024
 72
     0
 73
     0
 74
     0
  7

 75
     0
147
1.0
 76
     0
 77
     2
 78
   300
148
0.0
149
0.0
100
AcDbLayout
  1
Model
 70
     0
 71
     0
 10
0.0
 20
0.0
 11
17.0
 21
11.0
 12
0.0
 22
0.0
 32
0.0
 14
0.0
 24
0.0
 34
0.0
 15
0.0
 25
0.0
 35
0.0
146
0.0
 13
0.0
 23
0.0
 33
0.0
 16
1.0
 26
0.0
 36
0.0
 17
0.0
 27
1.0
 37
0.0
 76
     0
330
229
331
1F4
  0
MATERIAL
  5
15D3
102
{ACAD_XDICTIONARY
360
15D4
102
}
102
{ACAD_REACTORS
330
15CA
102
}
330
15CA
100
AcDbMaterial
  1
ByBlock
 72
     0
 43
0.0208333333333333
 43
0.0
 43
0.0
 43
0.0
 43
0.0
 43
0.0208333333333333
 43
0.0
 43
0.0
 43
0.0
 43
0.0
 43
1.0
 43
0.0
 43
0.0
 43
0.0
 43
0.0
 43
1.0
 77
     0
 47
0.0208333333333333
 47
0.0
 47
0.0
 47
0.0
 47
0.0
 47
0.0208333333333333
 47
0.0
 47
0.0
 47
0.0
 47
0.0
 47
1.0
 47
0.0
 47
0.0
 47
0.0
 47
0.0
 47
1.0
171
     0
 49
0.0208333333333333
 49
0.0
 49
0.0
 49
0.0
 49
0.0
 49
0.0208333333333333
 49
0.0
 49
0.0
 49
0.0
 49
0.0
 49
1.0
 49
0.0
 49
0.0
 49
0.0
 49
0.0
 49
1.0
175
     0
142
0.0208333333333333
142
0.0
142
0.0
142
0.0
142
0.0
142
0.0208333333333333
142
0.0
142
0.0
142
0.0
142
0.0
142
1.0
142
0.0
142
0.0
142
0.0
142
0.0
142
1.0
179
     0
144
0.0208333333333333
144
0.0
144
0.0
144
0.0
144
0.0
144
0.0208333333333333
144
0.0
144
0.0
144
0.0
144
0.0
144
1.0
144
0.0
144
0.0
144
0.0
144
0.0
144
1.0
147
0.0208333333333333
147
0.0
147
0.0
147
0.0
147
0.0
147
0.0208333333333333
147
0.0
147
0.0
147
0.0
147
0.0
147
1.0
147
0.0
147
0.0
147
0.0
147
0.0
147
1.0
  0
MATERIAL
  5
15CB
102
{ACAD_XDICTIONARY
360
15CC
102
}
102
{ACAD_REACTORS
330
15CA
102
}
330
15CA
100
AcDbMaterial
  1
ByLayer
 72
     0
 43
0.0208333333333333
 43
0.0
 43
0.0
 43
0.0
 43
0.0
 43
0.0208333333333333
 43
0.0
 43
0.0
 43
0.0
 43
0.0
 43
1.0
 43
0.0
 43
0.0
 43
0.0
 43
0.0
 43
1.0
 77
     0
 47
0.0208333333333333
 47
0.0
 47
0.0
 47
0.0
 47
0.0
 47
0.0208333333333333
 47
0.0
 47
0.0
 47
0.0
 47
0.0
 47
1.0
 47
0.0
 47
0.0
 47
0.0
 47
0.0
 47
1.0
171
     0
 49
0.0208333333333333
 49
0.0
 49
0.0
 49
0.0
 49
0.0
 49
0.0208333333333333
 49
0.0
 49
0.0
 49
0.0
 49
0.0
 49
1.0
 49
0.0
 49
0.0
 49
0.0
 49
0.0
 49
1.0
175
     0
142
0.0208333333333333
142
0.0
142
0.0
142
0.0
142
0.0
142
0.0208333333333333
142
0.0
142
0.0
142
0.0
142
0.0
142
1.0
142
0.0
142
0.0
142
0.0
142
0.0
142
1.0
179
     0
144
0.0208333333333333
144
0.0
144
0.0
144
0.0
144
0.0
144
0.0208333333333333
144
0.0
144
0.0
144
0.0
144
0.0
144
1.0
144
0.0
144
0.0
144
0.0
144
0.0
144
1.0
147
0.0208333333333333
147
0.0
147
0.0
147
0.0
147
0.0
147
0.0208333333333333
147
0.0
147
0.0
147
0.0
147
0.0
147
1.0
147
0.0
147
0.0
147
0.0
147
0.0
147
1.0
  0
MATERIAL
  5
15DB
102
{ACAD_XDICTIONARY
360
15DC
102
}
102
{ACAD_REACTORS
330
15CA
102
}
330
15CA
100
AcDbMaterial
  1
Global
 72
     0
 43
0.0208333333333333
 43
0.0
 43
0.0
 43
0.0
 43
0.0
 43
0.0208333333333333
 43
0.0
 43
0.0
 43
0.0
 43
0.0
 43
1.0
 43
0.0
 43
0.0
 43
0.0
 43
0.0
 43
1.0
 77
     0
 47
0.0208333333333333
 47
0.0
 47
0.0
 47
0.0
 47
0.0
 47
0.0208333333333333
 47
0.0
 47
0.0
 47
0.0
 47
0.0
 47
1.0
 47
0.0
 47
0.0
 47
0.0
 47
0.0
 47
1.0
171
     0
 49
0.0208333333333333
 49
0.0
 49
0.0
 49
0.0
 49
0.0
 49
0.0208333333333333
 49
0.0
 49
0.0
 49
0.0
 49
0.0
 49
1.0
 49
0.0
 49
0.0
 49
0.0
 49
0.0
 49
1.0
175
     0
142
0.0208333333333333
142
0.0
142
0.0
142
0.0
142
0.0
142
0.0208333333333333
142
0.0
142
0.0
142
0.0
142
0.0
142
1.0
142
0.0
142
0.0
142
0.0
142
0.0
142
1.0
179
     0
144
0.0208333333333333
144
0.0
144
0.0
144
0.0
144
0.0
144
0.0208333333333333
144
0.0
144
0.0
144
0.0
144
0.0
144
1.0
144
0.0
144
0.0
144
0.0
144
0.0
144
1.0
147
0.0208333333333333
147
0.0
147
0.0
147
0.0
147
0.0
147
0.0208333333333333
147
0.0
147
0.0
147
0.0
147
0.0
147
1.0
147
0.0
147
0.0
147
0.0
147
0.0
147
1.0
  0
MLEADERSTYLE
  5
161D
102
{ACAD_REACTORS
330
161C
102
}
330
161C
100
AcDbMLeaderStyle
170
     2
171
     1
172
     0
 90
        2
 40
0.0
 41
0.0
173
     1
 91
-1056964608
340
14
 92
       -2
290
     1
 42
0.09
291
     1
 43
0.36
  3
Standard
 44
0.18
300

342
11
174
     1
178
     6
175
     1
176
     0
 93
-1056964608
 45
0.18
292
     0
297
     0
 46
0.18
 94
-1056964608
 47
1.0
 49
1.0
140
1.0
293
     1
141
0.0
294
     1
177
     0
142
1.0
295
     0
296
     0
143
0.125
1001
ACAD_MLEADERVER
1070
     2
  0
MLINESTYLE
  5
18
102
{ACAD_REACTORS
330
17
102
}
330
17
100
AcDbMlineStyle
  2
STANDARD
 70
     0
  3

 62
   256
 51
90.0
 52
90.0
 71
     2
 49
0.5
 62
   256
  6
BYLAYER
 49
-0.5
 62
   256
  6
BYLAYER
  0
ACDBPLACEHOLDER
  5
F
102
{ACAD_REACTORS
330
E
102
}
330
E
  0
SCALE
  5
15FB
102
{ACAD_REACTORS
330
15FA
102
}
330
15FA
100
AcDbScale
 70
     0
300
1:1
140
1.0
141
1.0
290
     1
  0
SCALE
  5
15FC
102
{ACAD_REACTORS
330
15FA
102
}
330
15FA
100
AcDbScale
 70
     0
300
1:2
140
1.0
141
2.0
290
     0
  0
SCALE
  5
15FD
102
{ACAD_REACTORS
330
15FA
102
}
330
15FA
100
AcDbScale
 70
     0
300
1:4
140
1.0
141
4.0
290
     0
  0
SCALE
  5
15FE
102
{ACAD_REACTORS
330
15FA
102
}
330
15FA
100
AcDbScale
 70
     0
300
1:5
140
1.0
141
5.0
290
     0
  0
SCALE
  5
15FF
102
{ACAD_REACTORS
330
15FA
102
}
330
15FA
100
AcDbScale
 70
     0
300
1:8
140
1.0
141
8.0
290
     0
  0
SCALE
  5
1600
102
{ACAD_REACTORS
330
15FA
102
}
330
15FA
100
AcDbScale
 70
     0
300
1:10
140
1.0
141
10.0
290
     0
  0
SCALE
  5
1601
102
{ACAD_REACTORS
330
15FA
102
}
330
15FA
100
AcDbScale
 70
     0
300
1:16
140
1.0
141
16.0
290
     0
  0
SCALE
  5
1602
102
{ACAD_REACTORS
330
15FA
102
}
330
15FA
100
AcDbScale
 70
     0
300
1:20
140
1.0
141
20.0
290
     0
  0
SCALE
  5
1603
102
{ACAD_REACTORS
330
15FA
102
}
330
15FA
100
AcDbScale
 70
     0
300
1:30
140
1.0
141
30.0
290
     0
  0
SCALE
  5
1604
102
{ACAD_REACTORS
330
15FA
102
}
330
15FA
100
AcDbScale
 70
     0
300
1:40
140
1.0
141
40.0
290
     0
  0
SCALE
  5
1605
102
{ACAD_REACTORS
330
15FA
102
}
330
15FA
100
AcDbScale
 70
     0
300
1:50
140
1.0
141
50.0
290
     0
  0
SCALE
  5
1606
102
{ACAD_REACTORS
330
15FA
102
}
330
15FA
100
AcDbScale
 70
     0
300
1:100
140
1.0
141
100.0
290
     0
  0
SCALE
  5
1607
102
{ACAD_REACTORS
330
15FA
102
}
330
15FA
100
AcDbScale
 70
     0
300
2:1
140
2.0
141
1.0
290
     0
  0
SCALE
  5
1608
102
{ACAD_REACTORS
330
15FA
102
}
330
15FA
100
AcDbScale
 70
     0
300
4:1
140
4.0
141
1.0
290
     0
  0
SCALE
  5
1609
102
{ACAD_REACTORS
330
15FA
102
}
330
15FA
100
AcDbScale
 70
     0
300
8:1
140
8.0
141
1.0
290
     0
  0
SCALE
  5
160A
102
{ACAD_REACTORS
330
15FA
102
}
330
15FA
100
AcDbScale
 70
     0
300
10:1
140
10.0
141
1.0
290
     0
  0
SCALE
  5
160B
102
{ACAD_REACTORS
330
15FA
102
}
330
15FA
100
AcDbScale
 70
     0
300
100:1
140
100.0
141
1.0
290
     0
  0
SCALE
  5
160C
102
{ACAD_REACTORS
330
15FA
102
}
330
15FA
100
AcDbScale
 70
     0
300
1/128" = 1'-0"
140
0.0078125
141
12.0
290
     0
  0
SCALE
  5
160D
102
{ACAD_REACTORS
330
15FA
102
}
330
15FA
100
AcDbScale
 70
     0
300
1/64" = 1'-0"
140
0.015625
141
12.0
290
     0
  0
SCALE
  5
160E
102
{ACAD_REACTORS
330
15FA
102
}
330
15FA
100
AcDbScale
 70
     0
300
1/32" = 1'-0"
140
0.03125
141
12.0
290
     0
  0
SCALE
  5
160F
102
{ACAD_REACTORS
330
15FA
102
}
330
15FA
100
AcDbScale
 70
     0
300
1/16" = 1'-0"
140
0.0625
141
12.0
290
     0
  0
SCALE
  5
1610
102
{ACAD_REACTORS
330
15FA
102
}
330
15FA
100
AcDbScale
 70
     0
300
3/32" = 1'-0"
140
0.09375
141
12.0
290
     0
  0
SCALE
  5
1611
102
{ACAD_REACTORS
330
15FA
102
}
330
15FA
100
AcDbScale
 70
     0
300
1/8" = 1'-0"
140
0.125
141
12.0
290
     0
  0
SCALE
  5
1612
102
{ACAD_REACTORS
330
15FA
102
}
330
15FA
100
AcDbScale
 70
     0
300
3/16" = 1'-0"
140
0.1875
141
12.0
290
     0
  0
SCALE
  5
1613
102
{ACAD_REACTORS
330
15FA
102
}
330
15FA
100
AcDbScale
 70
     0
300
1/4" = 1'-0"
140
0.25
141
12.0
290
     0
  0
SCALE
  5
1614
102
{ACAD_REACTORS
330
15FA
102
}
330
15FA
100
AcDbScale
 70
     0
300
3/8" = 1'-0"
140
0.375
141
12.0
290
     0
  0
SCALE
  5
1615
102
{ACAD_REACTORS
330
15FA
102
}
330
15FA
100
AcDbScale
 70
     0
300
1/2" = 1'-0"
140
0.5
141
12.0
290
     0
  0
SCALE
  5
1616
102
{ACAD_REACTORS
330
15FA
102
}
330
15FA
100
AcDbScale
 70
     0
300
3/4" = 1'-0"
140
0.75
141
12.0
290
     0
  0
SCALE
  5
1617
102
{ACAD_REACTORS
330
15FA
102
}
330
15FA
100
AcDbScale
 70
     0
300
1" = 1'-0"
140
1.0
141
12.0
290
     0
  0
SCALE
  5
1618
102
{ACAD_REACTORS
330
15FA
102
}
330
15FA
100
AcDbScale
 70
     0
300
1-1/2" = 1'-0"
140
1.5
141
12.0
290
     0
  0
SCALE
  5
1619
102
{ACAD_REACTORS
330
15FA
102
}
330
15FA
100
AcDbScale
 70
     0
300
3" = 1'-0"
140
3.0
141
12.0
290
     0
  0
SCALE
  5
161A
102
{ACAD_REACTORS
330
15FA
102
}
330
15FA
100
AcDbScale
 70
     0
300
6" = 1'-0"
140
6.0
141
12.0
290
     0
  0
SCALE
  5
161B
102
{ACAD_REACTORS
330
15FA
102
}
330
15FA
100
AcDbScale
 70
     0
300
1'-0" = 1'-0"
140
12.0
141
12.0
290
     0
  0
TABLESTYLE
  5
15F9
102
{ACAD_XDICTIONARY
360
1620
102
}
102
{ACAD_REACTORS
330
15F8
102
}
330
15F8
100
AcDbTableStyle
  3
Standard
 70
     0
 71
     0
 40
0.06
 41
0.06
280
     0
281
     0
  7
STANDARD
140
0.18
170
     2
 62
     0
 63
     7
283
     0
 90
      512
 91
        0
  1

274
    -2
284
     1
 64
     0
275
    -2
285
     1
 65
     0
276
    -2
286
     1
 66
     0
277
    -2
287
     1
 67
     0
278
    -2
288
     1
 68
     0
279
    -2
289
     1
 69
     0
  7
STANDARD
140
0.25
170
     5
 62
     0
 63
     7
283
     0
 90
      512
 91
        0
  1

274
    -2
284
     1
 64
     0
275
    -2
285
     1
 65
     0
276
    -2
286
     1
 66
     0
277
    -2
287
     1
 67
     0
278
    -2
288
     1
 68
     0
279
    -2
289
     1
 69
     0
  7
STANDARD
140
0.18
170
     5
 62
     0
 63
     7
283
     0
 90
      512
 91
        0
  1

274
    -2
284
     1
 64
     0
275
    -2
285
     1
 65
     0
276
    -2
286
     1
 66
     0
277
    -2
287
     1
 67
     0
278
    -2
288
     1
 68
     0
279
    -2
289
     1
 69
     0
  0
VISUALSTYLE
  5
15E9
102
{ACAD_XDICTIONARY
360
1636
102
}
102
{ACAD_REACTORS
330
15E3
102
}
330
15E3
100
AcDbVisualStyle
  2
2dWireframe
 70
     4
 71
     0
 72
     2
 73
     0
 90
        0
 40
-0.6
 41
-30.0
 62
     5
 63
     7
 74
     1
 91
        4
 64
     7
 65
   257
 75
     1
175
     1
 42
1.0
 92
        0
 66
   257
 43
1.0
 76
     1
 77
     6
 78
     2
 67
     7
 79
     5
170
     0
171
     0
290
     0
174
     0
 93
        1
 44
0.0
173
     0
291
     0
 45
0.0
  0
VISUALSTYLE
  5
15EB
102
{ACAD_XDICTIONARY
360
163A
102
}
102
{ACAD_REACTORS
330
15E3
102
}
330
15E3
100
AcDbVisualStyle
  2
3D Hidden
 70
     6
 71
     1
 72
     2
 73
     2
 90
        0
 40
-0.6
 41
-30.0
 62
     5
 63
     7
 74
     2
 91
        2
 64
     7
 65
   257
 75
     2
175
     1
 42
179.0
 92
        0
 66
   257
 43
1.0
 76
     1
 77
     6
 78
     2
 67
     7
 79
     3
170
     0
171
     0
290
     0
174
     0
 93
        1
 44
0.0
173
     0
291
     0
 45
0.0
  0
VISUALSTYLE
  5
15EA
102
{ACAD_XDICTIONARY
360
1638
102
}
102
{ACAD_REACTORS
330
15E3
102
}
330
15E3
100
AcDbVisualStyle
  2
3dWireframe
 70
     5
 71
     0
 72
     2
 73
     0
 90
        0
 40
-0.6
 41
-30.0
 62
     5
 63
     7
 74
     1
 91
        4
 64
     7
 65
   257
 75
     1
175
     1
 42
1.0
 92
        0
 66
   257
 43
1.0
 76
     1
 77
     6
 78
     2
 67
     7
 79
     5
170
     0
171
     0
290
     0
174
     0
 93
        1
 44
0.0
173
     0
291
     0
 45
0.0
  0
VISUALSTYLE
  5
15E8
102
{ACAD_XDICTIONARY
360
1634
102
}
102
{ACAD_REACTORS
330
15E3
102
}
330
15E3
100
AcDbVisualStyle
  2
Basic
 70
     7
 71
     1
 72
     0
 73
     1
 90
        0
 40
-0.6
 41
-30.0
 62
     5
 63
     7
 74
     0
 91
        4
 64
     7
 65
   257
 75
     1
175
     1
 42
1.0
 92
        8
 66
     7
 43
1.0
 76
     1
 77
     6
 78
     2
 67
     7
 79
     5
170
     0
171
     0
290
     0
174
     0
 93
        1
 44
0.0
173
     0
291
     1
 45
0.0
  0
VISUALSTYLE
  5
15EF
102
{ACAD_XDICTIONARY
360
1642
102
}
102
{ACAD_REACTORS
330
15E3
102
}
330
15E3
100
AcDbVisualStyle
  2
Brighten
 70
    12
 71
     2
 72
     2
 73
     0
 90
        0
 40
-0.6
 41
-30.0
 62
     5
 63
     7
 74
     1
 91
        4
 64
     7
 65
   257
 75
     1
175
     1
 42
1.0
 92
        8
 66
     7
 43
1.0
 76
     1
 77
     6
 78
     2
 67
     7
 79
     5
170
     0
171
     0
290
     0
174
     0
 93
        1
 44
50.0
173
     0
291
     1
 45
0.0
  0
VISUALSTYLE
  5
15F3
102
{ACAD_XDICTIONARY
360
164A
102
}
102
{ACAD_REACTORS
330
15E3
102
}
330
15E3
100
AcDbVisualStyle
  2
ColorChange
 70
    16
 71
     2
 72
     2
 73
     3
 90
        0
 40
-0.6
 41
-30.0
 62
     5
 63
     8
 74
     1
 91
        4
 64
     7
 65
   257
 75
     1
175
     1
 42
1.0
 92
        8
 66
     8
 43
1.0
 76
     1
 77
     6
 78
     2
 67
     7
 79
     5
170
     0
171
     0
290
     0
174
     0
 93
        1
 44
0.0
173
     0
291
     1
 45
0.0
  0
VISUALSTYLE
  5
15EC
102
{ACAD_XDICTIONARY
360
163C
102
}
102
{ACAD_REACTORS
330
15E3
102
}
330
15E3
100
AcDbVisualStyle
  2
Conceptual
 70
     9
 71
     3
 72
     2
 73
     0
 90
        0
 40
-0.6
 41
-30.0
 62
     5
 63
     7
 74
     2
 91
        2
 64
     7
 65
   257
 75
     1
175
     1
 42
179.0
 92
        8
 66
     7
 43
1.0
 76
     1
 77
     6
 78
     2
 67
     7
 79
     3
170
     0
171
     0
290
     0
174
     0
 93
        1
 44
0.0
173
     0
291
     0
 45
0.0
  0
VISUALSTYLE
  5
15EE
102
{ACAD_XDICTIONARY
360
1640
102
}
102
{ACAD_REACTORS
330
15E3
102
}
330
15E3
100
AcDbVisualStyle
  2
Dim
 70
    11
 71
     2
 72
     2
 73
     0
 90
        0
 40
-0.6
 41
-30.0
 62
     5
 63
     7
 74
     1
 91
        4
 64
     7
 65
   257
 75
     1
175
     1
 42
1.0
 92
        8
 66
     7
 43
1.0
 76
     1
 77
     6
 78
     2
 67
     7
 79
     5
170
     0
171
     0
290
     0
174
     0
 93
        1
 44
-50.0
173
     0
291
     1
 45
0.0
  0
VISUALSTYLE
  5
15F6
102
{ACAD_XDICTIONARY
360
1650
102
}
102
{ACAD_REACTORS
330
15E3
102
}
330
15E3
100
AcDbVisualStyle
  2
EdgeColorOff
 70
    22
 71
     2
 72
     2
 73
     0
 90
        0
 40
-0.6
 41
-30.0
 62
     5
 63
     7
 74
     1
 91
        4
 64
     7
 65
   257
 75
     1
175
     1
 42
1.0
 92
        8
 66
     7
 43
1.0
 76
     1
 77
     6
 78
     2
 67
     7
 79
     5
170
     0
171
     0
290
     0
174
     0
 93
        1
 44
0.0
173
     0
291
     1
 45
0.0
  0
VISUALSTYLE
  5
15F2
102
{ACAD_XDICTIONARY
360
1648
102
}
102
{ACAD_REACTORS
330
15E3
102
}
330
15E3
100
AcDbVisualStyle
  2
Facepattern
 70
    15
 71
     2
 72
     2
 73
     0
 90
        0
 40
-0.6
 41
-30.0
 62
     5
 63
     7
 74
     1
 91
        4
 64
     7
 65
   257
 75
     1
175
     1
 42
1.0
 92
        8
 66
     7
 43
1.0
 76
     1
 77
     6
 78
     2
 67
     7
 79
     5
170
     0
171
     0
290
     0
174
     0
 93
        1
 44
0.0
173
     0
291
     1
 45
0.0
  0
VISUALSTYLE
  5
15E4
102
{ACAD_XDICTIONARY
360
162C
102
}
102
{ACAD_REACTORS
330
15E3
102
}
330
15E3
100
AcDbVisualStyle
  2
Flat
 70
     0
 71
     2
 72
     1
 73
     1
 90
        2
 40
-0.6
 41
30.0
 62
     5
 63
     7
 74
     0
 91
        4
 64
     7
 65
   257
 75
     1
175
     1
 42
1.0
 92
        8
 66
     7
 43
1.0
 76
     1
 77
     6
 78
     2
 67
     7
 79
     5
170
     0
171
     0
290
     0
174
     0
 93
       13
 44
0.0
173
     0
291
     1
 45
0.0
  0
VISUALSTYLE
  5
15E5
102
{ACAD_XDICTIONARY
360
162E
102
}
102
{ACAD_REACTORS
330
15E3
102
}
330
15E3
100
AcDbVisualStyle
  2
FlatWithEdges
 70
     1
 71
     2
 72
     1
 73
     1
 90
        2
 40
-0.6
 41
30.0
 62
     5
 63
     7
 74
     1
 91
        4
 64
     7
 65
   257
 75
     1
175
     1
 42
1.0
 92
        0
 66
   257
 43
1.0
 76
     1
 77
     6
 78
     2
 67
     7
 79
     5
170
     0
171
     0
290
     0
174
     0
 93
       13
 44
0.0
173
     0
291
     1
 45
0.0
  0
VISUALSTYLE
  5
15E6
102
{ACAD_XDICTIONARY
360
1630
102
}
102
{ACAD_REACTORS
330
15E3
102
}
330
15E3
100
AcDbVisualStyle
  2
Gouraud
 70
     2
 71
     2
 72
     2
 73
     1
 90
        2
 40
-0.6
 41
30.0
 62
     5
 63
     7
 74
     0
 91
        4
 64
     7
 65
   257
 75
     1
175
     1
 42
1.0
 92
        0
 66
     7
 43
1.0
 76
     1
 77
     6
 78
     2
 67
     7
 79
     5
170
     0
171
     0
290
     0
174
     0
 93
       13
 44
0.0
173
     0
291
     1
 45
0.0
  0
VISUALSTYLE
  5
15E7
102
{ACAD_XDICTIONARY
360
1632
102
}
102
{ACAD_REACTORS
330
15E3
102
}
330
15E3
100
AcDbVisualStyle
  2
GouraudWithEdges
 70
     3
 71
     2
 72
     2
 73
     1
 90
        2
 40
-0.6
 41
30.0
 62
     5
 63
     7
 74
     1
 91
        4
 64
     7
 65
   257
 75
     1
175
     1
 42
1.0
 92
        0
 66
   257
 43
1.0
 76
     1
 77
     6
 78
     2
 67
     7
 79
     5
170
     0
171
     0
290
     0
174
     0
 93
       13
 44
0.0
173
     0
291
     1
 45
0.0
  0
VISUALSTYLE
  5
15F4
102
{ACAD_XDICTIONARY
360
164C
102
}
102
{ACAD_REACTORS
330
15E3
102
}
330
15E3
100
AcDbVisualStyle
  2
JitterOff
 70
    20
 71
     2
 72
     2
 73
     0
 90
        0
 40
-0.6
 41
-30.0
 62
     5
 63
     7
 74
     1
 91
        4
 64
     7
 65
   257
 75
     1
175
     1
 42
1.0
 92
       10
 66
     7
 43
1.0
 76
     1
 77
     6
 78
     2
 67
     7
 79
     5
170
     0
171
     0
290
     0
174
     0
 93
        1
 44
0.0
173
     0
291
     1
 45
0.0
  0
VISUALSTYLE
  5
15F1
102
{ACAD_XDICTIONARY
360
1646
102
}
102
{ACAD_REACTORS
330
15E3
102
}
330
15E3
100
AcDbVisualStyle
  2
Linepattern
 70
    14
 71
     2
 72
     2
 73
     0
 90
        0
 40
-0.6
 41
-30.0
 62
     5
 63
     7
 74
     1
 91
        4
 64
     7
 65
   257
 75
     7
175
     7
 42
1.0
 92
        8
 66
     7
 43
1.0
 76
     1
 77
     6
 78
     2
 67
     7
 79
     5
170
     0
171
     0
290
     0
174
     0
 93
        1
 44
0.0
173
     0
291
     1
 45
0.0
  0
VISUALSTYLE
  5
15F5
102
{ACAD_XDICTIONARY
360
164E
102
}
102
{ACAD_REACTORS
330
15E3
102
}
330
15E3
100
AcDbVisualStyle
  2
OverhangOff
 70
    21
 71
     2
 72
     2
 73
     0
 90
        0
 40
-0.6
 41
-30.0
 62
     5
 63
     7
 74
     1
 91
        4
 64
     7
 65
   257
 75
     1
175
     1
 42
1.0
 92
        9
 66
     7
 43
1.0
 76
     1
 77
     6
 78
     2
 67
     7
 79
     5
170
     0
171
     0
290
     0
174
     0
 93
        1
 44
0.0
173
     0
291
     1
 45
0.0
  0
VISUALSTYLE
  5
15ED
102
{ACAD_XDICTIONARY
360
163E
102
}
102
{ACAD_REACTORS
330
15E3
102
}
330
15E3
100
AcDbVisualStyle
  2
Realistic
 70
     8
 71
     2
 72
     2
 73
     0
 90
        0
 40
-0.6
 41
-30.0
 62
     5
 63
     7
 74
     1
 91
        0
 64
     7
 65
   257
 75
     1
175
     1
 42
1.0
 92
        8
 66
     8
 43
1.0
 76
     1
 77
     6
 78
     2
 67
     7
 79
     5
170
     0
171
     0
290
     0
174
     0
 93
       13
 44
0.0
173
     0
291
     0
 45
0.0
  0
VISUALSTYLE
  5
15F0
102
{ACAD_XDICTIONARY
360
1644
102
}
102
{ACAD_REACTORS
330
15E3
102
}
330
15E3
100
AcDbVisualStyle
  2
Thicken
 70
    13
 71
     2
 72
     2
 73
     0
 90
        0
 40
-0.6
 41
-30.0
 62
     5
 63
     7
 74
     1
 91
        4
 64
     7
 65
   257
 75
     1
175
     1
 42
1.0
 92
       12
 66
     7
 43
1.0
 76
     1
 77
     6
 78
     2
 67
     7
 79
     5
170
     0
171
     0
290
     0
174
     0
 93
        1
 44
0.0
173
     0
291
     1
 45
0.0
  0
DICTIONARYVAR
  5
1657
102
{ACAD_REACTORS
330
1654
102
}
330
1654
100
DictionaryVariables
280
     0
  1
1:1
  0
DICTIONARYVAR
  5
1656
102
{ACAD_REACTORS
330
1654
102
}
330
1654
100
DictionaryVariables
280
     0
  1
STANDARD
  0
DICTIONARYVAR
  5
1655
102
{ACAD_REACTORS
330
1654
102
}
330
1654
100
DictionaryVariables
280
     0
  1
STANDARD
  0
DICTIONARYVAR
  5
165A
102
{ACAD_REACTORS
330
1654
102
}
330
1654
100
DictionaryVariables
280
     0
  1
1
  0
DICTIONARYVAR
  5
1659
102
{ACAD_REACTORS
330
1654
102
}
330
1654
100
DictionaryVariables
280
     0
  1
0
  0
DICTIONARYVAR
  5
16BB
102
{ACAD_REACTORS
330
1654
102
}
330
1654
100
DictionaryVariables
280
     0
  1
1
  0
DICTIONARYVAR
  5
16BC
102
{ACAD_REACTORS
330
1654
102
}
330
1654
100
DictionaryVariables
280
     0
  1
15
  0
DICTIONARYVAR
  5
16BA
102
{ACAD_REACTORS
330
1654
102
}
330
1654
100
DictionaryVariables
280
     0
  1
0
  0
DICTIONARYVAR
  5
16B9
102
{ACAD_REACTORS
330
1654
102
}
330
1654
100
DictionaryVariables
280
     0
  1
0
  0
DICTIONARYVAR
  5
1658
102
{ACAD_REACTORS
330
1654
102
}
330
1654
100
DictionaryVariables
280
     0
  1
127
  0
DICTIONARYVAR
  5
165B
102
{ACAD_REACTORS
330
1654
102
}
330
1654
100
DictionaryVariables
280
     0
  1
2
  0
DICTIONARY
  5
15D4
330
15D3
100
AcDbDictionary
280
     1
281
     1
  3
BUMPTILE
360
15D6
  3
DIFFUSETILE
360
15D5
  3
OPACITYTILE
360
15D9
  3
REFLECTIONTILE
360
15D8
  3
REFRACTIONTILE
360
15DA
  3
SPECULARTILE
360
15D7
  0
DICTIONARY
  5
15CC
330
15CB
100
AcDbDictionary
280
     1
281
     1
  3
BUMPTILE
360
15CE
  3
DIFFUSETILE
360
15CD
  3
OPACITYTILE
360
15D1
  3
REFLECTIONTILE
360
15D0
  3
REFRACTIONTILE
360
15D2
  3
SPECULARTILE
360
15CF
  0
DICTIONARY
  5
15DC
330
15DB
100
AcDbDictionary
280
     1
281
     1
  3
BUMPTILE
360
15DE
  3
DIFFUSETILE
360
15DD
  3
OPACITYTILE
360
15E1
  3
REFLECTIONTILE
360
15E0
  3
REFRACTIONTILE
360
15E2
  3
SPECULARTILE
360
15DF
  0
DICTIONARY
  5
1620
330
15F9
100
AcDbDictionary
280
     1
281
     1
  3
ACAD_ROUNDTRIP_2008_TABLESTYLE_CELLSTYLEMAP
360
16CC
  0
DICTIONARY
  5
1636
330
15E9
100
AcDbDictionary
280
     1
281
     1
  3
ACAD_XREC_ROUNDTRIP
360
1637
  0
DICTIONARY
  5
163A
330
15EB
100
AcDbDictionary
280
     1
281
     1
  3
ACAD_XREC_ROUNDTRIP
360
163B
  0
DICTIONARY
  5
1638
330
15EA
100
AcDbDictionary
280
     1
281
     1
  3
ACAD_XREC_ROUNDTRIP
360
1639
  0
DICTIONARY
  5
1634
330
15E8
100
AcDbDictionary
280
     1
281
     1
  3
ACAD_XREC_ROUNDTRIP
360
1635
  0
DICTIONARY
  5
1642
330
15EF
100
AcDbDictionary
280
     1
281
     1
  3
ACAD_XREC_ROUNDTRIP
360
1643
  0
DICTIONARY
  5
164A
330
15F3
100
AcDbDictionary
280
     1
281
     1
  3
ACAD_XREC_ROUNDTRIP
360
164B
  0
DICTIONARY
  5
163C
330
15EC
100
AcDbDictionary
280
     1
281
     1
  3
ACAD_XREC_ROUNDTRIP
360
163D
  0
DICTIONARY
  5
1640
330
15EE
100
AcDbDictionary
280
     1
281
     1
  3
ACAD_XREC_ROUNDTRIP
360
1641
  0
DICTIONARY
  5
1650
330
15F6
100
AcDbDictionary
280
     1
281
     1
  3
ACAD_XREC_ROUNDTRIP
360
1651
  0
DICTIONARY
  5
1648
330
15F2
100
AcDbDictionary
280
     1
281
     1
  3
ACAD_XREC_ROUNDTRIP
360
1649
  0
DICTIONARY
  5
162C
330
15E4
100
AcDbDictionary
280
     1
281
     1
  3
ACAD_XREC_ROUNDTRIP
360
162D
  0
DICTIONARY
  5
162E
330
15E5
100
AcDbDictionary
280
     1
281
     1
  3
ACAD_XREC_ROUNDTRIP
360
162F
  0
DICTIONARY
  5
1630
330
15E6
100
AcDbDictionary
280
     1
281
     1
  3
ACAD_XREC_ROUNDTRIP
360
1631
  0
DICTIONARY
  5
1632
330
15E7
100
AcDbDictionary
280
     1
281
     1
  3
ACAD_XREC_ROUNDTRIP
360
1633
  0
DICTIONARY
  5
164C
330
15F4
100
AcDbDictionary
280
     1
281
     1
  3
ACAD_XREC_ROUNDTRIP
360
164D
  0
DICTIONARY
  5
1646
330
15F1
100
AcDbDictionary
280
     1
281
     1
  3
ACAD_XREC_ROUNDTRIP
360
1647
  0
DICTIONARY
  5
164E
330
15F5
100
AcDbDictionary
280
     1
281
     1
  3
ACAD_XREC_ROUNDTRIP
360
164F
  0
DICTIONARY
  5
163E
330
15ED
100
AcDbDictionary
280
     1
281
     1
  3
ACAD_XREC_ROUNDTRIP
360
163F
  0
DICTIONARY
  5
1644
330
15F0
100
AcDbDictionary
280
     1
281
     1
  3
ACAD_XREC_ROUNDTRIP
360
1645
  0
XRECORD
  5
15D6
102
{ACAD_REACTORS
330
15D4
102
}
330
15D4
100
AcDbXrecord
280
     1
270
     1
271
     1
  0
XRECORD
  5
15D5
102
{ACAD_REACTORS
330
15D4
102
}
330
15D4
100
AcDbXrecord
280
     1
270
     1
271
     1
  0
XRECORD
  5
15D9
102
{ACAD_REACTORS
330
15D4
102
}
330
15D4
100
AcDbXrecord
280
     1
270
     1
271
     1
  0
XRECORD
  5
15D8
102
{ACAD_REACTORS
330
15D4
102
}
330
15D4
100
AcDbXrecord
280
     1
270
     1
271
     1
  0
XRECORD
  5
15DA
102
{ACAD_REACTORS
330
15D4
102
}
330
15D4
100
AcDbXrecord
280
     1
270
     1
271
     1
  0
XRECORD
  5
15D7
102
{ACAD_REACTORS
330
15D4
102
}
330
15D4
100
AcDbXrecord
280
     1
270
     1
271
     1
  0
XRECORD
  5
15CE
102
{ACAD_REACTORS
330
15CC
102
}
330
15CC
100
AcDbXrecord
280
     1
270
     1
271
     1
  0
XRECORD
  5
15CD
102
{ACAD_REACTORS
330
15CC
102
}
330
15CC
100
AcDbXrecord
280
     1
270
     1
271
     1
  0
XRECORD
  5
15D1
102
{ACAD_REACTORS
330
15CC
102
}
330
15CC
100
AcDbXrecord
280
     1
270
     1
271
     1
  0
XRECORD
  5
15D0
102
{ACAD_REACTORS
330
15CC
102
}
330
15CC
100
AcDbXrecord
280
     1
270
     1
271
     1
  0
XRECORD
  5
15D2
102
{ACAD_REACTORS
330
15CC
102
}
330
15CC
100
AcDbXrecord
280
     1
270
     1
271
     1
  0
XRECORD
  5
15CF
102
{ACAD_REACTORS
330
15CC
102
}
330
15CC
100
AcDbXrecord
280
     1
270
     1
271
     1
  0
XRECORD
  5
15DE
102
{ACAD_REACTORS
330
15DC
102
}
330
15DC
100
AcDbXrecord
280
     1
270
     1
271
     1
  0
XRECORD
  5
15DD
102
{ACAD_REACTORS
330
15DC
102
}
330
15DC
100
AcDbXrecord
280
     1
270
     1
271
     1
  0
XRECORD
  5
15E1
102
{ACAD_REACTORS
330
15DC
102
}
330
15DC
100
AcDbXrecord
280
     1
270
     1
271
     1
  0
XRECORD
  5
15E0
102
{ACAD_REACTORS
330
15DC
102
}
330
15DC
100
AcDbXrecord
280
     1
270
     1
271
     1
  0
XRECORD
  5
15E2
102
{ACAD_REACTORS
330
15DC
102
}
330
15DC
100
AcDbXrecord
280
     1
270
     1
271
     1
  0
XRECORD
  5
15DF
102
{ACAD_REACTORS
330
15DC
102
}
330
15DC
100
AcDbXrecord
280
     1
270
     1
271
     1
  0
CELLSTYLEMAP
  5
16CC
102
{ACAD_REACTORS
330
1620
102
}
330
1620
100
AcDbCellStyleMap
 90
        3
300
CELLSTYLE
  1
TABLEFORMAT_BEGIN
 90
        5
170
     1
 91
        0
 92
    32768
 62
   257
 93
        1
300
CONTENTFORMAT
  1
CONTENTFORMAT_BEGIN
 90
        0
 91
        0
 92
      512
 93
        0
300

 40
0.0
140
1.0
 94
        5
 62
     0
340
11
144
0.25
309
CONTENTFORMAT_END
171
     0
 94
        0
309
TABLEFORMAT_END
  1
CELLSTYLE_BEGIN
 90
        1
 91
        1
300
_TITLE
309
CELLSTYLE_END
300
CELLSTYLE
  1
TABLEFORMAT_BEGIN
 90
        5
170
     1
 91
        0
 92
        0
 62
   257
 93
        1
300
CONTENTFORMAT
  1
CONTENTFORMAT_BEGIN
 90
        0
 91
        0
 92
      512
 93
        0
300

 40
0.0
140
1.0
 94
        5
 62
     0
340
11
144
0.18
309
CONTENTFORMAT_END
171
     0
 94
        0
309
TABLEFORMAT_END
  1
CELLSTYLE_BEGIN
 90
        2
 91
        1
300
_HEADER
309
CELLSTYLE_END
300
CELLSTYLE
  1
TABLEFORMAT_BEGIN
 90
        5
170
     1
 91
        0
 92
        0
 62
   257
 93
        1
300
CONTENTFORMAT
  1
CONTENTFORMAT_BEGIN
 90
        0
 91
        0
 92
      512
 93
        0
300

 40
0.0
140
1.0
 94
        2
 62
     0
340
11
144
0.18
309
CONTENTFORMAT_END
171
     0
 94
        0
309
TABLEFORMAT_END
  1
CELLSTYLE_BEGIN
 90
        3
 91
        2
300
_DATA
309
CELLSTYLE_END
  0
XRECORD
  5
1637
102
{ACAD_REACTORS
330
1636
102
}
330
1636
100
AcDbXrecord
280
     1
102
RTVSPropertyOp0
 70
     1
102
RTVSPropertyOp1
 70
     1
102
RTVSPropertyOp2
 70
     1
102
RTVSPropertyOp3
 70
     1
102
RTVSPropertyOp4
 70
     1
102
RTVSPropertyOp5
 70
     1
102
RTVSPropertyOp6
 70
     1
102
RTVSPropertyOp7
 70
     1
102
RTVSPropertyOp8
 70
     1
102
RTVSPropertyOp9
 70
     1
102
RTVSPropertyOp10
 70
     1
102
RTVSPropertyOp11
 70
     1
102
RTVSPropertyOp12
 70
     1
102
RTVSPropertyOp13
 70
     1
102
RTVSPropertyOp14
 70
     1
102
RTVSPropertyOp15
 70
     1
102
RTVSPropertyOp16
 70
     1
102
RTVSPropertyOp17
 70
     1
102
RTVSPropertyOp18
 70
     1
102
RTVSPropertyOp19
 70
     1
102
RTVSPropertyOp20
 70
     1
102
RTVSPropertyOp21
 70
     1
102
RTVSPropertyOp22
 70
     1
102
RTVSPropertyOp23
 70
     1
102
RTVSPropertyOp24
 70
     1
102
RTVSPropertyOp25
 70
     1
102
RTVSPropertyOp26
 70
     1
102
RTVSPropertyOp27
 70
     1
  0
XRECORD
  5
163B
102
{ACAD_REACTORS
330
163A
102
}
330
163A
100
AcDbXrecord
280
     1
102
RTVSPropertyOp0
 70
     1
102
RTVSPropertyOp1
 70
     1
102
RTVSPropertyOp2
 70
     1
102
RTVSPropertyOp3
 70
     1
102
RTVSPropertyOp4
 70
     1
102
RTVSPropertyOp5
 70
     1
102
RTVSPropertyOp6
 70
     1
102
RTVSPropertyOp7
 70
     1
102
RTVSPropertyOp8
 70
     1
102
RTVSPropertyOp9
 70
     1
102
RTVSPropertyOp10
 70
     1
102
RTVSPropertyOp11
 70
     1
102
RTVSPropertyOp12
 70
     1
102
RTVSPropertyOp13
 70
     1
102
RTVSPropertyOp14
 70
     1
102
RTVSPropertyOp15
 70
     1
102
RTVSPropertyOp16
 70
     1
102
RTVSPropertyOp17
 70
     1
102
RTVSPropertyOp18
 70
     1
102
RTVSPropertyOp19
 70
     1
102
RTVSPropertyOp20
 70
     1
102
RTVSPropertyOp21
 70
     1
102
RTVSPropertyOp22
 70
     1
102
RTVSPropertyOp23
 70
     1
102
RTVSPropertyOp24
 70
     1
102
RTVSPropertyOp25
 70
     1
102
RTVSPropertyOp26
 70
     1
102
RTVSPropertyOp27
 70
     1
  0
XRECORD
  5
1639
102
{ACAD_REACTORS
330
1638
102
}
330
1638
100
AcDbXrecord
280
     1
102
RTVSPropertyOp0
 70
     1
102
RTVSPropertyOp1
 70
     1
102
RTVSPropertyOp2
 70
     1
102
RTVSPropertyOp3
 70
     1
102
RTVSPropertyOp4
 70
     1
102
RTVSPropertyOp5
 70
     1
102
RTVSPropertyOp6
 70
     1
102
RTVSPropertyOp7
 70
     1
102
RTVSPropertyOp8
 70
     1
102
RTVSPropertyOp9
 70
     1
102
RTVSPropertyOp10
 70
     1
102
RTVSPropertyOp11
 70
     1
102
RTVSPropertyOp12
 70
     1
102
RTVSPropertyOp13
 70
     1
102
RTVSPropertyOp14
 70
     1
102
RTVSPropertyOp15
 70
     1
102
RTVSPropertyOp16
 70
     1
102
RTVSPropertyOp17
 70
     1
102
RTVSPropertyOp18
 70
     1
102
RTVSPropertyOp19
 70
     1
102
RTVSPropertyOp20
 70
     1
102
RTVSPropertyOp21
 70
     1
102
RTVSPropertyOp22
 70
     1
102
RTVSPropertyOp23
 70
     1
102
RTVSPropertyOp24
 70
     1
102
RTVSPropertyOp25
 70
     1
102
RTVSPropertyOp26
 70
     1
102
RTVSPropertyOp27
 70
     1
  0
XRECORD
  5
1635
102
{ACAD_REACTORS
330
1634
102
}
330
1634
100
AcDbXrecord
280
     1
102
RTVSPropertyOp0
 70
     1
102
RTVSPropertyOp1
 70
     1
102
RTVSPropertyOp2
 70
     1
102
RTVSPropertyOp3
 70
     1
102
RTVSPropertyOp4
 70
     1
102
RTVSPropertyOp5
 70
     1
102
RTVSPropertyOp6
 70
     1
102
RTVSPropertyOp7
 70
     1
102
RTVSPropertyOp8
 70
     1
102
RTVSPropertyOp9
 70
     1
102
RTVSPropertyOp10
 70
     1
102
RTVSPropertyOp11
 70
     1
102
RTVSPropertyOp12
 70
     1
102
RTVSPropertyOp13
 70
     1
102
RTVSPropertyOp14
 70
     1
102
RTVSPropertyOp15
 70
     1
102
RTVSPropertyOp16
 70
     1
102
RTVSPropertyOp17
 70
     1
102
RTVSPropertyOp18
 70
     1
102
RTVSPropertyOp19
 70
     1
102
RTVSPropertyOp20
 70
     1
102
RTVSPropertyOp21
 70
     1
102
RTVSPropertyOp22
 70
     1
102
RTVSPropertyOp23
 70
     1
102
RTVSPropertyOp24
 70
     1
102
RTVSPropertyOp25
 70
     1
102
RTVSPropertyOp26
 70
     1
102
RTVSPropertyOp27
 70
     1
  0
XRECORD
  5
1643
102
{ACAD_REACTORS
330
1642
102
}
330
1642
100
AcDbXrecord
280
     1
102
RTVSPropertyOp0
 70
     1
102
RTVSPropertyOp1
 70
     1
102
RTVSPropertyOp2
 70
     1
102
RTVSPropertyOp3
 70
     1
102
RTVSPropertyOp4
 70
     1
102
RTVSPropertyOp5
 70
     1
102
RTVSPropertyOp6
 70
     1
102
RTVSPropertyOp7
 70
     1
102
RTVSPropertyOp8
 70
     1
102
RTVSPropertyOp9
 70
     1
102
RTVSPropertyOp10
 70
     1
102
RTVSPropertyOp11
 70
     1
102
RTVSPropertyOp12
 70
     1
102
RTVSPropertyOp13
 70
     1
102
RTVSPropertyOp14
 70
     1
102
RTVSPropertyOp15
 70
     1
102
RTVSPropertyOp16
 70
     1
102
RTVSPropertyOp17
 70
     1
102
RTVSPropertyOp18
 70
     1
102
RTVSPropertyOp19
 70
     1
102
RTVSPropertyOp20
 70
     1
102
RTVSPropertyOp21
 70
     1
102
RTVSPropertyOp22
 70
     1
102
RTVSPropertyOp23
 70
     1
102
RTVSPropertyOp24
 70
     1
102
RTVSPropertyOp25
 70
     1
102
RTVSPropertyOp26
 70
     1
102
RTVSPropertyOp27
 70
     1
  0
XRECORD
  5
164B
102
{ACAD_REACTORS
330
164A
102
}
330
164A
100
AcDbXrecord
280
     1
102
RTVSPropertyOp0
 70
     1
102
RTVSPropertyOp1
 70
     1
102
RTVSPropertyOp2
 70
     1
102
RTVSPropertyOp3
 70
     1
102
RTVSPropertyOp4
 70
     1
102
RTVSPropertyOp5
 70
     1
102
RTVSPropertyOp6
 70
     1
102
RTVSPropertyOp7
 70
     1
102
RTVSPropertyOp8
 70
     1
102
RTVSPropertyOp9
 70
     1
102
RTVSPropertyOp10
 70
     1
102
RTVSPropertyOp11
 70
     1
102
RTVSPropertyOp12
 70
     1
102
RTVSPropertyOp13
 70
     1
102
RTVSPropertyOp14
 70
     1
102
RTVSPropertyOp15
 70
     1
102
RTVSPropertyOp16
 70
     1
102
RTVSPropertyOp17
 70
     1
102
RTVSPropertyOp18
 70
     1
102
RTVSPropertyOp19
 70
     1
102
RTVSPropertyOp20
 70
     1
102
RTVSPropertyOp21
 70
     1
102
RTVSPropertyOp22
 70
     1
102
RTVSPropertyOp23
 70
     1
102
RTVSPropertyOp24
 70
     1
102
RTVSPropertyOp25
 70
     1
102
RTVSPropertyOp26
 70
     1
102
RTVSPropertyOp27
 70
     1
  0
XRECORD
  5
163D
102
{ACAD_REACTORS
330
163C
102
}
330
163C
100
AcDbXrecord
280
     1
102
RTVSPropertyOp0
 70
     1
102
RTVSPropertyOp1
 70
     1
102
RTVSPropertyOp2
 70
     1
102
RTVSPropertyOp3
 70
     1
102
RTVSPropertyOp4
 70
     1
102
RTVSPropertyOp5
 70
     1
102
RTVSPropertyOp6
 70
     1
102
RTVSPropertyOp7
 70
     1
102
RTVSPropertyOp8
 70
     1
102
RTVSPropertyOp9
 70
     1
102
RTVSPropertyOp10
 70
     1
102
RTVSPropertyOp11
 70
     1
102
RTVSPropertyOp12
 70
     1
102
RTVSPropertyOp13
 70
     1
102
RTVSPropertyOp14
 70
     1
102
RTVSPropertyOp15
 70
     1
102
RTVSPropertyOp16
 70
     1
102
RTVSPropertyOp17
 70
     1
102
RTVSPropertyOp18
 70
     1
102
RTVSPropertyOp19
 70
     1
102
RTVSPropertyOp20
 70
     1
102
RTVSPropertyOp21
 70
     1
102
RTVSPropertyOp22
 70
     1
102
RTVSPropertyOp23
 70
     1
102
RTVSPropertyOp24
 70
     1
102
RTVSPropertyOp25
 70
     1
102
RTVSPropertyOp26
 70
     1
102
RTVSPropertyOp27
 70
     1
  0
XRECORD
  5
1641
102
{ACAD_REACTORS
330
1640
102
}
330
1640
100
AcDbXrecord
280
     1
102
RTVSPropertyOp0
 70
     1
102
RTVSPropertyOp1
 70
     1
102
RTVSPropertyOp2
 70
     1
102
RTVSPropertyOp3
 70
     1
102
RTVSPropertyOp4
 70
     1
102
RTVSPropertyOp5
 70
     1
102
RTVSPropertyOp6
 70
     1
102
RTVSPropertyOp7
 70
     1
102
RTVSPropertyOp8
 70
     1
102
RTVSPropertyOp9
 70
     1
102
RTVSPropertyOp10
 70
     1
102
RTVSPropertyOp11
 70
     1
102
RTVSPropertyOp12
 70
     1
102
RTVSPropertyOp13
 70
     1
102
RTVSPropertyOp14
 70
     1
102
RTVSPropertyOp15
 70
     1
102
RTVSPropertyOp16
 70
     1
102
RTVSPropertyOp17
 70
     1
102
RTVSPropertyOp18
 70
     1
102
RTVSPropertyOp19
 70
     1
102
RTVSPropertyOp20
 70
     1
102
RTVSPropertyOp21
 70
     1
102
RTVSPropertyOp22
 70
     1
102
RTVSPropertyOp23
 70
     1
102
RTVSPropertyOp24
 70
     1
102
RTVSPropertyOp25
 70
     1
102
RTVSPropertyOp26
 70
     1
102
RTVSPropertyOp27
 70
     1
  0
XRECORD
  5
1651
102
{ACAD_REACTORS
330
1650
102
}
330
1650
100
AcDbXrecord
280
     1
102
RTVSPropertyOp0
 70
     0
102
RTVSPropertyOp1
 70
     0
102
RTVSPropertyOp2
 70
     0
102
RTVSPropertyOp3
 70
     0
102
RTVSPropertyOp4
 70
     0
102
RTVSPropertyOp5
 70
     0
102
RTVSPropertyOp6
 70
     0
102
RTVSPropertyOp7
 70
     0
102
RTVSPropertyOp8
 70
     0
102
RTVSPropertyOp9
 70
     0
102
RTVSPropertyOp10
 70
     0
102
RTVSPropertyOp11
 70
     0
102
RTVSPropertyOp12
 70
     0
102
RTVSPropertyOp13
 70
     0
102
RTVSPropertyOp14
 70
     2
102
RTVSPropertyOp15
 70
     0
102
RTVSPropertyOp16
 70
     0
102
RTVSPropertyOp17
 70
     0
102
RTVSPropertyOp18
 70
     0
102
RTVSPropertyOp19
 70
     0
102
RTVSPropertyOp20
 70
     0
102
RTVSPropertyOp21
 70
     0
102
RTVSPropertyOp22
 70
     0
102
RTVSPropertyOp23
 70
     0
102
RTVSPropertyOp24
 70
     0
102
RTVSPropertyOp25
 70
     0
102
RTVSPropertyOp26
 70
     0
102
RTVSPropertyOp27
 70
     0
  0
XRECORD
  5
1649
102
{ACAD_REACTORS
330
1648
102
}
330
1648
100
AcDbXrecord
280
     1
102
RTVSPropertyOp0
 70
     1
102
RTVSPropertyOp1
 70
     1
102
RTVSPropertyOp2
 70
     1
102
RTVSPropertyOp3
 70
     1
102
RTVSPropertyOp4
 70
     1
102
RTVSPropertyOp5
 70
     1
102
RTVSPropertyOp6
 70
     1
102
RTVSPropertyOp7
 70
     1
102
RTVSPropertyOp8
 70
     1
102
RTVSPropertyOp9
 70
     1
102
RTVSPropertyOp10
 70
     1
102
RTVSPropertyOp11
 70
     1
102
RTVSPropertyOp12
 70
     1
102
RTVSPropertyOp13
 70
     1
102
RTVSPropertyOp14
 70
     1
102
RTVSPropertyOp15
 70
     1
102
RTVSPropertyOp16
 70
     1
102
RTVSPropertyOp17
 70
     1
102
RTVSPropertyOp18
 70
     1
102
RTVSPropertyOp19
 70
     1
102
RTVSPropertyOp20
 70
     1
102
RTVSPropertyOp21
 70
     1
102
RTVSPropertyOp22
 70
     1
102
RTVSPropertyOp23
 70
     1
102
RTVSPropertyOp24
 70
     1
102
RTVSPropertyOp25
 70
     1
102
RTVSPropertyOp26
 70
     1
102
RTVSPropertyOp27
 70
     1
  0
XRECORD
  5
162D
102
{ACAD_REACTORS
330
162C
102
}
330
162C
100
AcDbXrecord
280
     1
102
RTVSPropertyOp0
 70
     1
102
RTVSPropertyOp1
 70
     1
102
RTVSPropertyOp2
 70
     1
102
RTVSPropertyOp3
 70
     1
102
RTVSPropertyOp4
 70
     1
102
RTVSPropertyOp5
 70
     1
102
RTVSPropertyOp6
 70
     1
102
RTVSPropertyOp7
 70
     1
102
RTVSPropertyOp8
 70
     1
102
RTVSPropertyOp9
 70
     1
102
RTVSPropertyOp10
 70
     1
102
RTVSPropertyOp11
 70
     1
102
RTVSPropertyOp12
 70
     1
102
RTVSPropertyOp13
 70
     1
102
RTVSPropertyOp14
 70
     1
102
RTVSPropertyOp15
 70
     1
102
RTVSPropertyOp16
 70
     1
102
RTVSPropertyOp17
 70
     1
102
RTVSPropertyOp18
 70
     1
102
RTVSPropertyOp19
 70
     1
102
RTVSPropertyOp20
 70
     1
102
RTVSPropertyOp21
 70
     1
102
RTVSPropertyOp22
 70
     1
102
RTVSPropertyOp23
 70
     1
102
RTVSPropertyOp24
 70
     1
102
RTVSPropertyOp25
 70
     1
102
RTVSPropertyOp26
 70
     1
102
RTVSPropertyOp27
 70
     1
  0
XRECORD
  5
162F
102
{ACAD_REACTORS
330
162E
102
}
330
162E
100
AcDbXrecord
280
     1
102
RTVSPropertyOp0
 70
     1
102
RTVSPropertyOp1
 70
     1
102
RTVSPropertyOp2
 70
     1
102
RTVSPropertyOp3
 70
     1
102
RTVSPropertyOp4
 70
     1
102
RTVSPropertyOp5
 70
     1
102
RTVSPropertyOp6
 70
     1
102
RTVSPropertyOp7
 70
     1
102
RTVSPropertyOp8
 70
     1
102
RTVSPropertyOp9
 70
     1
102
RTVSPropertyOp10
 70
     1
102
RTVSPropertyOp11
 70
     1
102
RTVSPropertyOp12
 70
     1
102
RTVSPropertyOp13
 70
     1
102
RTVSPropertyOp14
 70
     1
102
RTVSPropertyOp15
 70
     1
102
RTVSPropertyOp16
 70
     1
102
RTVSPropertyOp17
 70
     1
102
RTVSPropertyOp18
 70
     1
102
RTVSPropertyOp19
 70
     1
102
RTVSPropertyOp20
 70
     1
102
RTVSPropertyOp21
 70
     1
102
RTVSPropertyOp22
 70
     1
102
RTVSPropertyOp23
 70
     1
102
RTVSPropertyOp24
 70
     1
102
RTVSPropertyOp25
 70
     1
102
RTVSPropertyOp26
 70
     1
102
RTVSPropertyOp27
 70
     1
  0
XRECORD
  5
1631
102
{ACAD_REACTORS
330
1630
102
}
330
1630
100
AcDbXrecord
280
     1
102
RTVSPropertyOp0
 70
     1
102
RTVSPropertyOp1
 70
     1
102
RTVSPropertyOp2
 70
     1
102
RTVSPropertyOp3
 70
     1
102
RTVSPropertyOp4
 70
     1
102
RTVSPropertyOp5
 70
     1
102
RTVSPropertyOp6
 70
     1
102
RTVSPropertyOp7
 70
     1
102
RTVSPropertyOp8
 70
     1
102
RTVSPropertyOp9
 70
     1
102
RTVSPropertyOp10
 70
     1
102
RTVSPropertyOp11
 70
     1
102
RTVSPropertyOp12
 70
     1
102
RTVSPropertyOp13
 70
     1
102
RTVSPropertyOp14
 70
     1
102
RTVSPropertyOp15
 70
     1
102
RTVSPropertyOp16
 70
     1
102
RTVSPropertyOp17
 70
     1
102
RTVSPropertyOp18
 70
     1
102
RTVSPropertyOp19
 70
     1
102
RTVSPropertyOp20
 70
     1
102
RTVSPropertyOp21
 70
     1
102
RTVSPropertyOp22
 70
     1
102
RTVSPropertyOp23
 70
     1
102
RTVSPropertyOp24
 70
     1
102
RTVSPropertyOp25
 70
     1
102
RTVSPropertyOp26
 70
     1
102
RTVSPropertyOp27
 70
     1
  0
XRECORD
  5
1633
102
{ACAD_REACTORS
330
1632
102
}
330
1632
100
AcDbXrecord
280
     1
102
RTVSPropertyOp0
 70
     1
102
RTVSPropertyOp1
 70
     1
102
RTVSPropertyOp2
 70
     1
102
RTVSPropertyOp3
 70
     1
102
RTVSPropertyOp4
 70
     1
102
RTVSPropertyOp5
 70
     1
102
RTVSPropertyOp6
 70
     1
102
RTVSPropertyOp7
 70
     1
102
RTVSPropertyOp8
 70
     1
102
RTVSPropertyOp9
 70
     1
102
RTVSPropertyOp10
 70
     1
102
RTVSPropertyOp11
 70
     1
102
RTVSPropertyOp12
 70
     1
102
RTVSPropertyOp13
 70
     1
102
RTVSPropertyOp14
 70
     1
102
RTVSPropertyOp15
 70
     1
102
RTVSPropertyOp16
 70
     1
102
RTVSPropertyOp17
 70
     1
102
RTVSPropertyOp18
 70
     1
102
RTVSPropertyOp19
 70
     1
102
RTVSPropertyOp20
 70
     1
102
RTVSPropertyOp21
 70
     1
102
RTVSPropertyOp22
 70
     1
102
RTVSPropertyOp23
 70
     1
102
RTVSPropertyOp24
 70
     1
102
RTVSPropertyOp25
 70
     1
102
RTVSPropertyOp26
 70
     1
102
RTVSPropertyOp27
 70
     1
  0
XRECORD
  5
164D
102
{ACAD_REACTORS
330
164C
102
}
330
164C
100
AcDbXrecord
280
     1
102
RTVSPropertyOp0
 70
     0
102
RTVSPropertyOp1
 70
     0
102
RTVSPropertyOp2
 70
     0
102
RTVSPropertyOp3
 70
     0
102
RTVSPropertyOp4
 70
     0
102
RTVSPropertyOp5
 70
     0
102
RTVSPropertyOp6
 70
     0
102
RTVSPropertyOp7
 70
     0
102
RTVSPropertyOp8
 70
     0
102
RTVSPropertyOp9
 70
     0
102
RTVSPropertyOp10
 70
     0
102
RTVSPropertyOp11
 70
     0
102
RTVSPropertyOp12
 70
     0
102
RTVSPropertyOp13
 70
     0
102
RTVSPropertyOp14
 70
     2
102
RTVSPropertyOp15
 70
     0
102
RTVSPropertyOp16
 70
     0
102
RTVSPropertyOp17
 70
     0
102
RTVSPropertyOp18
 70
     0
102
RTVSPropertyOp19
 70
     0
102
RTVSPropertyOp20
 70
     0
102
RTVSPropertyOp21
 70
     0
102
RTVSPropertyOp22
 70
     0
102
RTVSPropertyOp23
 70
     0
102
RTVSPropertyOp24
 70
     0
102
RTVSPropertyOp25
 70
     0
102
RTVSPropertyOp26
 70
     0
102
RTVSPropertyOp27
 70
     0
  0
XRECORD
  5
1647
102
{ACAD_REACTORS
330
1646
102
}
330
1646
100
AcDbXrecord
280
     1
102
RTVSPropertyOp0
 70
     1
102
RTVSPropertyOp1
 70
     1
102
RTVSPropertyOp2
 70
     1
102
RTVSPropertyOp3
 70
     1
102
RTVSPropertyOp4
 70
     1
102
RTVSPropertyOp5
 70
     1
102
RTVSPropertyOp6
 70
     1
102
RTVSPropertyOp7
 70
     1
102
RTVSPropertyOp8
 70
     1
102
RTVSPropertyOp9
 70
     1
102
RTVSPropertyOp10
 70
     1
102
RTVSPropertyOp11
 70
     1
102
RTVSPropertyOp12
 70
     1
102
RTVSPropertyOp13
 70
     1
102
RTVSPropertyOp14
 70
     1
102
RTVSPropertyOp15
 70
     1
102
RTVSPropertyOp16
 70
     1
102
RTVSPropertyOp17
 70
     1
102
RTVSPropertyOp18
 70
     1
102
RTVSPropertyOp19
 70
     1
102
RTVSPropertyOp20
 70
     1
102
RTVSPropertyOp21
 70
     1
102
RTVSPropertyOp22
 70
     1
102
RTVSPropertyOp23
 70
     1
102
RTVSPropertyOp24
 70
     1
102
RTVSPropertyOp25
 70
     1
102
RTVSPropertyOp26
 70
     1
102
RTVSPropertyOp27
 70
     1
  0
XRECORD
  5
164F
102
{ACAD_REACTORS
330
164E
102
}
330
164E
100
AcDbXrecord
280
     1
102
RTVSPropertyOp0
 70
     0
102
RTVSPropertyOp1
 70
     0
102
RTVSPropertyOp2
 70
     0
102
RTVSPropertyOp3
 70
     0
102
RTVSPropertyOp4
 70
     0
102
RTVSPropertyOp5
 70
     0
102
RTVSPropertyOp6
 70
     0
102
RTVSPropertyOp7
 70
     0
102
RTVSPropertyOp8
 70
     0
102
RTVSPropertyOp9
 70
     0
102
RTVSPropertyOp10
 70
     0
102
RTVSPropertyOp11
 70
     0
102
RTVSPropertyOp12
 70
     0
102
RTVSPropertyOp13
 70
     0
102
RTVSPropertyOp14
 70
     2
102
RTVSPropertyOp15
 70
     0
102
RTVSPropertyOp16
 70
     0
102
RTVSPropertyOp17
 70
     0
102
RTVSPropertyOp18
 70
     0
102
RTVSPropertyOp19
 70
     0
102
RTVSPropertyOp20
 70
     0
102
RTVSPropertyOp21
 70
     0
102
RTVSPropertyOp22
 70
     0
102
RTVSPropertyOp23
 70
     0
102
RTVSPropertyOp24
 70
     0
102
RTVSPropertyOp25
 70
     0
102
RTVSPropertyOp26
 70
     0
102
RTVSPropertyOp27
 70
     0
  0
XRECORD
  5
163F
102
{ACAD_REACTORS
330
163E
102
}
330
163E
100
AcDbXrecord
280
     1
102
RTVSPropertyOp0
 70
     1
102
RTVSPropertyOp1
 70
     1
102
RTVSPropertyOp2
 70
     1
102
RTVSPropertyOp3
 70
     1
102
RTVSPropertyOp4
 70
     1
102
RTVSPropertyOp5
 70
     1
102
RTVSPropertyOp6
 70
     1
102
RTVSPropertyOp7
 70
     1
102
RTVSPropertyOp8
 70
     1
102
RTVSPropertyOp9
 70
     1
102
RTVSPropertyOp10
 70
     1
102
RTVSPropertyOp11
 70
     1
102
RTVSPropertyOp12
 70
     1
102
RTVSPropertyOp13
 70
     1
102
RTVSPropertyOp14
 70
     1
102
RTVSPropertyOp15
 70
     1
102
RTVSPropertyOp16
 70
     1
102
RTVSPropertyOp17
 70
     1
102
RTVSPropertyOp18
 70
     1
102
RTVSPropertyOp19
 70
     1
102
RTVSPropertyOp20
 70
     1
102
RTVSPropertyOp21
 70
     1
102
RTVSPropertyOp22
 70
     1
102
RTVSPropertyOp23
 70
     1
102
RTVSPropertyOp24
 70
     1
102
RTVSPropertyOp25
 70
     1
102
RTVSPropertyOp26
 70
     1
102
RTVSPropertyOp27
 70
     1
  0
XRECORD
  5
1645
102
{ACAD_REACTORS
330
1644
102
}
330
1644
100
AcDbXrecord
280
     1
102
RTVSPropertyOp0
 70
     1
102
RTVSPropertyOp1
 70
     1
102
RTVSPropertyOp2
 70
     1
102
RTVSPropertyOp3
 70
     1
102
RTVSPropertyOp4
 70
     1
102
RTVSPropertyOp5
 70
     1
102
RTVSPropertyOp6
 70
     1
102
RTVSPropertyOp7
 70
     1
102
RTVSPropertyOp8
 70
     1
102
RTVSPropertyOp9
 70
     1
102
RTVSPropertyOp10
 70
     1
102
RTVSPropertyOp11
 70
     1
102
RTVSPropertyOp12
 70
     1
102
RTVSPropertyOp13
 70
     1
102
RTVSPropertyOp14
 70
     1
102
RTVSPropertyOp15
 70
     1
102
RTVSPropertyOp16
 70
     1
102
RTVSPropertyOp17
 70
     1
102
RTVSPropertyOp18
 70
     1
102
RTVSPropertyOp19
 70
     1
102
RTVSPropertyOp20
 70
     1
102
RTVSPropertyOp21
 70
     1
102
RTVSPropertyOp22
 70
     1
102
RTVSPropertyOp23
 70
     1
102
RTVSPropertyOp24
 70
     1
102
RTVSPropertyOp25
 70
     1
102
RTVSPropertyOp26
 70
     1
102
RTVSPropertyOp27
 70
     1
  0
ENDSEC
  0
EOF
