  0
SECTION
  2
HEADER
  9
$ACADVER
  1
AC1021
  9
$ACADMAINTVER
 70
    50
  9
$DWGCODEPAGE
  3
ANSI_1252
  9
$LASTSAVEDBY
  1
francoisbu
  9
$INSBASE
 10
0.0
 20
0.0
 30
0.0
  9
$EXTMIN
 10
16.1132610634
 20
61.3883290176
 30
0.0
  9
$EXTMAX
 10
84.0904339381
 20
99.36550189240001
 30
0.0
  9
$LIMMIN
 10
0.0
 20
0.0
  9
$LIMMAX
 10
181.3333333333
 20
117.3333333333
  9
$ORTHOMODE
 70
     0
  9
$REGENMODE
 70
     1
  9
$FILLMODE
 70
     1
  9
$QTEXTMODE
 70
     0
  9
$MIRRTEXT
 70
     0
  9
$LTSCALE
 40
9.973333333300001
  9
$ATTMODE
 70
     1
  9
$TEXTSIZE
 40
0.2
  9
$TRACEWID
 40
0.05
  9
$TEXTSTYLE
  7
STANDARD
  9
$CLAYER
  8
0
  9
$CELTYPE
  6
BYLAYER
  9
$CECOLOR
 62
   256
  9
$CELTSCALE
 40
1.0
  9
$DISPSILH
 70
     0
  9
$DIMSCALE
 40
1.0
  9
$DIMASZ
 40
2.0
  9
$DIMEXO
 40
0.0625
  9
$DIMDLI
 40
6.890666666699999
  9
$DIMRND
 40
0.0
  9
$DIMDLE
 40
0.0
  9
$DIMEXE
 40
0.125
  9
$DIMTP
 40
0.00001
  9
$DIMTM
 40
0.00001
  9
$DIMTXT
 40
1.333333333299999
  9
$DIMCEN
 40
1.631999999999999
  9
$DIMTSZ
 40
0.0
  9
$DIMTOL
 70
     1
  9
$DIMLIM
 70
     0
  9
$DIMTIH
 70
     1
  9
$DIMTOH
 70
     1
  9
$DIMSE1
 70
     0
  9
$DIMSE2
 70
     0
  9
$DIMTAD
 70
     0
  9
$DIMZIN
 70
     0
  9
$DIMBLK
  1
_FILLED
  9
$DIMASO
 70
     1
  9
$DIMSHO
 70
     1
  9
$DIMPOST
  1

  9
$DIMAPOST
  1

  9
$DIMALT
 70
     0
  9
$DIMALTD
 70
     2
  9
$DIMALTF
 40
25.4
  9
$DIMLFAC
 40
1.0
  9
$DIMTOFL
 70
     0
  9
$DIMTVP
 40
0.0
  9
$DIMTIX
 70
     0
  9
$DIMSOXD
 70
     0
  9
$DIMSAH
 70
     0
  9
$DIMBLK1
  1

  9
$DIMBLK2
  1

  9
$DIMSTYLE
  2
STANDARD
  9
$DIMCLRD
 70
     0
  9
$DIMCLRE
 70
     0
  9
$DIMCLRT
 70
     0
  9
$DIMTFAC
 40
1.0
  9
$DIMGAP
 40
0.09
  9
$DIMJUST
 70
     0
  9
$DIMSD1
 70
     0
  9
$DIMSD2
 70
     0
  9
$DIMTOLJ
 70
     1
  9
$DIMTZIN
 70
     0
  9
$DIMALTZ
 70
     0
  9
$DIMALTTZ
 70
     0
  9
$DIMUPT
 70
     0
  9
$DIMDEC
 70
     4
  9
$DIMTDEC
 70
     4
  9
$DIMALTU
 70
     2
  9
$DIMALTTD
 70
     2
  9
$DIMTXSTY
  7
STANDARD
  9
$DIMAUNIT
 70
     0
  9
$DIMADEC
 70
     0
  9
$DIMALTRND
 40
0.0
  9
$DIMAZIN
 70
     0
  9
$DIMDSEP
 70
    46
  9
$DIMATFIT
 70
     3
  9
$DIMFRAC
 70
     0
  9
$DIMLDRBLK
  1

  9
$DIMLUNIT
 70
     2
  9
$DIMLWD
 70
    -2
  9
$DIMLWE
 70
    -2
  9
$DIMTMOVE
 70
     0
  9
$DIMFXL
 40
1.0
  9
$DIMFXLON
 70
     0
  9
$DIMJOGANG
 40
0.7853981633974483
  9
$DIMTFILL
 70
     0
  9
$DIMTFILLCLR
 70
     0
  9
$DIMARCSYM
 70
     0
  9
$DIMLTYPE
  6

  9
$DIMLTEX1
  6

  9
$DIMLTEX2
  6

  9
$LUNITS
 70
     2
  9
$LUPREC
 70
     4
  9
$SKETCHINC
 40
0.1
  9
$FILLETRAD
 40
0.0
  9
$AUNITS
 70
     0
  9
$AUPREC
 70
     0
  9
$MENU
  1
.
  9
$ELEVATION
 40
0.0
  9
$PELEVATION
 40
0.0
  9
$THICKNESS
 40
0.0
  9
$LIMCHECK
 70
     0
  9
$CHAMFERA
 40
0.0
  9
$CHAMFERB
 40
0.0
  9
$CHAMFERC
 40
0.0
  9
$CHAMFERD
 40
0.0
  9
$SKPOLY
 70
     0
  9
$TDCREATE
 40
2456461.542503820
  9
$TDUCREATE
 40
2456461.709170486
  9
$TDUPDATE
 40
2456566.371942500
  9
$TDUUPDATE
 40
2456566.538609167
  9
$TDINDWG
 40
0.0019799653
  9
$TDUSRTIMER
 40
0.0019799653
  9
$USRTIMER
 70
     1
  9
$ANGBASE
 50
0.0
  9
$ANGDIR
 70
     0
  9
$PDMODE
 70
     3
  9
$PDSIZE
 40
0.03125
  9
$PLINEWID
 40
0.0
  9
$SPLFRAME
 70
     0
  9
$SPLINETYPE
 70
     6
  9
$SPLINESEGS
 70
     8
  9
$HANDSEED
  5
16C8
  9
$SURFTAB1
 70
     6
  9
$SURFTAB2
 70
     6
  9
$SURFTYPE
 70
     6
  9
$SURFU
 70
     6
  9
$SURFV
 70
     6
  9
$UCSBASE
  2

  9
$UCSNAME
  2

  9
$UCSORG
 10
0.0
 20
0.0
 30
0.0
  9
$UCSXDIR
 10
1.0
 20
0.0
 30
0.0
  9
$UCSYDIR
 10
0.0
 20
1.0
 30
0.0
  9
$UCSORTHOREF
  2

  9
$UCSORTHOVIEW
 70
     0
  9
$UCSORGTOP
 10
0.0
 20
0.0
 30
0.0
  9
$UCSORGBOTTOM
 10
0.0
 20
0.0
 30
0.0
  9
$UCSORGLEFT
 10
0.0
 20
0.0
 30
0.0
  9
$UCSORGRIGHT
 10
0.0
 20
0.0
 30
0.0
  9
$UCSORGFRONT
 10
0.0
 20
0.0
 30
0.0
  9
$UCSORGBACK
 10
0.0
 20
0.0
 30
0.0
  9
$PUCSBASE
  2

  9
$PUCSNAME
  2

  9
$PUCSORG
 10
0.0
 20
0.0
 30
0.0
  9
$PUCSXDIR
 10
1.0
 20
0.0
 30
0.0
  9
$PUCSYDIR
 10
0.0
 20
1.0
 30
0.0
  9
$PUCSORTHOREF
  2

  9
$PUCSORTHOVIEW
 70
     0
  9
$PUCSORGTOP
 10
0.0
 20
0.0
 30
0.0
  9
$PUCSORGBOTTOM
 10
0.0
 20
0.0
 30
0.0
  9
$PUCSORGLEFT
 10
0.0
 20
0.0
 30
0.0
  9
$PUCSORGRIGHT
 10
0.0
 20
0.0
 30
0.0
  9
$PUCSORGFRONT
 10
0.0
 20
0.0
 30
0.0
  9
$PUCSORGBACK
 10
0.0
 20
0.0
 30
0.0
  9
$USERI1
 70
     0
  9
$USERI2
 70
     0
  9
$USERI3
 70
     0
  9
$USERI4
 70
     0
  9
$USERI5
 70
     0
  9
$USERR1
 40
0.0
  9
$USERR2
 40
0.0
  9
$USERR3
 40
0.0
  9
$USERR4
 40
0.0
  9
$USERR5
 40
0.0
  9
$WORLDVIEW
 70
     1
  9
$SHADEDGE
 70
     3
  9
$SHADEDIF
 70
    70
  9
$TILEMODE
 70
     1
  9
$MAXACTVP
 70
    64
  9
$PINSBASE
 10
0.0
 20
0.0
 30
0.0
  9
$PLIMCHECK
 70
     0
  9
$PEXTMIN
 10
1.000000000000000E+20
 20
1.000000000000000E+20
 30
1.000000000000000E+20
  9
$PEXTMAX
 10
-1.000000000000000E+20
 20
-1.000000000000000E+20
 30
-1.000000000000000E+20
  9
$PLIMMIN
 10
0.0
 20
0.0
  9
$PLIMMAX
 10
12.0
 20
9.0
  9
$UNITMODE
 70
     0
  9
$VISRETAIN
 70
     1
  9
$PLINEGEN
 70
     0
  9
$PSLTSCALE
 70
     1
  9
$TREEDEPTH
 70
  3020
  9
$CMLSTYLE
  2
Standard
  9
$CMLJUST
 70
     0
  9
$CMLSCALE
 40
1.0
  9
$PROXYGRAPHICS
 70
     1
  9
$MEASUREMENT
 70
     0
  9
$CELWEIGHT
370
    -1
  9
$ENDCAPS
280
     0
  9
$JOINSTYLE
280
     0
  9
$LWDISPLAY
290
     0
  9
$INSUNITS
 70
     1
  9
$HYPERLINKBASE
  1

  9
$STYLESHEET
  1

  9
$XEDIT
290
     1
  9
$CEPSNTYPE
380
     0
  9
$PSTYLEMODE
290
     1
  9
$FINGERPRINTGUID
  2
{D224AAFE-DF86-4DB5-ABF0-222785578DC9}
  9
$VERSIONGUID
  2
{FDE36578-6EFA-4BCD-B909-0A828540F3D6}
  9
$EXTNAMES
290
     1
  9
$PSVPSCALE
 40
0.0
  9
$OLESTARTUP
290
     0
  9
$SORTENTS
280
   127
  9
$INDEXCTL
280
     0
  9
$HIDETEXT
280
     0
  9
$XCLIPFRAME
290
     0
  9
$HALOGAP
280
     0
  9
$OBSCOLOR
 70
   257
  9
$OBSLTYPE
280
     0
  9
$INTERSECTIONDISPLAY
280
     0
  9
$INTERSECTIONCOLOR
 70
   257
  9
$DIMASSOC
280
     1
  9
$PROJECTNAME
  1

  9
$CAMERADISPLAY
290
     0
  9
$LENSLENGTH
 40
50.0
  9
$CAMERAHEIGHT
 40
0.0
  9
$STEPSPERSEC
 40
2.0
  9
$STEPSIZE
 40
6.0
  9
$3DDWFPREC
 40
2.0
  9
$PSOLWIDTH
 40
0.25
  9
$PSOLHEIGHT
 40
4.0
  9
$LOFTANG1
 40
1.570796326794896
  9
$LOFTANG2
 40
1.570796326794896
  9
$LOFTMAG1
 40
0.0
  9
$LOFTMAG2
 40
0.0
  9
$LOFTPARAM
 70
     7
  9
$LOFTNORMALS
280
     1
  9
$LATITUDE
 40
37.795
  9
$LONGITUDE
 40
-122.394
  9
$NORTHDIRECTION
 40
0.0
  9
$TIMEZONE
 70
 -8000
  9
$LIGHTGLYPHDISPLAY
280
     1
  9
$TILEMODELIGHTSYNCH
280
     1
  9
$CMATERIAL
347
15CB
  9
$SOLIDHIST
280
     1
  9
$SHOWHIST
280
     1
  9
$DWFFRAME
280
     2
  9
$DGNFRAME
280
     0
  9
$REALWORLDSCALE
290
     1
  9
$INTERFERECOLOR
 62
     1
  9
$INTERFEREOBJVS
345
15ED
  9
$INTERFEREVPVS
346
15EA
  9
$CSHADOW
280
     0
  9
$SHADOWPLANELOCATION
 40
0.0
  0
ENDSEC
  0
SECTION
  2
CLASSES
  0
CLASS
  1
ACDBDICTIONARYWDFLT
  2
AcDbDictionaryWithDefault
  3
ObjectDBX Classes
 90
        0
 91
        1
280
     0
281
     0
  0
CLASS
  1
MATERIAL
  2
AcDbMaterial
  3
ObjectDBX Classes
 90
     1153
 91
        3
280
     0
281
     0
  0
CLASS
  1
VISUALSTYLE
  2
AcDbVisualStyle
  3
ObjectDBX Classes
 90
     4095
 91
       19
280
     0
281
     0
  0
CLASS
  1
TABLESTYLE
  2
AcDbTableStyle
  3
ObjectDBX Classes
 90
     4095
 91
        1
280
     0
281
     0
  0
CLASS
  1
SCALE
  2
AcDbScale
  3
ObjectDBX Classes
 90
     1153
 91
       33
280
     0
281
     0
  0
CLASS
  1
MLEADERSTYLE
  2
AcDbMLeaderStyle
  3
ACDB_MLEADERSTYLE_CLASS
 90
     4095
 91
        1
280
     0
281
     0
  0
CLASS
  1
CELLSTYLEMAP
  2
AcDbCellStyleMap
  3
ObjectDBX Classes
 90
     1152
 91
        2
280
     0
281
     0
  0
CLASS
  1
DICTIONARYVAR
  2
AcDbDictionaryVar
  3
ObjectDBX Classes
 90
        0
 91
       11
280
     0
281
     0
  0
ENDSEC
  0
SECTION
  2
TABLES
  0
TABLE
  2
VPORT
  5
8
102
{ACAD_XDICTIONARY
360
1623
102
}
330
0
100
AcDbSymbolTable
 70
     1
  0
VPORT
  5
1F4
330
8
100
AcDbSymbolTableRecord
100
AcDbViewportTableRecord
  2
*ACTIVE
 70
     0
 10
0.0
 20
0.0
 11
1.0
 21
1.0
 12
50.10292370157751
 22
83.7836394119164
 13
0.0
 23
0.0
 14
1.0
 24
1.0
 15
0.0
 25
0.0
 16
0.0
 26
0.0
 36
1.0
 17
0.0
 27
0.0
 37
0.0
 40
38.30668669094278
 41
2.41111111111111
 42
50.0
 43
0.0
 44
0.0
 50
0.0
 51
0.0
 71
     0
 72
   100
 73
     1
 74
     1
 75
     0
 76
     0
 77
     0
 78
     0
281
     0
 65
     1
110
0.0
120
0.0
130
0.0
111
1.0
121
0.0
131
0.0
112
0.0
122
1.0
132
0.0
 79
     0
146
0.0
348
15E9
 60
     3
 61
     5
292
     1
282
     1
141
0.0
142
0.0
 63
   250
421
  3355443
  0
ENDTAB
  0
TABLE
  2
LTYPE
  5
5
330
0
100
AcDbSymbolTable
 70
     6
  0
LTYPE
  5
14
330
5
100
AcDbSymbolTableRecord
100
AcDbLinetypeTableRecord
  2
BYBLOCK
 70
     0
  3

 72
    65
 73
     0
 40
0.0
  0
LTYPE
  5
15
330
5
100
AcDbSymbolTableRecord
100
AcDbLinetypeTableRecord
  2
BYLAYER
 70
     0
  3

 72
    65
 73
     0
 40
0.0
  0
LTYPE
  5
16
330
5
100
AcDbSymbolTableRecord
100
AcDbLinetypeTableRecord
  2
CONTINUOUS
 70
     0
  3
Solid line
 72
    65
 73
     0
 40
0.0
  0
LTYPE
  5
1F5
330
5
100
AcDbSymbolTableRecord
100
AcDbLinetypeTableRecord
  2
CENTER
 70
     0
  3
____ _ ____ _ ____ _ ____ _ ____ _ ____ _ ____
 72
    65
 73
     4
 40
0.6
 49
0.375
 74
     0
 49
-0.075
 74
     0
 49
0.075
 74
     0
 49
-0.075
 74
     0
  0
LTYPE
  5
1F6
330
5
100
AcDbSymbolTableRecord
100
AcDbLinetypeTableRecord
  2
HIDDEN
 70
     0
  3
- - - - - - - - - - - - - - - - - - - -
 72
    65
 73
     2
 40
0.2
 49
0.1
 74
     0
 49
-0.1
 74
     0
  0
LTYPE
  5
1F7
330
5
100
AcDbSymbolTableRecord
100
AcDbLinetypeTableRecord
  2
PHANTOM
 70
     0
  3
_____ _ _ _____ _ _ _____ _ _ _____
 72
    65
 73
     6
 40
0.8
 49
0.45
 74
     0
 49
-0.05
 74
     0
 49
0.1
 74
     0
 49
-0.05
 74
     0
 49
0.1
 74
     0
 49
-0.05
 74
     0
  0
LTYPE
  5
1F8
330
5
100
AcDbSymbolTableRecord
100
AcDbLinetypeTableRecord
  2
DOT
 70
     0
  3
. . . . . . . . . . . . . . . . . . . .
 72
    65
 73
     2
 40
0.2
 49
0.1
 74
     0
 49
-0.1
 74
     0
  0
LTYPE
  5
1F9
330
5
100
AcDbSymbolTableRecord
100
AcDbLinetypeTableRecord
  2
DASHED
 70
     0
  3
- - - - - - - - - - - - - - - - - - - -
 72
    65
 73
     2
 40
0.2
 49
0.1
 74
     0
 49
-0.1
 74
     0
  0
ENDTAB
  0
TABLE
  2
LAYER
  5
2
330
0
100
AcDbSymbolTable
 70
    40
  0
LAYER
  5
10
102
{ACAD_XDICTIONARY
360
1663
102
}
330
2
100
AcDbSymbolTableRecord
100
AcDbLayerTableRecord
  2
0
 70
     0
 62
     7
  6
CONTINUOUS
370
    -3
390
F
347
15DB
  0
LAYER
  5
1FA
102
{ACAD_XDICTIONARY
360
1665
102
}
330
2
100
AcDbSymbolTableRecord
100
AcDbLayerTableRecord
  2
DEFAULT_1
 70
     0
 62
     7
  6
CENTER
370
    -3
390
F
347
15DB
  0
LAYER
  5
1FB
102
{ACAD_XDICTIONARY
360
1667
102
}
330
2
100
AcDbSymbolTableRecord
100
AcDbLayerTableRecord
  2
DEFAULT_2
 70
     0
 62
     7
  6
HIDDEN
370
    -3
390
F
347
15DB
  0
LAYER
  5
1FC
102
{ACAD_XDICTIONARY
360
1669
102
}
330
2
100
AcDbSymbolTableRecord
100
AcDbLayerTableRecord
  2
DEFAULT_3
 70
     0
 62
     7
  6
PHANTOM
370
    -3
390
F
347
15DB
  0
LAYER
  5
1FD
102
{ACAD_XDICTIONARY
360
166B
102
}
330
2
100
AcDbSymbolTableRecord
100
AcDbLayerTableRecord
  2
1_CURVES
 70
     0
 62
     7
  6
CONTINUOUS
370
    -3
390
F
347
15DB
  0
LAYER
  5
1FE
102
{ACAD_XDICTIONARY
360
166D
102
}
330
2
100
AcDbSymbolTableRecord
100
AcDbLayerTableRecord
  2
1_CURVES_CONDUIT
 70
     0
 62
     7
  6
CONTINUOUS
370
    -3
390
F
347
15DB
  0
LAYER
  5
1FF
102
{ACAD_XDICTIONARY
360
166F
102
}
330
2
100
AcDbSymbolTableRecord
100
AcDbLayerTableRecord
  2
1_CURVES_DRW
 70
     0
 62
     7
  6
CONTINUOUS
370
    -3
390
F
347
15DB
  0
LAYER
  5
200
102
{ACAD_XDICTIONARY
360
1671
102
}
330
2
100
AcDbSymbolTableRecord
100
AcDbLayerTableRecord
  2
1_CURVES_JETS
 70
     0
 62
     7
  6
CONTINUOUS
370
    -3
390
F
347
15DB
  0
LAYER
  5
201
102
{ACAD_XDICTIONARY
360
1673
102
}
330
2
100
AcDbSymbolTableRecord
100
AcDbLayerTableRecord
  2
1_CURVES_PATINS
 70
     0
 62
     7
  6
CONTINUOUS
370
    -3
390
F
347
15DB
  0
LAYER
  5
202
102
{ACAD_XDICTIONARY
360
1675
102
}
330
2
100
AcDbSymbolTableRecord
100
AcDbLayerTableRecord
  2
1_CURVES_RESURFACAGE
 70
     0
 62
     7
  6
CONTINUOUS
370
    -3
390
F
347
15DB
  0
LAYER
  5
203
102
{ACAD_XDICTIONARY
360
1677
102
}
330
2
100
AcDbSymbolTableRecord
100
AcDbLayerTableRecord
  2
1_CURVES_SPEC_DROP_IN
 70
     0
 62
     7
  6
CONTINUOUS
370
    -3
390
F
347
15DB
  0
LAYER
  5
204
102
{ACAD_XDICTIONARY
360
1679
102
}
330
2
100
AcDbSymbolTableRecord
100
AcDbLayerTableRecord
  2
1_CURVES_SPEC_FS
 70
     0
 62
     7
  6
CONTINUOUS
370
    -3
390
F
347
15DB
  0
LAYER
  5
205
102
{ACAD_XDICTIONARY
360
167B
102
}
330
2
100
AcDbSymbolTableRecord
100
AcDbLayerTableRecord
  2
2_PLANES
 70
     0
 62
     7
  6
CONTINUOUS
370
    -3
390
F
347
15DB
  0
LAYER
  5
206
102
{ACAD_XDICTIONARY
360
167D
102
}
330
2
100
AcDbSymbolTableRecord
100
AcDbLayerTableRecord
  2
2_PLANES_JETS
 70
     0
 62
     7
  6
CONTINUOUS
370
    -3
390
F
347
15DB
  0
LAYER
  5
207
102
{ACAD_XDICTIONARY
360
167F
102
}
330
2
100
AcDbSymbolTableRecord
100
AcDbLayerTableRecord
  2
3_POINTS
 70
     0
 62
     7
  6
CONTINUOUS
370
    -3
390
F
347
15DB
  0
LAYER
  5
208
102
{ACAD_XDICTIONARY
360
1681
102
}
330
2
100
AcDbSymbolTableRecord
100
AcDbLayerTableRecord
  2
3_POINTS_JETS
 70
     0
 62
     7
  6
CONTINUOUS
370
    -3
390
F
347
15DB
  0
LAYER
  5
209
102
{ACAD_XDICTIONARY
360
1683
102
}
330
2
100
AcDbSymbolTableRecord
100
AcDbLayerTableRecord
  2
4_CSYS
 70
     0
 62
     7
  6
CONTINUOUS
370
    -3
390
F
347
15DB
  0
LAYER
  5
20A
102
{ACAD_XDICTIONARY
360
1685
102
}
330
2
100
AcDbSymbolTableRecord
100
AcDbLayerTableRecord
  2
5_AXIS
 70
     0
 62
     7
  6
CONTINUOUS
370
    -3
390
F
347
15DB
  0
LAYER
  5
20B
102
{ACAD_XDICTIONARY
360
1687
102
}
330
2
100
AcDbSymbolTableRecord
100
AcDbLayerTableRecord
  2
5_AXIS_JETS
 70
     0
 62
     7
  6
CONTINUOUS
370
    -3
390
F
347
15DB
  0
LAYER
  5
20C
102
{ACAD_XDICTIONARY
360
1689
102
}
330
2
100
AcDbSymbolTableRecord
100
AcDbLayerTableRecord
  2
6_AIRE_CONDUIT
 70
     0
 62
     7
  6
CONTINUOUS
370
    -3
390
F
347
15DB
  0
LAYER
  5
20D
102
{ACAD_XDICTIONARY
360
168B
102
}
330
2
100
AcDbSymbolTableRecord
100
AcDbLayerTableRecord
  2
6_SURFACES
 70
     0
 62
     7
  6
CONTINUOUS
370
    -3
390
F
347
15DB
  0
LAYER
  5
20E
102
{ACAD_XDICTIONARY
360
168D
102
}
330
2
100
AcDbSymbolTableRecord
100
AcDbLayerTableRecord
  2
6_SURFACES-TETE
 70
     0
 62
     7
  6
CONTINUOUS
370
    -3
390
F
347
15DB
  0
LAYER
  5
20F
102
{ACAD_XDICTIONARY
360
168F
102
}
330
2
100
AcDbSymbolTableRecord
100
AcDbLayerTableRecord
  2
6_SURFACES-TOOLING
 70
     0
 62
     7
  6
CONTINUOUS
370
    -3
390
F
347
15DB
  0
LAYER
  5
210
102
{ACAD_XDICTIONARY
360
1691
102
}
330
2
100
AcDbSymbolTableRecord
100
AcDbLayerTableRecord
  2
6_SURFACES_AIRE
 70
     0
 62
     7
  6
CONTINUOUS
370
    -3
390
F
347
15DB
  0
LAYER
  5
211
102
{ACAD_XDICTIONARY
360
1693
102
}
330
2
100
AcDbSymbolTableRecord
100
AcDbLayerTableRecord
  2
6_SURFACES_AROMACLOUD
 70
     0
 62
     7
  6
CONTINUOUS
370
    -3
390
F
347
15DB
  0
LAYER
  5
212
102
{ACAD_XDICTIONARY
360
1695
102
}
330
2
100
AcDbSymbolTableRecord
100
AcDbLayerTableRecord
  2
6_SURFACES_DROP_IN
 70
     0
 62
     7
  6
CONTINUOUS
370
    -3
390
F
347
15DB
  0
LAYER
  5
213
102
{ACAD_XDICTIONARY
360
1697
102
}
330
2
100
AcDbSymbolTableRecord
100
AcDbLayerTableRecord
  2
6_SURFACES_FIBRE_ACRYLIQUE
 70
     0
 62
     7
  6
CONTINUOUS
370
    -3
390
F
347
15DB
  0
LAYER
  5
214
102
{ACAD_XDICTIONARY
360
1699
102
}
330
2
100
AcDbSymbolTableRecord
100
AcDbLayerTableRecord
  2
6_SURFACES_FS
 70
     0
 62
     7
  6
CONTINUOUS
370
    -3
390
F
347
15DB
  0
LAYER
  5
215
102
{ACAD_XDICTIONARY
360
169B
102
}
330
2
100
AcDbSymbolTableRecord
100
AcDbLayerTableRecord
  2
6_SURFACES_OFFSET_FIBRE_ACRYLIQ
 70
     0
 62
     7
  6
CONTINUOUS
370
    -3
390
F
347
15DB
  0
LAYER
  5
216
102
{ACAD_XDICTIONARY
360
169D
102
}
330
2
100
AcDbSymbolTableRecord
100
AcDbLayerTableRecord
  2
6_SURFACES_POUR_CONDUIT
 70
     0
 62
     7
  6
CONTINUOUS
370
    -3
390
F
347
15DB
  0
LAYER
  5
217
102
{ACAD_XDICTIONARY
360
169F
102
}
330
2
100
AcDbSymbolTableRecord
100
AcDbLayerTableRecord
  2
6_SURFACES_POUR_HFL
 70
     0
 62
     7
  6
CONTINUOUS
370
    -3
390
F
347
15DB
  0
LAYER
  5
218
102
{ACAD_XDICTIONARY
360
16A1
102
}
330
2
100
AcDbSymbolTableRecord
100
AcDbLayerTableRecord
  2
6_SURFACES_POUR_TROP_PLEIN
 70
     0
 62
     7
  6
CONTINUOUS
370
    -3
390
F
347
15DB
  0
LAYER
  5
219
102
{ACAD_XDICTIONARY
360
16A3
102
}
330
2
100
AcDbSymbolTableRecord
100
AcDbLayerTableRecord
  2
6_SURFACES_ROBINETERIE
 70
     0
 62
     7
  6
CONTINUOUS
370
    -3
390
F
347
15DB
  0
LAYER
  5
21A
102
{ACAD_XDICTIONARY
360
16A5
102
}
330
2
100
AcDbSymbolTableRecord
100
AcDbLayerTableRecord
  2
6_SURFACES_TOOLING
 70
     0
 62
     7
  6
CONTINUOUS
370
    -3
390
F
347
15DB
  0
LAYER
  5
21B
102
{ACAD_XDICTIONARY
360
16A7
102
}
330
2
100
AcDbSymbolTableRecord
100
AcDbLayerTableRecord
  2
6_SURFACES_TOOLING_DROP_IN
 70
     0
 62
     7
  6
CONTINUOUS
370
    -3
390
F
347
15DB
  0
LAYER
  5
21C
102
{ACAD_XDICTIONARY
360
16A9
102
}
330
2
100
AcDbSymbolTableRecord
100
AcDbLayerTableRecord
  2
6_SURFACES_TOOLING_FS
 70
     0
 62
     7
  6
CONTINUOUS
370
    -3
390
F
347
15DB
  0
LAYER
  5
21D
102
{ACAD_XDICTIONARY
360
16AB
102
}
330
2
100
AcDbSymbolTableRecord
100
AcDbLayerTableRecord
  2
7_NOTES
 70
     0
 62
     7
  6
CONTINUOUS
370
    -3
390
F
347
15DB
  0
LAYER
  5
21E
102
{ACAD_XDICTIONARY
360
16AD
102
}
330
2
100
AcDbSymbolTableRecord
100
AcDbLayerTableRecord
  2
8_TOL_GEOM
 70
     0
 62
     7
  6
CONTINUOUS
370
    -3
390
F
347
15DB
  0
LAYER
  5
21F
102
{ACAD_XDICTIONARY
360
16AF
102
}
330
2
100
AcDbSymbolTableRecord
100
AcDbLayerTableRecord
  2
NONE
 70
     0
 62
     7
  6
CONTINUOUS
370
    -3
390
F
347
15DB
  0
LAYER
  5
220
102
{ACAD_XDICTIONARY
360
16B1
102
}
330
2
100
AcDbSymbolTableRecord
100
AcDbLayerTableRecord
  2
XSEC_DATUMS
 70
     0
 62
     7
  6
CONTINUOUS
370
    -3
390
F
347
15DB
  0
ENDTAB
  0
TABLE
  2
STYLE
  5
3
330
0
100
AcDbSymbolTable
 70
     8
  0
STYLE
  5
11
330
3
100
AcDbSymbolTableRecord
100
AcDbTextStyleTableRecord
  2
STANDARD
 70
     0
 40
0.0
 41
0.8
 50
0.0
 71
     0
 42
0.2
  3
txt
  4

  0
STYLE
  5
221
330
3
100
AcDbSymbolTableRecord
100
AcDbTextStyleTableRecord
  2
TEXTSTYLE_1
 70
     0
 40
0.0
 41
0.8
 50
0.0
 71
     0
 42
0.2
  3
gdt
  4

  0
STYLE
  5
222
330
3
100
AcDbSymbolTableRecord
100
AcDbTextStyleTableRecord
  2
TEXTSTYLE_2
 70
     0
 40
0.0
 41
1.0
 50
0.0
 71
     0
 42
0.2
  3
trium.ttf
  4

  0
STYLE
  5
223
330
3
100
AcDbSymbolTableRecord
100
AcDbTextStyleTableRecord
  2
TEXTSTYLE_3
 70
     0
 40
0.0
 41
1.0
 50
0.0
 71
     0
 42
0.2
  3
trium.ttf
  4

  0
STYLE
  5
224
330
3
100
AcDbSymbolTableRecord
100
AcDbTextStyleTableRecord
  2
TEXTSTYLE_4
 70
     0
 40
0.0
 41
1.0
 50
0.0
 71
     0
 42
0.2
  3
txt_____.ttf
  4

1001
ACAD
1000
txt
1071
        2
  0
STYLE
  5
225
330
3
100
AcDbSymbolTableRecord
100
AcDbTextStyleTableRecord
  2
TEXTSTYLE_5
 70
     0
 40
0.0
 41
1.0
 50
0.0
 71
     0
 42
0.2
  3
txt_____.ttf
  4

1001
ACAD
1000
txt
1071
        2
  0
STYLE
  5
226
330
3
100
AcDbSymbolTableRecord
100
AcDbTextStyleTableRecord
  2
TEXTSTYLE_6
 70
     0
 40
0.0
 41
1.0
 50
0.0
 71
     0
 42
0.2
  3
trium.ttf
  4

  0
STYLE
  5
227
330
3
100
AcDbSymbolTableRecord
100
AcDbTextStyleTableRecord
  2
TEXTSTYLE_7
 70
     0
 40
0.0
 41
0.8
 50
0.0
 71
     0
 42
0.2
  3
txt_____.ttf
  4

1001
ACAD
1000
txt
1071
        2
  0
ENDTAB
  0
TABLE
  2
VIEW
  5
6
330
0
100
AcDbSymbolTable
 70
     0
  0
ENDTAB
  0
TABLE
  2
UCS
  5
7
330
0
100
AcDbSymbolTable
 70
     0
  0
ENDTAB
  0
TABLE
  2
APPID
  5
9
330
0
100
AcDbSymbolTable
 70
     2
  0
APPID
  5
228
330
9
100
AcDbSymbolTableRecord
100
AcDbRegAppTableRecord
  2
ACAD
 70
     0
  0
APPID
  5
1653
330
9
100
AcDbSymbolTableRecord
100
AcDbRegAppTableRecord
  2
ACAD_MLEADERVER
 70
     0
  0
ENDTAB
  0
TABLE
  2
DIMSTYLE
  5
A
330
0
100
AcDbSymbolTable
 70
     6
100
AcDbDimStyleTable
 71
     0
  0
DIMSTYLE
105
246
330
A
100
AcDbSymbolTableRecord
100
AcDbDimStyleTableRecord
  2
STANDARD
 70
     0
 41
2.0
 44
0.125
 47
0.00001
 48
0.00001
 71
     1
 78
     4
140
1.333333333299999
271
     5
272
     5
284
     4
340
11
341
22B
342
22B
343
22B
344
22B
  0
DIMSTYLE
105
247
330
A
100
AcDbSymbolTableRecord
100
AcDbDimStyleTableRecord
  2
DIMSTYLE_1
 70
     0
 41
2.0
 44
0.125
 47
0.00001
 48
0.00001
 78
     4
140
1.333333333299999
147
0.0625
284
     4
340
11
341
22B
342
22B
343
22B
344
22B
  0
DIMSTYLE
105
248
330
A
100
AcDbSymbolTableRecord
100
AcDbDimStyleTableRecord
  2
DIMSTYLE_2
 70
     0
 41
2.0
 44
0.125
 47
0.00001
 48
0.00001
 78
     4
140
1.333333333299999
147
0.0625
271
     6
272
     6
284
     4
340
11
341
22B
342
22B
343
22B
344
22B
  0
DIMSTYLE
105
249
330
A
100
AcDbSymbolTableRecord
100
AcDbDimStyleTableRecord
  2
DIMSTYLE_3
 70
     0
 41
2.0
 44
0.125
 47
0.00001
 48
0.00001
 78
     4
140
1.333333333299999
147
0.0625
271
     3
272
     3
284
     4
340
11
341
22B
342
22B
343
22B
344
22B
  0
DIMSTYLE
105
24A
330
A
100
AcDbSymbolTableRecord
100
AcDbDimStyleTableRecord
  2
DIMSTYLE_4
 70
     0
 41
2.0
 44
0.125
 47
1.0
 48
1.0
 78
     4
140
1.333333333299999
271
     0
272
     0
284
     4
340
11
341
22B
342
22B
343
22B
344
22B
  0
DIMSTYLE
105
24B
330
A
100
AcDbSymbolTableRecord
100
AcDbDimStyleTableRecord
  2
DIMSTYLE_5
 70
     0
 41
2.0
 44
0.125
 47
0.5
 48
0.5
 78
     4
140
1.333333333299999
271
     0
272
     0
284
     4
340
11
341
22B
342
22B
343
22B
344
22B
  0
ENDTAB
  0
TABLE
  2
BLOCK_RECORD
  5
1
330
0
100
AcDbSymbolTable
 70
    27
  0
BLOCK_RECORD
  5
229
330
1
100
AcDbSymbolTableRecord
100
AcDbBlockTableRecord
  2
*Model_Space
340
15C5
 70
     0
280
     1
281
     0
  0
BLOCK_RECORD
  5
22A
330
1
100
AcDbSymbolTableRecord
100
AcDbBlockTableRecord
  2
*Paper_Space
340
15C6
 70
     0
280
     1
281
     0
  0
BLOCK_RECORD
  5
22B
330
1
100
AcDbSymbolTableRecord
100
AcDbBlockTableRecord
  2
_FILLED
340
0
102
{BLKREFS
331
330
331
331
331
339
331
33A
331
342
331
343
331
34B
331
34C
331
354
331
355
331
35D
331
35E
331
36E
331
36F
331
377
331
378
331
381
331
382
331
38A
331
38B
331
393
331
394
331
39D
331
39E
331
3A6
331
3A7
331
3B0
331
3B1
331
3BA
331
3BB
331
3DE
331
3DF
331
3E7
331
3E8
102
}
 70
     0
280
     1
281
     0
  0
BLOCK_RECORD
  5
241
330
1
100
AcDbSymbolTableRecord
100
AcDbBlockTableRecord
  2
SYMBOL_9_BL4
340
0
 70
     0
280
     1
281
     0
  0
BLOCK_RECORD
  5
242
330
1
100
AcDbSymbolTableRecord
100
AcDbBlockTableRecord
  2
SYMBOL_5_BL3
340
0
 70
     0
280
     1
281
     0
  0
BLOCK_RECORD
  5
243
330
1
100
AcDbSymbolTableRecord
100
AcDbBlockTableRecord
  2
SYMBOL_3_BL2
340
0
 70
     0
280
     1
281
     0
  0
BLOCK_RECORD
  5
244
330
1
100
AcDbSymbolTableRecord
100
AcDbBlockTableRecord
  2
SYMBOL_7_BL1
340
0
 70
     0
280
     1
281
     0
  0
BLOCK_RECORD
  5
245
330
1
100
AcDbSymbolTableRecord
100
AcDbBlockTableRecord
  2
SYMBOL_0_BL0
340
0
 70
     0
280
     1
281
     0
  0
ENDTAB
  0
ENDSEC
  0
SECTION
  2
BLOCKS
  0
BLOCK
  5
20
330
229
100
AcDbEntity
  8
0
100
AcDbBlockBegin
  2
*Model_Space
 70
     0
 10
0.0
 20
0.0
 30
0.0
  3
*Model_Space
  1

  0
ENDBLK
  5
21
330
229
100
AcDbEntity
  8
0
100
AcDbBlockEnd
  0
BLOCK
  5
1C
330
22A
100
AcDbEntity
 67
     1
  8
0
100
AcDbBlockBegin
  2
*Paper_Space
 70
     0
 10
0.0
 20
0.0
 30
0.0
  3
*Paper_Space
  1

  0
ENDBLK
  5
1D
330
22A
100
AcDbEntity
 67
     1
  8
0
100
AcDbBlockEnd
  0
BLOCK
  5
327
330
22B
100
AcDbEntity
  8
0
100
AcDbBlockBegin
  2
_FILLED
 70
     0
 10
0.0
 20
0.0
 30
0.0
  3
_FILLED
  1

  0
SOLID
  5
328
330
22B
100
AcDbEntity
  8
0
  6
ByBlock
 62
     0
100
AcDbTrace
 10
0.0
 20
0.0
 30
0.0
 11
-1.0
 21
0.1666666667
 31
0.0
 12
-1.0
 22
-0.1666666667
 32
0.0
 13
-1.0
 23
-0.1666666667
 33
0.0
  0
ENDBLK
  5
329
330
22B
100
AcDbEntity
  8
0
  6
ByBlock
 62
     0
100
AcDbBlockEnd
  0
BLOCK
  5
24C
330
241
100
AcDbEntity
  8
0
  6
Continuous
 62
     7
100
AcDbBlockBegin
  2
SYMBOL_9_BL4
 70
     0
 10
50.2122134751
 20
63.7220524502
 30
0.0
  3
SYMBOL_9_BL4
  1

  0
TEXT
  5
24D
330
241
100
AcDbEntity
  8
0
  6
Continuous
 62
     7
100
AcDbText
 10
49.54554654909999
 20
63.05538552419999
 30
0.0
 40
1.333333852099999
  1
C
  7
TEXTSTYLE_2
100
AcDbText
  0
ELLIPSE
  5
24E
330
241
100
AcDbEntity
  8
0
  6
Continuous
 62
     7
100
AcDbEllipse
 10
50.2122134751
 20
63.7220524502
 30
0.0
 11
-1.942887567899999
 21
0.0
 31
0.0
210
0.0
220
0.0
230
1.0
 40
0.6606458385
 41
0.0
 42
6.283185307179586
  0
ENDBLK
  5
24F
330
241
100
AcDbEntity
  8
0
  6
ByBlock
 62
     0
100
AcDbBlockEnd
  0
BLOCK
  5
250
330
242
100
AcDbEntity
  8
0
  6
Continuous
 62
     7
100
AcDbBlockBegin
  2
SYMBOL_5_BL3
 70
     0
 10
55.1058313533
 20
67.81556584669999
 30
0.0
  3
SYMBOL_5_BL3
  1

  0
TEXT
  5
251
330
242
100
AcDbEntity
  8
0
  6
Continuous
 62
     7
100
AcDbText
 10
54.6176325983
 20
67.09118226930001
 30
0.0
 40
1.333333852099999
  1
L
 50
5.0
  7
TEXTSTYLE_2
100
AcDbText
  0
TEXT
  5
252
330
242
100
AcDbEntity
  8
0
  6
Continuous
 62
     7
100
AcDbText
 10
50.4368192312
 20
66.73786673069999
 30
0.0
 40
1.333333852099999
  1
11
 50
5.0
  7
TEXTSTYLE_2
100
AcDbText
  0
TEXT
  5
253
330
242
100
AcDbEntity
  8
0
  6
Continuous
 62
     7
100
AcDbText
 10
57.85438566919999
 20
67.386819705
 30
0.0
 40
1.333333852099999
  1
12
 50
5.0
  7
TEXTSTYLE_2
100
AcDbText
  0
ELLIPSE
  5
254
330
242
100
AcDbEntity
  8
0
  6
Continuous
 62
     7
100
AcDbEllipse
 10
55.085913311
 20
67.8013650084
 30
0.0
 11
-1.9354942941
 21
-0.1693338091
 31
0.0
210
0.0
220
0.0
230
1.0
 40
0.6606458385
 41
0.0
 42
6.283185307179586
  0
ENDBLK
  5
255
330
242
100
AcDbEntity
  8
0
  6
ByBlock
 62
     0
100
AcDbBlockEnd
  0
BLOCK
  5
256
330
243
100
AcDbEntity
  8
0
  6
Continuous
 62
     7
100
AcDbBlockBegin
  2
SYMBOL_3_BL2
 70
     0
 10
37.7096062797
 20
91.68235163979998
 30
0.0
  3
SYMBOL_3_BL2
  1

  0
TEXT
  5
257
330
243
100
AcDbEntity
  8
0
  6
Continuous
 62
     7
100
AcDbText
 10
37.354612249
 20
90.88419825249999
 30
0.0
 40
1.333333852099999
  1
L
 50
15.0
  7
TEXTSTYLE_2
100
AcDbText
  0
TEXT
  5
258
330
243
100
AcDbEntity
  8
0
  6
Continuous
 62
     7
100
AcDbText
 10
33.7923630449
 20
89.9425450897
 30
0.0
 40
1.333333852099999
  1
5
 50
15.0
  7
TEXTSTYLE_2
100
AcDbText
  0
TEXT
  5
259
330
243
100
AcDbEntity
  8
0
  6
Continuous
 62
     7
100
AcDbText
 10
40.9845504801
 20
91.86968590479999
 30
0.0
 40
1.333333852099999
  1
6
 50
15.0
  7
TEXTSTYLE_2
100
AcDbText
  0
ELLIPSE
  5
25A
330
243
100
AcDbEntity
  8
0
  6
Continuous
 62
     7
100
AcDbEllipse
 10
37.6924567869
 20
91.6649078124
 30
0.0
 11
-1.8766852794
 21
-0.5028563051
 31
0.0
210
0.0
220
0.0
230
1.0
 40
0.6606458385
 41
0.0
 42
6.283185307179586
  0
ENDBLK
  5
25B
330
243
100
AcDbEntity
  8
0
  6
ByBlock
 62
     0
100
AcDbBlockEnd
  0
BLOCK
  5
25C
330
244
100
AcDbEntity
  8
0
  6
Continuous
 62
     7
100
AcDbBlockBegin
  2
SYMBOL_7_BL1
 70
     0
 10
129.2682312935
 20
53.3169987059
 30
0.0
  3
SYMBOL_7_BL1
  1

  0
TEXT
  5
25D
330
244
100
AcDbEntity
  8
0
  6
Continuous
 62
     7
100
AcDbText
 10
122.9541709917
 20
55.5620326917
 30
0.0
 40
1.1626666667
  1
INTERNAL USE 
 50
10.0
  7
TEXTSTYLE_3
100
AcDbText
  0
TEXT
  5
25E
330
244
100
AcDbEntity
  8
0
  6
Continuous
 62
     7
100
AcDbText
 10
122.2104867877
 20
53.56051151399999
 30
0.0
 40
1.1626666667
  1
DOCUMENT ONLY
 50
10.0
  7
TEXTSTYLE_3
100
AcDbText
  0
TEXT
  5
25F
330
244
100
AcDbEntity
  8
0
  6
Continuous
 62
     7
100
AcDbText
 10
127.995214351
 20
53.3120834635
 30
0.0
 40
1.1626666667
  1
 
 50
10.0
  7
TEXTSTYLE_5
100
AcDbText
  0
TEXT
  5
260
330
244
100
AcDbEntity
  8
0
  6
Continuous
 62
     7
100
AcDbText
 10
119.550566468
 20
49.1349890572
 30
0.0
 40
1.1626666667
  1
DOCUMENT POUR USAGE
 50
10.0
  7
TEXTSTYLE_3
100
AcDbText
  0
TEXT
  5
261
330
244
100
AcDbEntity
  8
0
  6
Continuous
 62
     7
100
AcDbText
 10
119.979665914
 20
47.1182405968
 30
0.0
 40
1.1626666667
  1
A L'INTERNE SEULEMENT
 50
10.0
  7
TEXTSTYLE_3
100
AcDbText
  0
LINE
  5
262
330
244
100
AcDbEntity
  8
0
  6
Continuous
 62
     1
100
AcDbLine
 10
143.1247830168
 20
48.973465088
 30
0.0
 11
143.1315419495
 21
48.9802240206
 31
0.0
  0
LINE
  5
263
330
244
100
AcDbEntity
  8
0
  6
Continuous
 62
     1
100
AcDbLine
 10
142.3922134504
 20
48.8442933081
 30
0.0
 11
143.0410948955
 21
49.49317475329999
 31
0.0
  0
LINE
  5
264
330
244
100
AcDbEntity
  8
0
  6
Continuous
 62
     1
100
AcDbLine
 10
141.659643884
 20
48.7151215283
 30
0.0
 11
142.9506478416
 21
50.0061254859
 31
0.0
  0
LINE
  5
265
330
244
100
AcDbEntity
  8
0
  6
Continuous
 62
     1
100
AcDbLine
 10
140.9270743176
 20
48.5859497485
 30
0.0
 11
142.8602007876
 21
50.51907621859999
 31
0.0
  0
LINE
  5
266
330
244
100
AcDbEntity
  8
0
  6
Continuous
 62
     1
100
AcDbLine
 10
140.1945047512
 20
48.45677796869999
 30
0.0
 11
142.7697537337
 21
51.03202695130001
 31
0.0
  0
LINE
  5
267
330
244
100
AcDbEntity
  8
0
  6
Continuous
 62
     1
100
AcDbLine
 10
139.4619351847
 20
48.3276061889
 30
0.0
 11
141.0029389995
 21
49.8686100037
 31
0.0
  0
LINE
  5
268
330
244
100
AcDbEntity
  8
0
  6
Continuous
 62
     1
100
AcDbLine
 10
141.6002841922
 20
50.4659551964
 30
0.0
 11
142.6793066798
 21
51.5449776839
 31
0.0
  0
LINE
  5
269
330
244
100
AcDbEntity
  8
0
  6
Continuous
 62
     1
100
AcDbLine
 10
138.7293656183
 20
48.19843440909999
 30
0.0
 11
140.2703694331
 21
49.7394382239
 31
0.0
  0
LINE
  5
26A
330
244
100
AcDbEntity
  8
0
  6
Continuous
 62
     1
100
AcDbLine
 10
141.5098371383
 20
50.9789059291
 30
0.0
 11
142.5888596258
 21
52.0579284166
 31
0.0
  0
LINE
  5
26B
330
244
100
AcDbEntity
  8
0
  6
Continuous
 62
     1
100
AcDbLine
 10
137.9967960519
 20
48.06926262930001
 30
0.0
 11
139.5377998667
 21
49.6102664441
 31
0.0
  0
LINE
  5
26C
330
244
100
AcDbEntity
  8
0
  6
Continuous
 62
     1
100
AcDbLine
 10
141.4193900844
 20
51.4918566618
 30
0.0
 11
142.4984125719
 21
52.5708791493
 31
0.0
  0
LINE
  5
26D
330
244
100
AcDbEntity
  8
0
  6
Continuous
 62
     1
100
AcDbLine
 10
137.2642264855
 20
47.94009084949999
 30
0.0
 11
138.8052303003
 21
49.4810946643
 31
0.0
  0
LINE
  5
26E
330
244
100
AcDbEntity
  8
0
  6
Continuous
 62
     1
100
AcDbLine
 10
141.3289430304
 20
52.00480739439999
 30
0.0
 11
142.4079655179
 21
53.08382988189999
 31
0.0
  0
LINE
  5
26F
330
244
100
AcDbEntity
  8
0
  6
Continuous
 62
     1
100
AcDbLine
 10
136.5316569191
 20
47.8109190697
 30
0.0
 11
138.0726607338
 21
49.3519228845
 31
0.0
  0
LINE
  5
270
330
244
100
AcDbEntity
  8
0
  6
Continuous
 62
     1
100
AcDbLine
 10
141.2384959765
 20
52.5177581271
 30
0.0
 11
142.3175184639999
 21
53.5967806146
 31
0.0
  0
LINE
  5
271
330
244
100
AcDbEntity
  8
0
  6
Continuous
 62
     1
100
AcDbLine
 10
135.7990873527
 20
47.6817472899
 30
0.0
 11
137.3400911674
 21
49.2227511047
 31
0.0
  0
LINE
  5
272
330
244
100
AcDbEntity
  8
0
  6
Continuous
 62
     1
100
AcDbLine
 10
141.1480489225
 20
53.03070885979999
 30
0.0
 11
142.22707141
 21
54.10973134729999
 31
0.0
  0
LINE
  5
273
330
244
100
AcDbEntity
  8
0
  6
Continuous
 62
     1
100
AcDbLine
 10
135.0665177862
 20
47.5525755101
 30
0.0
 11
136.607521601
 21
49.09357932489999
 31
0.0
  0
LINE
  5
274
330
244
100
AcDbEntity
  8
0
  6
Continuous
 62
     1
100
AcDbLine
 10
141.0576018686
 20
53.54365959239999
 30
0.0
 11
142.1366243561
 21
54.62268208
 31
0.0
  0
LINE
  5
275
330
244
100
AcDbEntity
  8
0
  6
Continuous
 62
     1
100
AcDbLine
 10
134.3339482198
 20
47.42340373029999
 30
0.0
 11
135.8749520346
 21
48.9644075451
 31
0.0
  0
LINE
  5
276
330
244
100
AcDbEntity
  8
0
  6
Continuous
 62
     1
100
AcDbLine
 10
140.9671548146
 20
54.0566103251
 30
0.0
 11
142.0461773022
 21
55.1356328126
 31
0.0
  0
LINE
  5
277
330
244
100
AcDbEntity
  8
0
  6
Continuous
 62
     1
100
AcDbLine
 10
133.6013786534
 20
47.29423195049999
 30
0.0
 11
135.1423824682
 21
48.8352357653
 31
0.0
  0
LINE
  5
278
330
244
100
AcDbEntity
  8
0
  6
Continuous
 62
     1
100
AcDbLine
 10
140.8767077607
 20
54.56956105779999
 30
0.0
 11
141.9557302482
 21
55.6485835453
 31
0.0
  0
LINE
  5
279
330
244
100
AcDbEntity
  8
0
  6
Continuous
 62
     1
100
AcDbLine
 10
132.868809087
 20
47.16506017069999
 30
0.0
 11
134.4098129018
 21
48.7060639855
 31
0.0
  0
LINE
  5
27A
330
244
100
AcDbEntity
  8
0
  6
Continuous
 62
     1
100
AcDbLine
 10
140.5738281609
 20
54.8700792446
 30
0.0
 11
141.8652831943
 21
56.161534278
 31
0.0
  0
LINE
  5
27B
330
244
100
AcDbEntity
  8
0
  6
Continuous
 62
     1
100
AcDbLine
 10
132.1362395206
 20
47.0358883909
 30
0.0
 11
133.6772433353
 21
48.57689220560001
 31
0.0
  0
LINE
  5
27C
330
244
100
AcDbEntity
  8
0
  6
Continuous
 62
     1
100
AcDbLine
 10
139.8412585944
 20
54.74090746479999
 30
0.0
 11
141.7748361403
 21
56.6744850106
 31
0.0
  0
LINE
  5
27D
330
244
100
AcDbEntity
  8
0
  6
Continuous
 62
     1
100
AcDbLine
 10
131.4036699541
 20
46.90671661109999
 30
0.0
 11
132.9446737689
 21
48.4477204258
 31
0.0
  0
LINE
  5
27E
330
244
100
AcDbEntity
  8
0
  6
Continuous
 62
     1
100
AcDbLine
 10
139.108689028
 20
54.6117356849
 30
0.0
 11
140.1360313263
 21
55.63907798319999
 31
0.0
  0
LINE
  5
27F
330
244
100
AcDbEntity
  8
0
  6
Continuous
 62
     1
100
AcDbLine
 10
140.6053665989
 20
56.1084132558
 30
0.0
 11
141.6843890864
 21
57.1874357433
 31
0.0
  0
LINE
  5
280
330
244
100
AcDbEntity
  8
0
  6
Continuous
 62
     1
100
AcDbLine
 10
130.6711003877
 20
46.7775448313
 30
0.0
 11
132.2121042025
 21
48.318548646
 31
0.0
  0
LINE
  5
281
330
244
100
AcDbEntity
  8
0
  6
Continuous
 62
     1
100
AcDbLine
 10
138.3761194616
 20
54.4825639051
 30
0.0
 11
139.4034615503
 21
55.5099059938
 31
0.0
  0
LINE
  5
282
330
244
100
AcDbEntity
  8
0
  6
Continuous
 62
     1
100
AcDbLine
 10
140.5149195449
 20
56.6213639885
 30
0.0
 11
141.5939420324
 21
57.700386476
 31
0.0
  0
LINE
  5
283
330
244
100
AcDbEntity
  8
0
  6
Continuous
 62
     1
100
AcDbLine
 10
129.9385308213
 20
46.64837305149999
 30
0.0
 11
131.4795346361
 21
48.18937686619999
 31
0.0
  0
LINE
  5
284
330
244
100
AcDbEntity
  8
0
  6
Continuous
 62
     1
100
AcDbLine
 10
137.6435498952
 20
54.35339212529999
 30
0.0
 11
138.6708917742
 21
55.3807340044
 31
0.0
  0
LINE
  5
285
330
244
100
AcDbEntity
  8
0
  6
Continuous
 62
     1
100
AcDbLine
 10
140.424472491
 20
57.13431472109999
 30
0.0
 11
141.5034949785
 21
58.2133372086
 31
0.0
  0
LINE
  5
286
330
244
100
AcDbEntity
  8
0
  6
Continuous
 62
     1
100
AcDbLine
 10
129.2059612549
 20
46.51920127159999
 30
0.0
 11
130.7469650697
 21
48.0602050864
 31
0.0
  0
LINE
  5
287
330
244
100
AcDbEntity
  8
0
  6
Continuous
 62
     1
100
AcDbLine
 10
136.9109803288
 20
54.2242203455
 30
0.0
 11
137.9383219982
 21
55.25156201499999
 31
0.0
  0
LINE
  5
288
330
244
100
AcDbEntity
  8
0
  6
Continuous
 62
     1
100
AcDbLine
 10
140.334025437
 20
57.6472654538
 30
0.0
 11
141.4130479245
 21
58.7262879413
 31
0.0
  0
LINE
  5
289
330
244
100
AcDbEntity
  8
0
  6
Continuous
 62
     1
100
AcDbLine
 10
128.4733916885
 20
46.3900294918
 30
0.0
 11
130.0143955032
 21
47.9310333066
 31
0.0
  0
LINE
  5
28A
330
244
100
AcDbEntity
  8
0
  6
Continuous
 62
     1
100
AcDbLine
 10
136.1784107624
 20
54.09504856569999
 30
0.0
 11
137.2057522222
 21
55.1223900255
 31
0.0
  0
LINE
  5
28B
330
244
100
AcDbEntity
  8
0
  6
Continuous
 62
     1
100
AcDbLine
 10
140.2435783831
 20
58.16021618649999
 30
0.0
 11
141.3226008706
 21
59.239238674
 31
0.0
  0
LINE
  5
28C
330
244
100
AcDbEntity
  8
0
  6
Continuous
 62
     1
100
AcDbLine
 10
127.7408221221
 20
46.26085771199999
 30
0.0
 11
129.2818259368
 21
47.8018615268
 31
0.0
  0
LINE
  5
28D
330
244
100
AcDbEntity
  8
0
  6
Continuous
 62
     1
100
AcDbLine
 10
135.4458411959
 20
53.9658767859
 30
0.0
 11
136.4731824461
 21
54.9932180361
 31
0.0
  0
LINE
  5
28E
330
244
100
AcDbEntity
  8
0
  6
Continuous
 62
     1
100
AcDbLine
 10
140.1531313291
 20
58.6731669191
 30
0.0
 11
141.2321538167
 21
59.75218940659999
 31
0.0
  0
LINE
  5
28F
330
244
100
AcDbEntity
  8
0
  6
Continuous
 62
     1
100
AcDbLine
 10
127.0082525556
 20
46.1316859322
 30
0.0
 11
128.5492563704
 21
47.672689747
 31
0.0
  0
LINE
  5
290
330
244
100
AcDbEntity
  8
0
  6
Continuous
 62
     1
100
AcDbLine
 10
134.7132716295
 20
53.8367050061
 30
0.0
 11
135.7406126701
 21
54.8640460467
 31
0.0
  0
LINE
  5
291
330
244
100
AcDbEntity
  8
0
  6
Continuous
 62
     1
100
AcDbLine
 10
140.0626842752
 20
59.1861176518
 30
0.0
 11
141.1417067627
 21
60.2651401393
 31
0.0
  0
LINE
  5
292
330
244
100
AcDbEntity
  8
0
  6
Continuous
 62
     1
100
AcDbLine
 10
126.2756829892
 20
46.00251415239999
 30
0.0
 11
127.816686804
 21
47.5435179672
 31
0.0
  0
LINE
  5
293
330
244
100
AcDbEntity
  8
0
  6
Continuous
 62
     1
100
AcDbLine
 10
133.9807020630999
 20
53.7075332263
 30
0.0
 11
135.0080428941
 21
54.7348740573
 31
0.0
  0
LINE
  5
294
330
244
100
AcDbEntity
  8
0
  6
Continuous
 62
     1
100
AcDbLine
 10
139.9722372213
 20
59.6990683845
 30
0.0
 11
141.0512597088
 21
60.778090872
 31
0.0
  0
LINE
  5
295
330
244
100
AcDbEntity
  8
0
  6
Continuous
 62
     1
100
AcDbLine
 10
125.5431134228
 20
45.8733423726
 30
0.0
 11
127.0841172376
 21
47.4143461874
 31
0.0
  0
LINE
  5
296
330
244
100
AcDbEntity
  8
0
  6
Continuous
 62
     1
100
AcDbLine
 10
133.2481324967
 20
53.5783614465
 30
0.0
 11
134.2754731181
 21
54.60570206789999
 31
0.0
  0
LINE
  5
297
330
244
100
AcDbEntity
  8
0
  6
Continuous
 62
     1
100
AcDbLine
 10
139.8817901673
 20
60.2120191171
 30
0.0
 11
140.9608126548
 21
61.2910416046
 31
0.0
  0
LINE
  5
298
330
244
100
AcDbEntity
  8
0
  6
Continuous
 62
     1
100
AcDbLine
 10
124.8105438564
 20
45.74417059279999
 30
0.0
 11
126.3515476712
 21
47.2851744076
 31
0.0
  0
LINE
  5
299
330
244
100
AcDbEntity
  8
0
  6
Continuous
 62
     1
100
AcDbLine
 10
132.5155629303
 20
53.4491896667
 30
0.0
 11
133.542903342
 21
54.4765300785
 31
0.0
  0
LINE
  5
29A
330
244
100
AcDbEntity
  8
0
  6
Continuous
 62
     1
100
AcDbLine
 10
139.7069140659
 20
60.6405408023
 30
0.0
 11
140.8703656009
 21
61.8039923373
 31
0.0
  0
LINE
  5
29B
330
244
100
AcDbEntity
  8
0
  6
Continuous
 62
     1
100
AcDbLine
 10
124.07797429
 20
45.614998813
 30
0.0
 11
125.6189781047
 21
47.15600262779999
 31
0.0
  0
LINE
  5
29C
330
244
100
AcDbEntity
  8
0
  6
Continuous
 62
     1
100
AcDbLine
 10
131.7829933638
 20
53.3200178869
 30
0.0
 11
132.810333566
 21
54.3473580891
 31
0.0
  0
LINE
  5
29D
330
244
100
AcDbEntity
  8
0
  6
Continuous
 62
     1
100
AcDbLine
 10
138.9743444995
 20
60.5113690225
 30
0.0
 11
140.5153483143
 21
62.05237283729999
 31
0.0
  0
LINE
  5
29E
330
244
100
AcDbEntity
  8
0
  6
Continuous
 62
     1
100
AcDbLine
 10
123.3454047235
 20
45.4858270332
 30
0.0
 11
124.8864085383
 21
47.026830848
 31
0.0
  0
LINE
  5
29F
330
244
100
AcDbEntity
  8
0
  6
Continuous
 62
     1
100
AcDbLine
 10
131.0504237974
 20
53.1908461071
 30
0.0
 11
132.07776379
 21
54.21818609959999
 31
0.0
  0
LINE
  5
2A0
330
244
100
AcDbEntity
  8
0
  6
Continuous
 62
     1
100
AcDbLine
 10
138.2417749331
 20
60.3821972427
 30
0.0
 11
139.7827787478
 21
61.9232010575
 31
0.0
  0
LINE
  5
2A1
330
244
100
AcDbEntity
  8
0
  6
Continuous
 62
     1
100
AcDbLine
 10
122.6128351571
 20
45.35665525339999
 30
0.0
 11
124.1538389719
 21
46.89765906819999
 31
0.0
  0
LINE
  5
2A2
330
244
100
AcDbEntity
  8
0
  6
Continuous
 62
     1
100
AcDbLine
 10
130.317854231
 20
53.06167432729999
 30
0.0
 11
131.3451940139
 21
54.0890141102
 31
0.0
  0
LINE
  5
2A3
330
244
100
AcDbEntity
  8
0
  6
Continuous
 62
     1
100
AcDbLine
 10
137.5092053666
 20
60.25302546289999
 30
0.0
 11
139.0502091814
 21
61.7940292777
 31
0.0
  0
LINE
  5
2A4
330
244
100
AcDbEntity
  8
0
  6
Continuous
 62
     1
100
AcDbLine
 10
121.8802655907
 20
45.22748347359999
 30
0.0
 11
123.4212694055
 21
46.7684872884
 31
0.0
  0
LINE
  5
2A5
330
244
100
AcDbEntity
  8
0
  6
Continuous
 62
     1
100
AcDbLine
 10
129.5852846645999
 20
52.9325025475
 30
0.0
 11
130.6126242379
 21
53.9598421208
 31
0.0
  0
LINE
  5
2A6
330
244
100
AcDbEntity
  8
0
  6
Continuous
 62
     1
100
AcDbLine
 10
136.7766358002
 20
60.1238536831
 30
0.0
 11
138.317639615
 21
61.6648574979
 31
0.0
  0
LINE
  5
2A7
330
244
100
AcDbEntity
  8
0
  6
Continuous
 62
     1
100
AcDbLine
 10
121.1476960243
 20
45.09831169379999
 30
0.0
 11
122.6886998391
 21
46.6393155086
 31
0.0
  0
LINE
  5
2A8
330
244
100
AcDbEntity
  8
0
  6
Continuous
 62
     1
100
AcDbLine
 10
128.8527150982
 20
52.8033307677
 30
0.0
 11
129.8800544619
 21
53.8306701314
 31
0.0
  0
LINE
  5
2A9
330
244
100
AcDbEntity
  8
0
  6
Continuous
 62
     1
100
AcDbLine
 10
136.0440662338
 20
59.9946819033
 30
0.0
 11
137.5850700486
 21
61.53568571810001
 31
0.0
  0
LINE
  5
2AA
330
244
100
AcDbEntity
  8
0
  6
Continuous
 62
     1
100
AcDbLine
 10
120.4151264579
 20
44.96913991399999
 30
0.0
 11
121.9561302727
 21
46.5101437288
 31
0.0
  0
LINE
  5
2AB
330
244
100
AcDbEntity
  8
0
  6
Continuous
 62
     1
100
AcDbLine
 10
128.1201455318
 20
52.6741589879
 30
0.0
 11
129.1474846859
 21
53.701498142
 31
0.0
  0
LINE
  5
2AC
330
244
100
AcDbEntity
  8
0
  6
Continuous
 62
     1
100
AcDbLine
 10
135.3114966674
 20
59.8655101235
 30
0.0
 11
136.8525004822
 21
61.4065139383
 31
0.0
  0
LINE
  5
2AD
330
244
100
AcDbEntity
  8
0
  6
Continuous
 62
     1
100
AcDbLine
 10
119.6825568915
 20
44.8399681342
 30
0.0
 11
121.2235607062
 21
46.380971949
 31
0.0
  0
LINE
  5
2AE
330
244
100
AcDbEntity
  8
0
  6
Continuous
 62
     1
100
AcDbLine
 10
127.3875759653
 20
52.5449872081
 30
0.0
 11
128.4149149098
 21
53.5723261526
 31
0.0
  0
LINE
  5
2AF
330
244
100
AcDbEntity
  8
0
  6
Continuous
 62
     1
100
AcDbLine
 10
134.578927101
 20
59.7363383437
 30
0.0
 11
136.1199309157
 21
61.27734215850001
 31
0.0
  0
LINE
  5
2B0
330
244
100
AcDbEntity
  8
0
  6
Continuous
 62
     1
100
AcDbLine
 10
118.949987325
 20
44.71079635439999
 30
0.0
 11
120.4909911398
 21
46.25180016909999
 31
0.0
  0
LINE
  5
2B1
330
244
100
AcDbEntity
  8
0
  6
Continuous
 62
     1
100
AcDbLine
 10
126.6550063989
 20
52.4158154283
 30
0.0
 11
127.6823451338
 21
53.4431541631
 31
0.0
  0
LINE
  5
2B2
330
244
100
AcDbEntity
  8
0
  6
Continuous
 62
     1
100
AcDbLine
 10
133.8463575346
 20
59.6071665639
 30
0.0
 11
135.3873613493
 21
61.1481703787
 31
0.0
  0
LINE
  5
2B3
330
244
100
AcDbEntity
  8
0
  6
Continuous
 62
     1
100
AcDbLine
 10
118.2174177586
 20
44.5816245746
 30
0.0
 11
119.7584215734
 21
46.1226283893
 31
0.0
  0
LINE
  5
2B4
330
244
100
AcDbEntity
  8
0
  6
Continuous
 62
     1
100
AcDbLine
 10
125.9224368325
 20
52.28664364850001
 30
0.0
 11
126.9497753578
 21
53.3139821737
 31
0.0
  0
LINE
  5
2B5
330
244
100
AcDbEntity
  8
0
  6
Continuous
 62
     1
100
AcDbLine
 10
133.1137879681
 20
59.4779947841
 30
0.0
 11
134.6547917829
 21
61.0189985989
 31
0.0
  0
LINE
  5
2B6
330
244
100
AcDbEntity
  8
0
  6
Continuous
 62
     1
100
AcDbLine
 10
117.6660969861
 20
44.6337015887
 30
0.0
 11
119.025852007
 21
45.9934566095
 31
0.0
  0
LINE
  5
2B7
330
244
100
AcDbEntity
  8
0
  6
Continuous
 62
     1
100
AcDbLine
 10
125.1898672661
 20
52.15747186859999
 30
0.0
 11
126.2172055817
 21
53.1848101843
 31
0.0
  0
LINE
  5
2B8
330
244
100
AcDbEntity
  8
0
  6
Continuous
 62
     1
100
AcDbLine
 10
132.3812184017
 20
59.3488230043
 30
0.0
 11
133.9222222165
 21
60.8898268191
 31
0.0
  0
LINE
  5
2B9
330
244
100
AcDbEntity
  8
0
  6
Continuous
 62
     1
100
AcDbLine
 10
117.5756499322
 20
45.1466523213
 30
0.0
 11
118.6546724197
 21
46.22567480879999
 31
0.0
  0
LINE
  5
2BA
330
244
100
AcDbEntity
  8
0
  6
Continuous
 62
     1
100
AcDbLine
 10
124.4572976997
 20
52.0283000888
 30
0.0
 11
125.4846358057
 21
53.0556381949
 31
0.0
  0
LINE
  5
2BB
330
244
100
AcDbEntity
  8
0
  6
Continuous
 62
     1
100
AcDbLine
 10
131.6486488353
 20
59.2196512245
 30
0.0
 11
133.1896526501
 21
60.7606550392
 31
0.0
  0
LINE
  5
2BC
330
244
100
AcDbEntity
  8
0
  6
Continuous
 62
     1
100
AcDbLine
 10
117.4852028782
 20
45.65960305399999
 30
0.0
 11
118.5642253657
 21
46.7386255415
 31
0.0
  0
LINE
  5
2BD
330
244
100
AcDbEntity
  8
0
  6
Continuous
 62
     1
100
AcDbLine
 10
123.7247281333
 20
51.89912830899999
 30
0.0
 11
124.7520660297
 21
52.9264662055
 31
0.0
  0
LINE
  5
2BE
330
244
100
AcDbEntity
  8
0
  6
Continuous
 62
     1
100
AcDbLine
 10
130.9160792689
 20
59.0904794447
 30
0.0
 11
132.4570830837
 21
60.63148325939999
 31
0.0
  0
LINE
  5
2BF
330
244
100
AcDbEntity
  8
0
  6
Continuous
 62
     1
100
AcDbLine
 10
117.3947558243
 20
46.1725537867
 30
0.0
 11
118.4737783118
 21
47.25157627419999
 31
0.0
  0
LINE
  5
2C0
330
244
100
AcDbEntity
  8
0
  6
Continuous
 62
     1
100
AcDbLine
 10
122.9921585668
 20
51.7699565292
 30
0.0
 11
124.0194962537
 21
52.79729421609999
 31
0.0
  0
LINE
  5
2C1
330
244
100
AcDbEntity
  8
0
  6
Continuous
 62
     1
100
AcDbLine
 10
130.1835097025
 20
58.96130766489999
 30
0.0
 11
131.7245135172
 21
60.5023114796
 31
0.0
  0
LINE
  5
2C2
330
244
100
AcDbEntity
  8
0
  6
Continuous
 62
     1
100
AcDbLine
 10
117.3043087703
 20
46.6855045193
 30
0.0
 11
118.3833312578
 21
47.7645270069
 31
0.0
  0
LINE
  5
2C3
330
244
100
AcDbEntity
  8
0
  6
Continuous
 62
     1
100
AcDbLine
 10
122.2595890004
 20
51.6407847494
 30
0.0
 11
123.2869264776
 21
52.6681222266
 31
0.0
  0
LINE
  5
2C4
330
244
100
AcDbEntity
  8
0
  6
Continuous
 62
     1
100
AcDbLine
 10
129.450940136
 20
58.8321358851
 30
0.0
 11
130.9919439508
 21
60.37313969979999
 31
0.0
  0
LINE
  5
2C5
330
244
100
AcDbEntity
  8
0
  6
Continuous
 62
     1
100
AcDbLine
 10
117.2138617164
 20
47.19845525199999
 30
0.0
 11
118.2928842039
 21
48.2774777395
 31
0.0
  0
LINE
  5
2C6
330
244
100
AcDbEntity
  8
0
  6
Continuous
 62
     1
100
AcDbLine
 10
121.527019434
 20
51.5116129696
 30
0.0
 11
122.5543567016
 21
52.53895023720001
 31
0.0
  0
LINE
  5
2C7
330
244
100
AcDbEntity
  8
0
  6
Continuous
 62
     1
100
AcDbLine
 10
128.7183705696
 20
58.7029641052
 30
0.0
 11
130.2593743844
 21
60.24396792
 31
0.0
  0
LINE
  5
2C8
330
244
100
AcDbEntity
  8
0
  6
Continuous
 62
     1
100
AcDbLine
 10
117.1234146624
 20
47.7114059847
 30
0.0
 11
118.20243715
 21
48.7904284722
 31
0.0
  0
LINE
  5
2C9
330
244
100
AcDbEntity
  8
0
  6
Continuous
 62
     1
100
AcDbLine
 10
120.7944498676
 20
51.3824411898
 30
0.0
 11
121.8217869256
 21
52.40977824779999
 31
0.0
  0
LINE
  5
2CA
330
244
100
AcDbEntity
  8
0
  6
Continuous
 62
     1
100
AcDbLine
 10
127.9858010032
 20
58.5737923254
 30
0.0
 11
129.526804818
 21
60.1147961402
 31
0.0
  0
LINE
  5
2CB
330
244
100
AcDbEntity
  8
0
  6
Continuous
 62
     1
100
AcDbLine
 10
117.0329676085
 20
48.2243567173
 30
0.0
 11
118.111990096
 21
49.3033792049
 31
0.0
  0
LINE
  5
2CC
330
244
100
AcDbEntity
  8
0
  6
Continuous
 62
     1
100
AcDbLine
 10
120.0618803012
 20
51.25326941
 30
0.0
 11
121.0892171495
 21
52.2806062584
 31
0.0
  0
LINE
  5
2CD
330
244
100
AcDbEntity
  8
0
  6
Continuous
 62
     1
100
AcDbLine
 10
127.2532314368
 20
58.44462054560001
 30
0.0
 11
128.7942352516
 21
59.9856243604
 31
0.0
  0
LINE
  5
2CE
330
244
100
AcDbEntity
  8
0
  6
Continuous
 62
     1
100
AcDbLine
 10
116.9425205546
 20
48.73730745
 30
0.0
 11
118.0215430421
 21
49.8163299375
 31
0.0
  0
LINE
  5
2CF
330
244
100
AcDbEntity
  8
0
  6
Continuous
 62
     1
100
AcDbLine
 10
119.3293107347
 20
51.1240976302
 30
0.0
 11
120.3566473735
 21
52.151434269
 31
0.0
  0
LINE
  5
2D0
330
244
100
AcDbEntity
  8
0
  6
Continuous
 62
     1
100
AcDbLine
 10
126.5206618704
 20
58.3154487658
 30
0.0
 11
128.0616656851
 21
59.8564525806
 31
0.0
  0
LINE
  5
2D1
330
244
100
AcDbEntity
  8
0
  6
Continuous
 62
     1
100
AcDbLine
 10
116.8520735006
 20
49.2502581827
 30
0.0
 11
117.9310959881
 21
50.32928067020001
 31
0.0
  0
LINE
  5
2D2
330
244
100
AcDbEntity
  8
0
  6
Continuous
 62
     1
100
AcDbLine
 10
118.5967411683
 20
50.9949258504
 30
0.0
 11
119.6240775975
 21
52.0222622796
 31
0.0
  0
LINE
  5
2D3
330
244
100
AcDbEntity
  8
0
  6
Continuous
 62
     1
100
AcDbLine
 10
125.788092304
 20
58.186276986
 30
0.0
 11
127.3290961187
 21
59.7272808008
 31
0.0
  0
LINE
  5
2D4
330
244
100
AcDbEntity
  8
0
  6
Continuous
 62
     1
100
AcDbLine
 10
116.7616264467
 20
49.7632089153
 30
0.0
 11
117.8406489342
 21
50.84223140289999
 31
0.0
  0
LINE
  5
2D5
330
244
100
AcDbEntity
  8
0
  6
Continuous
 62
     1
100
AcDbLine
 10
117.8641716019
 20
50.8657540706
 30
0.0
 11
118.8915078215
 21
51.89309029010001
 31
0.0
  0
LINE
  5
2D6
330
244
100
AcDbEntity
  8
0
  6
Continuous
 62
     1
100
AcDbLine
 10
125.0555227375
 20
58.05710520619999
 30
0.0
 11
126.5965265523
 21
59.598109021
 31
0.0
  0
LINE
  5
2D7
330
244
100
AcDbEntity
  8
0
  6
Continuous
 62
     1
100
AcDbLine
 10
116.6711793927
 20
50.276159648
 30
0.0
 11
118.1589380454
 21
51.7639183007
 31
0.0
  0
LINE
  5
2D8
330
244
100
AcDbEntity
  8
0
  6
Continuous
 62
     1
100
AcDbLine
 10
124.3229531711
 20
57.9279334264
 30
0.0
 11
125.8639569859
 21
59.46893724119999
 31
0.0
  0
LINE
  5
2D9
330
244
100
AcDbEntity
  8
0
  6
Continuous
 62
     1
100
AcDbLine
 10
116.5807323388
 20
50.7891103807
 30
0.0
 11
117.6597548263
 21
51.8681328682
 31
0.0
  0
LINE
  5
2DA
330
244
100
AcDbEntity
  8
0
  6
Continuous
 62
     1
100
AcDbLine
 10
123.5903836047
 20
57.7987616466
 30
0.0
 11
125.1313874195
 21
59.33976546140001
 31
0.0
  0
LINE
  5
2DB
330
244
100
AcDbEntity
  8
0
  6
Continuous
 62
     1
100
AcDbLine
 10
116.4902852848
 20
51.3020611134
 30
0.0
 11
117.5693077723
 21
52.3810836009
 31
0.0
  0
LINE
  5
2DC
330
244
100
AcDbEntity
  8
0
  6
Continuous
 62
     1
100
AcDbLine
 10
122.8578140383
 20
57.6695898668
 30
0.0
 11
124.3988178531
 21
59.21059368159999
 31
0.0
  0
LINE
  5
2DD
330
244
100
AcDbEntity
  8
0
  6
Continuous
 62
     1
100
AcDbLine
 10
116.3998382309
 20
51.815011846
 30
0.0
 11
117.4788607184
 21
52.8940343335
 31
0.0
  0
LINE
  5
2DE
330
244
100
AcDbEntity
  8
0
  6
Continuous
 62
     1
100
AcDbLine
 10
122.1252444719
 20
57.540418087
 30
0.0
 11
123.6662482866
 21
59.08142190180001
 31
0.0
  0
LINE
  5
2DF
330
244
100
AcDbEntity
  8
0
  6
Continuous
 62
     1
100
AcDbLine
 10
116.3093911769
 20
52.32796257869999
 30
0.0
 11
117.3884136645
 21
53.4069850662
 31
0.0
  0
LINE
  5
2E0
330
244
100
AcDbEntity
  8
0
  6
Continuous
 62
     1
100
AcDbLine
 10
121.3926749054
 20
57.4112463072
 30
0.0
 11
122.9336787202
 21
58.952250122
 31
0.0
  0
LINE
  5
2E1
330
244
100
AcDbEntity
  8
0
  6
Continuous
 62
     1
100
AcDbLine
 10
116.218944123
 20
52.8409133114
 30
0.0
 11
117.2979666105
 21
53.91993579890001
 31
0.0
  0
LINE
  5
2E2
330
244
100
AcDbEntity
  8
0
  6
Continuous
 62
     1
100
AcDbLine
 10
120.660105339
 20
57.2820745274
 30
0.0
 11
122.2011091538
 21
58.8230783422
 31
0.0
  0
LINE
  5
2E3
330
244
100
AcDbEntity
  8
0
  6
Continuous
 62
     1
100
AcDbLine
 10
116.1284970691
 20
53.353864044
 30
0.0
 11
117.2075195566
 21
54.43288653149999
 31
0.0
  0
LINE
  5
2E4
330
244
100
AcDbEntity
  8
0
  6
Continuous
 62
     1
100
AcDbLine
 10
119.9275357726
 20
57.1529027476
 30
0.0
 11
121.4685395874
 21
58.6939065624
 31
0.0
  0
LINE
  5
2E5
330
244
100
AcDbEntity
  8
0
  6
Continuous
 62
     1
100
AcDbLine
 10
116.0380500151
 20
53.8668147767
 30
0.0
 11
117.1170725026
 21
54.9458372642
 31
0.0
  0
LINE
  5
2E6
330
244
100
AcDbEntity
  8
0
  6
Continuous
 62
     1
100
AcDbLine
 10
119.1949662062
 20
57.0237309678
 30
0.0
 11
120.735970021
 21
58.5647347826
 31
0.0
  0
LINE
  5
2E7
330
244
100
AcDbEntity
  8
0
  6
Continuous
 62
     1
100
AcDbLine
 10
115.9476029612
 20
54.3797655094
 30
0.0
 11
117.0266254487
 21
55.45878799689999
 31
0.0
  0
LINE
  5
2E8
330
244
100
AcDbEntity
  8
0
  6
Continuous
 62
     1
100
AcDbLine
 10
118.4623966398
 20
56.894559188
 30
0.0
 11
120.0034004546
 21
58.43556300270001
 31
0.0
  0
LINE
  5
2E9
330
244
100
AcDbEntity
  8
0
  6
Continuous
 62
     1
100
AcDbLine
 10
115.8571559072
 20
54.892716242
 30
0.0
 11
116.9361783947
 21
55.9717387296
 31
0.0
  0
LINE
  5
2EA
330
244
100
AcDbEntity
  8
0
  6
Continuous
 62
     1
100
AcDbLine
 10
117.7298270734
 20
56.76538740819999
 30
0.0
 11
119.2708308881
 21
58.3063912229
 31
0.0
  0
LINE
  5
2EB
330
244
100
AcDbEntity
  8
0
  6
Continuous
 62
     1
100
AcDbLine
 10
115.7667088533
 20
55.4056669747
 30
0.0
 11
116.8457313408
 21
56.4846894622
 31
0.0
  0
LINE
  5
2EC
330
244
100
AcDbEntity
  8
0
  6
Continuous
 62
     1
100
AcDbLine
 10
116.9972575069
 20
56.6362156284
 30
0.0
 11
118.5382613217
 21
58.17721944310001
 31
0.0
  0
LINE
  5
2ED
330
244
100
AcDbEntity
  8
0
  6
Continuous
 62
     1
100
AcDbLine
 10
115.6762617993
 20
55.91861770739999
 30
0.0
 11
117.8056917553
 21
58.0480476633
 31
0.0
  0
LINE
  5
2EE
330
244
100
AcDbEntity
  8
0
  6
Continuous
 62
     1
100
AcDbLine
 10
115.5858147454
 20
56.43156843999999
 30
0.0
 11
117.0731221889
 21
57.9188758835
 31
0.0
  0
LINE
  5
2EF
330
244
100
AcDbEntity
  8
0
  6
Continuous
 62
     1
100
AcDbLine
 10
115.4953676915
 20
56.94451917270001
 30
0.0
 11
116.3405526225
 21
57.7897041037
 31
0.0
  0
LINE
  5
2F0
330
244
100
AcDbEntity
  8
0
  6
Continuous
 62
     1
100
AcDbLine
 10
115.4049206375
 20
57.45746990539999
 30
0.0
 11
115.607983056
 21
57.6605323239
 31
0.0
  0
ENDBLK
  5
2F1
330
244
100
AcDbEntity
  8
0
  6
ByBlock
 62
     0
100
AcDbBlockEnd
  0
BLOCK
  5
2F2
330
245
100
AcDbEntity
  8
0
  6
Continuous
 62
     7
100
AcDbBlockBegin
  2
SYMBOL_0_BL0
 70
     0
 10
160.6601712342
 20
55.33869125399999
 30
0.0
  3
SYMBOL_0_BL0
  1

  0
TEXT
  5
2F3
330
245
100
AcDbEntity
  8
0
  6
Continuous
 62
     7
100
AcDbText
 10
144.4123861581
 20
63.1121246451
 30
0.0
 40
0.5
  1
Infomations Techniques/Technical Infomations
  7
TEXTSTYLE_2
100
AcDbText
  0
TEXT
  5
2F4
330
245
100
AcDbEntity
  8
0
  6
Continuous
 62
     7
100
AcDbText
 10
144.6601712342
 20
61.6720245874
 30
0.0
 40
0.6666666667
  1
NOMBRE DE JETS:     
  7
TEXTSTYLE_2
100
AcDbText
  0
TEXT
  5
2F5
330
245
100
AcDbEntity
  8
0
  6
Continuous
 62
     7
100
AcDbText
 10
154.5046156787
 20
61.6720245874
 30
0.0
 40
0.6666666667
  1
37
  7
TEXTSTYLE_2
100
AcDbText
  0
TEXT
  5
2F6
330
245
100
AcDbEntity
  8
0
  6
Continuous
 62
     7
100
AcDbText
 10
144.6601712342
 20
60.67202458739999
 30
0.0
 40
0.6666666667
  1
 
  7
TEXTSTYLE_2
100
AcDbText
  0
TEXT
  5
2F7
330
245
100
AcDbEntity
  8
0
  6
Continuous
 62
     7
100
AcDbText
 10
144.6601712342
 20
59.6720245874
 30
0.0
 40
0.6666666667
  1
NIVEAU D'EAU              GALLONS(US)        LITRES        GALLONS(UK)
  7
TEXTSTYLE_2
100
AcDbText
  0
TEXT
  5
2F8
330
245
100
AcDbEntity
  8
0
  6
Continuous
 62
     7
100
AcDbText
 10
144.6601712342
 20
58.67202458739999
 30
0.0
 40
0.6666666667
  1
PLEIN
  7
TEXTSTYLE_2
100
AcDbText
  0
TEXT
  5
2F9
330
245
100
AcDbEntity
  8
0
  6
Continuous
 62
     7
100
AcDbText
 10
144.6601712342
 20
57.67202458739999
 30
0.0
 40
0.6666666667
  1
HAUT T.PLEIN
  7
TEXTSTYLE_2
100
AcDbText
  0
TEXT
  5
2FA
330
245
100
AcDbEntity
  8
0
  6
Continuous
 62
     7
100
AcDbText
 10
144.6601712342
 20
56.6720245874
 30
0.0
 40
0.6666666667
  1
MILIEU T.PLEIN
  7
TEXTSTYLE_2
100
AcDbText
  0
TEXT
  5
2FB
330
245
100
AcDbEntity
  8
0
  6
Continuous
 62
     7
100
AcDbText
 10
144.6601712342
 20
55.67202458739999
 30
0.0
 40
0.6666666667
  1
BAS T.PLEIN
  7
TEXTSTYLE_2
100
AcDbText
  0
TEXT
  5
2FC
330
245
100
AcDbEntity
  8
0
  6
Continuous
 62
     7
100
AcDbText
 10
144.6601712342
 20
54.6720245874
 30
0.0
 40
0.6666666667
  1
3" EN BAS T.PLEIN
  7
TEXTSTYLE_2
100
AcDbText
  0
TEXT
  5
2FD
330
245
100
AcDbEntity
  8
0
  6
Continuous
 62
     7
100
AcDbText
 10
144.6601712342
 20
53.67202458739999
 30
0.0
 40
0.6666666667
  1
 
  7
TEXTSTYLE_2
100
AcDbText
  0
TEXT
  5
2FE
330
245
100
AcDbEntity
  8
0
  6
Continuous
 62
     7
100
AcDbText
 10
144.4600097286
 20
53.1252376625
 30
0.0
 40
0.5
  1
Legende/Legend
  7
TEXTSTYLE_2
100
AcDbText
  0
TEXT
  5
2FF
330
245
100
AcDbEntity
  8
0
  6
Continuous
 62
     7
100
AcDbText
 10
150.9888446727
 20
51.6139726849
 30
0.0
 40
0.6666666667
  1
ZONE DE ROBINETTERIE
  7
TEXTSTYLE_2
100
AcDbText
  0
TEXT
  5
300
330
245
100
AcDbEntity
  8
0
  6
Continuous
 62
     7
100
AcDbText
 10
145.9091201057
 20
50.1187281704
 30
0.0
 40
0.6666666667
  1
L   :  SYSTEME LED       DC   :  DOUBLE DOSSIER CHAUFFANT
  7
TEXTSTYLE_2
100
AcDbText
  0
TEXT
  5
301
330
245
100
AcDbEntity
  8
0
  6
Continuous
 62
     7
100
AcDbText
 10
145.9091201057
 20
48.7853948371
 30
0.0
 40
0.6666666667
  1
C   :  CONTROLE
  7
TEXTSTYLE_2
100
AcDbText
  0
TEXT
  5
302
330
245
100
AcDbEntity
  8
0
  6
Continuous
 62
     7
100
AcDbText
 10
145.9091201057
 20
47.4520615038
 30
0.0
 40
0.6666666667
  1
T   :  MOTEUR
  7
TEXTSTYLE_2
100
AcDbText
  0
TEXT
  5
303
330
245
100
AcDbEntity
  8
0
  6
Continuous
 62
     7
100
AcDbText
 10
157.4928679335
 20
58.67202458739999
 30
0.0
 40
0.6666666667
  1
83
  7
TEXTSTYLE_2
100
AcDbText
  0
TEXT
  5
304
330
245
100
AcDbEntity
  8
0
  6
Continuous
 62
     7
100
AcDbText
 10
157.4928679335
 20
57.67202458739999
 30
0.0
 40
0.6666666667
  1
65
  7
TEXTSTYLE_2
100
AcDbText
  0
TEXT
  5
305
330
245
100
AcDbEntity
  8
0
  6
Continuous
 62
     7
100
AcDbText
 10
157.4928679335
 20
56.6720245874
 30
0.0
 40
0.6666666667
  1
64
  7
TEXTSTYLE_2
100
AcDbText
  0
TEXT
  5
306
330
245
100
AcDbEntity
  8
0
  6
Continuous
 62
     7
100
AcDbText
 10
157.4928679335
 20
55.67202458739999
 30
0.0
 40
0.6666666667
  1
63
  7
TEXTSTYLE_2
100
AcDbText
  0
TEXT
  5
307
330
245
100
AcDbEntity
  8
0
  6
Continuous
 62
     7
100
AcDbText
 10
157.4928679335
 20
54.6720245874
 30
0.0
 40
0.6666666667
  1
50
  7
TEXTSTYLE_2
100
AcDbText
  0
TEXT
  5
308
330
245
100
AcDbEntity
  8
0
  6
Continuous
 62
     7
100
AcDbText
 10
164.4130738772
 20
58.68910398949999
 30
0.0
 40
0.6666666667
  1
315
  7
TEXTSTYLE_2
100
AcDbText
  0
TEXT
  5
309
330
245
100
AcDbEntity
  8
0
  6
Continuous
 62
     7
100
AcDbText
 10
164.4130738772
 20
57.6891039895
 30
0.0
 40
0.6666666667
  1
247
  7
TEXTSTYLE_2
100
AcDbText
  0
TEXT
  5
30A
330
245
100
AcDbEntity
  8
0
  6
Continuous
 62
     7
100
AcDbText
 10
164.4130738772
 20
56.6891039895
 30
0.0
 40
0.6666666667
  1
243
  7
TEXTSTYLE_2
100
AcDbText
  0
TEXT
  5
30B
330
245
100
AcDbEntity
  8
0
  6
Continuous
 62
     7
100
AcDbText
 10
164.4130738772
 20
55.68910398949999
 30
0.0
 40
0.6666666667
  1
240
  7
TEXTSTYLE_2
100
AcDbText
  0
TEXT
  5
30C
330
245
100
AcDbEntity
  8
0
  6
Continuous
 62
     7
100
AcDbText
 10
164.4130738772
 20
54.6891039895
 30
0.0
 40
0.6666666667
  1
188
  7
TEXTSTYLE_2
100
AcDbText
  0
TEXT
  5
30D
330
245
100
AcDbEntity
  8
0
  6
Continuous
 62
     7
100
AcDbText
 10
171.3577128147
 20
58.67202458739999
 30
0.0
 40
0.6666666667
  1
69
  7
TEXTSTYLE_2
100
AcDbText
  0
TEXT
  5
30E
330
245
100
AcDbEntity
  8
0
  6
Continuous
 62
     7
100
AcDbText
 10
171.3577128147
 20
57.67202458739999
 30
0.0
 40
0.6666666667
  1
54
  7
TEXTSTYLE_2
100
AcDbText
  0
TEXT
  5
30F
330
245
100
AcDbEntity
  8
0
  6
Continuous
 62
     7
100
AcDbText
 10
171.3577128147
 20
56.6720245874
 30
0.0
 40
0.6666666667
  1
53
  7
TEXTSTYLE_2
100
AcDbText
  0
TEXT
  5
310
330
245
100
AcDbEntity
  8
0
  6
Continuous
 62
     7
100
AcDbText
 10
171.3577128147
 20
55.67202458739999
 30
0.0
 40
0.6666666667
  1
53
  7
TEXTSTYLE_2
100
AcDbText
  0
TEXT
  5
311
330
245
100
AcDbEntity
  8
0
  6
Continuous
 62
     7
100
AcDbText
 10
171.3577128147
 20
54.6720245874
 30
0.0
 40
0.6666666667
  1
41
  7
TEXTSTYLE_2
100
AcDbText
  0
LINE
  5
312
330
245
100
AcDbEntity
  8
0
  6
Continuous
 62
     7
100
AcDbLine
 10
143.9935045675
 20
64.00535792069999
 30
0.0
 11
143.9935045675
 21
46.67202458739999
 31
0.0
  0
LINE
  5
313
330
245
100
AcDbEntity
  8
0
  6
Continuous
 62
     7
100
AcDbLine
 10
143.9935045675
 20
64.00535792069999
 30
0.0
 11
177.3268379009
 21
64.00535792069999
 31
0.0
  0
LINE
  5
314
330
245
100
AcDbEntity
  8
0
  6
Continuous
 62
     7
100
AcDbLine
 10
177.3268379009
 20
64.00535792069999
 30
0.0
 11
177.3268379009
 21
46.67202458739999
 31
0.0
  0
LINE
  5
315
330
245
100
AcDbEntity
  8
0
  6
Continuous
 62
     7
100
AcDbLine
 10
143.9935045675
 20
46.67202458739999
 30
0.0
 11
177.3268379009
 21
46.67202458739999
 31
0.0
  0
LINE
  5
316
330
245
100
AcDbEntity
  8
0
  6
Continuous
 62
     7
100
AcDbLine
 10
145.3268379009
 20
54.0053579207
 30
0.0
 11
175.9935045675
 21
54.0053579207
 31
0.0
  0
LINE
  5
317
330
245
100
AcDbEntity
  8
0
  6
Continuous
 62
     7
100
AcDbLine
 10
145.3268379009
 20
61.0053579207
 30
0.0
 11
175.9935045675
 21
61.0053579207
 31
0.0
  0
LINE
  5
318
330
245
100
AcDbEntity
  8
0
  6
Continuous
 62
     7
100
AcDbLine
 10
144.8024111268
 20
52.3835224251
 30
0.0
 11
144.4333903845
 21
52.0145016827
 31
0.0
  0
LINE
  5
319
330
245
100
AcDbEntity
  8
0
  6
Continuous
 62
     7
100
AcDbLine
 10
145.4690777935
 20
52.3835224251
 30
0.0
 11
144.671062003
 21
51.5855066346
 31
0.0
  0
LINE
  5
31A
330
245
100
AcDbEntity
  8
0
  6
Continuous
 62
     7
100
AcDbLine
 10
146.1357444601
 20
52.3835224251
 30
0.0
 11
145.3377286697
 21
51.5855066346
 31
0.0
  0
LINE
  5
31B
330
245
100
AcDbEntity
  8
0
  6
Continuous
 62
     7
100
AcDbLine
 10
146.8024111268
 20
52.3835224251
 30
0.0
 11
146.0043953364
 21
51.5855066346
 31
0.0
  0
LINE
  5
31C
330
245
100
AcDbEntity
  8
0
  6
Continuous
 62
     7
100
AcDbLine
 10
147.4690777935
 20
52.3835224251
 30
0.0
 11
146.671062003
 21
51.5855066346
 31
0.0
  0
LINE
  5
31D
330
245
100
AcDbEntity
  8
0
  6
Continuous
 62
     7
100
AcDbLine
 10
148.1357444601
 20
52.3835224251
 30
0.0
 11
147.3377286697
 21
51.5855066346
 31
0.0
  0
LINE
  5
31E
330
245
100
AcDbEntity
  8
0
  6
Continuous
 62
     7
100
AcDbLine
 10
148.8024111268
 20
52.3835224251
 30
0.0
 11
148.0043953364
 21
51.5855066346
 31
0.0
  0
LINE
  5
31F
330
245
100
AcDbEntity
  8
0
  6
Continuous
 62
     7
100
AcDbLine
 10
149.4690777935
 20
52.3835224251
 30
0.0
 11
148.671062003
 21
51.5855066346
 31
0.0
  0
LINE
  5
320
330
245
100
AcDbEntity
  8
0
  6
Continuous
 62
     7
100
AcDbLine
 10
150.1357444601
 20
52.3835224251
 30
0.0
 11
149.3377286697
 21
51.5855066346
 31
0.0
  0
LINE
  5
321
330
245
100
AcDbEntity
  8
0
  6
Continuous
 62
     7
100
AcDbLine
 10
150.5792318943
 20
52.1603431925
 30
0.0
 11
150.0043953364
 21
51.5855066346
 31
0.0
  0
ELLIPSE
  5
322
330
245
100
AcDbEntity
  8
0
  6
Continuous
 62
     7
100
AcDbEllipse
 10
146.1389070497
 20
50.4363056276
 30
0.0
 11
1.0473539356
 21
0.0
 31
0.0
210
0.0
220
0.0
230
1.0
 40
0.4938647983
 41
0.0
 42
6.283185307179586
  0
ELLIPSE
  5
323
330
245
100
AcDbEntity
  8
0
  6
Continuous
 62
     7
100
AcDbEllipse
 10
146.1389070497
 20
49.1029722943
 30
0.0
 11
1.0473539356
 21
0.0
 31
0.0
210
0.0
220
0.0
230
1.0
 40
0.4938647983
 41
0.0
 42
6.283185307179586
  0
ELLIPSE
  5
324
330
245
100
AcDbEntity
  8
0
  6
Continuous
 62
     7
100
AcDbEllipse
 10
146.1389070497
 20
47.769638961
 30
0.0
 11
1.0473539356
 21
0.0
 31
0.0
210
0.0
220
0.0
230
1.0
 40
0.4938647983
 41
0.0
 42
6.283185307179586
  0
ELLIPSE
  5
325
330
245
100
AcDbEntity
  8
0
  6
Continuous
 62
     7
100
AcDbEllipse
 10
157.1575426308
 20
50.4558269847
 30
0.0
 11
1.0473539356
 21
0.0
 31
0.0
210
0.0
220
0.0
230
1.0
 40
0.4938647983
 41
0.0
 42
6.283185307179586
  0
ENDBLK
  5
326
330
245
100
AcDbEntity
  8
0
  6
ByBlock
 62
     0
100
AcDbBlockEnd
  0
ENDSEC
  0
SECTION
  2
ENTITIES
  0
LWPOLYLINE
  5
1536
330
229
100
AcDbEntity
  8
0
  6
Continuous
 62
     7
100
AcDbPolyline
 90
       38
 70
     0
 43
0.0
 10
16.1132610634
 20
80.37691545500001
 10
16.1308628919
 20
79.65143963979999
 10
16.1840786531
 20
78.9327099493
 10
16.2716401337
 20
78.2334515406
 10
16.3926313382
 20
77.5517017497
 10
16.5465106971
 20
76.88551316129999
 10
16.7331248748
 20
76.2329692598
 10
16.9527114398
 20
75.5922276317
 10
17.2058986656
 20
74.9615516617
 10
17.4936916614
 20
74.3393559867
 10
17.8174514405
 20
73.7242426288
 10
18.178879388
 20
73.1150127075
 10
18.5800736288
 20
72.51057400890001
 10
19.0234860908
 20
71.9100359704
 10
19.511861407
 20
71.3127827405
 10
20.0488686593
 20
70.7177812419
 10
20.6393496852
 20
70.1236352977
 10
21.2885167889
 20
69.5296007312
 10
21.9998975773
 20
68.9371387357
 10
22.7749964211
 20
68.3493792001
 10
23.6148685793
 20
67.7694004204
 10
24.5200237695
 20
67.20024856409999
 10
25.4906507494
 20
66.6447650701
 10
26.5269629942
 20
66.10543596640001
 10
27.6318024733
 20
65.5833183622
 10
28.8099634178
 20
65.0789519885
 10
30.0669801106
 20
64.59318456850001
 10
31.4129953035
 20
64.12599902290001
 10
32.8605658941
 20
63.6779639222
 10
34.4153510906
 20
63.25297467689999
 10
36.069399629
 20
62.8585109638
 10
37.81474189780001
 20
62.50088966689999
 10
39.6492167147
 20
62.18457580089999
 10
41.5717324861
 20
61.91389205260001
 10
43.58107228149999
 20
61.6934603901
 10
45.67584664419999
 20
61.5283739238
 10
47.85450564899999
 20
61.42440971439999
 10
50.10184750069999
 20
61.3883290176
  0
LWPOLYLINE
  5
1537
330
229
100
AcDbEntity
  8
0
  6
Continuous
 62
     7
100
AcDbPolyline
 90
       51
 70
     0
 43
0.0
 10
17.6297407862
 20
80.37691545500001
 10
17.6424501088
 20
80.8838399673
 10
17.6794020039
 20
81.3714741353
 10
17.7401925127
 20
81.8490040228
 10
17.8244624312
 20
82.3167525801
 10
17.9319982482
 20
82.77540063560001
 10
18.0630146996
 20
83.22654315779999
 10
18.218175155
 20
83.67200453310001
 10
18.398298901
 20
84.1129376667
 10
18.6041837463
 20
84.5498060206
 10
18.8369571862
 20
84.98333919709999
 10
19.0982722293
 20
85.4146575556
 10
19.3901774175
 20
85.8448360574
 10
19.7151202107
 20
86.27485249379999
 10
20.0759906367
 20
86.7055973098
 10
20.4761611721
 20
87.137862495
 10
20.9195365809
 20
87.5723313854
 10
21.4106095907
 20
88.00956268680002
 10
21.9545232963
 20
88.44996951309999
 10
22.557138779
 20
88.89379180030001
 10
23.2251064682
 20
89.3410612071
 10
23.965935469
 20
89.79155549399999
 10
24.7880631994
 20
90.24474565670001
 10
25.7008806399
 20
90.6997147268
 10
26.7148289291
 20
91.1551117495
 10
27.8410304921
 20
91.6089096327
 10
29.0923809929
 20
92.05875643659998
 10
30.4751457068
 20
92.49920974549999
 10
31.9824827409
 20
92.9213851827
 10
33.5668535739
 20
93.30888508680001
 10
35.0872965589
 20
93.63327352410001
 10
36.4490576251
 20
93.888547552
 10
37.6514736899
 20
94.08867530930001
 10
38.7252674748
 20
94.24877318440001
 10
39.6919232367
 20
94.37873529129999
 10
40.56688303629999
 20
94.4853511976
 10
41.3551536937
 20
94.5727927365
 10
42.0587623717
 20
94.64417137039999
 10
42.6895805051
 20
94.7029545168
 10
43.2736255183
 20
94.75307671870002
 10
43.8380879754
 20
94.79765046
 10
44.40670171819999
 20
94.8387554415
 10
44.98049453239999
 20
94.8764060809
 10
45.55309124539999
 20
94.91016326010001
 10
46.1248660726
 20
94.94007220510001
 10
46.7007625793
 20
94.96634451650001
 10
47.29321476319999
 20
94.98930409299999
 10
47.91589076810001
 20
95.00892865329999
 10
48.5824614287
 20
95.0247206541
 10
49.306586894
 20
95.03560666899998
 10
50.10184750069999
 20
95.0397850252
  0
LWPOLYLINE
  5
1538
330
229
100
AcDbEntity
  8
0
  6
Continuous
 62
     7
100
AcDbPolyline
 90
       50
 70
     0
 43
0.0
 10
23.1260434304
 20
80.37691545500001
 10
23.1380680428
 20
80.8474923572
 10
23.1730639148
 20
81.3023310984
 10
23.2307725442
 20
81.7503360719
 10
23.311072908
 20
82.19218376369999
 10
23.4141891741
 20
82.6292964742
 10
23.5406565812
 20
83.0630504952
 10
23.6912875507
 20
83.49465861989999
 10
23.8672814578
 20
83.92546650140001
 10
24.0700957731
 20
84.3565480116
 10
24.3016513547
 20
84.78914687140001
 10
24.5639378123
 20
85.2238937879
 10
24.8591911787
 20
85.66128366239999
 10
25.1901252374
 20
86.10196921149999
 10
25.5600328564
 20
86.54673491950001
 10
25.9726941479
 20
86.99625468909999
 10
26.4323974103
 20
87.45105322909999
 10
26.9438857038
 20
87.9114058264
 10
27.5122393207
 20
88.3772223809
 10
28.1430799631
 20
88.8482097319
 10
28.8427093936
 20
89.3239011914
 10
29.6178878481
 20
89.80342944350001
 10
30.4756815435
 20
90.2854179392
 10
31.4232437408
 20
90.7678755142
 10
32.4673731916
 20
91.24803423700001
 10
33.6141318128
 20
91.7222947798
 10
34.867249055
 20
92.18579164110002
 10
36.2295430991
 20
92.63320875359999
 10
37.6190705323
 20
93.0360595497
 10
38.8987985087
 20
93.36398885399999
 10
40.03492764439999
 20
93.62315709639998
 10
41.0447053705
 20
93.82967488229999
 10
41.94917132639999
 20
93.99635601040001
 10
42.7614705753
 20
94.13169596799999
 10
43.4934755968
 20
94.2422062918
 10
44.15658980889999
 20
94.3330213449
 10
44.7599159615
 20
94.40798768669999
 10
45.30579191930001
 20
94.4695093546
 10
45.795446113
 20
94.5195652453
 10
46.2344969072
 20
94.56028588329999
 10
46.63781359949999
 20
94.59418588069999
 10
47.02149074939999
 20
94.6232789349
 10
47.4014996852
 20
94.64901616149999
 10
47.7857937284
 20
94.67187631559999
 10
48.1708508486
 20
94.69152515030001
 10
48.5549852234
 20
94.7078060357
 10
48.93915127319999
 20
94.7206866331
 10
49.3243729634
 20
94.7300885691
 10
49.71162936449999
 20
94.73587810739999
 10
50.10184750069999
 20
94.73786168270001
  0
LWPOLYLINE
  5
1539
330
229
100
AcDbEntity
  8
0
  6
Continuous
 62
     7
100
AcDbPolyline
 90
       47
 70
     0
 43
0.0
 10
26.4207016591
 20
80.37691545500001
 10
26.4323547492
 20
79.95550924399999
 10
26.4664360398
 20
79.5482996848
 10
26.52184103550001
 20
79.15383668300001
 10
26.5978832734
 20
78.7701120248
 10
26.6943919141
 20
78.3948392801
 10
26.8109509905
 20
78.02794921749999
 10
26.9479746283
 20
77.66736486880001
 10
27.1059916209
 20
77.3118725582
 10
27.2855968289
 20
76.9607582751
 10
27.4881226564
 20
76.61248731749999
 10
27.7149612076
 20
76.2661651792
 10
27.9678437054
 20
75.92093212569999
 10
28.2490173117
 20
75.5758022096
 10
28.5609822626
 20
75.2300703346
 10
28.9066420136
 20
74.8831267852
 10
29.2894952123
 20
74.53433239
 10
29.7134445949
 20
74.1832775985
 10
30.1828991751
 20
73.8297218762
 10
30.7028895061
 20
73.47356518560001
 10
31.278979031
 20
73.11497448850001
 10
31.9174886313
 20
72.7542997906
 10
32.6253691475
 20
72.39222859839999
 10
33.4100332004
 20
72.02991032319999
 10
34.27953274810001
 20
71.66889986939999
 10
35.2426381243
 20
71.31119289850001
 10
36.3075771109
 20
70.9597066221
 10
37.4836491678
 20
70.6177054919
 10
38.7448991543
 20
70.29759262439999
 10
39.948925898
 20
70.03166016359999
 10
41.017908795
 20
69.82477514189999
 10
41.9581507563
 20
69.66376439529999
 10
42.80093761229999
 20
69.53514486020001
 10
43.56114258909999
 20
69.4313130006
 10
44.2485127929
 20
69.34706474550001
 10
44.8660408103
 20
69.2790073741
 10
45.4163286108
 20
69.22435790299999
 10
45.9120173329
 20
69.17992938010001
 10
46.37434739779999
 20
69.14257642859999
 10
46.8248924518
 20
69.10997232380001
 10
47.2803722808
 20
69.08083841799999
 10
47.73838216859999
 20
69.05545711090001
 10
48.1950902927
 20
69.034108583
 10
48.65456864449999
 20
69.01669484060001
 10
49.1220527489
 20
69.0032622179
 10
49.6027551847
 20
68.9940961411
 10
50.10184750069999
 20
68.9897620679
  0
LWPOLYLINE
  5
153A
330
229
100
AcDbEntity
  8
0
  6
Continuous
 62
     7
100
AcDbPolyline
 90
       38
 70
     0
 43
0.0
 10
50.10184750069999
 20
61.3883290176
 10
52.3481388506
 20
61.4243759969
 10
54.5269451519
 20
61.52831655079999
 10
56.62185665149999
 20
61.6933880618
 10
58.63132205100001
 20
61.91381193649999
 10
60.55395193209999
 20
62.1844936997
 10
62.3885293147
 20
62.5008102936
 10
64.1339623172
 20
62.8584379718
 10
65.788088688
 20
63.2529104472
 10
67.3429320338
 20
63.6779077542
 10
68.7905412508
 20
64.1259484623
 10
70.1365943771
 20
64.593141793
 10
71.39365222169999
 20
65.07892093609999
 10
72.5718476842
 20
65.583299278
 10
73.6767153862
 20
66.10542872499999
 10
74.7130540118
 20
66.644771354
 10
75.683700496
 20
67.20026696779999
 10
76.5888696812
 20
67.7694295901
 10
77.4287540527
 20
68.3494197529
 10
78.20386427009999
 20
68.93719206250001
 10
78.9152430648
 20
69.52965744450001
 10
79.5643810002
 20
70.1236695977
 10
80.15480924090001
 20
70.7177632409
 10
80.6917568281
 20
71.31269343550001
 10
81.1800792454
 20
71.909869153
 10
81.6234481164
 20
72.510326623
 10
82.02460644750001
 20
73.1146796658
 10
82.3860051473
 20
73.7238165749
 10
82.7097433057
 20
74.33882996920001
 10
82.9975255219
 20
74.9609246535
 10
83.2507150143
 20
75.5915056523
 10
83.47031733680001
 20
76.23216461120001
 10
83.65695809029999
 20
76.8846372796
 10
83.81087193749999
 20
77.5507620142
 10
83.93190353039999
 20
78.23245056260001
 10
84.019510395
 20
78.93164559989999
 10
84.07277667789999
 20
79.6503067467
 10
84.0904339381
 20
80.37691545500001
  0
LWPOLYLINE
  5
153B
330
229
100
AcDbEntity
  8
0
  6
Continuous
 62
     7
100
AcDbPolyline
 90
       42
 70
     0
 43
0.0
 10
32.795768872
 20
80.37691545500001
 10
32.8012957971
 20
80.23557228989998
 10
32.8177340566
 20
80.09576613550001
 10
32.8446514557
 20
79.9590421277
 10
32.8815448549
 20
79.826207921
 10
32.9284547652
 20
79.6965082911
 10
32.9851102448
 20
79.5707235106
 10
33.0512038462
 20
79.44956850050001
 10
33.1263800091
 20
79.33373845990001
 10
33.2102293182
 20
79.223911527
 10
33.3022771143
 20
79.1207593728
 10
33.4020292781
 20
79.0248860999
 10
33.5088925175
 20
78.9369078134
 10
33.6222574705
 20
78.8573661683
 10
33.7415160134
 20
78.78672888949999
 10
33.8659404952
 20
78.7254639012
 10
33.9948342717
 20
78.67394458149999
 10
34.1274151254
 20
78.6325053864
 10
34.2628216521
 20
78.60142112689999
 10
34.4002291596
 20
78.5808708396
 10
34.538681034
 20
78.57096669429999
 10
34.6773179145
 20
78.57172256120001
 10
34.8152991227
 20
78.58307952619999
 10
34.9517697362
 20
78.6049092185
 10
35.08604371300001
 20
78.63705313869999
 10
35.2173552904
 20
78.6792945522
 10
35.3449967725
 20
78.73138262020001
 10
35.4682760431
 20
78.79302231379999
 10
35.58647082050001
 20
78.8638467818
 10
35.6989399965
 20
78.9434706837
 10
35.8050118458
 20
79.0314213394
 10
35.9040807868
 20
79.12719993260001
 10
35.9955742741
 20
79.2302579416
 10
36.0789532653
 20
79.33999603930001
 10
36.1537344693
 20
79.4557855501
 10
36.21947120010001
 20
79.5769417005
 10
36.2757826947
 20
79.7027704037
 10
36.3223367813
 20
79.8325374414
 10
36.3588570675
 20
79.9654831812
 10
36.38513114510001
 20
80.1008489185
 10
36.4009993822
 20
80.23783994850001
 10
36.40636455550001
 20
80.37691545500001
  0
LWPOLYLINE
  5
153C
330
229
100
AcDbEntity
  8
0
  6
Continuous
 62
     7
100
AcDbPolyline
 90
       42
 70
     0
 43
0.0
 10
36.40636455550001
 20
80.37691545500001
 10
36.400868346
 20
80.5176765118
 10
36.3844463844
 20
80.6573715062
 10
36.3574902291
 20
80.79414477909999
 10
36.3205354744
 20
80.9269573765
 10
36.27354474420001
 20
81.05659477739999
 10
36.2168096143
 20
81.18225290339999
 10
36.1506599876
 20
81.30320999770001
 10
36.0754866899
 20
81.41876047229999
 10
35.9917238938
 20
81.52824234329999
 10
35.8998706192
 20
81.63100915079999
 10
35.8004595878
 20
81.72647283020001
 10
35.6940743564
 20
81.81407805890001
 10
35.5813302676
 20
81.8933245672
 10
35.462872147
 20
81.96376107749999
 10
35.3394028395
 20
82.0249723172
 10
35.2115946766
 20
82.0766238835
 10
35.0801943559
 20
82.1184057009
 10
34.9459161384
 20
82.1500788524
 10
34.80948883030001
 20
82.17144486069999
 10
34.67168566010001
 20
82.18234656299999
 10
34.5332112636
 20
82.18267566739999
 10
34.3949340956
 20
82.1723678669
 10
34.2576971015
 20
82.15143227989999
 10
34.1223636442
 20
82.11995061240001
 10
33.98987565760001
 20
82.07811517579999
 10
33.8610401083
 20
82.02617624629999
 10
33.7366915844
 20
81.96448087929999
 10
33.6175786822
 20
81.89343358729999
 10
33.5043655005
 20
81.81346797180001
 10
33.3977302177
 20
81.7251067808
 10
33.29823819
 20
81.6288665136
 10
33.2064579872
 20
81.52533735029999
 10
33.1229281879
 20
81.41517664289999
 10
33.0480932349
 20
81.29902388880001
 10
32.9823754345
 20
81.17758177970001
 10
32.9261288191
 20
81.0515562081
 10
32.87965439590001
 20
80.9216648728
 10
32.8432086114
 20
80.7886574173
 10
32.8169863545
 20
80.65326624149999
 10
32.8011411302
 20
80.51626976109998
 10
32.795768872
 20
80.37691545500001
  0
LINE
  5
153D
330
229
100
AcDbEntity
  8
DEFAULT_1
  6
CENTER
 62
     7
100
AcDbLine
 10
34.60184750070001
 20
80.37691545500001
 30
0.0
 11
34.60184750070001
 21
75.39346634560001
 31
0.0
  0
LINE
  5
153E
330
229
100
AcDbEntity
  8
DEFAULT_1
  6
CENTER
 62
     7
100
AcDbLine
 10
34.60184750070001
 20
80.37691545500001
 30
0.0
 11
34.60184750070001
 21
85.36036456439999
 31
0.0
  0
LWPOLYLINE
  5
153F
330
229
100
AcDbEntity
  8
0
  6
Continuous
 62
     7
100
AcDbPolyline
 90
       50
 70
     0
 43
0.0
 10
50.10184750069999
 20
66.01596922739999
 10
49.6932168401
 20
66.0181430351
 10
49.2870786129
 20
66.02449568819999
 10
48.88249730850001
 20
66.03482633689999
 10
48.4784761078
 20
66.0489992002
 10
48.0739646035
 20
66.0669389654
 10
47.66848347489999
 20
66.08859167750001
 10
47.2655811366
 20
66.1136653402
 10
46.8666079184
 20
66.1419231154
 10
46.45751429989999
 20
66.1743820817
 10
46.0203857456
 20
66.2129089109
 10
45.5374423181
 20
66.2600335038
 10
44.9969064347
 20
66.31839603500001
 10
44.39684679139999
 20
66.39008142299999
 10
43.7360400527
 20
66.477381975
 10
43.00748745169999
 20
66.58378889560001
 10
42.1986625638
 20
66.714473665
 10
41.2975624978
 20
66.87584036789999
 10
40.29261221219999
 20
67.07588418520001
 10
39.1579098263
 20
67.32816278609999
 10
37.8753456755
 20
67.64891638459999
 10
36.50495412340001
 20
68.0366768035
 10
35.1862074911
 20
68.4582869889
 10
33.9679908804
 20
68.89520068340001
 10
32.8486721345
 20
69.34233798439999
 10
31.8240004541
 20
69.7957338229
 10
30.8884808644
 20
70.25228122909999
 10
30.0360038696
 20
70.70960917399999
 10
29.260393135
 20
71.16589197579999
 10
28.5555449475
 20
71.61980518909999
 10
27.915491129
 20
72.0705199825
 10
27.3346651169
 20
72.5175366893
 10
26.80811588760001
 20
72.96047264479999
 10
26.3313269723
 20
73.39912853140001
 10
25.9000360328
 20
73.83362801689999
 10
25.5103473565
 20
74.26431969140001
 10
25.1587739169
 20
74.69170971060001
 10
24.8422151029
 20
75.1164526246
 10
24.5579904436
 20
75.5392631597
 10
24.3037225989
 20
75.9610436856
 10
24.0774602395
 20
76.3826546613
 10
23.877482919
 20
76.80521739239999
 10
23.7024869139
 20
77.22973324829999
 10
23.5513830818
 20
77.65748874180001
 10
23.4234469294
 20
78.08969500189999
 10
23.3182254425
 20
78.5277062829
 10
23.2355521458
 20
78.97304411180001
 10
23.1754148113
 20
79.42891153329999
 10
23.1385697291
 20
79.89667800470001
 10
23.1260434304
 20
80.37691545500001
  0
LWPOLYLINE
  5
1540
330
229
100
AcDbEntity
  8
0
  6
Continuous
 62
     7
100
AcDbPolyline
 90
       39
 70
     0
 43
0.0
 10
50.10184750069999
 20
65.7140458848
 10
48.1026258203
 20
65.73992934279999
 10
46.0356962879
 20
65.8181728174
 10
43.9362037667
 20
65.94881676029999
 10
41.8644072876
 20
66.1287575505
 10
39.8607632688
 20
66.3537215242
 10
37.9465821386
 20
66.6194548142
 10
36.1286169804
 20
66.9225287716
 10
34.4100114388
 20
67.25967420599999
 10
32.792063097
 20
67.6277327067
 10
31.278042808
 20
68.02277863109999
 10
29.8803603932
 20
68.43736645279999
 10
28.6082191994
 20
68.8629019616
 10
27.4565056709
 20
69.29424836149999
 10
26.4138190449
 20
69.72892687959999
 10
25.46972659070001
 20
70.16499294270001
 10
24.614710263
 20
70.60096473899999
 10
23.8399683003
 20
71.0358497614
 10
23.137616587
 20
71.46897314420001
 10
22.5005443384
 20
71.8999750208
 10
21.9223938762
 20
72.3287502693
 10
21.3975321989
 20
72.75538906189999
 10
20.9209729948
 20
73.180157715
 10
20.4883086058
 20
73.6034869004
 10
20.0956937125
 20
74.02591907619999
 10
19.7397656234
 20
74.4481234154
 10
19.4176480021
 20
74.8708283094
 10
19.1268780278
 20
75.2948436547
 10
18.8653267414
 20
75.7211336721
 10
18.631200829
 20
76.15080528109999
 10
18.4231070427
 20
76.5849553995
 10
18.2400307751
 20
77.02460472910001
 10
18.081145392
 20
77.4711039523
 10
17.9458303381
 20
77.926317571
 10
17.8339210546
 20
78.39199333279999
 10
17.7457722752
 20
78.86896739939999
 10
17.6818780437
 20
79.35824785779999
 10
17.6429247688
 20
79.860684631
 10
17.6297407862
 20
80.37691545500001
  0
LWPOLYLINE
  5
1543
330
229
100
AcDbEntity
  8
0
  6
Continuous
 62
     7
100
AcDbPolyline
 90
       20
 70
     0
 43
0.0
 10
51.5915305089
 20
94.1255211318
 10
51.58757491319999
 20
94.12378652020001
 10
51.58251114
 20
94.12194195049998
 10
51.5767272642
 20
94.1201559917
 10
51.5702480534
 20
94.11843629160001
 10
51.5631012524
 20
94.11679021419999
 10
51.5553174651
 20
94.11522480829999
 10
51.5469300228
 20
94.11374677700001
 10
51.5379748417
 20
94.11236244979999
 10
51.5284902694
 20
94.1110777543
 10
51.5185169203
 20
94.1098981919
 10
51.5080975017
 20
94.1088288136
 10
51.4972766311
 20
94.1078741988
 10
51.4861006453
 20
94.10703843510001
 10
51.47461740189999
 20
94.1063251015
 10
51.4628760734
 20
94.1057372526
 10
51.4509269374
 20
94.1052774055
 10
51.4388211626
 20
94.1049475296
 10
51.4266105879
 20
94.10474903729999
 10
51.4143475007
 20
94.10468277860001
  0
LWPOLYLINE
  5
1544
330
229
100
AcDbEntity
  8
0
  6
Continuous
 62
     7
100
AcDbPolyline
 90
       35
 70
     0
 43
0.0
 10
50.10184750069999
 20
68.9897620679
 10
51.8341816392
 20
69.0104138189
 10
53.4899367581
 20
69.08288542680001
 10
55.0493547097
 20
69.20398356959999
 10
56.492988996
 20
69.3678424638
 10
57.80698073749999
 20
69.56633003430001
 10
58.9996464813
 20
69.79317223470001
 10
60.0814141096
 20
70.0431502064
 10
61.062381361
 20
70.3118642164
 10
61.95202699520001
 20
70.5956468203
 10
62.75919513249999
 20
70.89151161390001
 10
63.4920536398
 20
71.1970871389
 10
64.158098988
 20
71.5105598774
 10
64.7641554117
 20
71.8306121028
 10
65.3163911786
 20
72.15636481109999
 10
65.82032983560001
 20
72.4873162315
 10
66.2809130892
 20
72.8233154972
 10
66.7023658543
 20
73.1643864304
 10
67.0878303846
 20
73.5102475913
 10
67.4403454664
 20
73.86097816770001
 10
67.76292387979999
 20
74.2171895995
 10
68.0580421067
 20
74.57953483819999
 10
68.3280166966
 20
74.9491198747
 10
68.57438819569999
 20
75.32664500930001
 10
68.7986730248
 20
75.7133677438
 10
69.00194756399999
 20
76.1105217417
 10
69.1846533785
 20
76.51869579460001
 10
69.34746597729999
 20
76.93960789710001
 10
69.49041563609999
 20
77.3741900357
 10
69.6134549492
 20
77.8238566791
 10
69.7163426291
 20
78.29046568439999
 10
69.7984274412
 20
78.77542970970001
 10
69.85888876979998
 20
79.28081107770001
 10
69.89656393449999
 20
79.8085891845
 10
69.91000110619999
 20
80.37691545500001
  0
LWPOLYLINE
  5
1545
330
229
100
AcDbEntity
  8
0
  6
Continuous
 62
     7
100
AcDbPolyline
 90
       31
 70
     0
 43
0.0
 10
48.1018475007
 20
94.1985049118
 10
48.1024470793
 20
94.20228400370001
 10
48.1042441715
 20
94.2060527373
 10
48.1072338517
 20
94.2098007829
 10
48.1114079254
 20
94.21351786729999
 10
48.1167549517
 20
94.21719380219998
 10
48.1232602749
 20
94.22081851219999
 10
48.1309060641
 20
94.22438206209999
 10
48.139671363
 20
94.22787468459999
 10
48.1495321464
 20
94.2312868065
 10
48.16046138659999
 20
94.23460907559999
 10
48.17242912729999
 20
94.2378323856
 10
48.18540256569999
 20
94.24094790179999
 10
48.1993461426
 20
94.2439470847
 10
48.2142216396
 20
94.24682171379998
 10
48.22998828399999
 20
94.24956390990001
 10
48.24660286050001
 20
94.2521661568
 10
48.2640198296
 20
94.25462132200001
 10
48.2821914529
 20
94.25692267589999
 10
48.30106792289999
 20
94.2590639109
 10
48.32059750069999
 20
94.26103915780002
 10
48.34072665709999
 20
94.2628430028
 10
48.3614002194
 20
94.26447050150001
 10
48.38256152279999
 20
94.26591719299999
 10
48.4041525657
 20
94.26717911229999
 10
48.42611416850001
 20
94.2682528003
 10
48.448386136
 20
94.2691353142
 10
48.47090742229999
 20
94.269824235
 10
48.4936162981
 20
94.27031767459999
 10
48.5164505199
 20
94.27061428040001
 10
48.53934750069999
 20
94.27071323940001
  0
LWPOLYLINE
  5
1546
330
229
100
AcDbEntity
  8
0
  6
Continuous
 62
     7
100
AcDbPolyline
 90
        3
 70
     0
 43
0.0
 10
53.0362945717
 20
94.46053026840001
 10
52.9918690952
 20
94.37538854260001
 10
52.90463438439999
 20
94.20802965940001
  0
LINE
  5
1547
330
229
100
AcDbEntity
  8
0
  6
Continuous
 62
     7
100
AcDbLine
 10
48.1018475007
 20
94.17508062879999
 30
0.0
 11
48.1018475007
 21
94.1985049118
 31
0.0
  0
LINE
  5
1548
330
229
100
AcDbEntity
  8
0
  6
Continuous
 62
     7
100
AcDbLine
 10
48.53934750069999
 20
94.04442563359999
 30
0.0
 11
48.53934750069999
 21
94.0453856415
 31
0.0
  0
LINE
  5
1549
330
229
100
AcDbEntity
  8
0
  6
Continuous
 62
     7
100
AcDbLine
 10
48.78934750069999
 20
94.14193849090001
 30
0.0
 11
48.78934750069999
 21
94.14152705899999
 31
0.0
  0
LINE
  5
154C
330
229
100
AcDbEntity
  8
0
  6
Continuous
 62
     7
100
AcDbLine
 10
32.795768872
 20
80.37691545500001
 30
0.0
 11
32.6294634994
 21
80.37691545500001
 31
0.0
  0
LINE
  5
154D
330
229
100
AcDbEntity
  8
DEFAULT_1
  6
CENTER
 62
     7
100
AcDbLine
 10
34.60184750070001
 20
80.37691545500001
 30
0.0
 11
32.795768872
 21
80.37691545500001
 31
0.0
  0
LINE
  5
154E
330
229
100
AcDbEntity
  8
DEFAULT_1
  6
CENTER
 62
     7
100
AcDbLine
 10
32.6294634994
 20
80.37691545500001
 30
0.0
 11
29.6183983914
 21
80.37691545500001
 31
0.0
  0
LINE
  5
154F
330
229
100
AcDbEntity
  8
DEFAULT_1
  6
CENTER
 62
     7
100
AcDbLine
 10
34.60184750070001
 20
80.37691545500001
 30
0.0
 11
36.40636455550001
 21
80.37691545500001
 31
0.0
  0
LINE
  5
1550
330
229
100
AcDbEntity
  8
DEFAULT_1
  6
CENTER
 62
     7
100
AcDbLine
 10
36.5764901559
 20
80.37691545500001
 30
0.0
 11
39.5852966101
 21
80.37691545500001
 31
0.0
  0
LINE
  5
1551
330
229
100
AcDbEntity
  8
0
  6
Continuous
 62
     7
100
AcDbLine
 10
36.40636455550001
 20
80.37691545500001
 30
0.0
 11
36.5764901559
 21
80.37691545500001
 31
0.0
  0
LINE
  5
1552
330
229
100
AcDbEntity
  8
0
  6
Continuous
 62
     7
100
AcDbLine
 10
51.4143475007
 20
94.14193849090001
 30
0.0
 11
51.4143475007
 21
94.14152705899999
 31
0.0
  0
LINE
  5
1553
330
229
100
AcDbEntity
  8
0
  6
Continuous
 62
     7
100
AcDbLine
 10
51.66434750069999
 20
94.04442563359999
 30
0.0
 11
51.66434750069999
 21
94.0453856415
 31
0.0
  0
LINE
  5
1554
330
229
100
AcDbEntity
  8
0
  6
Continuous
 62
     7
100
AcDbLine
 10
52.10184750069999
 20
94.1985049118
 30
0.0
 11
52.10184750069999
 21
94.17508062879999
 31
0.0
  0
LWPOLYLINE
  5
1555
330
229
100
AcDbEntity
  8
0
  6
Continuous
 62
     7
100
AcDbPolyline
 90
        3
 70
     0
 43
0.0
 10
47.1674034577
 20
94.46007574339999
 10
47.21176909149999
 20
94.37486955770001
 10
47.2556565054
 20
94.29051164280002
  0
LINE
  5
1556
330
229
100
AcDbEntity
  8
0
  6
Continuous
 62
     7
100
AcDbLine
 10
47.2556565054
 20
94.29051164280002
 30
0.0
 11
47.326995879
 21
94.1532953065
 31
0.0
  0
LWPOLYLINE
  5
1557
330
229
100
AcDbEntity
  8
0
  6
Continuous
 62
     7
100
AcDbPolyline
 90
       29
 70
     0
 43
0.0
 10
47.326995879
 20
94.1532953065
 10
47.339340988
 20
94.1295087201
 10
47.3507861483
 20
94.1076159217
 10
47.36190139449999
 20
94.08779282899999
 10
47.3795651334
 20
94.07074063520001
 10
47.40576151049999
 20
94.05493542589999
 10
47.4411891996
 20
94.03979623719999
 10
47.4852121501
 20
94.0257459949
 10
47.5376430079
 20
94.01279367249999
 10
47.5974402775
 20
94.001178638
 10
47.6644412313
 20
93.99086083569999
 10
47.7381365973
 20
93.98187939160001
 10
47.81810426779999
 20
93.9742468562
 10
47.9026257682
 20
93.9680753602
 10
47.9924943142
 20
93.96328782519999
 10
48.0885027018
 20
93.95983315139998
 10
48.1861110524
 20
93.95785186339999
 10
48.285694432
 20
93.9573187869
 10
48.3876101154
 20
93.9581903398
 10
48.49555190020001
 20
93.96057774219999
 10
48.6164367743
 20
93.96455573149999
 10
48.74946383520001
 20
93.9687257313
 10
48.89460203489999
 20
93.97286762829999
 10
49.0529795095
 20
93.97687083139999
 10
49.2260192057
 20
93.98062747770001
 10
49.4153682381
 20
93.98399315689999
 10
49.62292260699999
 20
93.9867691897
 10
49.8508860995
 20
93.9886987841
 10
50.10184750069999
 20
93.98943676260001
  0
LWPOLYLINE
  5
1558
330
229
100
AcDbEntity
  8
0
  6
Continuous
 62
     7
100
AcDbPolyline
 90
       31
 70
     0
 43
0.0
 10
52.10184750069999
 20
94.1985049118
 10
52.1012479222
 20
94.20228400370001
 10
52.09945083
 20
94.2060527373
 10
52.0964611497
 20
94.2098007829
 10
52.0922870761
 20
94.21351786729999
 10
52.0869400497
 20
94.21719380219998
 10
52.0804347266
 20
94.22081851219999
 10
52.07278893729999
 20
94.22438206209999
 10
52.0640236385
 20
94.22787468459999
 10
52.05416285510001
 20
94.2312868065
 10
52.0432336149
 20
94.23460907559999
 10
52.0312658742
 20
94.2378323856
 10
52.0182924358
 20
94.24094790179999
 10
52.0043488589
 20
94.2439470847
 10
51.98947336189999
 20
94.24682171379998
 10
51.9737067175
 20
94.24956390990001
 10
51.957092141
 20
94.2521661568
 10
51.9396751718
 20
94.25462132200001
 10
51.92150354859999
 20
94.25692267589999
 10
51.9026270786
 20
94.2590639109
 10
51.8830975007
 20
94.26103915780002
 10
51.8629683444
 20
94.2628430028
 10
51.84229478209999
 20
94.26447050150001
 10
51.8211334787
 20
94.26591719299999
 10
51.7995424358
 20
94.26717911229999
 10
51.777580833
 20
94.2682528003
 10
51.7553088655
 20
94.2691353142
 10
51.7327875792
 20
94.269824235
 10
51.7100787034
 20
94.27031767459999
 10
51.68724448159999
 20
94.27061428040001
 10
51.66434750069999
 20
94.27071323940001
  0
LWPOLYLINE
  5
1559
330
229
100
AcDbEntity
  8
0
  6
Continuous
 62
     7
100
AcDbPolyline
 90
       48
 70
     0
 43
0.0
 10
50.10184750069999
 20
91.76406884209999
 10
49.5892590562
 20
91.7595432385
 10
49.102526601
 20
91.7500957252
 10
48.6352681913
 20
91.73648781370001
 10
48.18106469109999
 20
91.71912622569999
 10
47.7334835763
 20
91.69812326929999
 10
47.2865110247
 20
91.6733587282
 10
46.83736067549999
 20
91.6447074364
 10
46.38437599979999
 20
91.6120210294
 10
45.9243304807
 20
91.5749474367
 10
45.45698846199999
 20
91.5332882312
 10
44.99234672399999
 20
91.48786455159999
 10
44.53066226839999
 20
91.4387500409
 10
44.05068191319999
 20
91.38344295739999
 10
43.5288931685
 20
91.3183425034
 10
42.94386683849999
 20
91.23907675979999
 10
42.28814159979999
 20
91.1421538193
 10
41.56015386079999
 20
91.0242214504
 10
40.75433864919999
 20
90.88046635309998
 10
39.8581478309
 20
90.70337427910001
 10
38.8468570674
 20
90.4801935775
 10
37.6949425674
 20
90.19294531019999
 10
36.4621252226
 20
89.84168430969999
 10
35.2990905967
 20
89.46237096569999
 10
34.2568489859
 20
89.0759984534
 10
33.3231282433
 20
88.685609481
 10
32.4882004671
 20
88.29423810549998
 10
31.7419135846
 20
87.90383084389999
 10
31.0749794601
 20
87.51578503299999
 10
30.4788733531
 20
87.13096554969999
 10
29.9459359329
 20
86.7498339635
 10
29.4693455241
 20
86.37251946020001
 10
29.04308072
 20
85.998884956
 10
28.6618645287
 20
85.62857748709999
 10
28.3211064791
 20
85.2610707772
 10
28.0168426587
 20
84.89569756979999
 10
27.7456793773
 20
84.53167539289999
 10
27.5047405082
 20
84.16812488300001
 10
27.291721023
 20
83.8042654954
 10
27.1049917074
 20
83.43986401710001
 10
26.9430219527
 20
83.07441131839999
 10
26.8041706139
 20
82.7063378945
 10
26.6875452064
 20
82.3349959111
 10
26.5923380137
 20
81.95914127059999
 10
26.5179539433
 20
81.57679373429999
 10
26.4644947552
 20
81.1880188832
 10
26.4319891289
 20
80.79170775999999
 10
26.4207016591
 20
80.37691545500001
  0
LWPOLYLINE
  5
155A
330
229
100
AcDbEntity
  8
0
  6
Continuous
 62
     7
100
AcDbPolyline
 90
       25
 70
     0
 43
0.0
 10
48.78934750069999
 20
94.14152705899999
 10
48.7759829385
 20
94.14145764129999
 10
48.7626785503
 20
94.141249796
 10
48.74949468810001
 20
94.1409047618
 10
48.7364914402
 20
94.14042462899999
 10
48.72372850899999
 20
94.1398123711
 10
48.71126509909999
 20
94.1390718933
 10
48.6991598207
 20
94.13820810389999
 10
48.68747060829999
 20
94.1372270157
 10
48.6762546538
 20
94.136135888
 10
48.66556834509999
 20
94.1349434243
 10
48.6554671918
 20
94.1336600432
 10
48.6460056959
 20
94.13229824730001
 10
48.6372370933
 20
94.13087311309999
 10
48.629212827
 20
94.1294029217
 10
48.6219809345
 20
94.12790979569999
 10
48.6155854633
 20
94.126420767
 10
48.61006292069999
 20
94.1249684677
 10
48.605437127
 20
94.1235913058
 10
48.6017117299
 20
94.1223322685
 10
48.5988675584
 20
94.12123799440001
 10
48.5968528546
 20
94.1203532353
 10
48.5955868735
 20
94.11971739489999
 10
48.5949653209
 20
94.11936041229999
 10
48.5948883593
 20
94.11931157599999
  0
LWPOLYLINE
  5
155B
330
229
100
AcDbEntity
  8
0
  6
Continuous
 62
     7
100
AcDbPolyline
 90
       36
 70
     0
 43
0.0
 10
51.66434750069999
 20
94.04442563359999
 10
51.6856441881
 20
94.0445244516
 10
51.7068856797
 20
94.0448207904
 10
51.7280179319
 20
94.04531433690001
 10
51.7489876699
 20
94.04600462160001
 10
51.7697420149
 20
94.04689104209998
 10
51.7902308489
 20
94.0479730276
 10
51.81040591510001
 20
94.04925013619999
 10
51.83022167619999
 20
94.05072225819999
 10
51.84963515029999
 20
94.05238981489999
 10
51.86860892560001
 20
94.0542543281
 10
51.8871117749
 20
94.05631902610002
 10
51.9051197243
 20
94.0585897246
 10
51.9226193236
 20
94.0610764001
 10
51.9396113476
 20
94.0637956341
 10
51.9561193426
 20
94.0667752799
 10
51.9722042341
 20
94.0700633379
 10
51.98798703939999
 20
94.07374509440002
 10
52.0036972395
 20
94.0779817818
 10
52.0189829292
 20
94.08283196860001
 10
52.03182114029999
 20
94.0876644301
 10
52.0426026159
 20
94.09246061979999
 10
52.0517833215
 20
94.0972665011
 10
52.0596592507
 20
94.1020961247
 10
52.0665202106
 20
94.10700404040001
 10
52.0726349989
 20
94.11209835520001
 10
52.0781122455
 20
94.11742059179999
 10
52.0829441529
 20
94.1229133132
 10
52.0871790992
 20
94.128573226
 10
52.0909539826
 20
94.13457362469999
 10
52.0941409702
 20
94.1407049757
 10
52.096862443
 20
94.14722277799999
 10
52.0989907377
 20
94.1538672401
 10
52.10056998409999
 20
94.16083282209999
 10
52.10152168739999
 20
94.16786646989999
 10
52.10184750069999
 20
94.17508062879999
  0
LINE
  5
155C
330
229
100
AcDbEntity
  8
0
  6
Continuous
 62
     7
100
AcDbLine
 10
51.66434750069999
 20
94.04442563359999
 30
0.0
 11
48.53934750069999
 21
94.04442563359999
 31
0.0
  0
LINE
  5
155D
330
229
100
AcDbEntity
  8
0
  6
Continuous
 62
     7
100
AcDbLine
 10
51.66434750069999
 20
94.0453856415
 30
0.0
 11
48.53934750069999
 21
94.0453856415
 31
0.0
  0
LINE
  5
155E
330
229
100
AcDbEntity
  8
0
  6
Continuous
 62
     7
100
AcDbLine
 10
51.4143475007
 20
94.0701427824
 30
0.0
 11
48.78934750069999
 21
94.0701427824
 31
0.0
  0
LINE
  5
155F
330
229
100
AcDbEntity
  8
0
  6
Continuous
 62
     7
100
AcDbLine
 10
51.4143475007
 20
94.10468277860001
 30
0.0
 11
48.78934750069999
 21
94.10468277860001
 31
0.0
  0
LINE
  5
1560
330
229
100
AcDbEntity
  8
0
  6
Continuous
 62
     7
100
AcDbLine
 10
48.78934750069999
 20
94.14152705899999
 30
0.0
 11
51.4143475007
 21
94.14152705899999
 31
0.0
  0
LINE
  5
1561
330
229
100
AcDbEntity
  8
0
  6
Continuous
 62
     7
100
AcDbLine
 10
48.78934750069999
 20
94.14193849090001
 30
0.0
 11
51.4143475007
 21
94.14193849090001
 31
0.0
  0
LINE
  5
1562
330
229
100
AcDbEntity
  8
0
  6
Continuous
 62
     7
100
AcDbLine
 10
48.53934750069999
 20
94.16669563179999
 30
0.0
 11
51.66434750069999
 21
94.16669563179999
 31
0.0
  0
LINE
  5
1563
330
229
100
AcDbEntity
  8
0
  6
Continuous
 62
     7
100
AcDbLine
 10
48.53934750069999
 20
94.27071323940001
 30
0.0
 11
51.66434750069999
 21
94.27071323940001
 31
0.0
  0
LWPOLYLINE
  5
1564
330
229
100
AcDbEntity
  8
0
  6
Continuous
 62
     7
100
AcDbPolyline
 90
       31
 70
     0
 43
0.0
 10
50.10184750069999
 20
93.98943676260001
 10
50.3387698793
 20
93.98880390610001
 10
50.5546934538
 20
93.98713857149999
 10
50.75185850829999
 20
93.98472487840001
 10
50.93220349350001
 20
93.98177962790001
 10
51.0974053571
 20
93.97847137760001
 10
51.2489394387
 20
93.97492981680001
 10
51.3880680577
 20
93.97124999629999
 10
51.5160472847
 20
93.96751844870001
 10
51.63349275459999
 20
93.96377187769999
 10
51.7417336677
 20
93.96055431870001
 10
51.8445510302
 20
93.9587556678
 10
51.94536108689999
 20
93.95835231280001
 10
52.04425529999999
 20
93.95934296510001
 10
52.1404974958
 20
93.96173372559999
 10
52.23328462699999
 20
93.96551868809998
 10
52.32119028199999
 20
93.97065131599999
 10
52.40380533439999
 20
93.9771200542
 10
52.4810863768
 20
93.98494280120001
 10
52.55259454319999
 20
93.99411695819999
 10
52.61778439850001
 20
94.0046229426
 10
52.6758578976
 20
94.01638357240001
 10
52.7262244121
 20
94.0293282106
 10
52.7683176338
 20
94.04334323250001
 10
52.8022797506
 20
94.0585357934
 10
52.8269721804
 20
94.07422669469999
 10
52.8432544629
 20
94.0910955912
 10
52.8538337583
 20
94.11064736570001
 10
52.8651248325
 20
94.13214866149999
 10
52.8772652946
 20
94.15550289969999
 10
52.90463438439999
 20
94.20802965940001
  0
LWPOLYLINE
  5
1565
330
229
100
AcDbEntity
  8
0
  6
Continuous
 62
     7
100
AcDbPolyline
 90
       36
 70
     0
 43
0.0
 10
48.53934750069999
 20
94.04442563359999
 10
48.5180508133
 20
94.0445244516
 10
48.4968093218
 20
94.0448207904
 10
48.4756770696
 20
94.04531433690001
 10
48.45470733149999
 20
94.04600462160001
 10
48.43395298649999
 20
94.04689104209998
 10
48.4134641526
 20
94.0479730276
 10
48.3932890864
 20
94.04925013619999
 10
48.3734733252
 20
94.05072225819999
 10
48.3540598511
 20
94.05238981489999
 10
48.3350860759
 20
94.0542543281
 10
48.3165832265
 20
94.05631902610002
 10
48.2985752772
 20
94.0585897246
 10
48.2810756779
 20
94.0610764001
 10
48.2640836539
 20
94.0637956341
 10
48.2475756588
 20
94.0667752799
 10
48.2314907673
 20
94.0700633379
 10
48.21570796199999
 20
94.07374509440002
 10
48.19999776199999
 20
94.0779817818
 10
48.18471207229999
 20
94.08283196860001
 10
48.1718738612
 20
94.0876644301
 10
48.16109238550001
 20
94.09246061979999
 10
48.15191168
 20
94.0972665011
 10
48.1440357508
 20
94.1020961247
 10
48.13717479090001
 20
94.10700404040001
 10
48.1310600025
 20
94.11209835520001
 10
48.12558275589999
 20
94.11742059179999
 10
48.1207508485
 20
94.1229133132
 10
48.1165159022
 20
94.128573226
 10
48.1127410188
 20
94.13457362469999
 10
48.1095540313
 20
94.1407049757
 10
48.1068325585
 20
94.14722277799999
 10
48.1047042638
 20
94.1538672401
 10
48.1031250174
 20
94.16083282209999
 10
48.1021733141
 20
94.16786646989999
 10
48.1018475007
 20
94.17508062879999
  0
LWPOLYLINE
  5
1566
330
229
100
AcDbEntity
  8
0
  6
Continuous
 62
     7
100
AcDbPolyline
 90
       57
 70
     0
 43
0.0
 10
48.53934750069999
 20
94.0453856415
 10
48.51875253180001
 20
94.0454809618
 10
48.4982100723
 20
94.04576685040002
 10
48.4777988032
 20
94.04624235889999
 10
48.457580135
 20
94.04690604690001
 10
48.4376191142
 20
94.0477557892
 10
48.4179780568
 20
94.04878892940001
 10
48.39871892689999
 20
94.05000220940001
 10
48.37990227109999
 20
94.0513918144
 10
48.3615873115
 20
94.0529533712
 10
48.3438316715
 20
94.0546819665
 10
48.3266912202
 20
94.0565721613
 10
48.31021988959999
 20
94.05861800809999
 10
48.29446950649999
 20
94.06081306979999
 10
48.27948962939999
 20
94.06315043940001
 10
48.2653273923
 20
94.0656227626
 10
48.25202735649999
 20
94.0682222603
 10
48.2396313705
 20
94.07094075299999
 10
48.228178438
 20
94.0737696871
 10
48.2177045957
 20
94.07670016149999
 10
48.2082427993
 20
94.07972295530001
 10
48.1998228203
 20
94.08282855739999
 10
48.19247115199999
 20
94.08600719610001
 10
48.1862109264
 20
94.08924886980001
 10
48.1810618413
 20
94.09254337860001
 10
48.1770400981
 20
94.09588035639998
 10
48.1741583513
 20
94.0992493034
 10
48.1724256682
 20
94.10263961930001
 10
48.1718475007
 20
94.10604063639999
 10
48.172425668
 20
94.10944165350001
 10
48.174158351
 20
94.11283196940001
 10
48.17704009759999
 20
94.11620091639999
 10
48.1810618406
 20
94.11953789420001
 10
48.1862109256
 20
94.12283240299998
 10
48.19247115100001
 20
94.1260740767
 10
48.1998228191
 20
94.12925271540002
 10
48.2082427979
 20
94.1323583175
 10
48.2177045942
 20
94.13538111139999
 10
48.2281784363
 20
94.13831158569999
 10
48.23963136859999
 20
94.14114051989999
 10
48.2520273545
 20
94.14385901260001
 10
48.26532739010001
 20
94.1464585103
 10
48.27948962709999
 20
94.14893083349999
 10
48.2944695041
 20
94.15126820319999
 10
48.31021988709999
 20
94.1534632649
 10
48.3266912176
 20
94.15550911169999
 10
48.3438316688
 20
94.1573993065
 10
48.3615873087
 20
94.15912790190001
 10
48.3799022682
 20
94.16068945860001
 10
48.3987189239
 20
94.16207906370001
 10
48.4179780538
 20
94.16329234370001
 10
48.4376191112
 20
94.16432548400001
 10
48.4575801317
 20
94.1651752263
 10
48.4777988004
 20
94.16583891429999
 10
48.498210069
 20
94.16631442280001
 10
48.5187525275
 20
94.16660031139999
 10
48.53934750069999
 20
94.16669563179999
  0
LWPOLYLINE
  5
1567
330
229
100
AcDbEntity
  8
0
  6
Continuous
 62
     7
100
AcDbPolyline
 90
       57
 70
     0
 43
0.0
 10
51.66434750069999
 20
94.16669563179999
 10
51.68494247399999
 20
94.16660031139999
 10
51.7054849325
 20
94.16631442280001
 10
51.7258962011
 20
94.16583891429999
 10
51.74611486979999
 20
94.1651752263
 10
51.76607589020001
 20
94.16432548400001
 10
51.7857169477
 20
94.16329234370001
 10
51.8049760775
 20
94.16207906370001
 10
51.82379273319999
 20
94.16068945860001
 10
51.8421076927
 20
94.15912790190001
 10
51.8598633326
 20
94.1573993065
 10
51.8770037839
 20
94.15550911169999
 10
51.8934751144
 20
94.1534632649
 10
51.90922549739999
 20
94.15126820319999
 10
51.9242053743
 20
94.14893083349999
 10
51.9383676113
 20
94.1464585103
 10
51.951667647
 20
94.14385901260001
 10
51.9640636328
 20
94.14114051989999
 10
51.9755165651
 20
94.13831158569999
 10
51.98599040729999
 20
94.13538111139999
 10
51.9954522035
 20
94.1323583175
 10
52.00387218239999
 20
94.12925271540002
 10
52.0112238505
 20
94.1260740767
 10
52.0174840759
 20
94.12283240299998
 10
52.0226331609
 20
94.11953789420001
 10
52.0266549039
 20
94.11620091639999
 10
52.02953665049999
 20
94.11283196940001
 10
52.0312693334
 20
94.10944165350001
 10
52.0318475007
 20
94.10604063639999
 10
52.0312693332
 20
94.10263961930001
 10
52.0295366502
 20
94.0992493034
 10
52.0266549033
 20
94.09588035639998
 10
52.0226331602
 20
94.09254337860001
 10
52.017484075
 20
94.08924886980001
 10
52.0112238495
 20
94.08600719610001
 10
52.0038721812
 20
94.08282855739999
 10
51.9954522022
 20
94.07972295530001
 10
51.9859904058
 20
94.07670016149999
 10
51.97551656339999
 20
94.0737696871
 10
51.964063631
 20
94.07094075299999
 10
51.951667645
 20
94.0682222603
 10
51.9383676092
 20
94.0656227626
 10
51.9242053721
 20
94.06315043940001
 10
51.909225495
 20
94.06081306979999
 10
51.8934751119
 20
94.05861800809999
 10
51.87700378119999
 20
94.0565721613
 10
51.85986332989999
 20
94.0546819665
 10
51.84210768989999
 20
94.0529533712
 10
51.8237927304
 20
94.0513918144
 10
51.8049760746
 20
94.05000220940001
 10
51.7857169446
 20
94.04878892940001
 10
51.7660758873
 20
94.0477557892
 10
51.74611486649999
 20
94.04690604690001
 10
51.7258961982
 20
94.04624235889999
 10
51.7054849292
 20
94.04576685040002
 10
51.6849424696
 20
94.0454809618
 10
51.66434750069999
 20
94.0453856415
  0
LWPOLYLINE
  5
1568
330
229
100
AcDbEntity
  8
0
  6
Continuous
 62
     7
100
AcDbPolyline
 90
       51
 70
     0
 43
0.0
 10
48.78934750069999
 20
94.0701427824
 10
48.775700963
 20
94.0702135106
 10
48.7620966209
 20
94.07042565799999
 10
48.7486012971
 20
94.0707783414
 10
48.7352659956
 20
94.0712702174
 10
48.72214433439999
 20
94.07189931780001
 10
48.70928785850001
 20
94.07266316919999
 10
48.696747372
 20
94.07355875370001
 10
48.6845723587
 20
94.07458253719999
 10
48.6728108711
 20
94.07573047899999
 10
48.6615093278
 20
94.0769980486
 10
48.6507123341
 20
94.0783802432
 10
48.640462504
 20
94.0798716073
 10
48.6308002914
 20
94.08146625509999
 10
48.6217638305
 20
94.08315789259999
 10
48.61338878659999
 20
94.0849398435
 10
48.6057082141
 20
94.08680507459999
 10
48.5987524266
 20
94.08874622450001
 10
48.5925488772
 20
94.0907556316
 10
48.58712204979999
 20
94.0928253655
 10
48.582493363
 20
94.09494725709999
 10
48.57868108529999
 20
94.097112932
 10
48.5757002629
 20
94.0993138426
 10
48.5735626604
 20
94.1015413024
 10
48.5722767146
 20
94.1037865202
 10
48.5718475007
 20
94.1060406344
 10
48.5722767129
 20
94.1082947487
 10
48.573562657
 20
94.1105399665
 10
48.57570025779999
 20
94.11276742629999
 10
48.57868107859999
 20
94.11496833700001
 10
48.5824933547
 20
94.1171340119
 10
48.58712203989999
 20
94.11925590370001
 10
48.59254886569999
 20
94.12132563760001
 10
48.5987524137
 20
94.1233350449
 10
48.6057081997
 20
94.12527619489999
 10
48.6133887708
 20
94.12714142620002
 10
48.6217638134
 20
94.12892337729999
 10
48.63080027289999
 20
94.13061501500001
 10
48.6404624844
 20
94.13220966290001
 10
48.65071231329999
 20
94.13370102729999
 10
48.6615093059
 20
94.13508322209999
 10
48.6728108484
 20
94.13635079189999
 10
48.684572335
 20
94.13749873399998
 10
48.69674734770001
 20
94.13852251780001
 10
48.70928783310001
 20
94.13941810249999
 10
48.72214430949999
 20
94.14018195409999
 10
48.7352659677
 20
94.1408110547
 10
48.74860127359999
 20
94.1413029311
 10
48.76209659189999
 20
94.14165561469999
 10
48.7757009263
 20
94.1418677623
 10
48.78934750069999
 20
94.14193849090001
  0
LWPOLYLINE
  5
1569
330
229
100
AcDbEntity
  8
0
  6
Continuous
 62
     7
100
AcDbPolyline
 90
       25
 70
     0
 43
0.0
 10
51.4143475007
 20
94.14152705899999
 10
51.427712063
 20
94.14145764129999
 10
51.4410164512
 20
94.141249796
 10
51.4542003134
 20
94.1409047618
 10
51.4672035613
 20
94.14042462899999
 10
51.4799664925
 20
94.1398123711
 10
51.4924299024
 20
94.1390718933
 10
51.50453518079999
 20
94.13820810389999
 10
51.5162243932
 20
94.1372270157
 10
51.52744034770001
 20
94.136135888
 10
51.5381266564
 20
94.1349434243
 10
51.5482278097
 20
94.1336600432
 10
51.55768930549999
 20
94.13229824730001
 10
51.5664579082
 20
94.13087311309999
 10
51.57448217449999
 20
94.1294029217
 10
51.5817140669
 20
94.12790979569999
 10
51.58810953819999
 20
94.126420767
 10
51.5936320807
 20
94.1249684677
 10
51.59825787449999
 20
94.1235913058
 10
51.60198327149999
 20
94.1223322685
 10
51.60482744310001
 20
94.12123799440001
 10
51.60684214689999
 20
94.1203532353
 10
51.6081081279
 20
94.11971739489999
 10
51.60872968060001
 20
94.11936041229999
 10
51.6088066422
 20
94.11931157599999
  0
LWPOLYLINE
  5
156A
330
229
100
AcDbEntity
  8
0
  6
Continuous
 62
     7
100
AcDbPolyline
 90
       51
 70
     0
 43
0.0
 10
51.4143475007
 20
94.14193849090001
 10
51.4279940752
 20
94.1418677623
 10
51.4415984096
 20
94.14165561469999
 10
51.4550937279
 20
94.1413029311
 10
51.4684290338
 20
94.1408110547
 10
51.4815506919
 20
94.14018195409999
 10
51.4944071683
 20
94.13941810249999
 10
51.50694765369999
 20
94.13852251780001
 10
51.5191226664
 20
94.13749873399998
 10
51.530884153
 20
94.13635079189999
 10
51.5421856955
 20
94.13508322209999
 10
51.5529826881
 20
94.13370102729999
 10
51.56323251709999
 20
94.13220966290001
 10
51.5728947285
 20
94.13061501500001
 10
51.5819311881
 20
94.12892337729999
 10
51.59030623069999
 20
94.12714142629999
 10
51.5979868018
 20
94.12527619489999
 10
51.6049425878
 20
94.12333504500001
 10
51.6111461358
 20
94.12132563770001
 10
51.6165729616
 20
94.11925590370001
 10
51.62120164680001
 20
94.11713401200001
 10
51.6250139229
 20
94.11496833700001
 10
51.62799474359999
 20
94.11276742629999
 10
51.6301323444
 20
94.1105399665
 10
51.63141828859999
 20
94.1082947487
 10
51.6318475007
 20
94.1060406344
 10
51.63141828689999
 20
94.1037865202
 10
51.6301323411
 20
94.10154130249999
 10
51.62799473859999
 20
94.0993138426
 10
51.6250139162
 20
94.097112932
 10
51.6212016385
 20
94.0949472572
 10
51.6165729517
 20
94.0928253655
 10
51.61114612430001
 20
94.0907556317
 10
51.6049425749
 20
94.08874622450001
 10
51.59798678739999
 20
94.0868050747
 10
51.5903062149
 20
94.0849398435
 10
51.581931171
 20
94.08315789259999
 10
51.5728947101
 20
94.08146625509999
 10
51.5632324975
 20
94.0798716073
 10
51.5529826674
 20
94.0783802432
 10
51.5421856738
 20
94.0769980486
 10
51.53088413039999
 20
94.07573047899999
 10
51.51912264279999
 20
94.07458253719999
 10
51.50694762949999
 20
94.07355875370001
 10
51.494407143
 20
94.07266316919999
 10
51.4815506671
 20
94.07189931780001
 10
51.4684290059
 20
94.0712702174
 10
51.45509370439999
 20
94.0707783414
 10
51.4415983807
 20
94.07042565799999
 10
51.4279940385
 20
94.0702135106
 10
51.4143475007
 20
94.0701427824
  0
LWPOLYLINE
  5
156B
330
229
100
AcDbEntity
  8
0
  6
Continuous
 62
     7
100
AcDbPolyline
 90
       20
 70
     0
 43
0.0
 10
48.78934750069999
 20
94.10468277860001
 10
48.77708441359999
 20
94.10474903729999
 10
48.7648738388
 20
94.1049475296
 10
48.75276806409999
 20
94.1052774055
 10
48.7408189281
 20
94.1057372526
 10
48.7290775996
 20
94.1063251015
 10
48.71759435619999
 20
94.10703843510001
 10
48.7064183704
 20
94.1078741988
 10
48.69559749979999
 20
94.1088288136
 10
48.6851780812
 20
94.1098981919
 10
48.67520473209999
 20
94.1110777543
 10
48.6657201598
 20
94.11236244979999
 10
48.6567649787
 20
94.11374677700001
 10
48.6483775363
 20
94.11522480829999
 10
48.640593749
 20
94.11679021419999
 10
48.6334469481
 20
94.11843629160001
 10
48.62696773729999
 20
94.1201559917
 10
48.62118386149999
 20
94.12194195049998
 10
48.61612008819999
 20
94.12378652020001
 10
48.6121644926
 20
94.1255211318
  0
LWPOLYLINE
  5
156C
330
229
100
AcDbEntity
  8
0
  6
Continuous
 62
     7
100
AcDbPolyline
 90
        4
 70
     0
 43
0.0
 10
47.7919949204
 20
94.49866179889999
 10
47.5874991139
 20
94.4869803131
 10
47.3794226305
 20
94.4741317661
 10
47.1674034577
 20
94.46007574339999
  0
LINE
  5
156D
330
229
100
AcDbEntity
  8
0
  6
Continuous
 62
     7
100
AcDbLine
 10
47.7919949204
 20
94.49866179889999
 30
0.0
 11
47.8630009802
 21
94.50248947629999
 31
0.0
  0
LINE
  5
156E
330
229
100
AcDbEntity
  8
0
  6
Continuous
 62
     7
100
AcDbLine
 10
47.8630009802
 20
94.50248947629999
 30
0.0
 11
47.8948612231
 21
94.50418493959999
 31
0.0
  0
LINE
  5
156F
330
229
100
AcDbEntity
  8
0
  6
Continuous
 62
     7
100
AcDbLine
 10
47.8948612231
 20
94.50418493959999
 30
0.0
 11
47.95183590359999
 21
94.50716122320001
 31
0.0
  0
LINE
  5
1570
330
229
100
AcDbEntity
  8
0
  6
Continuous
 62
     7
100
AcDbLine
 10
47.95183590359999
 20
94.50716122320001
 30
0.0
 11
48.0005176415
 21
94.50964760739999
 31
0.0
  0
LINE
  5
1571
330
229
100
AcDbEntity
  8
0
  6
Continuous
 62
     7
100
AcDbLine
 10
48.0005176415
 20
94.50964760739999
 30
0.0
 11
48.0417502866
 21
94.5117132813
 31
0.0
  0
LINE
  5
1572
330
229
100
AcDbEntity
  8
0
  6
Continuous
 62
     7
100
AcDbLine
 10
48.0417502866
 20
94.5117132813
 30
0.0
 11
48.0914822422
 21
94.5141549074
 31
0.0
  0
LINE
  5
1573
330
229
100
AcDbEntity
  8
0
  6
Continuous
 62
     7
100
AcDbLine
 10
48.0914822422
 20
94.5141549074
 30
0.0
 11
48.12921398
 21
94.51597077169999
 31
0.0
  0
LINE
  5
1574
330
229
100
AcDbEntity
  8
0
  6
Continuous
 62
     7
100
AcDbLine
 10
48.12921398
 20
94.51597077169999
 30
0.0
 11
48.17319988979999
 21
94.51804765979998
 31
0.0
  0
LINE
  5
1575
330
229
100
AcDbEntity
  8
0
  6
Continuous
 62
     7
100
AcDbLine
 10
48.17319988979999
 20
94.51804765979998
 30
0.0
 11
48.2283380267
 21
94.5206046788
 31
0.0
  0
LWPOLYLINE
  5
1576
330
229
100
AcDbEntity
  8
0
  6
Continuous
 62
     7
100
AcDbPolyline
 90
        4
 70
     0
 43
0.0
 10
50.10184750069999
 20
94.56421350499999
 10
49.50835918300001
 20
94.55966437289999
 10
48.8869291738
 20
94.5455236993
 10
48.2283380267
 20
94.5206046788
  0
LWPOLYLINE
  5
1577
330
229
100
AcDbEntity
  8
0
  6
Continuous
 62
     7
100
AcDbPolyline
 90
       50
 70
     0
 43
0.0
 10
50.10184750069999
 20
94.73786168270001
 10
50.4979736522
 20
94.7358192877
 10
50.8968766767
 20
94.7297432895
 10
51.29811226600001
 20
94.71971040879999
 10
51.7012859244
 20
94.70579610180001
 10
52.10605467829999
 20
94.68807307729999
 10
52.5117599806
 20
94.6666309265
 10
52.9149021242
 20
94.64175777780001
 10
53.313827863
 20
94.61371227040002
 10
53.72200157079999
 20
94.581540617
 10
54.15735936419999
 20
94.54340646719998
 10
54.6377411145
 20
94.496809031
 10
55.1755007652
 20
94.43907893139998
 10
55.7727869252
 20
94.36811937379998
 10
56.43078049399999
 20
94.28165223479998
 10
57.1561089096
 20
94.17625877479999
 10
57.96126327859999
 20
94.04681543389999
 10
58.858320717
 20
93.886958603
 10
59.8587574699
 20
93.68877905379999
 10
60.9876828397
 20
93.43901569599999
 10
62.26520364369999
 20
93.12112058790001
 10
63.6346405627
 20
92.7355388219
 10
64.9568747606
 20
92.3147477156
 10
66.1786384051
 20
91.87837612959999
 10
67.3013451938
 20
91.4315861274
 10
68.32921554409999
 20
90.97837423319999
 10
69.2677387712
 20
90.52187220319998
 10
70.12305026369999
 20
90.0644602759
 10
70.9013420478
 20
89.6079751689
 10
71.6086259563
 20
89.15382196819999
 10
72.2507037372
 20
88.7029888134
 10
72.83310747029999
 20
88.25607807030001
 10
73.3609833921
 20
87.8133951028
 10
73.8391128677
 20
87.37494730759999
 10
74.271864816
 20
86.94050017950001
 10
74.6631159755
 20
86.5096933202
 10
75.0163296709
 20
86.08201211159999
 10
75.3345801647
 20
85.6567960073
 10
75.62051901779999
 20
85.2333276212
 10
75.876495046
 20
84.8107026497
 10
76.1044293102
 20
84.3880624364
 10
76.3060122718
 20
83.96429076009999
 10
76.4825195316
 20
83.53838985560001
 10
76.63501025729999
 20
83.1090875297
 10
76.7641841067
 20
82.67517912829999
 10
76.8704687093
 20
82.23532609720001
 10
76.9540068409
 20
81.78803194990001
 10
77.01480969939999
 20
81.3299599804
 10
77.05208051159999
 20
80.8597504099
 10
77.0647541809
 20
80.37691545500001
  0
LWPOLYLINE
  5
1578
330
229
100
AcDbEntity
  8
0
  6
Continuous
 62
     7
100
AcDbPolyline
 90
        4
 70
     0
 43
0.0
 10
50.10184750069999
 20
94.56421350499999
 10
50.8223336414
 20
94.5575853068
 10
51.5860957142
 20
94.53671300469999
 10
52.41171817449999
 20
94.49902908850001
  0
LWPOLYLINE
  5
1579
330
229
100
AcDbEntity
  8
0
  6
Continuous
 62
     7
100
AcDbPolyline
 90
       39
 70
     0
 43
0.0
 10
50.10184750069999
 20
95.0397850252
 10
51.7747684495
 20
95.0216098693
 10
53.7007487572
 20
94.95801505100001
 10
55.7970911686
 20
94.83920614899998
 10
57.89401438350001
 20
94.66845229749999
 10
59.9244519818
 20
94.4512806544
 10
61.87170334050001
 20
94.191399801
 10
63.7229188183
 20
93.8929465992
 10
65.4738819538
 20
93.55940031700001
 10
67.1224809471
 20
93.19411024790001
 10
68.66648953409999
 20
92.80073707600001
 10
70.09490732119999
 20
92.38611758100001
 10
71.3965865858
 20
91.9591745684
 10
72.57434221939999
 20
91.5258873732
 10
73.63975513799999
 20
91.08894668359999
 10
74.6037441828
 20
90.6503623515
 10
75.4761336855
 20
90.2117172602
 10
76.26605325069999
 20
89.77406315100001
 10
76.9816645582
 20
89.3381254756
 10
77.63032020119999
 20
88.90430485759999
 10
78.2185950901
 20
88.47273386049998
 10
78.75231476569999
 20
88.0433387787
 10
79.23662539109999
 20
87.6158693706
 10
79.676077541
 20
87.1899021992
 10
80.07464408109999
 20
86.7648929323
 10
80.43580690589999
 20
86.34015434330001
 10
80.76253923279999
 20
85.91493937580001
 10
81.057372702
 20
85.4884338543
 10
81.32248939970001
 20
85.05967713689999
 10
81.5597307508
 20
84.6275613879
 10
81.77053894930001
 20
84.1909695228
 10
81.9559665493
 20
83.7488597069
 10
82.1168624322
 20
83.2998806239
 10
82.25386703279999
 20
82.84216342429999
 10
82.3671670859
 20
82.3739198724
 10
82.45642490500001
 20
81.89422191090001
 10
82.52113620219999
 20
81.40202985010001
 10
82.5605961718
 20
80.89647607339999
 10
82.57395421529999
 20
80.37691545500001
  0
LWPOLYLINE
  5
157A
330
229
100
AcDbEntity
  8
0
  6
Continuous
 62
     7
100
AcDbPolyline
 90
        4
 70
     0
 43
0.0
 10
53.0362945717
 20
94.46053026840001
 10
52.8242590934
 20
94.47454498569999
 10
52.6161812586
 20
94.4873568452
 10
52.41171817449999
 20
94.49902908850001
  0
LWPOLYLINE
  5
157B
330
229
100
AcDbEntity
  8
0
  6
Continuous
 62
     7
100
AcDbPolyline
 90
       38
 70
     0
 43
0.0
 10
50.10184750069999
 20
99.36550189240001
 10
47.85555615089999
 20
99.3294549131
 10
45.6767498496
 20
99.2255143592
 10
43.58183835
 20
99.0604428482
 10
41.5723729505
 20
98.84001897350001
 10
39.6497430694
 20
98.56933721030001
 10
37.8151656867
 20
98.2530206164
 10
36.0697326843
 20
97.89539293819998
 10
34.4156063135
 20
97.50092046280002
 10
32.86076296760001
 20
97.07592315580001
 10
31.4131537507
 20
96.6278824477
 10
30.0671006244
 20
96.16068911700001
 10
28.8100427798
 20
95.67490997390001
 10
27.6318473173
 20
95.17053163200001
 10
26.5269796152
 20
94.64840218499999
 10
25.4906409897
 20
94.109059556
 10
24.5199945055
 20
93.55356394219999
 10
23.61482532030001
 20
92.9844013199
 10
22.7749409487
 20
92.40441115709998
 10
21.9998307314
 20
91.81663884749999
 10
21.2884519367
 20
91.22417346549999
 10
20.6393140013
 20
90.63016131229998
 10
20.0488857606
 20
90.03606766909999
 10
19.5119381734
 20
89.44113747450002
 10
19.0236157561
 20
88.843961757
 10
18.580246885
 20
88.243504287
 10
18.179088554
 20
87.6391512442
 10
17.8176898541
 20
87.0300143352
 10
17.4939516958
 20
86.41500094079999
 10
17.2061694796
 20
85.79290625649999
 10
16.9529799872
 20
85.16232525779999
 10
16.7333776646
 20
84.5216662988
 10
16.5467369112
 20
83.8691936304
 10
16.3928230639
 20
83.2030688959
 10
16.2717914711
 20
82.52138034739999
 10
16.1841846065
 20
81.82218531009999
 10
16.1309183236
 20
81.10352416339999
 10
16.1132610634
 20
80.37691545500001
  0
LWPOLYLINE
  5
157C
330
229
100
AcDbEntity
  8
0
  6
Continuous
 62
     7
100
AcDbPolyline
 90
       36
 70
     0
 43
0.0
 10
69.91000110619999
 20
80.37691545500001
 10
69.89575820129999
 20
80.9618314581
 10
69.85453399819999
 20
81.51765588379999
 10
69.7884131224
 20
82.0461671532
 10
69.699172258
 20
82.54947110100001
 10
69.58820134159999
 20
83.0299029402
 10
69.45644558020001
 20
83.4899386828
 10
69.30475506479999
 20
83.9310697327
 10
69.13342549060001
 20
84.3554609621
 10
68.9427181682
 20
84.76443459859998
 10
68.7326647284
 20
85.15923323939999
 10
68.5026853296
 20
85.54161958989999
 10
68.252589326
 20
85.9121532254
 10
67.98120765970001
 20
86.27244009589999
 10
67.68729378419999
 20
86.62357535439999
 10
67.3694533526
 20
86.9663645598
 10
67.0255353165
 20
87.30194797459999
 10
66.6534325836
 20
87.63089788889999
 10
66.2504686882
 20
87.9538350261
 10
65.8135603788
 20
88.27119971170001
 10
65.33935977919999
 20
88.58312535299999
 10
64.82394937800001
 20
88.88962081569999
 10
64.2630467294
 20
89.1903839827
 10
63.6519970003
 20
89.48478944969998
 10
62.9852670888
 20
89.77207558649999
 10
62.25710827010001
 20
90.0509687885
 10
61.4611860243
 20
90.3198277803
 10
60.5901582934
 20
90.57670049290001
 10
59.6366270092
 20
90.81896195700002
 10
58.5930377405
 20
91.04339019040001
 10
57.45103031560001
 20
91.24629490469999
 10
56.2020387487
 20
91.42334370049999
 10
54.8391407702
 20
91.56939839819999
 10
53.3667343145
 20
91.67824480950001
 10
51.79807227619999
 20
91.74440254790001
 10
50.10184750069999
 20
91.76406884209999
  0
LWPOLYLINE
  5
157D
330
229
100
AcDbEntity
  8
0
  6
Continuous
 62
     7
100
AcDbPolyline
 90
       39
 70
     0
 43
0.0
 10
77.0647541809
 20
80.37691545500001
 10
77.05266421240001
 20
79.9052670853
 10
77.01749331729999
 20
79.44953683109999
 10
76.95951126109999
 20
79.0007099731
 10
76.87885244659999
 20
78.5581157984
 10
76.775316277
 20
78.12037053600001
 10
76.64839706319999
 20
77.6861262294
 10
76.497317982
 20
77.2541938505
 10
76.3209251437
 20
76.82325741719999
 10
76.1178090666
 20
76.39225775789999
 10
75.88611354609999
 20
75.9599826995
 10
75.62380237319999
 20
75.5256379013
 10
75.3286450752
 20
75.0886976505
 10
74.9980953376
 20
74.6486926252
 10
74.6289451606
 20
74.2048554516
 10
74.21748534969999
 20
73.75649953779999
 10
73.75950852799999
 20
73.30309069970001
 10
73.2502719127
 20
72.84426637029999
 10
72.6844836135
 20
72.3798812476
 10
72.0562888713
 20
71.910050032
 10
71.3594615833
 20
71.43532365819999
 10
70.58751475380001
 20
70.9567475887
 10
69.7335428042
 20
70.47575407630001
 10
68.7904348855
 20
69.99430367409999
 10
67.75136969790001
 20
69.5151027504
 10
66.6103463643
 20
69.04173001390001
 10
65.3632180866
 20
68.57885503060001
 10
64.0081871303
 20
68.13210941699999
 10
62.56028255930001
 20
67.71173636890001
 10
61.04766847829999
 20
67.328886822
 10
59.4895403342
 20
66.98942931960001
 10
57.9337180193
 20
66.7023691089
 10
56.49402047649999
 20
66.48094677510001
 10
55.21931674979999
 20
66.31971335029999
 10
54.09920128100001
 20
66.20510382289999
 10
53.09985778899999
 20
66.12465507029999
 10
52.1680416481
 20
66.0687978017
 10
51.1984779524
 20
66.03126936529999
 10
50.10184750069999
 20
66.01596922739999
  0
LWPOLYLINE
  5
157E
330
229
100
AcDbEntity
  8
0
  6
Continuous
 62
     7
100
AcDbPolyline
 90
       39
 70
     0
 43
0.0
 10
82.57395421529999
 20
80.37691545500001
 10
82.5614242165
 20
79.8735915738
 10
82.5250034847
 20
79.3894634186
 10
82.46509356830001
 20
78.9153342707
 10
82.38203769850001
 20
78.45081412649999
 10
82.27605285140001
 20
77.99528224709999
 10
82.1469419177
 20
77.5471972684
 10
81.99407476979999
 20
77.10478677880001
 10
81.8166414787
 20
76.6668605264
 10
81.6138588399
 20
76.2329431322
 10
81.38466319130001
 20
75.8023773092
 10
81.12747287039999
 20
75.3740841946
 10
80.840309859
 20
74.94700012189999
 10
80.52081540000001
 20
74.52016330720001
 10
80.16620264149999
 20
74.09269401340001
 10
79.7732205339
 20
73.6638078092
 10
79.33810569550001
 20
73.2328241284
 10
78.8565293875
 20
72.7991813384
 10
78.3235375875
 20
72.36245610649999
 10
77.7334857913
 20
71.922389006
 10
77.07996961890001
 20
71.4789170565
 10
76.3557559274
 20
71.03221578729999
 10
75.55271303739999
 20
70.58274849899999
 10
74.6617743859
 20
70.1313390876
 10
73.67285210909999
 20
69.679221235
 10
72.575090629
 20
69.2282346371
 10
71.3561029559
 20
68.78059796409999
 10
70.0067933454
 20
68.3405875677
 10
68.5339746361
 20
67.91721033139999
 10
66.95272520979999
 20
67.51962063489999
 10
65.2683422283
 20
67.152501812
 10
63.48165636920001
 20
66.8189610453
 10
61.59712146819999
 20
66.5225526693
 10
59.6219369729
 20
66.26682103890001
 10
57.57782720189999
 20
66.0562307294
 10
55.516792152
 20
65.8957641604
 10
53.52997215560001
 20
65.7883986514
 10
51.70882107939999
 20
65.7308352844
 10
50.10184750069999
 20
65.7140458848
  0
LWPOLYLINE
  5
157F
330
229
100
AcDbEntity
  8
0
  6
Continuous
 62
     7
100
AcDbPolyline
 90
       38
 70
     0
 43
0.0
 10
84.0904339381
 20
80.37691545500001
 10
84.0728321095
 20
81.1023912703
 10
84.01961634840001
 20
81.8211209608
 10
83.93205486779999
 20
82.52037936949999
 10
83.8110636633
 20
83.2021291604
 10
83.6571843043
 20
83.86831774879999
 10
83.47057012669999
 20
84.52086165029999
 10
83.2509835617
 20
85.16160327840001
 10
82.9977963359
 20
85.79227924840001
 10
82.71000334
 20
86.41447492340001
 10
82.38624356089999
 20
87.02958828129998
 10
82.0248156134
 20
87.6388182025
 10
81.6236213726
 20
88.24325690110001
 10
81.1802089106
 20
88.8437949397
 10
80.69183359449999
 20
89.4410481695
 10
80.15482634219999
 20
90.0360496681
 10
79.56434531630001
 20
90.63019561229999
 10
78.91517821259999
 20
91.22423017879999
 10
78.20379742420001
 20
91.8166921743
 10
77.42869858039999
 20
92.4044517099
 10
76.5888264221
 20
92.98443048959999
 10
75.68367123189999
 20
93.55358234589999
 10
74.7130442521
 20
94.1090658399
 10
73.6767320072
 20
94.64839494360001
 10
72.5718925281
 20
95.1705125478
 10
71.3937315837
 20
95.67487892149999
 10
70.1367148909
 20
96.16064634149999
 10
68.79069969789999
 20
96.62783188709999
 10
67.3431291074
 20
97.07586698780001
 10
65.7883439109
 20
97.50085623309999
 10
64.1342953725
 20
97.89531994610001
 10
62.3889531038
 20
98.2529412431
 10
60.55447828680001
 20
98.5692551091
 10
58.63196251539999
 20
98.8399388574
 10
56.6226227201
 20
99.06037051990001
 10
54.5278483573
 20
99.22545698620002
 10
52.3491893526
 20
99.32942119559999
 10
50.10184750069999
 20
99.36550189240001
  0
CIRCLE
  5
15BC
330
229
100
AcDbEntity
  8
0
  6
Continuous
 62
     7
100
AcDbCircle
 10
34.60184750070001
 20
80.37691545500001
 30
0.0
 40
1.271446609399999
  0
ENDSEC
  0
SECTION
  2
OBJECTS
  0
DICTIONARY
  5
C
330
0
100
AcDbDictionary
281
     1
  3
ACAD_COLOR
350
15F7
  3
ACAD_GROUP
350
D
  3
ACAD_LAYOUT
350
1A
  3
ACAD_MATERIAL
350
15CA
  3
ACAD_MLEADERSTYLE
350
161C
  3
ACAD_MLINESTYLE
350
17
  3
ACAD_PLOTSETTINGS
350
19
  3
ACAD_PLOTSTYLENAME
350
E
  3
ACAD_SCALELIST
350
15FA
  3
ACAD_TABLESTYLE
350
15F8
  3
ACAD_VISUALSTYLE
350
15E3
  3
ACDB_RECOMPOSE_DATA
350
1622
  3
AcDbVariableDictionary
350
1654
  0
DICTIONARY
  5
1623
330
8
100
AcDbDictionary
280
     1
281
     1
  0
DICTIONARY
  5
1663
330
10
100
AcDbDictionary
280
     1
281
     1
  3
ADSK_XREC_LAYER_RECONCILED
360
1664
  0
DICTIONARY
  5
1665
330
1FA
100
AcDbDictionary
280
     1
281
     1
  3
ADSK_XREC_LAYER_RECONCILED
360
1666
  0
DICTIONARY
  5
1667
330
1FB
100
AcDbDictionary
280
     1
281
     1
  3
ADSK_XREC_LAYER_RECONCILED
360
1668
  0
DICTIONARY
  5
1669
330
1FC
100
AcDbDictionary
280
     1
281
     1
  3
ADSK_XREC_LAYER_RECONCILED
360
166A
  0
DICTIONARY
  5
166B
330
1FD
100
AcDbDictionary
280
     1
281
     1
  3
ADSK_XREC_LAYER_RECONCILED
360
166C
  0
DICTIONARY
  5
166D
330
1FE
100
AcDbDictionary
280
     1
281
     1
  3
ADSK_XREC_LAYER_RECONCILED
360
166E
  0
DICTIONARY
  5
166F
330
1FF
100
AcDbDictionary
280
     1
281
     1
  3
ADSK_XREC_LAYER_RECONCILED
360
1670
  0
DICTIONARY
  5
1671
330
200
100
AcDbDictionary
280
     1
281
     1
  3
ADSK_XREC_LAYER_RECONCILED
360
1672
  0
DICTIONARY
  5
1673
330
201
100
AcDbDictionary
280
     1
281
     1
  3
ADSK_XREC_LAYER_RECONCILED
360
1674
  0
DICTIONARY
  5
1675
330
202
100
AcDbDictionary
280
     1
281
     1
  3
ADSK_XREC_LAYER_RECONCILED
360
1676
  0
DICTIONARY
  5
1677
330
203
100
AcDbDictionary
280
     1
281
     1
  3
ADSK_XREC_LAYER_RECONCILED
360
1678
  0
DICTIONARY
  5
1679
330
204
100
AcDbDictionary
280
     1
281
     1
  3
ADSK_XREC_LAYER_RECONCILED
360
167A
  0
DICTIONARY
  5
167B
330
205
100
AcDbDictionary
280
     1
281
     1
  3
ADSK_XREC_LAYER_RECONCILED
360
167C
  0
DICTIONARY
  5
167D
330
206
100
AcDbDictionary
280
     1
281
     1
  3
ADSK_XREC_LAYER_RECONCILED
360
167E
  0
DICTIONARY
  5
167F
330
207
100
AcDbDictionary
280
     1
281
     1
  3
ADSK_XREC_LAYER_RECONCILED
360
1680
  0
DICTIONARY
  5
1681
330
208
100
AcDbDictionary
280
     1
281
     1
  3
ADSK_XREC_LAYER_RECONCILED
360
1682
  0
DICTIONARY
  5
1683
330
209
100
AcDbDictionary
280
     1
281
     1
  3
ADSK_XREC_LAYER_RECONCILED
360
1684
  0
DICTIONARY
  5
1685
330
20A
100
AcDbDictionary
280
     1
281
     1
  3
ADSK_XREC_LAYER_RECONCILED
360
1686
  0
DICTIONARY
  5
1687
330
20B
100
AcDbDictionary
280
     1
281
     1
  3
ADSK_XREC_LAYER_RECONCILED
360
1688
  0
DICTIONARY
  5
1689
330
20C
100
AcDbDictionary
280
     1
281
     1
  3
ADSK_XREC_LAYER_RECONCILED
360
168A
  0
DICTIONARY
  5
168B
330
20D
100
AcDbDictionary
280
     1
281
     1
  3
ADSK_XREC_LAYER_RECONCILED
360
168C
  0
DICTIONARY
  5
168D
330
20E
100
AcDbDictionary
280
     1
281
     1
  3
ADSK_XREC_LAYER_RECONCILED
360
168E
  0
DICTIONARY
  5
168F
330
20F
100
AcDbDictionary
280
     1
281
     1
  3
ADSK_XREC_LAYER_RECONCILED
360
1690
  0
DICTIONARY
  5
1691
330
210
100
AcDbDictionary
280
     1
281
     1
  3
ADSK_XREC_LAYER_RECONCILED
360
1692
  0
DICTIONARY
  5
1693
330
211
100
AcDbDictionary
280
     1
281
     1
  3
ADSK_XREC_LAYER_RECONCILED
360
1694
  0
DICTIONARY
  5
1695
330
212
100
AcDbDictionary
280
     1
281
     1
  3
ADSK_XREC_LAYER_RECONCILED
360
1696
  0
DICTIONARY
  5
1697
330
213
100
AcDbDictionary
280
     1
281
     1
  3
ADSK_XREC_LAYER_RECONCILED
360
1698
  0
DICTIONARY
  5
1699
330
214
100
AcDbDictionary
280
     1
281
     1
  3
ADSK_XREC_LAYER_RECONCILED
360
169A
  0
DICTIONARY
  5
169B
330
215
100
AcDbDictionary
280
     1
281
     1
  3
ADSK_XREC_LAYER_RECONCILED
360
169C
  0
DICTIONARY
  5
169D
330
216
100
AcDbDictionary
280
     1
281
     1
  3
ADSK_XREC_LAYER_RECONCILED
360
169E
  0
DICTIONARY
  5
169F
330
217
100
AcDbDictionary
280
     1
281
     1
  3
ADSK_XREC_LAYER_RECONCILED
360
16A0
  0
DICTIONARY
  5
16A1
330
218
100
AcDbDictionary
280
     1
281
     1
  3
ADSK_XREC_LAYER_RECONCILED
360
16A2
  0
DICTIONARY
  5
16A3
330
219
100
AcDbDictionary
280
     1
281
     1
  3
ADSK_XREC_LAYER_RECONCILED
360
16A4
  0
DICTIONARY
  5
16A5
330
21A
100
AcDbDictionary
280
     1
281
     1
  3
ADSK_XREC_LAYER_RECONCILED
360
16A6
  0
DICTIONARY
  5
16A7
330
21B
100
AcDbDictionary
280
     1
281
     1
  3
ADSK_XREC_LAYER_RECONCILED
360
16A8
  0
DICTIONARY
  5
16A9
330
21C
100
AcDbDictionary
280
     1
281
     1
  3
ADSK_XREC_LAYER_RECONCILED
360
16AA
  0
DICTIONARY
  5
16AB
330
21D
100
AcDbDictionary
280
     1
281
     1
  3
ADSK_XREC_LAYER_RECONCILED
360
16AC
  0
DICTIONARY
  5
16AD
330
21E
100
AcDbDictionary
280
     1
281
     1
  3
ADSK_XREC_LAYER_RECONCILED
360
16AE
  0
DICTIONARY
  5
16AF
330
21F
100
AcDbDictionary
280
     1
281
     1
  3
ADSK_XREC_LAYER_RECONCILED
360
16B0
  0
DICTIONARY
  5
16B1
330
220
100
AcDbDictionary
280
     1
281
     1
  3
ADSK_XREC_LAYER_RECONCILED
360
16B2
  0
DICTIONARY
  5
15F7
102
{ACAD_REACTORS
330
C
102
}
330
C
100
AcDbDictionary
281
     1
  0
DICTIONARY
  5
D
102
{ACAD_REACTORS
330
C
102
}
330
C
100
AcDbDictionary
281
     1
  0
DICTIONARY
  5
1A
102
{ACAD_REACTORS
330
C
102
}
330
C
100
AcDbDictionary
281
     1
  3
Layout1
350
15C6
  3
Model
350
15C5
  0
DICTIONARY
  5
15CA
102
{ACAD_REACTORS
330
C
102
}
330
C
100
AcDbDictionary
281
     1
  3
ByBlock
350
15D3
  3
ByLayer
350
15CB
  3
Global
350
15DB
  0
DICTIONARY
  5
161C
102
{ACAD_REACTORS
330
C
102
}
330
C
100
AcDbDictionary
281
     1
  3
Standard
350
161D
  0
DICTIONARY
  5
17
102
{ACAD_REACTORS
330
C
102
}
330
C
100
AcDbDictionary
281
     1
  3
Standard
350
18
  0
DICTIONARY
  5
19
102
{ACAD_REACTORS
330
C
102
}
330
C
100
AcDbDictionary
281
     1
  0
ACDBDICTIONARYWDFLT
  5
E
102
{ACAD_REACTORS
330
C
102
}
330
C
100
AcDbDictionary
281
     1
  3
Normal
350
F
100
AcDbDictionaryWithDefault
340
F
  0
DICTIONARY
  5
15FA
102
{ACAD_REACTORS
330
C
102
}
330
C
100
AcDbDictionary
281
     1
  3
A0
350
15FB
  3
A1
350
15FC
  3
A2
350
15FD
  3
A3
350
15FE
  3
A4
350
15FF
  3
A5
350
1600
  3
A6
350
1601
  3
A7
350
1602
  3
A8
350
1603
  3
A9
350
1604
  3
B0
350
1605
  3
B1
350
1606
  3
B2
350
1607
  3
B3
350
1608
  3
B4
350
1609
  3
B5
350
160A
  3
B6
350
160B
  3
B7
350
160C
  3
B8
350
160D
  3
B9
350
160E
  3
C0
350
160F
  3
C1
350
1610
  3
C2
350
1611
  3
C3
350
1612
  3
C4
350
1613
  3
C5
350
1614
  3
C6
350
1615
  3
C7
350
1616
  3
C8
350
1617
  3
C9
350
1618
  3
D0
350
1619
  3
D1
350
161A
  3
D2
350
161B
  0
DICTIONARY
  5
15F8
102
{ACAD_REACTORS
330
C
102
}
330
C
100
AcDbDictionary
281
     1
  3
Standard
350
15F9
  0
DICTIONARY
  5
15E3
102
{ACAD_REACTORS
330
C
102
}
330
C
100
AcDbDictionary
281
     1
  3
2dWireframe
350
15E9
  3
3D Hidden
350
15EB
  3
3dWireframe
350
15EA
  3
Basic
350
15E8
  3
Brighten
350
15EF
  3
ColorChange
350
15F3
  3
Conceptual
350
15EC
  3
Dim
350
15EE
  3
EdgeColorOff
350
15F6
  3
Facepattern
350
15F2
  3
Flat
350
15E4
  3
FlatWithEdges
350
15E5
  3
Gouraud
350
15E6
  3
GouraudWithEdges
350
15E7
  3
JitterOff
350
15F4
  3
Linepattern
350
15F1
  3
OverhangOff
350
15F5
  3
Realistic
350
15ED
  3
Thicken
350
15F0
  0
XRECORD
  5
1622
102
{ACAD_REACTORS
330
C
102
}
330
C
100
AcDbXrecord
280
     1
 90
        1
330
15F9
  0
DICTIONARY
  5
1654
102
{ACAD_REACTORS
330
C
102
}
330
C
100
AcDbDictionary
281
     1
  3
CANNOSCALE
350
1657
  3
CMLEADERSTYLE
350
1656
  3
CTABLESTYLE
350
1655
  3
DIMASSOC
350
165A
  3
INDEXCTL
350
1659
  3
LAYEREVAL
350
16B6
  3
LAYERNOTIFY
350
16B7
  3
LIGHTINGUNITS
350
16B5
  3
MSLTSCALE
350
16B4
  3
SORTENTS
350
1658
  3
XCLIPFRAME
350
165B
  0
XRECORD
  5
1664
102
{ACAD_REACTORS
330
1663
102
}
330
1663
100
AcDbXrecord
280
     1
290
     1
  0
XRECORD
  5
1666
102
{ACAD_REACTORS
330
1665
102
}
330
1665
100
AcDbXrecord
280
     1
290
     1
  0
XRECORD
  5
1668
102
{ACAD_REACTORS
330
1667
102
}
330
1667
100
AcDbXrecord
280
     1
290
     1
  0
XRECORD
  5
166A
102
{ACAD_REACTORS
330
1669
102
}
330
1669
100
AcDbXrecord
280
     1
290
     1
  0
XRECORD
  5
166C
102
{ACAD_REACTORS
330
166B
102
}
330
166B
100
AcDbXrecord
280
     1
290
     1
  0
XRECORD
  5
166E
102
{ACAD_REACTORS
330
166D
102
}
330
166D
100
AcDbXrecord
280
     1
290
     1
  0
XRECORD
  5
1670
102
{ACAD_REACTORS
330
166F
102
}
330
166F
100
AcDbXrecord
280
     1
290
     1
  0
XRECORD
  5
1672
102
{ACAD_REACTORS
330
1671
102
}
330
1671
100
AcDbXrecord
280
     1
290
     1
  0
XRECORD
  5
1674
102
{ACAD_REACTORS
330
1673
102
}
330
1673
100
AcDbXrecord
280
     1
290
     1
  0
XRECORD
  5
1676
102
{ACAD_REACTORS
330
1675
102
}
330
1675
100
AcDbXrecord
280
     1
290
     1
  0
XRECORD
  5
1678
102
{ACAD_REACTORS
330
1677
102
}
330
1677
100
AcDbXrecord
280
     1
290
     1
  0
XRECORD
  5
167A
102
{ACAD_REACTORS
330
1679
102
}
330
1679
100
AcDbXrecord
280
     1
290
     1
  0
XRECORD
  5
167C
102
{ACAD_REACTORS
330
167B
102
}
330
167B
100
AcDbXrecord
280
     1
290
     1
  0
XRECORD
  5
167E
102
{ACAD_REACTORS
330
167D
102
}
330
167D
100
AcDbXrecord
280
     1
290
     1
  0
XRECORD
  5
1680
102
{ACAD_REACTORS
330
167F
102
}
330
167F
100
AcDbXrecord
280
     1
290
     1
  0
XRECORD
  5
1682
102
{ACAD_REACTORS
330
1681
102
}
330
1681
100
AcDbXrecord
280
     1
290
     1
  0
XRECORD
  5
1684
102
{ACAD_REACTORS
330
1683
102
}
330
1683
100
AcDbXrecord
280
     1
290
     1
  0
XRECORD
  5
1686
102
{ACAD_REACTORS
330
1685
102
}
330
1685
100
AcDbXrecord
280
     1
290
     1
  0
XRECORD
  5
1688
102
{ACAD_REACTORS
330
1687
102
}
330
1687
100
AcDbXrecord
280
     1
290
     1
  0
XRECORD
  5
168A
102
{ACAD_REACTORS
330
1689
102
}
330
1689
100
AcDbXrecord
280
     1
290
     1
  0
XRECORD
  5
168C
102
{ACAD_REACTORS
330
168B
102
}
330
168B
100
AcDbXrecord
280
     1
290
     1
  0
XRECORD
  5
168E
102
{ACAD_REACTORS
330
168D
102
}
330
168D
100
AcDbXrecord
280
     1
290
     1
  0
XRECORD
  5
1690
102
{ACAD_REACTORS
330
168F
102
}
330
168F
100
AcDbXrecord
280
     1
290
     1
  0
XRECORD
  5
1692
102
{ACAD_REACTORS
330
1691
102
}
330
1691
100
AcDbXrecord
280
     1
290
     1
  0
XRECORD
  5
1694
102
{ACAD_REACTORS
330
1693
102
}
330
1693
100
AcDbXrecord
280
     1
290
     1
  0
XRECORD
  5
1696
102
{ACAD_REACTORS
330
1695
102
}
330
1695
100
AcDbXrecord
280
     1
290
     1
  0
XRECORD
  5
1698
102
{ACAD_REACTORS
330
1697
102
}
330
1697
100
AcDbXrecord
280
     1
290
     1
  0
XRECORD
  5
169A
102
{ACAD_REACTORS
330
1699
102
}
330
1699
100
AcDbXrecord
280
     1
290
     1
  0
XRECORD
  5
169C
102
{ACAD_REACTORS
330
169B
102
}
330
169B
100
AcDbXrecord
280
     1
290
     1
  0
XRECORD
  5
169E
102
{ACAD_REACTORS
330
169D
102
}
330
169D
100
AcDbXrecord
280
     1
290
     1
  0
XRECORD
  5
16A0
102
{ACAD_REACTORS
330
169F
102
}
330
169F
100
AcDbXrecord
280
     1
290
     1
  0
XRECORD
  5
16A2
102
{ACAD_REACTORS
330
16A1
102
}
330
16A1
100
AcDbXrecord
280
     1
290
     1
  0
XRECORD
  5
16A4
102
{ACAD_REACTORS
330
16A3
102
}
330
16A3
100
AcDbXrecord
280
     1
290
     1
  0
XRECORD
  5
16A6
102
{ACAD_REACTORS
330
16A5
102
}
330
16A5
100
AcDbXrecord
280
     1
290
     1
  0
XRECORD
  5
16A8
102
{ACAD_REACTORS
330
16A7
102
}
330
16A7
100
AcDbXrecord
280
     1
290
     1
  0
XRECORD
  5
16AA
102
{ACAD_REACTORS
330
16A9
102
}
330
16A9
100
AcDbXrecord
280
     1
290
     1
  0
XRECORD
  5
16AC
102
{ACAD_REACTORS
330
16AB
102
}
330
16AB
100
AcDbXrecord
280
     1
290
     1
  0
XRECORD
  5
16AE
102
{ACAD_REACTORS
330
16AD
102
}
330
16AD
100
AcDbXrecord
280
     1
290
     1
  0
XRECORD
  5
16B0
102
{ACAD_REACTORS
330
16AF
102
}
330
16AF
100
AcDbXrecord
280
     1
290
     1
  0
XRECORD
  5
16B2
102
{ACAD_REACTORS
330
16B1
102
}
330
16B1
100
AcDbXrecord
280
     1
290
     1
  0
LAYOUT
  5
15C6
102
{ACAD_REACTORS
330
1A
102
}
330
1A
100
AcDbPlotSettings
  1

  2
none_device
  4
ANSI_B_(17.00_x_11.00_Inches)
  6

 40
0.0
 41
0.0
 42
0.0
 43
0.0
 44
431.8
 45
279.4
 46
0.0
 47
0.0
 48
0.0
 49
0.0
140
0.0
141
0.0
142
1.0
143
1.0
 70
     0
 72
     0
 73
     0
 74
     0
  7

 75
     0
147
1.0
 76
     0
 77
     2
 78
   300
148
0.0
149
0.0
100
AcDbLayout
  1
Layout1
 70
     1
 71
     1
 10
0.0
 20
0.0
 11
12.0
 21
9.0
 12
0.0
 22
0.0
 32
0.0
 14
1.000000000000000E+20
 24
1.000000000000000E+20
 34
1.000000000000000E+20
 15
-1.000000000000000E+20
 25
-1.000000000000000E+20
 35
-1.000000000000000E+20
146
0.0
 13
0.0
 23
0.0
 33
0.0
 16
1.0
 26
0.0
 36
0.0
 17
0.0
 27
1.0
 37
0.0
 76
     0
330
22A
  0
LAYOUT
  5
15C5
102
{ACAD_REACTORS
330
1A
102
}
330
1A
100
AcDbPlotSettings
  1

  2
none_device
  4
ANSI_B_(17.00_x_11.00_Inches)
  6

 40
0.0
 41
0.0
 42
0.0
 43
0.0
 44
431.8
 45
279.4
 46
0.0
 47
0.0
 48
0.0
 49
0.0
140
0.0
141
0.0
142
1.0
143
1.0
 70
  1024
 72
     0
 73
     0
 74
     0
  7

 75
     0
147
1.0
 76
     0
 77
     2
 78
   300
148
0.0
149
0.0
100
AcDbLayout
  1
Model
 70
     0
 71
     0
 10
0.0
 20
0.0
 11
17.0
 21
11.0
 12
0.0
 22
0.0
 32
0.0
 14
0.0
 24
0.0
 34
0.0
 15
0.0
 25
0.0
 35
0.0
146
0.0
 13
0.0
 23
0.0
 33
0.0
 16
1.0
 26
0.0
 36
0.0
 17
0.0
 27
1.0
 37
0.0
 76
     0
330
229
331
1F4
  0
MATERIAL
  5
15D3
102
{ACAD_XDICTIONARY
360
15D4
102
}
102
{ACAD_REACTORS
330
15CA
102
}
330
15CA
100
AcDbMaterial
  1
ByBlock
 72
     0
 43
0.0208333333333333
 43
0.0
 43
0.0
 43
0.0
 43
0.0
 43
0.0208333333333333
 43
0.0
 43
0.0
 43
0.0
 43
0.0
 43
1.0
 43
0.0
 43
0.0
 43
0.0
 43
0.0
 43
1.0
 77
     0
 47
0.0208333333333333
 47
0.0
 47
0.0
 47
0.0
 47
0.0
 47
0.0208333333333333
 47
0.0
 47
0.0
 47
0.0
 47
0.0
 47
1.0
 47
0.0
 47
0.0
 47
0.0
 47
0.0
 47
1.0
171
     0
 49
0.0208333333333333
 49
0.0
 49
0.0
 49
0.0
 49
0.0
 49
0.0208333333333333
 49
0.0
 49
0.0
 49
0.0
 49
0.0
 49
1.0
 49
0.0
 49
0.0
 49
0.0
 49
0.0
 49
1.0
175
     0
142
0.0208333333333333
142
0.0
142
0.0
142
0.0
142
0.0
142
0.0208333333333333
142
0.0
142
0.0
142
0.0
142
0.0
142
1.0
142
0.0
142
0.0
142
0.0
142
0.0
142
1.0
179
     0
144
0.0208333333333333
144
0.0
144
0.0
144
0.0
144
0.0
144
0.0208333333333333
144
0.0
144
0.0
144
0.0
144
0.0
144
1.0
144
0.0
144
0.0
144
0.0
144
0.0
144
1.0
147
0.0208333333333333
147
0.0
147
0.0
147
0.0
147
0.0
147
0.0208333333333333
147
0.0
147
0.0
147
0.0
147
0.0
147
1.0
147
0.0
147
0.0
147
0.0
147
0.0
147
1.0
  0
MATERIAL
  5
15CB
102
{ACAD_XDICTIONARY
360
15CC
102
}
102
{ACAD_REACTORS
330
15CA
102
}
330
15CA
100
AcDbMaterial
  1
ByLayer
 72
     0
 43
0.0208333333333333
 43
0.0
 43
0.0
 43
0.0
 43
0.0
 43
0.0208333333333333
 43
0.0
 43
0.0
 43
0.0
 43
0.0
 43
1.0
 43
0.0
 43
0.0
 43
0.0
 43
0.0
 43
1.0
 77
     0
 47
0.0208333333333333
 47
0.0
 47
0.0
 47
0.0
 47
0.0
 47
0.0208333333333333
 47
0.0
 47
0.0
 47
0.0
 47
0.0
 47
1.0
 47
0.0
 47
0.0
 47
0.0
 47
0.0
 47
1.0
171
     0
 49
0.0208333333333333
 49
0.0
 49
0.0
 49
0.0
 49
0.0
 49
0.0208333333333333
 49
0.0
 49
0.0
 49
0.0
 49
0.0
 49
1.0
 49
0.0
 49
0.0
 49
0.0
 49
0.0
 49
1.0
175
     0
142
0.0208333333333333
142
0.0
142
0.0
142
0.0
142
0.0
142
0.0208333333333333
142
0.0
142
0.0
142
0.0
142
0.0
142
1.0
142
0.0
142
0.0
142
0.0
142
0.0
142
1.0
179
     0
144
0.0208333333333333
144
0.0
144
0.0
144
0.0
144
0.0
144
0.0208333333333333
144
0.0
144
0.0
144
0.0
144
0.0
144
1.0
144
0.0
144
0.0
144
0.0
144
0.0
144
1.0
147
0.0208333333333333
147
0.0
147
0.0
147
0.0
147
0.0
147
0.0208333333333333
147
0.0
147
0.0
147
0.0
147
0.0
147
1.0
147
0.0
147
0.0
147
0.0
147
0.0
147
1.0
  0
MATERIAL
  5
15DB
102
{ACAD_XDICTIONARY
360
15DC
102
}
102
{ACAD_REACTORS
330
15CA
102
}
330
15CA
100
AcDbMaterial
  1
Global
 72
     0
 43
0.0208333333333333
 43
0.0
 43
0.0
 43
0.0
 43
0.0
 43
0.0208333333333333
 43
0.0
 43
0.0
 43
0.0
 43
0.0
 43
1.0
 43
0.0
 43
0.0
 43
0.0
 43
0.0
 43
1.0
 77
     0
 47
0.0208333333333333
 47
0.0
 47
0.0
 47
0.0
 47
0.0
 47
0.0208333333333333
 47
0.0
 47
0.0
 47
0.0
 47
0.0
 47
1.0
 47
0.0
 47
0.0
 47
0.0
 47
0.0
 47
1.0
171
     0
 49
0.0208333333333333
 49
0.0
 49
0.0
 49
0.0
 49
0.0
 49
0.0208333333333333
 49
0.0
 49
0.0
 49
0.0
 49
0.0
 49
1.0
 49
0.0
 49
0.0
 49
0.0
 49
0.0
 49
1.0
175
     0
142
0.0208333333333333
142
0.0
142
0.0
142
0.0
142
0.0
142
0.0208333333333333
142
0.0
142
0.0
142
0.0
142
0.0
142
1.0
142
0.0
142
0.0
142
0.0
142
0.0
142
1.0
179
     0
144
0.0208333333333333
144
0.0
144
0.0
144
0.0
144
0.0
144
0.0208333333333333
144
0.0
144
0.0
144
0.0
144
0.0
144
1.0
144
0.0
144
0.0
144
0.0
144
0.0
144
1.0
147
0.0208333333333333
147
0.0
147
0.0
147
0.0
147
0.0
147
0.0208333333333333
147
0.0
147
0.0
147
0.0
147
0.0
147
1.0
147
0.0
147
0.0
147
0.0
147
0.0
147
1.0
  0
MLEADERSTYLE
  5
161D
102
{ACAD_REACTORS
330
161C
102
}
330
161C
100
AcDbMLeaderStyle
170
     2
171
     1
172
     0
 90
        2
 40
0.0
 41
0.0
173
     1
 91
-1056964608
340
14
 92
       -2
290
     1
 42
0.09
291
     1
 43
0.36
  3
Standard
 44
0.18
300

342
11
174
     1
178
     6
175
     1
176
     0
 93
-1056964608
 45
0.18
292
     0
297
     0
 46
0.18
 94
-1056964608
 47
1.0
 49
1.0
140
1.0
293
     1
141
0.0
294
     1
177
     0
142
1.0
295
     0
296
     0
143
0.125
1001
ACAD_MLEADERVER
1070
     2
  0
MLINESTYLE
  5
18
102
{ACAD_REACTORS
330
17
102
}
330
17
100
AcDbMlineStyle
  2
STANDARD
 70
     0
  3

 62
   256
 51
90.0
 52
90.0
 71
     2
 49
0.5
 62
   256
  6
BYLAYER
 49
-0.5
 62
   256
  6
BYLAYER
  0
ACDBPLACEHOLDER
  5
F
102
{ACAD_REACTORS
330
E
102
}
330
E
  0
SCALE
  5
15FB
102
{ACAD_REACTORS
330
15FA
102
}
330
15FA
100
AcDbScale
 70
     0
300
1:1
140
1.0
141
1.0
290
     1
  0
SCALE
  5
15FC
102
{ACAD_REACTORS
330
15FA
102
}
330
15FA
100
AcDbScale
 70
     0
300
1:2
140
1.0
141
2.0
290
     0
  0
SCALE
  5
15FD
102
{ACAD_REACTORS
330
15FA
102
}
330
15FA
100
AcDbScale
 70
     0
300
1:4
140
1.0
141
4.0
290
     0
  0
SCALE
  5
15FE
102
{ACAD_REACTORS
330
15FA
102
}
330
15FA
100
AcDbScale
 70
     0
300
1:5
140
1.0
141
5.0
290
     0
  0
SCALE
  5
15FF
102
{ACAD_REACTORS
330
15FA
102
}
330
15FA
100
AcDbScale
 70
     0
300
1:8
140
1.0
141
8.0
290
     0
  0
SCALE
  5
1600
102
{ACAD_REACTORS
330
15FA
102
}
330
15FA
100
AcDbScale
 70
     0
300
1:10
140
1.0
141
10.0
290
     0
  0
SCALE
  5
1601
102
{ACAD_REACTORS
330
15FA
102
}
330
15FA
100
AcDbScale
 70
     0
300
1:16
140
1.0
141
16.0
290
     0
  0
SCALE
  5
1602
102
{ACAD_REACTORS
330
15FA
102
}
330
15FA
100
AcDbScale
 70
     0
300
1:20
140
1.0
141
20.0
290
     0
  0
SCALE
  5
1603
102
{ACAD_REACTORS
330
15FA
102
}
330
15FA
100
AcDbScale
 70
     0
300
1:30
140
1.0
141
30.0
290
     0
  0
SCALE
  5
1604
102
{ACAD_REACTORS
330
15FA
102
}
330
15FA
100
AcDbScale
 70
     0
300
1:40
140
1.0
141
40.0
290
     0
  0
SCALE
  5
1605
102
{ACAD_REACTORS
330
15FA
102
}
330
15FA
100
AcDbScale
 70
     0
300
1:50
140
1.0
141
50.0
290
     0
  0
SCALE
  5
1606
102
{ACAD_REACTORS
330
15FA
102
}
330
15FA
100
AcDbScale
 70
     0
300
1:100
140
1.0
141
100.0
290
     0
  0
SCALE
  5
1607
102
{ACAD_REACTORS
330
15FA
102
}
330
15FA
100
AcDbScale
 70
     0
300
2:1
140
2.0
141
1.0
290
     0
  0
SCALE
  5
1608
102
{ACAD_REACTORS
330
15FA
102
}
330
15FA
100
AcDbScale
 70
     0
300
4:1
140
4.0
141
1.0
290
     0
  0
SCALE
  5
1609
102
{ACAD_REACTORS
330
15FA
102
}
330
15FA
100
AcDbScale
 70
     0
300
8:1
140
8.0
141
1.0
290
     0
  0
SCALE
  5
160A
102
{ACAD_REACTORS
330
15FA
102
}
330
15FA
100
AcDbScale
 70
     0
300
10:1
140
10.0
141
1.0
290
     0
  0
SCALE
  5
160B
102
{ACAD_REACTORS
330
15FA
102
}
330
15FA
100
AcDbScale
 70
     0
300
100:1
140
100.0
141
1.0
290
     0
  0
SCALE
  5
160C
102
{ACAD_REACTORS
330
15FA
102
}
330
15FA
100
AcDbScale
 70
     0
300
1/128" = 1'-0"
140
0.0078125
141
12.0
290
     0
  0
SCALE
  5
160D
102
{ACAD_REACTORS
330
15FA
102
}
330
15FA
100
AcDbScale
 70
     0
300
1/64" = 1'-0"
140
0.015625
141
12.0
290
     0
  0
SCALE
  5
160E
102
{ACAD_REACTORS
330
15FA
102
}
330
15FA
100
AcDbScale
 70
     0
300
1/32" = 1'-0"
140
0.03125
141
12.0
290
     0
  0
SCALE
  5
160F
102
{ACAD_REACTORS
330
15FA
102
}
330
15FA
100
AcDbScale
 70
     0
300
1/16" = 1'-0"
140
0.0625
141
12.0
290
     0
  0
SCALE
  5
1610
102
{ACAD_REACTORS
330
15FA
102
}
330
15FA
100
AcDbScale
 70
     0
300
3/32" = 1'-0"
140
0.09375
141
12.0
290
     0
  0
SCALE
  5
1611
102
{ACAD_REACTORS
330
15FA
102
}
330
15FA
100
AcDbScale
 70
     0
300
1/8" = 1'-0"
140
0.125
141
12.0
290
     0
  0
SCALE
  5
1612
102
{ACAD_REACTORS
330
15FA
102
}
330
15FA
100
AcDbScale
 70
     0
300
3/16" = 1'-0"
140
0.1875
141
12.0
290
     0
  0
SCALE
  5
1613
102
{ACAD_REACTORS
330
15FA
102
}
330
15FA
100
AcDbScale
 70
     0
300
1/4" = 1'-0"
140
0.25
141
12.0
290
     0
  0
SCALE
  5
1614
102
{ACAD_REACTORS
330
15FA
102
}
330
15FA
100
AcDbScale
 70
     0
300
3/8" = 1'-0"
140
0.375
141
12.0
290
     0
  0
SCALE
  5
1615
102
{ACAD_REACTORS
330
15FA
102
}
330
15FA
100
AcDbScale
 70
     0
300
1/2" = 1'-0"
140
0.5
141
12.0
290
     0
  0
SCALE
  5
1616
102
{ACAD_REACTORS
330
15FA
102
}
330
15FA
100
AcDbScale
 70
     0
300
3/4" = 1'-0"
140
0.75
141
12.0
290
     0
  0
SCALE
  5
1617
102
{ACAD_REACTORS
330
15FA
102
}
330
15FA
100
AcDbScale
 70
     0
300
1" = 1'-0"
140
1.0
141
12.0
290
     0
  0
SCALE
  5
1618
102
{ACAD_REACTORS
330
15FA
102
}
330
15FA
100
AcDbScale
 70
     0
300
1-1/2" = 1'-0"
140
1.5
141
12.0
290
     0
  0
SCALE
  5
1619
102
{ACAD_REACTORS
330
15FA
102
}
330
15FA
100
AcDbScale
 70
     0
300
3" = 1'-0"
140
3.0
141
12.0
290
     0
  0
SCALE
  5
161A
102
{ACAD_REACTORS
330
15FA
102
}
330
15FA
100
AcDbScale
 70
     0
300
6" = 1'-0"
140
6.0
141
12.0
290
     0
  0
SCALE
  5
161B
102
{ACAD_REACTORS
330
15FA
102
}
330
15FA
100
AcDbScale
 70
     0
300
1'-0" = 1'-0"
140
12.0
141
12.0
290
     0
  0
TABLESTYLE
  5
15F9
102
{ACAD_XDICTIONARY
360
1620
102
}
102
{ACAD_REACTORS
330
15F8
102
}
330
15F8
100
AcDbTableStyle
  3
Standard
 70
     0
 71
     0
 40
0.06
 41
0.06
280
     0
281
     0
  7
STANDARD
140
0.18
170
     2
 62
     0
 63
     7
283
     0
 90
      512
 91
        0
  1

274
    -2
284
     1
 64
     0
275
    -2
285
     1
 65
     0
276
    -2
286
     1
 66
     0
277
    -2
287
     1
 67
     0
278
    -2
288
     1
 68
     0
279
    -2
289
     1
 69
     0
  7
STANDARD
140
0.25
170
     5
 62
     0
 63
     7
283
     0
 90
      512
 91
        0
  1

274
    -2
284
     1
 64
     0
275
    -2
285
     1
 65
     0
276
    -2
286
     1
 66
     0
277
    -2
287
     1
 67
     0
278
    -2
288
     1
 68
     0
279
    -2
289
     1
 69
     0
  7
STANDARD
140
0.18
170
     5
 62
     0
 63
     7
283
     0
 90
      512
 91
        0
  1

274
    -2
284
     1
 64
     0
275
    -2
285
     1
 65
     0
276
    -2
286
     1
 66
     0
277
    -2
287
     1
 67
     0
278
    -2
288
     1
 68
     0
279
    -2
289
     1
 69
     0
  0
VISUALSTYLE
  5
15E9
102
{ACAD_XDICTIONARY
360
1636
102
}
102
{ACAD_REACTORS
330
15E3
102
}
330
15E3
100
AcDbVisualStyle
  2
2dWireframe
 70
     4
 71
     0
 72
     2
 73
     0
 90
        0
 40
-0.6
 41
-30.0
 62
     5
 63
     7
 74
     1
 91
        4
 64
     7
 65
   257
 75
     1
175
     1
 42
1.0
 92
        0
 66
   257
 43
1.0
 76
     1
 77
     6
 78
     2
 67
     7
 79
     5
170
     0
171
     0
290
     0
174
     0
 93
        1
 44
0.0
173
     0
291
     0
 45
0.0
  0
VISUALSTYLE
  5
15EB
102
{ACAD_XDICTIONARY
360
163A
102
}
102
{ACAD_REACTORS
330
15E3
102
}
330
15E3
100
AcDbVisualStyle
  2
3D Hidden
 70
     6
 71
     1
 72
     2
 73
     2
 90
        0
 40
-0.6
 41
-30.0
 62
     5
 63
     7
 74
     2
 91
        2
 64
     7
 65
   257
 75
     2
175
     1
 42
179.0
 92
        0
 66
   257
 43
1.0
 76
     1
 77
     6
 78
     2
 67
     7
 79
     3
170
     0
171
     0
290
     0
174
     0
 93
        1
 44
0.0
173
     0
291
     0
 45
0.0
  0
VISUALSTYLE
  5
15EA
102
{ACAD_XDICTIONARY
360
1638
102
}
102
{ACAD_REACTORS
330
15E3
102
}
330
15E3
100
AcDbVisualStyle
  2
3dWireframe
 70
     5
 71
     0
 72
     2
 73
     0
 90
        0
 40
-0.6
 41
-30.0
 62
     5
 63
     7
 74
     1
 91
        4
 64
     7
 65
   257
 75
     1
175
     1
 42
1.0
 92
        0
 66
   257
 43
1.0
 76
     1
 77
     6
 78
     2
 67
     7
 79
     5
170
     0
171
     0
290
     0
174
     0
 93
        1
 44
0.0
173
     0
291
     0
 45
0.0
  0
VISUALSTYLE
  5
15E8
102
{ACAD_XDICTIONARY
360
1634
102
}
102
{ACAD_REACTORS
330
15E3
102
}
330
15E3
100
AcDbVisualStyle
  2
Basic
 70
     7
 71
     1
 72
     0
 73
     1
 90
        0
 40
-0.6
 41
-30.0
 62
     5
 63
     7
 74
     0
 91
        4
 64
     7
 65
   257
 75
     1
175
     1
 42
1.0
 92
        8
 66
     7
 43
1.0
 76
     1
 77
     6
 78
     2
 67
     7
 79
     5
170
     0
171
     0
290
     0
174
     0
 93
        1
 44
0.0
173
     0
291
     1
 45
0.0
  0
VISUALSTYLE
  5
15EF
102
{ACAD_XDICTIONARY
360
1642
102
}
102
{ACAD_REACTORS
330
15E3
102
}
330
15E3
100
AcDbVisualStyle
  2
Brighten
 70
    12
 71
     2
 72
     2
 73
     0
 90
        0
 40
-0.6
 41
-30.0
 62
     5
 63
     7
 74
     1
 91
        4
 64
     7
 65
   257
 75
     1
175
     1
 42
1.0
 92
        8
 66
     7
 43
1.0
 76
     1
 77
     6
 78
     2
 67
     7
 79
     5
170
     0
171
     0
290
     0
174
     0
 93
        1
 44
50.0
173
     0
291
     1
 45
0.0
  0
VISUALSTYLE
  5
15F3
102
{ACAD_XDICTIONARY
360
164A
102
}
102
{ACAD_REACTORS
330
15E3
102
}
330
15E3
100
AcDbVisualStyle
  2
ColorChange
 70
    16
 71
     2
 72
     2
 73
     3
 90
        0
 40
-0.6
 41
-30.0
 62
     5
 63
     8
 74
     1
 91
        4
 64
     7
 65
   257
 75
     1
175
     1
 42
1.0
 92
        8
 66
     8
 43
1.0
 76
     1
 77
     6
 78
     2
 67
     7
 79
     5
170
     0
171
     0
290
     0
174
     0
 93
        1
 44
0.0
173
     0
291
     1
 45
0.0
  0
VISUALSTYLE
  5
15EC
102
{ACAD_XDICTIONARY
360
163C
102
}
102
{ACAD_REACTORS
330
15E3
102
}
330
15E3
100
AcDbVisualStyle
  2
Conceptual
 70
     9
 71
     3
 72
     2
 73
     0
 90
        0
 40
-0.6
 41
-30.0
 62
     5
 63
     7
 74
     2
 91
        2
 64
     7
 65
   257
 75
     1
175
     1
 42
179.0
 92
        8
 66
     7
 43
1.0
 76
     1
 77
     6
 78
     2
 67
     7
 79
     3
170
     0
171
     0
290
     0
174
     0
 93
        1
 44
0.0
173
     0
291
     0
 45
0.0
  0
VISUALSTYLE
  5
15EE
102
{ACAD_XDICTIONARY
360
1640
102
}
102
{ACAD_REACTORS
330
15E3
102
}
330
15E3
100
AcDbVisualStyle
  2
Dim
 70
    11
 71
     2
 72
     2
 73
     0
 90
        0
 40
-0.6
 41
-30.0
 62
     5
 63
     7
 74
     1
 91
        4
 64
     7
 65
   257
 75
     1
175
     1
 42
1.0
 92
        8
 66
     7
 43
1.0
 76
     1
 77
     6
 78
     2
 67
     7
 79
     5
170
     0
171
     0
290
     0
174
     0
 93
        1
 44
-50.0
173
     0
291
     1
 45
0.0
  0
VISUALSTYLE
  5
15F6
102
{ACAD_XDICTIONARY
360
1650
102
}
102
{ACAD_REACTORS
330
15E3
102
}
330
15E3
100
AcDbVisualStyle
  2
EdgeColorOff
 70
    22
 71
     2
 72
     2
 73
     0
 90
        0
 40
-0.6
 41
-30.0
 62
     5
 63
     7
 74
     1
 91
        4
 64
     7
 65
   257
 75
     1
175
     1
 42
1.0
 92
        8
 66
     7
 43
1.0
 76
     1
 77
     6
 78
     2
 67
     7
 79
     5
170
     0
171
     0
290
     0
174
     0
 93
        1
 44
0.0
173
     0
291
     1
 45
0.0
  0
VISUALSTYLE
  5
15F2
102
{ACAD_XDICTIONARY
360
1648
102
}
102
{ACAD_REACTORS
330
15E3
102
}
330
15E3
100
AcDbVisualStyle
  2
Facepattern
 70
    15
 71
     2
 72
     2
 73
     0
 90
        0
 40
-0.6
 41
-30.0
 62
     5
 63
     7
 74
     1
 91
        4
 64
     7
 65
   257
 75
     1
175
     1
 42
1.0
 92
        8
 66
     7
 43
1.0
 76
     1
 77
     6
 78
     2
 67
     7
 79
     5
170
     0
171
     0
290
     0
174
     0
 93
        1
 44
0.0
173
     0
291
     1
 45
0.0
  0
VISUALSTYLE
  5
15E4
102
{ACAD_XDICTIONARY
360
162C
102
}
102
{ACAD_REACTORS
330
15E3
102
}
330
15E3
100
AcDbVisualStyle
  2
Flat
 70
     0
 71
     2
 72
     1
 73
     1
 90
        2
 40
-0.6
 41
30.0
 62
     5
 63
     7
 74
     0
 91
        4
 64
     7
 65
   257
 75
     1
175
     1
 42
1.0
 92
        8
 66
     7
 43
1.0
 76
     1
 77
     6
 78
     2
 67
     7
 79
     5
170
     0
171
     0
290
     0
174
     0
 93
       13
 44
0.0
173
     0
291
     1
 45
0.0
  0
VISUALSTYLE
  5
15E5
102
{ACAD_XDICTIONARY
360
162E
102
}
102
{ACAD_REACTORS
330
15E3
102
}
330
15E3
100
AcDbVisualStyle
  2
FlatWithEdges
 70
     1
 71
     2
 72
     1
 73
     1
 90
        2
 40
-0.6
 41
30.0
 62
     5
 63
     7
 74
     1
 91
        4
 64
     7
 65
   257
 75
     1
175
     1
 42
1.0
 92
        0
 66
   257
 43
1.0
 76
     1
 77
     6
 78
     2
 67
     7
 79
     5
170
     0
171
     0
290
     0
174
     0
 93
       13
 44
0.0
173
     0
291
     1
 45
0.0
  0
VISUALSTYLE
  5
15E6
102
{ACAD_XDICTIONARY
360
1630
102
}
102
{ACAD_REACTORS
330
15E3
102
}
330
15E3
100
AcDbVisualStyle
  2
Gouraud
 70
     2
 71
     2
 72
     2
 73
     1
 90
        2
 40
-0.6
 41
30.0
 62
     5
 63
     7
 74
     0
 91
        4
 64
     7
 65
   257
 75
     1
175
     1
 42
1.0
 92
        0
 66
     7
 43
1.0
 76
     1
 77
     6
 78
     2
 67
     7
 79
     5
170
     0
171
     0
290
     0
174
     0
 93
       13
 44
0.0
173
     0
291
     1
 45
0.0
  0
VISUALSTYLE
  5
15E7
102
{ACAD_XDICTIONARY
360
1632
102
}
102
{ACAD_REACTORS
330
15E3
102
}
330
15E3
100
AcDbVisualStyle
  2
GouraudWithEdges
 70
     3
 71
     2
 72
     2
 73
     1
 90
        2
 40
-0.6
 41
30.0
 62
     5
 63
     7
 74
     1
 91
        4
 64
     7
 65
   257
 75
     1
175
     1
 42
1.0
 92
        0
 66
   257
 43
1.0
 76
     1
 77
     6
 78
     2
 67
     7
 79
     5
170
     0
171
     0
290
     0
174
     0
 93
       13
 44
0.0
173
     0
291
     1
 45
0.0
  0
VISUALSTYLE
  5
15F4
102
{ACAD_XDICTIONARY
360
164C
102
}
102
{ACAD_REACTORS
330
15E3
102
}
330
15E3
100
AcDbVisualStyle
  2
JitterOff
 70
    20
 71
     2
 72
     2
 73
     0
 90
        0
 40
-0.6
 41
-30.0
 62
     5
 63
     7
 74
     1
 91
        4
 64
     7
 65
   257
 75
     1
175
     1
 42
1.0
 92
       10
 66
     7
 43
1.0
 76
     1
 77
     6
 78
     2
 67
     7
 79
     5
170
     0
171
     0
290
     0
174
     0
 93
        1
 44
0.0
173
     0
291
     1
 45
0.0
  0
VISUALSTYLE
  5
15F1
102
{ACAD_XDICTIONARY
360
1646
102
}
102
{ACAD_REACTORS
330
15E3
102
}
330
15E3
100
AcDbVisualStyle
  2
Linepattern
 70
    14
 71
     2
 72
     2
 73
     0
 90
        0
 40
-0.6
 41
-30.0
 62
     5
 63
     7
 74
     1
 91
        4
 64
     7
 65
   257
 75
     7
175
     7
 42
1.0
 92
        8
 66
     7
 43
1.0
 76
     1
 77
     6
 78
     2
 67
     7
 79
     5
170
     0
171
     0
290
     0
174
     0
 93
        1
 44
0.0
173
     0
291
     1
 45
0.0
  0
VISUALSTYLE
  5
15F5
102
{ACAD_XDICTIONARY
360
164E
102
}
102
{ACAD_REACTORS
330
15E3
102
}
330
15E3
100
AcDbVisualStyle
  2
OverhangOff
 70
    21
 71
     2
 72
     2
 73
     0
 90
        0
 40
-0.6
 41
-30.0
 62
     5
 63
     7
 74
     1
 91
        4
 64
     7
 65
   257
 75
     1
175
     1
 42
1.0
 92
        9
 66
     7
 43
1.0
 76
     1
 77
     6
 78
     2
 67
     7
 79
     5
170
     0
171
     0
290
     0
174
     0
 93
        1
 44
0.0
173
     0
291
     1
 45
0.0
  0
VISUALSTYLE
  5
15ED
102
{ACAD_XDICTIONARY
360
163E
102
}
102
{ACAD_REACTORS
330
15E3
102
}
330
15E3
100
AcDbVisualStyle
  2
Realistic
 70
     8
 71
     2
 72
     2
 73
     0
 90
        0
 40
-0.6
 41
-30.0
 62
     5
 63
     7
 74
     1
 91
        0
 64
     7
 65
   257
 75
     1
175
     1
 42
1.0
 92
        8
 66
     8
 43
1.0
 76
     1
 77
     6
 78
     2
 67
     7
 79
     5
170
     0
171
     0
290
     0
174
     0
 93
       13
 44
0.0
173
     0
291
     0
 45
0.0
  0
VISUALSTYLE
  5
15F0
102
{ACAD_XDICTIONARY
360
1644
102
}
102
{ACAD_REACTORS
330
15E3
102
}
330
15E3
100
AcDbVisualStyle
  2
Thicken
 70
    13
 71
     2
 72
     2
 73
     0
 90
        0
 40
-0.6
 41
-30.0
 62
     5
 63
     7
 74
     1
 91
        4
 64
     7
 65
   257
 75
     1
175
     1
 42
1.0
 92
       12
 66
     7
 43
1.0
 76
     1
 77
     6
 78
     2
 67
     7
 79
     5
170
     0
171
     0
290
     0
174
     0
 93
        1
 44
0.0
173
     0
291
     1
 45
0.0
  0
DICTIONARYVAR
  5
1657
102
{ACAD_REACTORS
330
1654
102
}
330
1654
100
DictionaryVariables
280
     0
  1
1:1
  0
DICTIONARYVAR
  5
1656
102
{ACAD_REACTORS
330
1654
102
}
330
1654
100
DictionaryVariables
280
     0
  1
STANDARD
  0
DICTIONARYVAR
  5
1655
102
{ACAD_REACTORS
330
1654
102
}
330
1654
100
DictionaryVariables
280
     0
  1
STANDARD
  0
DICTIONARYVAR
  5
165A
102
{ACAD_REACTORS
330
1654
102
}
330
1654
100
DictionaryVariables
280
     0
  1
1
  0
DICTIONARYVAR
  5
1659
102
{ACAD_REACTORS
330
1654
102
}
330
1654
100
DictionaryVariables
280
     0
  1
0
  0
DICTIONARYVAR
  5
16B6
102
{ACAD_REACTORS
330
1654
102
}
330
1654
100
DictionaryVariables
280
     0
  1
1
  0
DICTIONARYVAR
  5
16B7
102
{ACAD_REACTORS
330
1654
102
}
330
1654
100
DictionaryVariables
280
     0
  1
15
  0
DICTIONARYVAR
  5
16B5
102
{ACAD_REACTORS
330
1654
102
}
330
1654
100
DictionaryVariables
280
     0
  1
0
  0
DICTIONARYVAR
  5
16B4
102
{ACAD_REACTORS
330
1654
102
}
330
1654
100
DictionaryVariables
280
     0
  1
0
  0
DICTIONARYVAR
  5
1658
102
{ACAD_REACTORS
330
1654
102
}
330
1654
100
DictionaryVariables
280
     0
  1
127
  0
DICTIONARYVAR
  5
165B
102
{ACAD_REACTORS
330
1654
102
}
330
1654
100
DictionaryVariables
280
     0
  1
2
  0
DICTIONARY
  5
15D4
330
15D3
100
AcDbDictionary
280
     1
281
     1
  3
BUMPTILE
360
15D6
  3
DIFFUSETILE
360
15D5
  3
OPACITYTILE
360
15D9
  3
REFLECTIONTILE
360
15D8
  3
REFRACTIONTILE
360
15DA
  3
SPECULARTILE
360
15D7
  0
DICTIONARY
  5
15CC
330
15CB
100
AcDbDictionary
280
     1
281
     1
  3
BUMPTILE
360
15CE
  3
DIFFUSETILE
360
15CD
  3
OPACITYTILE
360
15D1
  3
REFLECTIONTILE
360
15D0
  3
REFRACTIONTILE
360
15D2
  3
SPECULARTILE
360
15CF
  0
DICTIONARY
  5
15DC
330
15DB
100
AcDbDictionary
280
     1
281
     1
  3
BUMPTILE
360
15DE
  3
DIFFUSETILE
360
15DD
  3
OPACITYTILE
360
15E1
  3
REFLECTIONTILE
360
15E0
  3
REFRACTIONTILE
360
15E2
  3
SPECULARTILE
360
15DF
  0
DICTIONARY
  5
1620
330
15F9
100
AcDbDictionary
280
     1
281
     1
  3
ACAD_ROUNDTRIP_2008_TABLESTYLE_CELLSTYLEMAP
360
16C7
  0
DICTIONARY
  5
1636
330
15E9
100
AcDbDictionary
280
     1
281
     1
  3
ACAD_XREC_ROUNDTRIP
360
1637
  0
DICTIONARY
  5
163A
330
15EB
100
AcDbDictionary
280
     1
281
     1
  3
ACAD_XREC_ROUNDTRIP
360
163B
  0
DICTIONARY
  5
1638
330
15EA
100
AcDbDictionary
280
     1
281
     1
  3
ACAD_XREC_ROUNDTRIP
360
1639
  0
DICTIONARY
  5
1634
330
15E8
100
AcDbDictionary
280
     1
281
     1
  3
ACAD_XREC_ROUNDTRIP
360
1635
  0
DICTIONARY
  5
1642
330
15EF
100
AcDbDictionary
280
     1
281
     1
  3
ACAD_XREC_ROUNDTRIP
360
1643
  0
DICTIONARY
  5
164A
330
15F3
100
AcDbDictionary
280
     1
281
     1
  3
ACAD_XREC_ROUNDTRIP
360
164B
  0
DICTIONARY
  5
163C
330
15EC
100
AcDbDictionary
280
     1
281
     1
  3
ACAD_XREC_ROUNDTRIP
360
163D
  0
DICTIONARY
  5
1640
330
15EE
100
AcDbDictionary
280
     1
281
     1
  3
ACAD_XREC_ROUNDTRIP
360
1641
  0
DICTIONARY
  5
1650
330
15F6
100
AcDbDictionary
280
     1
281
     1
  3
ACAD_XREC_ROUNDTRIP
360
1651
  0
DICTIONARY
  5
1648
330
15F2
100
AcDbDictionary
280
     1
281
     1
  3
ACAD_XREC_ROUNDTRIP
360
1649
  0
DICTIONARY
  5
162C
330
15E4
100
AcDbDictionary
280
     1
281
     1
  3
ACAD_XREC_ROUNDTRIP
360
162D
  0
DICTIONARY
  5
162E
330
15E5
100
AcDbDictionary
280
     1
281
     1
  3
ACAD_XREC_ROUNDTRIP
360
162F
  0
DICTIONARY
  5
1630
330
15E6
100
AcDbDictionary
280
     1
281
     1
  3
ACAD_XREC_ROUNDTRIP
360
1631
  0
DICTIONARY
  5
1632
330
15E7
100
AcDbDictionary
280
     1
281
     1
  3
ACAD_XREC_ROUNDTRIP
360
1633
  0
DICTIONARY
  5
164C
330
15F4
100
AcDbDictionary
280
     1
281
     1
  3
ACAD_XREC_ROUNDTRIP
360
164D
  0
DICTIONARY
  5
1646
330
15F1
100
AcDbDictionary
280
     1
281
     1
  3
ACAD_XREC_ROUNDTRIP
360
1647
  0
DICTIONARY
  5
164E
330
15F5
100
AcDbDictionary
280
     1
281
     1
  3
ACAD_XREC_ROUNDTRIP
360
164F
  0
DICTIONARY
  5
163E
330
15ED
100
AcDbDictionary
280
     1
281
     1
  3
ACAD_XREC_ROUNDTRIP
360
163F
  0
DICTIONARY
  5
1644
330
15F0
100
AcDbDictionary
280
     1
281
     1
  3
ACAD_XREC_ROUNDTRIP
360
1645
  0
XRECORD
  5
15D6
102
{ACAD_REACTORS
330
15D4
102
}
330
15D4
100
AcDbXrecord
280
     1
270
     1
271
     1
  0
XRECORD
  5
15D5
102
{ACAD_REACTORS
330
15D4
102
}
330
15D4
100
AcDbXrecord
280
     1
270
     1
271
     1
  0
XRECORD
  5
15D9
102
{ACAD_REACTORS
330
15D4
102
}
330
15D4
100
AcDbXrecord
280
     1
270
     1
271
     1
  0
XRECORD
  5
15D8
102
{ACAD_REACTORS
330
15D4
102
}
330
15D4
100
AcDbXrecord
280
     1
270
     1
271
     1
  0
XRECORD
  5
15DA
102
{ACAD_REACTORS
330
15D4
102
}
330
15D4
100
AcDbXrecord
280
     1
270
     1
271
     1
  0
XRECORD
  5
15D7
102
{ACAD_REACTORS
330
15D4
102
}
330
15D4
100
AcDbXrecord
280
     1
270
     1
271
     1
  0
XRECORD
  5
15CE
102
{ACAD_REACTORS
330
15CC
102
}
330
15CC
100
AcDbXrecord
280
     1
270
     1
271
     1
  0
XRECORD
  5
15CD
102
{ACAD_REACTORS
330
15CC
102
}
330
15CC
100
AcDbXrecord
280
     1
270
     1
271
     1
  0
XRECORD
  5
15D1
102
{ACAD_REACTORS
330
15CC
102
}
330
15CC
100
AcDbXrecord
280
     1
270
     1
271
     1
  0
XRECORD
  5
15D0
102
{ACAD_REACTORS
330
15CC
102
}
330
15CC
100
AcDbXrecord
280
     1
270
     1
271
     1
  0
XRECORD
  5
15D2
102
{ACAD_REACTORS
330
15CC
102
}
330
15CC
100
AcDbXrecord
280
     1
270
     1
271
     1
  0
XRECORD
  5
15CF
102
{ACAD_REACTORS
330
15CC
102
}
330
15CC
100
AcDbXrecord
280
     1
270
     1
271
     1
  0
XRECORD
  5
15DE
102
{ACAD_REACTORS
330
15DC
102
}
330
15DC
100
AcDbXrecord
280
     1
270
     1
271
     1
  0
XRECORD
  5
15DD
102
{ACAD_REACTORS
330
15DC
102
}
330
15DC
100
AcDbXrecord
280
     1
270
     1
271
     1
  0
XRECORD
  5
15E1
102
{ACAD_REACTORS
330
15DC
102
}
330
15DC
100
AcDbXrecord
280
     1
270
     1
271
     1
  0
XRECORD
  5
15E0
102
{ACAD_REACTORS
330
15DC
102
}
330
15DC
100
AcDbXrecord
280
     1
270
     1
271
     1
  0
XRECORD
  5
15E2
102
{ACAD_REACTORS
330
15DC
102
}
330
15DC
100
AcDbXrecord
280
     1
270
     1
271
     1
  0
XRECORD
  5
15DF
102
{ACAD_REACTORS
330
15DC
102
}
330
15DC
100
AcDbXrecord
280
     1
270
     1
271
     1
  0
CELLSTYLEMAP
  5
16C7
102
{ACAD_REACTORS
330
1620
102
}
330
1620
100
AcDbCellStyleMap
 90
        3
300
CELLSTYLE
  1
TABLEFORMAT_BEGIN
 90
        5
170
     1
 91
        0
 92
    32768
 62
   257
 93
        1
300
CONTENTFORMAT
  1
CONTENTFORMAT_BEGIN
 90
        0
 91
        0
 92
      512
 93
        0
300

 40
0.0
140
1.0
 94
        5
 62
     0
340
11
144
0.25
309
CONTENTFORMAT_END
171
     0
 94
        0
309
TABLEFORMAT_END
  1
CELLSTYLE_BEGIN
 90
        1
 91
        1
300
_TITLE
309
CELLSTYLE_END
300
CELLSTYLE
  1
TABLEFORMAT_BEGIN
 90
        5
170
     1
 91
        0
 92
        0
 62
   257
 93
        1
300
CONTENTFORMAT
  1
CONTENTFORMAT_BEGIN
 90
        0
 91
        0
 92
      512
 93
        0
300

 40
0.0
140
1.0
 94
        5
 62
     0
340
11
144
0.18
309
CONTENTFORMAT_END
171
     0
 94
        0
309
TABLEFORMAT_END
  1
CELLSTYLE_BEGIN
 90
        2
 91
        1
300
_HEADER
309
CELLSTYLE_END
300
CELLSTYLE
  1
TABLEFORMAT_BEGIN
 90
        5
170
     1
 91
        0
 92
        0
 62
   257
 93
        1
300
CONTENTFORMAT
  1
CONTENTFORMAT_BEGIN
 90
        0
 91
        0
 92
      512
 93
        0
300

 40
0.0
140
1.0
 94
        2
 62
     0
340
11
144
0.18
309
CONTENTFORMAT_END
171
     0
 94
        0
309
TABLEFORMAT_END
  1
CELLSTYLE_BEGIN
 90
        3
 91
        2
300
_DATA
309
CELLSTYLE_END
  0
XRECORD
  5
1637
102
{ACAD_REACTORS
330
1636
102
}
330
1636
100
AcDbXrecord
280
     1
102
RTVSPropertyOp0
 70
     1
102
RTVSPropertyOp1
 70
     1
102
RTVSPropertyOp2
 70
     1
102
RTVSPropertyOp3
 70
     1
102
RTVSPropertyOp4
 70
     1
102
RTVSPropertyOp5
 70
     1
102
RTVSPropertyOp6
 70
     1
102
RTVSPropertyOp7
 70
     1
102
RTVSPropertyOp8
 70
     1
102
RTVSPropertyOp9
 70
     1
102
RTVSPropertyOp10
 70
     1
102
RTVSPropertyOp11
 70
     1
102
RTVSPropertyOp12
 70
     1
102
RTVSPropertyOp13
 70
     1
102
RTVSPropertyOp14
 70
     1
102
RTVSPropertyOp15
 70
     1
102
RTVSPropertyOp16
 70
     1
102
RTVSPropertyOp17
 70
     1
102
RTVSPropertyOp18
 70
     1
102
RTVSPropertyOp19
 70
     1
102
RTVSPropertyOp20
 70
     1
102
RTVSPropertyOp21
 70
     1
102
RTVSPropertyOp22
 70
     1
102
RTVSPropertyOp23
 70
     1
102
RTVSPropertyOp24
 70
     1
102
RTVSPropertyOp25
 70
     1
102
RTVSPropertyOp26
 70
     1
102
RTVSPropertyOp27
 70
     1
  0
XRECORD
  5
163B
102
{ACAD_REACTORS
330
163A
102
}
330
163A
100
AcDbXrecord
280
     1
102
RTVSPropertyOp0
 70
     1
102
RTVSPropertyOp1
 70
     1
102
RTVSPropertyOp2
 70
     1
102
RTVSPropertyOp3
 70
     1
102
RTVSPropertyOp4
 70
     1
102
RTVSPropertyOp5
 70
     1
102
RTVSPropertyOp6
 70
     1
102
RTVSPropertyOp7
 70
     1
102
RTVSPropertyOp8
 70
     1
102
RTVSPropertyOp9
 70
     1
102
RTVSPropertyOp10
 70
     1
102
RTVSPropertyOp11
 70
     1
102
RTVSPropertyOp12
 70
     1
102
RTVSPropertyOp13
 70
     1
102
RTVSPropertyOp14
 70
     1
102
RTVSPropertyOp15
 70
     1
102
RTVSPropertyOp16
 70
     1
102
RTVSPropertyOp17
 70
     1
102
RTVSPropertyOp18
 70
     1
102
RTVSPropertyOp19
 70
     1
102
RTVSPropertyOp20
 70
     1
102
RTVSPropertyOp21
 70
     1
102
RTVSPropertyOp22
 70
     1
102
RTVSPropertyOp23
 70
     1
102
RTVSPropertyOp24
 70
     1
102
RTVSPropertyOp25
 70
     1
102
RTVSPropertyOp26
 70
     1
102
RTVSPropertyOp27
 70
     1
  0
XRECORD
  5
1639
102
{ACAD_REACTORS
330
1638
102
}
330
1638
100
AcDbXrecord
280
     1
102
RTVSPropertyOp0
 70
     1
102
RTVSPropertyOp1
 70
     1
102
RTVSPropertyOp2
 70
     1
102
RTVSPropertyOp3
 70
     1
102
RTVSPropertyOp4
 70
     1
102
RTVSPropertyOp5
 70
     1
102
RTVSPropertyOp6
 70
     1
102
RTVSPropertyOp7
 70
     1
102
RTVSPropertyOp8
 70
     1
102
RTVSPropertyOp9
 70
     1
102
RTVSPropertyOp10
 70
     1
102
RTVSPropertyOp11
 70
     1
102
RTVSPropertyOp12
 70
     1
102
RTVSPropertyOp13
 70
     1
102
RTVSPropertyOp14
 70
     1
102
RTVSPropertyOp15
 70
     1
102
RTVSPropertyOp16
 70
     1
102
RTVSPropertyOp17
 70
     1
102
RTVSPropertyOp18
 70
     1
102
RTVSPropertyOp19
 70
     1
102
RTVSPropertyOp20
 70
     1
102
RTVSPropertyOp21
 70
     1
102
RTVSPropertyOp22
 70
     1
102
RTVSPropertyOp23
 70
     1
102
RTVSPropertyOp24
 70
     1
102
RTVSPropertyOp25
 70
     1
102
RTVSPropertyOp26
 70
     1
102
RTVSPropertyOp27
 70
     1
  0
XRECORD
  5
1635
102
{ACAD_REACTORS
330
1634
102
}
330
1634
100
AcDbXrecord
280
     1
102
RTVSPropertyOp0
 70
     1
102
RTVSPropertyOp1
 70
     1
102
RTVSPropertyOp2
 70
     1
102
RTVSPropertyOp3
 70
     1
102
RTVSPropertyOp4
 70
     1
102
RTVSPropertyOp5
 70
     1
102
RTVSPropertyOp6
 70
     1
102
RTVSPropertyOp7
 70
     1
102
RTVSPropertyOp8
 70
     1
102
RTVSPropertyOp9
 70
     1
102
RTVSPropertyOp10
 70
     1
102
RTVSPropertyOp11
 70
     1
102
RTVSPropertyOp12
 70
     1
102
RTVSPropertyOp13
 70
     1
102
RTVSPropertyOp14
 70
     1
102
RTVSPropertyOp15
 70
     1
102
RTVSPropertyOp16
 70
     1
102
RTVSPropertyOp17
 70
     1
102
RTVSPropertyOp18
 70
     1
102
RTVSPropertyOp19
 70
     1
102
RTVSPropertyOp20
 70
     1
102
RTVSPropertyOp21
 70
     1
102
RTVSPropertyOp22
 70
     1
102
RTVSPropertyOp23
 70
     1
102
RTVSPropertyOp24
 70
     1
102
RTVSPropertyOp25
 70
     1
102
RTVSPropertyOp26
 70
     1
102
RTVSPropertyOp27
 70
     1
  0
XRECORD
  5
1643
102
{ACAD_REACTORS
330
1642
102
}
330
1642
100
AcDbXrecord
280
     1
102
RTVSPropertyOp0
 70
     1
102
RTVSPropertyOp1
 70
     1
102
RTVSPropertyOp2
 70
     1
102
RTVSPropertyOp3
 70
     1
102
RTVSPropertyOp4
 70
     1
102
RTVSPropertyOp5
 70
     1
102
RTVSPropertyOp6
 70
     1
102
RTVSPropertyOp7
 70
     1
102
RTVSPropertyOp8
 70
     1
102
RTVSPropertyOp9
 70
     1
102
RTVSPropertyOp10
 70
     1
102
RTVSPropertyOp11
 70
     1
102
RTVSPropertyOp12
 70
     1
102
RTVSPropertyOp13
 70
     1
102
RTVSPropertyOp14
 70
     1
102
RTVSPropertyOp15
 70
     1
102
RTVSPropertyOp16
 70
     1
102
RTVSPropertyOp17
 70
     1
102
RTVSPropertyOp18
 70
     1
102
RTVSPropertyOp19
 70
     1
102
RTVSPropertyOp20
 70
     1
102
RTVSPropertyOp21
 70
     1
102
RTVSPropertyOp22
 70
     1
102
RTVSPropertyOp23
 70
     1
102
RTVSPropertyOp24
 70
     1
102
RTVSPropertyOp25
 70
     1
102
RTVSPropertyOp26
 70
     1
102
RTVSPropertyOp27
 70
     1
  0
XRECORD
  5
164B
102
{ACAD_REACTORS
330
164A
102
}
330
164A
100
AcDbXrecord
280
     1
102
RTVSPropertyOp0
 70
     1
102
RTVSPropertyOp1
 70
     1
102
RTVSPropertyOp2
 70
     1
102
RTVSPropertyOp3
 70
     1
102
RTVSPropertyOp4
 70
     1
102
RTVSPropertyOp5
 70
     1
102
RTVSPropertyOp6
 70
     1
102
RTVSPropertyOp7
 70
     1
102
RTVSPropertyOp8
 70
     1
102
RTVSPropertyOp9
 70
     1
102
RTVSPropertyOp10
 70
     1
102
RTVSPropertyOp11
 70
     1
102
RTVSPropertyOp12
 70
     1
102
RTVSPropertyOp13
 70
     1
102
RTVSPropertyOp14
 70
     1
102
RTVSPropertyOp15
 70
     1
102
RTVSPropertyOp16
 70
     1
102
RTVSPropertyOp17
 70
     1
102
RTVSPropertyOp18
 70
     1
102
RTVSPropertyOp19
 70
     1
102
RTVSPropertyOp20
 70
     1
102
RTVSPropertyOp21
 70
     1
102
RTVSPropertyOp22
 70
     1
102
RTVSPropertyOp23
 70
     1
102
RTVSPropertyOp24
 70
     1
102
RTVSPropertyOp25
 70
     1
102
RTVSPropertyOp26
 70
     1
102
RTVSPropertyOp27
 70
     1
  0
XRECORD
  5
163D
102
{ACAD_REACTORS
330
163C
102
}
330
163C
100
AcDbXrecord
280
     1
102
RTVSPropertyOp0
 70
     1
102
RTVSPropertyOp1
 70
     1
102
RTVSPropertyOp2
 70
     1
102
RTVSPropertyOp3
 70
     1
102
RTVSPropertyOp4
 70
     1
102
RTVSPropertyOp5
 70
     1
102
RTVSPropertyOp6
 70
     1
102
RTVSPropertyOp7
 70
     1
102
RTVSPropertyOp8
 70
     1
102
RTVSPropertyOp9
 70
     1
102
RTVSPropertyOp10
 70
     1
102
RTVSPropertyOp11
 70
     1
102
RTVSPropertyOp12
 70
     1
102
RTVSPropertyOp13
 70
     1
102
RTVSPropertyOp14
 70
     1
102
RTVSPropertyOp15
 70
     1
102
RTVSPropertyOp16
 70
     1
102
RTVSPropertyOp17
 70
     1
102
RTVSPropertyOp18
 70
     1
102
RTVSPropertyOp19
 70
     1
102
RTVSPropertyOp20
 70
     1
102
RTVSPropertyOp21
 70
     1
102
RTVSPropertyOp22
 70
     1
102
RTVSPropertyOp23
 70
     1
102
RTVSPropertyOp24
 70
     1
102
RTVSPropertyOp25
 70
     1
102
RTVSPropertyOp26
 70
     1
102
RTVSPropertyOp27
 70
     1
  0
XRECORD
  5
1641
102
{ACAD_REACTORS
330
1640
102
}
330
1640
100
AcDbXrecord
280
     1
102
RTVSPropertyOp0
 70
     1
102
RTVSPropertyOp1
 70
     1
102
RTVSPropertyOp2
 70
     1
102
RTVSPropertyOp3
 70
     1
102
RTVSPropertyOp4
 70
     1
102
RTVSPropertyOp5
 70
     1
102
RTVSPropertyOp6
 70
     1
102
RTVSPropertyOp7
 70
     1
102
RTVSPropertyOp8
 70
     1
102
RTVSPropertyOp9
 70
     1
102
RTVSPropertyOp10
 70
     1
102
RTVSPropertyOp11
 70
     1
102
RTVSPropertyOp12
 70
     1
102
RTVSPropertyOp13
 70
     1
102
RTVSPropertyOp14
 70
     1
102
RTVSPropertyOp15
 70
     1
102
RTVSPropertyOp16
 70
     1
102
RTVSPropertyOp17
 70
     1
102
RTVSPropertyOp18
 70
     1
102
RTVSPropertyOp19
 70
     1
102
RTVSPropertyOp20
 70
     1
102
RTVSPropertyOp21
 70
     1
102
RTVSPropertyOp22
 70
     1
102
RTVSPropertyOp23
 70
     1
102
RTVSPropertyOp24
 70
     1
102
RTVSPropertyOp25
 70
     1
102
RTVSPropertyOp26
 70
     1
102
RTVSPropertyOp27
 70
     1
  0
XRECORD
  5
1651
102
{ACAD_REACTORS
330
1650
102
}
330
1650
100
AcDbXrecord
280
     1
102
RTVSPropertyOp0
 70
     0
102
RTVSPropertyOp1
 70
     0
102
RTVSPropertyOp2
 70
     0
102
RTVSPropertyOp3
 70
     0
102
RTVSPropertyOp4
 70
     0
102
RTVSPropertyOp5
 70
     0
102
RTVSPropertyOp6
 70
     0
102
RTVSPropertyOp7
 70
     0
102
RTVSPropertyOp8
 70
     0
102
RTVSPropertyOp9
 70
     0
102
RTVSPropertyOp10
 70
     0
102
RTVSPropertyOp11
 70
     0
102
RTVSPropertyOp12
 70
     0
102
RTVSPropertyOp13
 70
     0
102
RTVSPropertyOp14
 70
     2
102
RTVSPropertyOp15
 70
     0
102
RTVSPropertyOp16
 70
     0
102
RTVSPropertyOp17
 70
     0
102
RTVSPropertyOp18
 70
     0
102
RTVSPropertyOp19
 70
     0
102
RTVSPropertyOp20
 70
     0
102
RTVSPropertyOp21
 70
     0
102
RTVSPropertyOp22
 70
     0
102
RTVSPropertyOp23
 70
     0
102
RTVSPropertyOp24
 70
     0
102
RTVSPropertyOp25
 70
     0
102
RTVSPropertyOp26
 70
     0
102
RTVSPropertyOp27
 70
     0
  0
XRECORD
  5
1649
102
{ACAD_REACTORS
330
1648
102
}
330
1648
100
AcDbXrecord
280
     1
102
RTVSPropertyOp0
 70
     1
102
RTVSPropertyOp1
 70
     1
102
RTVSPropertyOp2
 70
     1
102
RTVSPropertyOp3
 70
     1
102
RTVSPropertyOp4
 70
     1
102
RTVSPropertyOp5
 70
     1
102
RTVSPropertyOp6
 70
     1
102
RTVSPropertyOp7
 70
     1
102
RTVSPropertyOp8
 70
     1
102
RTVSPropertyOp9
 70
     1
102
RTVSPropertyOp10
 70
     1
102
RTVSPropertyOp11
 70
     1
102
RTVSPropertyOp12
 70
     1
102
RTVSPropertyOp13
 70
     1
102
RTVSPropertyOp14
 70
     1
102
RTVSPropertyOp15
 70
     1
102
RTVSPropertyOp16
 70
     1
102
RTVSPropertyOp17
 70
     1
102
RTVSPropertyOp18
 70
     1
102
RTVSPropertyOp19
 70
     1
102
RTVSPropertyOp20
 70
     1
102
RTVSPropertyOp21
 70
     1
102
RTVSPropertyOp22
 70
     1
102
RTVSPropertyOp23
 70
     1
102
RTVSPropertyOp24
 70
     1
102
RTVSPropertyOp25
 70
     1
102
RTVSPropertyOp26
 70
     1
102
RTVSPropertyOp27
 70
     1
  0
XRECORD
  5
162D
102
{ACAD_REACTORS
330
162C
102
}
330
162C
100
AcDbXrecord
280
     1
102
RTVSPropertyOp0
 70
     1
102
RTVSPropertyOp1
 70
     1
102
RTVSPropertyOp2
 70
     1
102
RTVSPropertyOp3
 70
     1
102
RTVSPropertyOp4
 70
     1
102
RTVSPropertyOp5
 70
     1
102
RTVSPropertyOp6
 70
     1
102
RTVSPropertyOp7
 70
     1
102
RTVSPropertyOp8
 70
     1
102
RTVSPropertyOp9
 70
     1
102
RTVSPropertyOp10
 70
     1
102
RTVSPropertyOp11
 70
     1
102
RTVSPropertyOp12
 70
     1
102
RTVSPropertyOp13
 70
     1
102
RTVSPropertyOp14
 70
     1
102
RTVSPropertyOp15
 70
     1
102
RTVSPropertyOp16
 70
     1
102
RTVSPropertyOp17
 70
     1
102
RTVSPropertyOp18
 70
     1
102
RTVSPropertyOp19
 70
     1
102
RTVSPropertyOp20
 70
     1
102
RTVSPropertyOp21
 70
     1
102
RTVSPropertyOp22
 70
     1
102
RTVSPropertyOp23
 70
     1
102
RTVSPropertyOp24
 70
     1
102
RTVSPropertyOp25
 70
     1
102
RTVSPropertyOp26
 70
     1
102
RTVSPropertyOp27
 70
     1
  0
XRECORD
  5
162F
102
{ACAD_REACTORS
330
162E
102
}
330
162E
100
AcDbXrecord
280
     1
102
RTVSPropertyOp0
 70
     1
102
RTVSPropertyOp1
 70
     1
102
RTVSPropertyOp2
 70
     1
102
RTVSPropertyOp3
 70
     1
102
RTVSPropertyOp4
 70
     1
102
RTVSPropertyOp5
 70
     1
102
RTVSPropertyOp6
 70
     1
102
RTVSPropertyOp7
 70
     1
102
RTVSPropertyOp8
 70
     1
102
RTVSPropertyOp9
 70
     1
102
RTVSPropertyOp10
 70
     1
102
RTVSPropertyOp11
 70
     1
102
RTVSPropertyOp12
 70
     1
102
RTVSPropertyOp13
 70
     1
102
RTVSPropertyOp14
 70
     1
102
RTVSPropertyOp15
 70
     1
102
RTVSPropertyOp16
 70
     1
102
RTVSPropertyOp17
 70
     1
102
RTVSPropertyOp18
 70
     1
102
RTVSPropertyOp19
 70
     1
102
RTVSPropertyOp20
 70
     1
102
RTVSPropertyOp21
 70
     1
102
RTVSPropertyOp22
 70
     1
102
RTVSPropertyOp23
 70
     1
102
RTVSPropertyOp24
 70
     1
102
RTVSPropertyOp25
 70
     1
102
RTVSPropertyOp26
 70
     1
102
RTVSPropertyOp27
 70
     1
  0
XRECORD
  5
1631
102
{ACAD_REACTORS
330
1630
102
}
330
1630
100
AcDbXrecord
280
     1
102
RTVSPropertyOp0
 70
     1
102
RTVSPropertyOp1
 70
     1
102
RTVSPropertyOp2
 70
     1
102
RTVSPropertyOp3
 70
     1
102
RTVSPropertyOp4
 70
     1
102
RTVSPropertyOp5
 70
     1
102
RTVSPropertyOp6
 70
     1
102
RTVSPropertyOp7
 70
     1
102
RTVSPropertyOp8
 70
     1
102
RTVSPropertyOp9
 70
     1
102
RTVSPropertyOp10
 70
     1
102
RTVSPropertyOp11
 70
     1
102
RTVSPropertyOp12
 70
     1
102
RTVSPropertyOp13
 70
     1
102
RTVSPropertyOp14
 70
     1
102
RTVSPropertyOp15
 70
     1
102
RTVSPropertyOp16
 70
     1
102
RTVSPropertyOp17
 70
     1
102
RTVSPropertyOp18
 70
     1
102
RTVSPropertyOp19
 70
     1
102
RTVSPropertyOp20
 70
     1
102
RTVSPropertyOp21
 70
     1
102
RTVSPropertyOp22
 70
     1
102
RTVSPropertyOp23
 70
     1
102
RTVSPropertyOp24
 70
     1
102
RTVSPropertyOp25
 70
     1
102
RTVSPropertyOp26
 70
     1
102
RTVSPropertyOp27
 70
     1
  0
XRECORD
  5
1633
102
{ACAD_REACTORS
330
1632
102
}
330
1632
100
AcDbXrecord
280
     1
102
RTVSPropertyOp0
 70
     1
102
RTVSPropertyOp1
 70
     1
102
RTVSPropertyOp2
 70
     1
102
RTVSPropertyOp3
 70
     1
102
RTVSPropertyOp4
 70
     1
102
RTVSPropertyOp5
 70
     1
102
RTVSPropertyOp6
 70
     1
102
RTVSPropertyOp7
 70
     1
102
RTVSPropertyOp8
 70
     1
102
RTVSPropertyOp9
 70
     1
102
RTVSPropertyOp10
 70
     1
102
RTVSPropertyOp11
 70
     1
102
RTVSPropertyOp12
 70
     1
102
RTVSPropertyOp13
 70
     1
102
RTVSPropertyOp14
 70
     1
102
RTVSPropertyOp15
 70
     1
102
RTVSPropertyOp16
 70
     1
102
RTVSPropertyOp17
 70
     1
102
RTVSPropertyOp18
 70
     1
102
RTVSPropertyOp19
 70
     1
102
RTVSPropertyOp20
 70
     1
102
RTVSPropertyOp21
 70
     1
102
RTVSPropertyOp22
 70
     1
102
RTVSPropertyOp23
 70
     1
102
RTVSPropertyOp24
 70
     1
102
RTVSPropertyOp25
 70
     1
102
RTVSPropertyOp26
 70
     1
102
RTVSPropertyOp27
 70
     1
  0
XRECORD
  5
164D
102
{ACAD_REACTORS
330
164C
102
}
330
164C
100
AcDbXrecord
280
     1
102
RTVSPropertyOp0
 70
     0
102
RTVSPropertyOp1
 70
     0
102
RTVSPropertyOp2
 70
     0
102
RTVSPropertyOp3
 70
     0
102
RTVSPropertyOp4
 70
     0
102
RTVSPropertyOp5
 70
     0
102
RTVSPropertyOp6
 70
     0
102
RTVSPropertyOp7
 70
     0
102
RTVSPropertyOp8
 70
     0
102
RTVSPropertyOp9
 70
     0
102
RTVSPropertyOp10
 70
     0
102
RTVSPropertyOp11
 70
     0
102
RTVSPropertyOp12
 70
     0
102
RTVSPropertyOp13
 70
     0
102
RTVSPropertyOp14
 70
     2
102
RTVSPropertyOp15
 70
     0
102
RTVSPropertyOp16
 70
     0
102
RTVSPropertyOp17
 70
     0
102
RTVSPropertyOp18
 70
     0
102
RTVSPropertyOp19
 70
     0
102
RTVSPropertyOp20
 70
     0
102
RTVSPropertyOp21
 70
     0
102
RTVSPropertyOp22
 70
     0
102
RTVSPropertyOp23
 70
     0
102
RTVSPropertyOp24
 70
     0
102
RTVSPropertyOp25
 70
     0
102
RTVSPropertyOp26
 70
     0
102
RTVSPropertyOp27
 70
     0
  0
XRECORD
  5
1647
102
{ACAD_REACTORS
330
1646
102
}
330
1646
100
AcDbXrecord
280
     1
102
RTVSPropertyOp0
 70
     1
102
RTVSPropertyOp1
 70
     1
102
RTVSPropertyOp2
 70
     1
102
RTVSPropertyOp3
 70
     1
102
RTVSPropertyOp4
 70
     1
102
RTVSPropertyOp5
 70
     1
102
RTVSPropertyOp6
 70
     1
102
RTVSPropertyOp7
 70
     1
102
RTVSPropertyOp8
 70
     1
102
RTVSPropertyOp9
 70
     1
102
RTVSPropertyOp10
 70
     1
102
RTVSPropertyOp11
 70
     1
102
RTVSPropertyOp12
 70
     1
102
RTVSPropertyOp13
 70
     1
102
RTVSPropertyOp14
 70
     1
102
RTVSPropertyOp15
 70
     1
102
RTVSPropertyOp16
 70
     1
102
RTVSPropertyOp17
 70
     1
102
RTVSPropertyOp18
 70
     1
102
RTVSPropertyOp19
 70
     1
102
RTVSPropertyOp20
 70
     1
102
RTVSPropertyOp21
 70
     1
102
RTVSPropertyOp22
 70
     1
102
RTVSPropertyOp23
 70
     1
102
RTVSPropertyOp24
 70
     1
102
RTVSPropertyOp25
 70
     1
102
RTVSPropertyOp26
 70
     1
102
RTVSPropertyOp27
 70
     1
  0
XRECORD
  5
164F
102
{ACAD_REACTORS
330
164E
102
}
330
164E
100
AcDbXrecord
280
     1
102
RTVSPropertyOp0
 70
     0
102
RTVSPropertyOp1
 70
     0
102
RTVSPropertyOp2
 70
     0
102
RTVSPropertyOp3
 70
     0
102
RTVSPropertyOp4
 70
     0
102
RTVSPropertyOp5
 70
     0
102
RTVSPropertyOp6
 70
     0
102
RTVSPropertyOp7
 70
     0
102
RTVSPropertyOp8
 70
     0
102
RTVSPropertyOp9
 70
     0
102
RTVSPropertyOp10
 70
     0
102
RTVSPropertyOp11
 70
     0
102
RTVSPropertyOp12
 70
     0
102
RTVSPropertyOp13
 70
     0
102
RTVSPropertyOp14
 70
     2
102
RTVSPropertyOp15
 70
     0
102
RTVSPropertyOp16
 70
     0
102
RTVSPropertyOp17
 70
     0
102
RTVSPropertyOp18
 70
     0
102
RTVSPropertyOp19
 70
     0
102
RTVSPropertyOp20
 70
     0
102
RTVSPropertyOp21
 70
     0
102
RTVSPropertyOp22
 70
     0
102
RTVSPropertyOp23
 70
     0
102
RTVSPropertyOp24
 70
     0
102
RTVSPropertyOp25
 70
     0
102
RTVSPropertyOp26
 70
     0
102
RTVSPropertyOp27
 70
     0
  0
XRECORD
  5
163F
102
{ACAD_REACTORS
330
163E
102
}
330
163E
100
AcDbXrecord
280
     1
102
RTVSPropertyOp0
 70
     1
102
RTVSPropertyOp1
 70
     1
102
RTVSPropertyOp2
 70
     1
102
RTVSPropertyOp3
 70
     1
102
RTVSPropertyOp4
 70
     1
102
RTVSPropertyOp5
 70
     1
102
RTVSPropertyOp6
 70
     1
102
RTVSPropertyOp7
 70
     1
102
RTVSPropertyOp8
 70
     1
102
RTVSPropertyOp9
 70
     1
102
RTVSPropertyOp10
 70
     1
102
RTVSPropertyOp11
 70
     1
102
RTVSPropertyOp12
 70
     1
102
RTVSPropertyOp13
 70
     1
102
RTVSPropertyOp14
 70
     1
102
RTVSPropertyOp15
 70
     1
102
RTVSPropertyOp16
 70
     1
102
RTVSPropertyOp17
 70
     1
102
RTVSPropertyOp18
 70
     1
102
RTVSPropertyOp19
 70
     1
102
RTVSPropertyOp20
 70
     1
102
RTVSPropertyOp21
 70
     1
102
RTVSPropertyOp22
 70
     1
102
RTVSPropertyOp23
 70
     1
102
RTVSPropertyOp24
 70
     1
102
RTVSPropertyOp25
 70
     1
102
RTVSPropertyOp26
 70
     1
102
RTVSPropertyOp27
 70
     1
  0
XRECORD
  5
1645
102
{ACAD_REACTORS
330
1644
102
}
330
1644
100
AcDbXrecord
280
     1
102
RTVSPropertyOp0
 70
     1
102
RTVSPropertyOp1
 70
     1
102
RTVSPropertyOp2
 70
     1
102
RTVSPropertyOp3
 70
     1
102
RTVSPropertyOp4
 70
     1
102
RTVSPropertyOp5
 70
     1
102
RTVSPropertyOp6
 70
     1
102
RTVSPropertyOp7
 70
     1
102
RTVSPropertyOp8
 70
     1
102
RTVSPropertyOp9
 70
     1
102
RTVSPropertyOp10
 70
     1
102
RTVSPropertyOp11
 70
     1
102
RTVSPropertyOp12
 70
     1
102
RTVSPropertyOp13
 70
     1
102
RTVSPropertyOp14
 70
     1
102
RTVSPropertyOp15
 70
     1
102
RTVSPropertyOp16
 70
     1
102
RTVSPropertyOp17
 70
     1
102
RTVSPropertyOp18
 70
     1
102
RTVSPropertyOp19
 70
     1
102
RTVSPropertyOp20
 70
     1
102
RTVSPropertyOp21
 70
     1
102
RTVSPropertyOp22
 70
     1
102
RTVSPropertyOp23
 70
     1
102
RTVSPropertyOp24
 70
     1
102
RTVSPropertyOp25
 70
     1
102
RTVSPropertyOp26
 70
     1
102
RTVSPropertyOp27
 70
     1
  0
ENDSEC
  0
EOF
