  0
SECTION
  2
HEADER
  9
$ACADVER
  1
AC1021
  9
$ACADMAINTVER
 70
    50
  9
$DWGCODEPAGE
  3
ANSI_1252
  9
$LASTSAVEDBY
  1
francoisbu
  9
$INSBASE
 10
0.0
 20
0.0
 30
0.0
  9
$EXTMIN
 10
15.75211632595125
 20
16.19921904204173
 30
-0.0015258207003583
  9
$EXTMAX
 10
87.77522817785087
 20
38.28336606656751
 30
0.0000000349246037
  9
$LIMMIN
 10
0.0
 20
0.0
  9
$LIMMAX
 10
181.3333333333
 20
117.3333333333
  9
$ORTHOMODE
 70
     0
  9
$REGENMODE
 70
     1
  9
$FILLMODE
 70
     1
  9
$QTEXTMODE
 70
     0
  9
$MIRRTEXT
 70
     0
  9
$LTSCALE
 40
9.973333333300001
  9
$ATTMODE
 70
     1
  9
$TEXTSIZE
 40
0.2
  9
$TRACEWID
 40
0.05
  9
$TEXTSTYLE
  7
STANDARD
  9
$CLAYER
  8
0
  9
$CELTYPE
  6
BYLAYER
  9
$CECOLOR
 62
   256
  9
$CELTSCALE
 40
1.0
  9
$DISPSILH
 70
     0
  9
$DIMSCALE
 40
1.0
  9
$DIMASZ
 40
2.0
  9
$DIMEXO
 40
0.0625
  9
$DIMDLI
 40
6.890666666699999
  9
$DIMRND
 40
0.0
  9
$DIMDLE
 40
0.0
  9
$DIMEXE
 40
0.125
  9
$DIMTP
 40
0.00001
  9
$DIMTM
 40
0.00001
  9
$DIMTXT
 40
1.333333333299999
  9
$DIMCEN
 40
1.631999999999999
  9
$DIMTSZ
 40
0.0
  9
$DIMTOL
 70
     1
  9
$DIMLIM
 70
     0
  9
$DIMTIH
 70
     1
  9
$DIMTOH
 70
     1
  9
$DIMSE1
 70
     0
  9
$DIMSE2
 70
     0
  9
$DIMTAD
 70
     0
  9
$DIMZIN
 70
     0
  9
$DIMBLK
  1
_FILLED
  9
$DIMASO
 70
     1
  9
$DIMSHO
 70
     1
  9
$DIMPOST
  1

  9
$DIMAPOST
  1

  9
$DIMALT
 70
     0
  9
$DIMALTD
 70
     2
  9
$DIMALTF
 40
25.4
  9
$DIMLFAC
 40
1.0
  9
$DIMTOFL
 70
     0
  9
$DIMTVP
 40
0.0
  9
$DIMTIX
 70
     0
  9
$DIMSOXD
 70
     0
  9
$DIMSAH
 70
     0
  9
$DIMBLK1
  1

  9
$DIMBLK2
  1

  9
$DIMSTYLE
  2
STANDARD
  9
$DIMCLRD
 70
     0
  9
$DIMCLRE
 70
     0
  9
$DIMCLRT
 70
     0
  9
$DIMTFAC
 40
1.0
  9
$DIMGAP
 40
0.09
  9
$DIMJUST
 70
     0
  9
$DIMSD1
 70
     0
  9
$DIMSD2
 70
     0
  9
$DIMTOLJ
 70
     1
  9
$DIMTZIN
 70
     0
  9
$DIMALTZ
 70
     0
  9
$DIMALTTZ
 70
     0
  9
$DIMUPT
 70
     0
  9
$DIMDEC
 70
     4
  9
$DIMTDEC
 70
     4
  9
$DIMALTU
 70
     2
  9
$DIMALTTD
 70
     2
  9
$DIMTXSTY
  7
STANDARD
  9
$DIMAUNIT
 70
     0
  9
$DIMADEC
 70
     0
  9
$DIMALTRND
 40
0.0
  9
$DIMAZIN
 70
     0
  9
$DIMDSEP
 70
    46
  9
$DIMATFIT
 70
     3
  9
$DIMFRAC
 70
     0
  9
$DIMLDRBLK
  1

  9
$DIMLUNIT
 70
     2
  9
$DIMLWD
 70
    -2
  9
$DIMLWE
 70
    -2
  9
$DIMTMOVE
 70
     0
  9
$DIMFXL
 40
1.0
  9
$DIMFXLON
 70
     0
  9
$DIMJOGANG
 40
0.7853981633974483
  9
$DIMTFILL
 70
     0
  9
$DIMTFILLCLR
 70
     0
  9
$DIMARCSYM
 70
     0
  9
$DIMLTYPE
  6

  9
$DIMLTEX1
  6

  9
$DIMLTEX2
  6

  9
$LUNITS
 70
     2
  9
$LUPREC
 70
     4
  9
$SKETCHINC
 40
0.1
  9
$FILLETRAD
 40
0.0
  9
$AUNITS
 70
     0
  9
$AUPREC
 70
     0
  9
$MENU
  1
.
  9
$ELEVATION
 40
0.0
  9
$PELEVATION
 40
0.0
  9
$THICKNESS
 40
0.0
  9
$LIMCHECK
 70
     0
  9
$CHAMFERA
 40
0.0
  9
$CHAMFERB
 40
0.0
  9
$CHAMFERC
 40
0.0
  9
$CHAMFERD
 40
0.0
  9
$SKPOLY
 70
     0
  9
$TDCREATE
 40
2456461.564061412
  9
$TDUCREATE
 40
2456461.730728079
  9
$TDUPDATE
 40
2456583.317478623
  9
$TDUUPDATE
 40
2456583.484145289
  9
$TDINDWG
 40
0.0011647338
  9
$TDUSRTIMER
 40
0.0011647338
  9
$USRTIMER
 70
     1
  9
$ANGBASE
 50
0.0
  9
$ANGDIR
 70
     0
  9
$PDMODE
 70
     3
  9
$PDSIZE
 40
0.03125
  9
$PLINEWID
 40
0.0
  9
$SPLFRAME
 70
     0
  9
$SPLINETYPE
 70
     6
  9
$SPLINESEGS
 70
     8
  9
$HANDSEED
  5
1854
  9
$SURFTAB1
 70
     6
  9
$SURFTAB2
 70
     6
  9
$SURFTYPE
 70
     6
  9
$SURFU
 70
     6
  9
$SURFV
 70
     6
  9
$UCSBASE
  2

  9
$UCSNAME
  2

  9
$UCSORG
 10
0.0
 20
0.0
 30
0.0
  9
$UCSXDIR
 10
1.0
 20
0.0
 30
0.0
  9
$UCSYDIR
 10
0.0
 20
1.0
 30
0.0
  9
$UCSORTHOREF
  2

  9
$UCSORTHOVIEW
 70
     0
  9
$UCSORGTOP
 10
0.0
 20
0.0
 30
0.0
  9
$UCSORGBOTTOM
 10
0.0
 20
0.0
 30
0.0
  9
$UCSORGLEFT
 10
0.0
 20
0.0
 30
0.0
  9
$UCSORGRIGHT
 10
0.0
 20
0.0
 30
0.0
  9
$UCSORGFRONT
 10
0.0
 20
0.0
 30
0.0
  9
$UCSORGBACK
 10
0.0
 20
0.0
 30
0.0
  9
$PUCSBASE
  2

  9
$PUCSNAME
  2

  9
$PUCSORG
 10
0.0
 20
0.0
 30
0.0
  9
$PUCSXDIR
 10
1.0
 20
0.0
 30
0.0
  9
$PUCSYDIR
 10
0.0
 20
1.0
 30
0.0
  9
$PUCSORTHOREF
  2

  9
$PUCSORTHOVIEW
 70
     0
  9
$PUCSORGTOP
 10
0.0
 20
0.0
 30
0.0
  9
$PUCSORGBOTTOM
 10
0.0
 20
0.0
 30
0.0
  9
$PUCSORGLEFT
 10
0.0
 20
0.0
 30
0.0
  9
$PUCSORGRIGHT
 10
0.0
 20
0.0
 30
0.0
  9
$PUCSORGFRONT
 10
0.0
 20
0.0
 30
0.0
  9
$PUCSORGBACK
 10
0.0
 20
0.0
 30
0.0
  9
$USERI1
 70
     0
  9
$USERI2
 70
     0
  9
$USERI3
 70
     0
  9
$USERI4
 70
     0
  9
$USERI5
 70
     0
  9
$USERR1
 40
0.0
  9
$USERR2
 40
0.0
  9
$USERR3
 40
0.0
  9
$USERR4
 40
0.0
  9
$USERR5
 40
0.0
  9
$WORLDVIEW
 70
     1
  9
$SHADEDGE
 70
     3
  9
$SHADEDIF
 70
    70
  9
$TILEMODE
 70
     1
  9
$MAXACTVP
 70
    64
  9
$PINSBASE
 10
0.0
 20
0.0
 30
0.0
  9
$PLIMCHECK
 70
     0
  9
$PEXTMIN
 10
1.000000000000000E+20
 20
1.000000000000000E+20
 30
1.000000000000000E+20
  9
$PEXTMAX
 10
-1.000000000000000E+20
 20
-1.000000000000000E+20
 30
-1.000000000000000E+20
  9
$PLIMMIN
 10
0.0
 20
0.0
  9
$PLIMMAX
 10
12.0
 20
9.0
  9
$UNITMODE
 70
     0
  9
$VISRETAIN
 70
     1
  9
$PLINEGEN
 70
     0
  9
$PSLTSCALE
 70
     1
  9
$TREEDEPTH
 70
  3020
  9
$CMLSTYLE
  2
Standard
  9
$CMLJUST
 70
     0
  9
$CMLSCALE
 40
1.0
  9
$PROXYGRAPHICS
 70
     1
  9
$MEASUREMENT
 70
     0
  9
$CELWEIGHT
370
    -1
  9
$ENDCAPS
280
     0
  9
$JOINSTYLE
280
     0
  9
$LWDISPLAY
290
     0
  9
$INSUNITS
 70
     1
  9
$HYPERLINKBASE
  1

  9
$STYLESHEET
  1

  9
$XEDIT
290
     1
  9
$CEPSNTYPE
380
     0
  9
$PSTYLEMODE
290
     1
  9
$FINGERPRINTGUID
  2
{BB3EC937-9698-4E5C-B42E-F391DE163BF6}
  9
$VERSIONGUID
  2
{26D78156-5FA9-4462-A62E-08C6582269F0}
  9
$EXTNAMES
290
     1
  9
$PSVPSCALE
 40
0.0
  9
$OLESTARTUP
290
     0
  9
$SORTENTS
280
   127
  9
$INDEXCTL
280
     0
  9
$HIDETEXT
280
     0
  9
$XCLIPFRAME
290
     0
  9
$HALOGAP
280
     0
  9
$OBSCOLOR
 70
   257
  9
$OBSLTYPE
280
     0
  9
$INTERSECTIONDISPLAY
280
     0
  9
$INTERSECTIONCOLOR
 70
   257
  9
$DIMASSOC
280
     1
  9
$PROJECTNAME
  1

  9
$CAMERADISPLAY
290
     0
  9
$LENSLENGTH
 40
50.0
  9
$CAMERAHEIGHT
 40
0.0
  9
$STEPSPERSEC
 40
2.0
  9
$STEPSIZE
 40
6.0
  9
$3DDWFPREC
 40
2.0
  9
$PSOLWIDTH
 40
0.25
  9
$PSOLHEIGHT
 40
4.0
  9
$LOFTANG1
 40
1.570796326794896
  9
$LOFTANG2
 40
1.570796326794896
  9
$LOFTMAG1
 40
0.0
  9
$LOFTMAG2
 40
0.0
  9
$LOFTPARAM
 70
     7
  9
$LOFTNORMALS
280
     1
  9
$LATITUDE
 40
37.795
  9
$LONGITUDE
 40
-122.394
  9
$NORTHDIRECTION
 40
0.0
  9
$TIMEZONE
 70
 -8000
  9
$LIGHTGLYPHDISPLAY
280
     1
  9
$TILEMODELIGHTSYNCH
280
     1
  9
$CMATERIAL
347
177B
  9
$SOLIDHIST
280
     1
  9
$SHOWHIST
280
     1
  9
$DWFFRAME
280
     2
  9
$DGNFRAME
280
     0
  9
$REALWORLDSCALE
290
     1
  9
$INTERFERECOLOR
 62
     1
  9
$INTERFEREOBJVS
345
179D
  9
$INTERFEREVPVS
346
179A
  9
$CSHADOW
280
     0
  9
$SHADOWPLANELOCATION
 40
0.0
  0
ENDSEC
  0
SECTION
  2
CLASSES
  0
CLASS
  1
ACDBDICTIONARYWDFLT
  2
AcDbDictionaryWithDefault
  3
ObjectDBX Classes
 90
        0
 91
        1
280
     0
281
     0
  0
CLASS
  1
MATERIAL
  2
AcDbMaterial
  3
ObjectDBX Classes
 90
     1153
 91
        3
280
     0
281
     0
  0
CLASS
  1
VISUALSTYLE
  2
AcDbVisualStyle
  3
ObjectDBX Classes
 90
     4095
 91
       19
280
     0
281
     0
  0
CLASS
  1
TABLESTYLE
  2
AcDbTableStyle
  3
ObjectDBX Classes
 90
     4095
 91
        1
280
     0
281
     0
  0
CLASS
  1
SCALE
  2
AcDbScale
  3
ObjectDBX Classes
 90
     1153
 91
       33
280
     0
281
     0
  0
CLASS
  1
MLEADERSTYLE
  2
AcDbMLeaderStyle
  3
ACDB_MLEADERSTYLE_CLASS
 90
     4095
 91
        1
280
     0
281
     0
  0
CLASS
  1
CELLSTYLEMAP
  2
AcDbCellStyleMap
  3
ObjectDBX Classes
 90
     1152
 91
        4
280
     0
281
     0
  0
CLASS
  1
DICTIONARYVAR
  2
AcDbDictionaryVar
  3
ObjectDBX Classes
 90
        0
 91
       19
280
     0
281
     0
  0
ENDSEC
  0
SECTION
  2
TABLES
  0
TABLE
  2
VPORT
  5
8
102
{ACAD_XDICTIONARY
360
17D3
102
}
330
0
100
AcDbSymbolTable
 70
     1
  0
VPORT
  5
1F4
330
8
100
AcDbSymbolTableRecord
100
AcDbViewportTableRecord
  2
*ACTIVE
 70
     0
 10
0.0
 20
0.0
 11
1.0
 21
1.0
 12
51.76367225190106
 22
27.24129255430462
 13
0.0
 23
0.0
 14
1.0
 24
1.0
 15
0.0
 25
0.0
 16
0.0
 26
0.0
 36
1.0
 17
0.0
 27
0.0
 37
0.0
 40
29.97443546721887
 41
2.41111111111111
 42
50.0
 43
0.0
 44
0.0
 50
0.0
 51
0.0
 71
     0
 72
   100
 73
     1
 74
     1
 75
     0
 76
     0
 77
     0
 78
     0
281
     0
 65
     1
110
0.0
120
0.0
130
0.0
111
1.0
121
0.0
131
0.0
112
0.0
122
1.0
132
0.0
 79
     0
146
0.0
348
1799
 60
     3
 61
     5
292
     1
282
     1
141
0.0
142
0.0
 63
   250
421
  3355443
  0
ENDTAB
  0
TABLE
  2
LTYPE
  5
5
330
0
100
AcDbSymbolTable
 70
     6
  0
LTYPE
  5
14
330
5
100
AcDbSymbolTableRecord
100
AcDbLinetypeTableRecord
  2
BYBLOCK
 70
     0
  3

 72
    65
 73
     0
 40
0.0
  0
LTYPE
  5
15
330
5
100
AcDbSymbolTableRecord
100
AcDbLinetypeTableRecord
  2
BYLAYER
 70
     0
  3

 72
    65
 73
     0
 40
0.0
  0
LTYPE
  5
16
330
5
100
AcDbSymbolTableRecord
100
AcDbLinetypeTableRecord
  2
CONTINUOUS
 70
     0
  3
Solid line
 72
    65
 73
     0
 40
0.0
  0
LTYPE
  5
1F5
330
5
100
AcDbSymbolTableRecord
100
AcDbLinetypeTableRecord
  2
CENTER
 70
     0
  3
____ _ ____ _ ____ _ ____ _ ____ _ ____ _ ____
 72
    65
 73
     4
 40
0.6
 49
0.375
 74
     0
 49
-0.075
 74
     0
 49
0.075
 74
     0
 49
-0.075
 74
     0
  0
LTYPE
  5
1F6
330
5
100
AcDbSymbolTableRecord
100
AcDbLinetypeTableRecord
  2
HIDDEN
 70
     0
  3
- - - - - - - - - - - - - - - - - - - -
 72
    65
 73
     2
 40
0.2
 49
0.1
 74
     0
 49
-0.1
 74
     0
  0
LTYPE
  5
1F7
330
5
100
AcDbSymbolTableRecord
100
AcDbLinetypeTableRecord
  2
PHANTOM
 70
     0
  3
_____ _ _ _____ _ _ _____ _ _ _____
 72
    65
 73
     6
 40
0.8
 49
0.45
 74
     0
 49
-0.05
 74
     0
 49
0.1
 74
     0
 49
-0.05
 74
     0
 49
0.1
 74
     0
 49
-0.05
 74
     0
  0
LTYPE
  5
1F8
330
5
100
AcDbSymbolTableRecord
100
AcDbLinetypeTableRecord
  2
DOT
 70
     0
  3
. . . . . . . . . . . . . . . . . . . .
 72
    65
 73
     2
 40
0.2
 49
0.1
 74
     0
 49
-0.1
 74
     0
  0
LTYPE
  5
1F9
330
5
100
AcDbSymbolTableRecord
100
AcDbLinetypeTableRecord
  2
DASHED
 70
     0
  3
- - - - - - - - - - - - - - - - - - - -
 72
    65
 73
     2
 40
0.2
 49
0.1
 74
     0
 49
-0.1
 74
     0
  0
ENDTAB
  0
TABLE
  2
LAYER
  5
2
330
0
100
AcDbSymbolTable
 70
    25
  0
LAYER
  5
10
102
{ACAD_XDICTIONARY
360
1813
102
}
330
2
100
AcDbSymbolTableRecord
100
AcDbLayerTableRecord
  2
0
 70
     0
 62
     7
  6
CONTINUOUS
370
    -3
390
F
347
178B
  0
LAYER
  5
1FA
102
{ACAD_XDICTIONARY
360
1815
102
}
330
2
100
AcDbSymbolTableRecord
100
AcDbLayerTableRecord
  2
DEFAULT_1
 70
     0
 62
     7
  6
CENTER
370
    -3
390
F
347
178B
  0
LAYER
  5
1FB
102
{ACAD_XDICTIONARY
360
1817
102
}
330
2
100
AcDbSymbolTableRecord
100
AcDbLayerTableRecord
  2
DEFAULT_2
 70
     0
 62
     7
  6
HIDDEN
370
    -3
390
F
347
178B
  0
LAYER
  5
1FC
102
{ACAD_XDICTIONARY
360
1819
102
}
330
2
100
AcDbSymbolTableRecord
100
AcDbLayerTableRecord
  2
DEFAULT_3
 70
     0
 62
     7
  6
PHANTOM
370
    -3
390
F
347
178B
  0
LAYER
  5
1FD
102
{ACAD_XDICTIONARY
360
181B
102
}
330
2
100
AcDbSymbolTableRecord
100
AcDbLayerTableRecord
  2
1_CURVES
 70
     0
 62
     7
  6
CONTINUOUS
370
    -3
390
F
347
178B
  0
LAYER
  5
1FE
102
{ACAD_XDICTIONARY
360
181D
102
}
330
2
100
AcDbSymbolTableRecord
100
AcDbLayerTableRecord
  2
1_CURVES_JETS
 70
     0
 62
     7
  6
CONTINUOUS
370
    -3
390
F
347
178B
  0
LAYER
  5
1FF
102
{ACAD_XDICTIONARY
360
181F
102
}
330
2
100
AcDbSymbolTableRecord
100
AcDbLayerTableRecord
  2
1_CURVES_SPEC_DROP_IN
 70
     0
 62
     7
  6
CONTINUOUS
370
    -3
390
F
347
178B
  0
LAYER
  5
200
102
{ACAD_XDICTIONARY
360
1821
102
}
330
2
100
AcDbSymbolTableRecord
100
AcDbLayerTableRecord
  2
1_CURVES_SPEC_FS
 70
     0
 62
     7
  6
CONTINUOUS
370
    -3
390
F
347
178B
  0
LAYER
  5
201
102
{ACAD_XDICTIONARY
360
1823
102
}
330
2
100
AcDbSymbolTableRecord
100
AcDbLayerTableRecord
  2
2_PLANES
 70
     0
 62
     7
  6
CONTINUOUS
370
    -3
390
F
347
178B
  0
LAYER
  5
202
102
{ACAD_XDICTIONARY
360
1825
102
}
330
2
100
AcDbSymbolTableRecord
100
AcDbLayerTableRecord
  2
2_PLANES_JETS
 70
     0
 62
     7
  6
CONTINUOUS
370
    -3
390
F
347
178B
  0
LAYER
  5
203
102
{ACAD_XDICTIONARY
360
1827
102
}
330
2
100
AcDbSymbolTableRecord
100
AcDbLayerTableRecord
  2
3_POINTS
 70
     0
 62
     7
  6
CONTINUOUS
370
    -3
390
F
347
178B
  0
LAYER
  5
204
102
{ACAD_XDICTIONARY
360
1829
102
}
330
2
100
AcDbSymbolTableRecord
100
AcDbLayerTableRecord
  2
3_POINTS_JETS
 70
     0
 62
     7
  6
CONTINUOUS
370
    -3
390
F
347
178B
  0
LAYER
  5
205
102
{ACAD_XDICTIONARY
360
182B
102
}
330
2
100
AcDbSymbolTableRecord
100
AcDbLayerTableRecord
  2
4_CSYS
 70
     0
 62
     7
  6
CONTINUOUS
370
    -3
390
F
347
178B
  0
LAYER
  5
206
102
{ACAD_XDICTIONARY
360
182D
102
}
330
2
100
AcDbSymbolTableRecord
100
AcDbLayerTableRecord
  2
5_AXIS
 70
     0
 62
     7
  6
CONTINUOUS
370
    -3
390
F
347
178B
  0
LAYER
  5
207
102
{ACAD_XDICTIONARY
360
182F
102
}
330
2
100
AcDbSymbolTableRecord
100
AcDbLayerTableRecord
  2
5_AXIS_JETS
 70
     0
 62
     7
  6
CONTINUOUS
370
    -3
390
F
347
178B
  0
LAYER
  5
208
102
{ACAD_XDICTIONARY
360
1831
102
}
330
2
100
AcDbSymbolTableRecord
100
AcDbLayerTableRecord
  2
5_POINTS
 70
     0
 62
     7
  6
CONTINUOUS
370
    -3
390
F
347
178B
  0
LAYER
  5
209
102
{ACAD_XDICTIONARY
360
1833
102
}
330
2
100
AcDbSymbolTableRecord
100
AcDbLayerTableRecord
  2
6_SURFACES
 70
     0
 62
     7
  6
CONTINUOUS
370
    -3
390
F
347
178B
  0
LAYER
  5
20A
102
{ACAD_XDICTIONARY
360
1835
102
}
330
2
100
AcDbSymbolTableRecord
100
AcDbLayerTableRecord
  2
6_SURFACES_DROP_IN
 70
     0
 62
     7
  6
CONTINUOUS
370
    -3
390
F
347
178B
  0
LAYER
  5
20B
102
{ACAD_XDICTIONARY
360
1837
102
}
330
2
100
AcDbSymbolTableRecord
100
AcDbLayerTableRecord
  2
6_SURFACES_FIBRE_ACRYLIQUE
 70
     0
 62
     7
  6
CONTINUOUS
370
    -3
390
F
347
178B
  0
LAYER
  5
20C
102
{ACAD_XDICTIONARY
360
1839
102
}
330
2
100
AcDbSymbolTableRecord
100
AcDbLayerTableRecord
  2
6_SURFACES_FS
 70
     0
 62
     7
  6
CONTINUOUS
370
    -3
390
F
347
178B
  0
LAYER
  5
20D
102
{ACAD_XDICTIONARY
360
183B
102
}
330
2
100
AcDbSymbolTableRecord
100
AcDbLayerTableRecord
  2
6_SURFACES_PATINS_SPECS
 70
     0
 62
     7
  6
CONTINUOUS
370
    -3
390
F
347
178B
  0
LAYER
  5
20E
102
{ACAD_XDICTIONARY
360
183D
102
}
330
2
100
AcDbSymbolTableRecord
100
AcDbLayerTableRecord
  2
6_SURFACES_TOOLING_DROP_IN
 70
     0
 62
     7
  6
CONTINUOUS
370
    -3
390
F
347
178B
  0
LAYER
  5
20F
102
{ACAD_XDICTIONARY
360
183F
102
}
330
2
100
AcDbSymbolTableRecord
100
AcDbLayerTableRecord
  2
6_SURFACES_TOOLING_FS
 70
     0
 62
     7
  6
CONTINUOUS
370
    -3
390
F
347
178B
  0
LAYER
  5
210
102
{ACAD_XDICTIONARY
360
1841
102
}
330
2
100
AcDbSymbolTableRecord
100
AcDbLayerTableRecord
  2
7_NOTES
 70
     0
 62
     7
  6
CONTINUOUS
370
    -3
390
F
347
178B
  0
LAYER
  5
211
102
{ACAD_XDICTIONARY
360
1843
102
}
330
2
100
AcDbSymbolTableRecord
100
AcDbLayerTableRecord
  2
XSEC_DATUMS
 70
     0
 62
     7
  6
CONTINUOUS
370
    -3
390
F
347
178B
  0
ENDTAB
  0
TABLE
  2
STYLE
  5
3
330
0
100
AcDbSymbolTable
 70
     8
  0
STYLE
  5
11
330
3
100
AcDbSymbolTableRecord
100
AcDbTextStyleTableRecord
  2
STANDARD
 70
     0
 40
0.0
 41
0.8
 50
0.0
 71
     0
 42
0.2
  3
txt
  4

  0
STYLE
  5
212
330
3
100
AcDbSymbolTableRecord
100
AcDbTextStyleTableRecord
  2
TEXTSTYLE_1
 70
     0
 40
0.0
 41
0.8
 50
0.0
 71
     0
 42
0.2
  3
gdt
  4

  0
STYLE
  5
213
330
3
100
AcDbSymbolTableRecord
100
AcDbTextStyleTableRecord
  2
TEXTSTYLE_2
 70
     0
 40
0.0
 41
1.0
 50
0.0
 71
     0
 42
0.2
  3
trium.ttf
  4

  0
STYLE
  5
214
330
3
100
AcDbSymbolTableRecord
100
AcDbTextStyleTableRecord
  2
TEXTSTYLE_3
 70
     0
 40
0.0
 41
1.0
 50
0.0
 71
     0
 42
0.2
  3
trium.ttf
  4

  0
STYLE
  5
215
330
3
100
AcDbSymbolTableRecord
100
AcDbTextStyleTableRecord
  2
TEXTSTYLE_4
 70
     0
 40
0.0
 41
1.0
 50
0.0
 71
     0
 42
0.2
  3
txt_____.ttf
  4

1001
ACAD
1000
txt
1071
        2
  0
STYLE
  5
216
330
3
100
AcDbSymbolTableRecord
100
AcDbTextStyleTableRecord
  2
TEXTSTYLE_5
 70
     0
 40
0.0
 41
1.0
 50
0.0
 71
     0
 42
0.2
  3
txt_____.ttf
  4

1001
ACAD
1000
txt
1071
        2
  0
STYLE
  5
217
330
3
100
AcDbSymbolTableRecord
100
AcDbTextStyleTableRecord
  2
TEXTSTYLE_6
 70
     0
 40
0.0
 41
1.0
 50
0.0
 71
     0
 42
0.2
  3
trium.ttf
  4

  0
STYLE
  5
218
330
3
100
AcDbSymbolTableRecord
100
AcDbTextStyleTableRecord
  2
TEXTSTYLE_7
 70
     0
 40
0.0
 41
0.8
 50
0.0
 71
     0
 42
0.2
  3
txt_____.ttf
  4

1001
ACAD
1000
txt
1071
        2
  0
ENDTAB
  0
TABLE
  2
VIEW
  5
6
330
0
100
AcDbSymbolTable
 70
     0
  0
ENDTAB
  0
TABLE
  2
UCS
  5
7
330
0
100
AcDbSymbolTable
 70
     0
  0
ENDTAB
  0
TABLE
  2
APPID
  5
9
330
0
100
AcDbSymbolTable
 70
     2
  0
APPID
  5
219
330
9
100
AcDbSymbolTableRecord
100
AcDbRegAppTableRecord
  2
ACAD
 70
     0
  0
APPID
  5
1803
330
9
100
AcDbSymbolTableRecord
100
AcDbRegAppTableRecord
  2
ACAD_MLEADERVER
 70
     0
  0
ENDTAB
  0
TABLE
  2
DIMSTYLE
  5
A
330
0
100
AcDbSymbolTable
 70
     6
100
AcDbDimStyleTable
 71
     0
  0
DIMSTYLE
105
236
330
A
100
AcDbSymbolTableRecord
100
AcDbDimStyleTableRecord
  2
STANDARD
 70
     0
 41
2.0
 44
0.125
 47
0.00001
 48
0.00001
 71
     1
 78
     4
140
1.333333333299999
271
     5
272
     5
284
     4
340
11
341
21C
342
21C
343
21C
344
21C
  0
DIMSTYLE
105
237
330
A
100
AcDbSymbolTableRecord
100
AcDbDimStyleTableRecord
  2
DIMSTYLE_1
 70
     0
 41
2.0
 44
0.125
 47
0.00001
 48
0.00001
 78
     4
140
1.333333333299999
147
0.0625
284
     4
340
11
341
21C
342
21C
343
21C
344
21C
  0
DIMSTYLE
105
238
330
A
100
AcDbSymbolTableRecord
100
AcDbDimStyleTableRecord
  2
DIMSTYLE_2
 70
     0
 41
2.0
 44
0.125
 47
0.00001
 48
0.00001
 78
     4
140
1.333333333299999
147
0.0625
271
     3
272
     3
284
     4
340
11
341
21C
342
21C
343
21C
344
21C
  0
DIMSTYLE
105
239
330
A
100
AcDbSymbolTableRecord
100
AcDbDimStyleTableRecord
  2
DIMSTYLE_3
 70
     0
 41
2.0
 44
0.125
 47
1.0
 48
1.0
 78
     4
140
1.333333333299999
271
     0
272
     0
284
     4
340
11
341
21C
342
21C
343
21C
344
21C
  0
DIMSTYLE
105
23A
330
A
100
AcDbSymbolTableRecord
100
AcDbDimStyleTableRecord
  2
DIMSTYLE_4
 70
     0
 41
2.0
 44
0.125
 47
0.00001
 48
0.00001
 78
     4
140
1.333333333299999
147
0.0625
271
     6
272
     6
284
     4
340
11
341
21C
342
21C
343
21C
344
21C
  0
DIMSTYLE
105
23B
330
A
100
AcDbSymbolTableRecord
100
AcDbDimStyleTableRecord
  2
DIMSTYLE_5
 70
     0
 41
2.0
 44
0.125
 47
0.5
 48
0.5
 78
     4
140
1.333333333299999
271
     0
272
     0
284
     4
340
11
341
21C
342
21C
343
21C
344
21C
  0
ENDTAB
  0
TABLE
  2
BLOCK_RECORD
  5
1
330
0
100
AcDbSymbolTable
 70
    26
  0
BLOCK_RECORD
  5
21A
330
1
100
AcDbSymbolTableRecord
100
AcDbBlockTableRecord
  2
*Model_Space
340
1775
 70
     0
280
     1
281
     0
  0
BLOCK_RECORD
  5
21B
330
1
100
AcDbSymbolTableRecord
100
AcDbBlockTableRecord
  2
*Paper_Space
340
1776
 70
     0
280
     1
281
     0
  0
BLOCK_RECORD
  5
21C
330
1
100
AcDbSymbolTableRecord
100
AcDbBlockTableRecord
  2
_FILLED
340
0
102
{BLKREFS
331
324
331
325
331
32D
331
32E
331
336
331
337
331
33F
331
340
331
348
331
349
331
352
331
353
331
35C
331
35D
331
365
331
366
331
36F
331
370
331
378
331
379
331
381
331
382
331
38A
331
38B
331
393
331
394
331
3A5
331
3A6
331
3AE
331
3AF
102
}
 70
     0
280
     1
281
     0
  0
BLOCK_RECORD
  5
21D
330
1
100
AcDbSymbolTableRecord
100
AcDbBlockTableRecord
  2
*D1
340
0
 70
     0
280
     1
281
     0
  0
BLOCK_RECORD
  5
21E
330
1
100
AcDbSymbolTableRecord
100
AcDbBlockTableRecord
  2
*D2
340
0
 70
     0
280
     1
281
     0
  0
BLOCK_RECORD
  5
21F
330
1
100
AcDbSymbolTableRecord
100
AcDbBlockTableRecord
  2
*D3
340
0
 70
     0
280
     1
281
     0
  0
BLOCK_RECORD
  5
220
330
1
100
AcDbSymbolTableRecord
100
AcDbBlockTableRecord
  2
*D4
340
0
 70
     0
280
     1
281
     0
  0
BLOCK_RECORD
  5
221
330
1
100
AcDbSymbolTableRecord
100
AcDbBlockTableRecord
  2
*D5
340
0
 70
     0
280
     1
281
     0
  0
BLOCK_RECORD
  5
222
330
1
100
AcDbSymbolTableRecord
100
AcDbBlockTableRecord
  2
*D6
340
0
 70
     0
280
     1
281
     0
  0
BLOCK_RECORD
  5
223
330
1
100
AcDbSymbolTableRecord
100
AcDbBlockTableRecord
  2
*D7
340
0
 70
     0
280
     1
281
     0
  0
BLOCK_RECORD
  5
224
330
1
100
AcDbSymbolTableRecord
100
AcDbBlockTableRecord
  2
*D8
340
0
 70
     0
280
     1
281
     0
  0
BLOCK_RECORD
  5
225
330
1
100
AcDbSymbolTableRecord
100
AcDbBlockTableRecord
  2
*D9
340
0
 70
     0
280
     1
281
     0
  0
BLOCK_RECORD
  5
226
330
1
100
AcDbSymbolTableRecord
100
AcDbBlockTableRecord
  2
*D10
340
0
 70
     0
280
     1
281
     0
  0
BLOCK_RECORD
  5
227
330
1
100
AcDbSymbolTableRecord
100
AcDbBlockTableRecord
  2
*D11
340
0
 70
     0
280
     1
281
     0
  0
BLOCK_RECORD
  5
228
330
1
100
AcDbSymbolTableRecord
100
AcDbBlockTableRecord
  2
*D12
340
0
 70
     0
280
     1
281
     0
  0
BLOCK_RECORD
  5
229
330
1
100
AcDbSymbolTableRecord
100
AcDbBlockTableRecord
  2
*D13
340
0
 70
     0
280
     1
281
     0
  0
BLOCK_RECORD
  5
22A
330
1
100
AcDbSymbolTableRecord
100
AcDbBlockTableRecord
  2
*D14
340
0
 70
     0
280
     1
281
     0
  0
BLOCK_RECORD
  5
22B
330
1
100
AcDbSymbolTableRecord
100
AcDbBlockTableRecord
  2
*D15
340
0
 70
     0
280
     1
281
     0
  0
BLOCK_RECORD
  5
22C
330
1
100
AcDbSymbolTableRecord
100
AcDbBlockTableRecord
  2
*D16
340
0
 70
     0
280
     1
281
     0
  0
BLOCK_RECORD
  5
22D
330
1
100
AcDbSymbolTableRecord
100
AcDbBlockTableRecord
  2
*D17
340
0
 70
     0
280
     1
281
     0
  0
BLOCK_RECORD
  5
22E
330
1
100
AcDbSymbolTableRecord
100
AcDbBlockTableRecord
  2
*D18
340
0
 70
     0
280
     1
281
     0
  0
BLOCK_RECORD
  5
22F
330
1
100
AcDbSymbolTableRecord
100
AcDbBlockTableRecord
  2
*D19
340
0
 70
     0
280
     1
281
     0
  0
BLOCK_RECORD
  5
230
330
1
100
AcDbSymbolTableRecord
100
AcDbBlockTableRecord
  2
SYMBOL_11_BL5
340
0
 70
     0
280
     1
281
     0
  0
BLOCK_RECORD
  5
231
330
1
100
AcDbSymbolTableRecord
100
AcDbBlockTableRecord
  2
SYMBOL_9_BL4
340
0
 70
     0
280
     1
281
     0
  0
BLOCK_RECORD
  5
232
330
1
100
AcDbSymbolTableRecord
100
AcDbBlockTableRecord
  2
SYMBOL_7_BL3
340
0
 70
     0
280
     1
281
     0
  0
BLOCK_RECORD
  5
233
330
1
100
AcDbSymbolTableRecord
100
AcDbBlockTableRecord
  2
SYMBOL_6_BL2
340
0
 70
     0
280
     1
281
     0
  0
BLOCK_RECORD
  5
234
330
1
100
AcDbSymbolTableRecord
100
AcDbBlockTableRecord
  2
SYMBOL_3_BL1
340
0
 70
     0
280
     1
281
     0
  0
BLOCK_RECORD
  5
235
330
1
100
AcDbSymbolTableRecord
100
AcDbBlockTableRecord
  2
SYMBOL_0_BL0
340
0
 70
     0
280
     1
281
     0
  0
ENDTAB
  0
ENDSEC
  0
SECTION
  2
BLOCKS
  0
BLOCK
  5
20
330
21A
100
AcDbEntity
  8
0
100
AcDbBlockBegin
  2
*Model_Space
 70
     0
 10
0.0
 20
0.0
 30
0.0
  3
*Model_Space
  1

  0
ENDBLK
  5
21
330
21A
100
AcDbEntity
  8
0
100
AcDbBlockEnd
  0
BLOCK
  5
1C
330
21B
100
AcDbEntity
 67
     1
  8
0
100
AcDbBlockBegin
  2
*Paper_Space
 70
     0
 10
0.0
 20
0.0
 30
0.0
  3
*Paper_Space
  1

  0
ENDBLK
  5
1D
330
21B
100
AcDbEntity
 67
     1
  8
0
100
AcDbBlockEnd
  0
BLOCK
  5
31B
330
21C
100
AcDbEntity
  8
0
100
AcDbBlockBegin
  2
_FILLED
 70
     0
 10
0.0
 20
0.0
 30
0.0
  3
_FILLED
  1

  0
SOLID
  5
31C
330
21C
100
AcDbEntity
  8
0
  6
ByBlock
 62
     0
100
AcDbTrace
 10
0.0
 20
0.0
 30
0.0
 11
-1.0
 21
0.1666666667
 31
0.0
 12
-1.0
 22
-0.1666666667
 32
0.0
 13
-1.0
 23
-0.1666666667
 33
0.0
  0
ENDBLK
  5
31D
330
21C
100
AcDbEntity
  8
0
  6
ByBlock
 62
     0
100
AcDbBlockEnd
  0
BLOCK
  5
31E
330
21D
100
AcDbEntity
  8
0
  6
Continuous
 62
     7
100
AcDbBlockBegin
  2
*D1
 70
     1
 10
0.0
 20
0.0
 30
0.0
  3
*D1
  1

  0
MTEXT
  5
31F
330
21D
100
AcDbEntity
  8
0
  6
Continuous
 62
     7
100
AcDbMText
 10
93.8602735469
 20
78.25039223420001
 30
0.0
 40
1.333333333299999
 41
6.4
 46
0.0
 71
     2
 72
     1
  1
23-1/8\P[59]
 73
     1
 44
0.9
  0
LINE
  5
320
330
21D
100
AcDbEntity
  8
0
  6
Continuous
 62
     7
100
AcDbLine
 10
84.15428414999999
 20
89.14210068290001
 30
0.0
 11
95.19360688030001
 21
89.14210068290001
 31
0.0
  0
LINE
  5
321
330
21D
100
AcDbEntity
  8
0
  6
Continuous
 62
     7
100
AcDbLine
 10
84.26195081659999
 20
66.0253504522
 30
0.0
 11
95.19360688030001
 21
66.0253504522
 31
0.0
  0
LINE
  5
322
330
21D
100
AcDbEntity
  8
0
  6
Continuous
 62
     7
100
AcDbLine
 10
93.8602735469
 20
89.14210068290001
 30
0.0
 11
93.8602735469
 21
78.9170589009
 31
0.0
  0
LINE
  5
323
330
21D
100
AcDbEntity
  8
0
  6
Continuous
 62
     7
100
AcDbLine
 10
93.8602735469
 20
66.0253504522
 30
0.0
 11
93.8602735469
 21
74.2503922342
 31
0.0
  0
INSERT
  5
324
330
21D
100
AcDbEntity
  8
0
  6
Continuous
 62
     7
100
AcDbBlockReference
  2
_FILLED
 10
93.8602735469
 20
89.14210068290001
 30
0.0
 41
2.0
 42
2.0
 43
2.0
 50
90.0
  0
INSERT
  5
325
330
21D
100
AcDbEntity
  8
0
  6
Continuous
 62
     7
100
AcDbBlockReference
  2
_FILLED
 10
93.8602735469
 20
66.0253504522
 30
0.0
 41
2.0
 42
2.0
 43
2.0
 50
270.0
  0
ENDBLK
  5
326
330
21D
100
AcDbEntity
  8
0
  6
ByBlock
 62
     0
100
AcDbBlockEnd
  0
BLOCK
  5
327
330
21E
100
AcDbEntity
  8
0
  6
Continuous
 62
     7
100
AcDbBlockBegin
  2
*D2
 70
     1
 10
0.0
 20
0.0
 30
0.0
  3
*D2
  1

  0
MTEXT
  5
328
330
21E
100
AcDbEntity
  8
0
  6
Continuous
 62
     7
100
AcDbMText
 10
50.1656174833
 20
107.4103805207
 30
0.0
 40
1.333333333299999
 41
5.333333333299999
 46
0.0
 71
     2
 72
     1
  1
72\P[183]
 73
     1
 44
0.9
  0
LINE
  5
329
330
21E
100
AcDbEntity
  8
0
  6
Continuous
 62
     7
100
AcDbLine
 10
87.76561748330001
 20
78.25039223420001
 30
0.0
 11
87.76561748330001
 21
108.0770471874
 31
0.0
  0
LINE
  5
32A
330
21E
100
AcDbEntity
  8
0
  6
Continuous
 62
     7
100
AcDbLine
 10
15.7656174833
 20
78.25039223420001
 30
0.0
 11
15.7656174833
 21
108.0770471874
 31
0.0
  0
LINE
  5
32B
330
21E
100
AcDbEntity
  8
0
  6
Continuous
 62
     7
100
AcDbLine
 10
87.76561748330001
 20
106.7437138541
 30
0.0
 11
55.09895081659999
 21
106.7437138541
 31
0.0
  0
LINE
  5
32C
330
21E
100
AcDbEntity
  8
0
  6
Continuous
 62
     7
100
AcDbLine
 10
15.7656174833
 20
106.7437138541
 30
0.0
 11
48.43228415
 21
106.7437138541
 31
0.0
  0
INSERT
  5
32D
330
21E
100
AcDbEntity
  8
0
  6
Continuous
 62
     7
100
AcDbBlockReference
  2
_FILLED
 10
87.76561748330001
 20
106.7437138541
 30
0.0
 41
2.0
 42
2.0
 43
2.0
  0
INSERT
  5
32E
330
21E
100
AcDbEntity
  8
0
  6
Continuous
 62
     7
100
AcDbBlockReference
  2
_FILLED
 10
15.7656174833
 20
106.7437138541
 30
0.0
 41
2.0
 42
2.0
 43
2.0
 50
180.0
  0
ENDBLK
  5
32F
330
21E
100
AcDbEntity
  8
0
  6
ByBlock
 62
     0
100
AcDbBlockEnd
  0
BLOCK
  5
330
330
21F
100
AcDbEntity
  8
0
  6
Continuous
 62
     7
100
AcDbBlockBegin
  2
*D3
 70
     1
 10
0.0
 20
0.0
 30
0.0
  3
*D3
  1

  0
MTEXT
  5
331
330
21F
100
AcDbEntity
  8
0
  6
Continuous
 62
     7
100
AcDbMText
 10
50.14634801109999
 20
102.5110230109
 30
0.0
 40
1.333333333299999
 41
6.4
 46
0.0
 71
     2
 72
     1
  1
44-1/4\P[112]
 73
     1
 44
0.9
  0
LINE
  5
332
330
21F
100
AcDbEntity
  8
0
  6
Continuous
 62
     7
100
AcDbLine
 10
72.2803139035
 20
78.25039223420001
 30
0.0
 11
72.2803139035
 21
103.1776896776
 31
0.0
  0
LINE
  5
333
330
21F
100
AcDbEntity
  8
0
  6
Continuous
 62
     7
100
AcDbLine
 10
28.0123821188
 20
79.75039223420001
 30
0.0
 11
28.0123821188
 21
103.1776896776
 31
0.0
  0
LINE
  5
334
330
21F
100
AcDbEntity
  8
0
  6
Continuous
 62
     7
100
AcDbLine
 10
72.2803139035
 20
101.8443563442
 30
0.0
 11
54.01301467779999
 21
101.8443563442
 31
0.0
  0
LINE
  5
335
330
21F
100
AcDbEntity
  8
0
  6
Continuous
 62
     7
100
AcDbLine
 10
28.0123821188
 20
101.8443563442
 30
0.0
 11
46.27968134439999
 21
101.8443563442
 31
0.0
  0
INSERT
  5
336
330
21F
100
AcDbEntity
  8
0
  6
Continuous
 62
     7
100
AcDbBlockReference
  2
_FILLED
 10
72.2803139035
 20
101.8443563442
 30
0.0
 41
2.0
 42
2.0
 43
2.0
  0
INSERT
  5
337
330
21F
100
AcDbEntity
  8
0
  6
Continuous
 62
     7
100
AcDbBlockReference
  2
_FILLED
 10
28.0123821188
 20
101.8443563442
 30
0.0
 41
2.0
 42
2.0
 43
2.0
 50
180.0
  0
ENDBLK
  5
338
330
21F
100
AcDbEntity
  8
0
  6
ByBlock
 62
     0
100
AcDbBlockEnd
  0
BLOCK
  5
339
330
220
100
AcDbEntity
  8
0
  6
Continuous
 62
     7
100
AcDbBlockBegin
  2
*D4
 70
     1
 10
0.0
 20
0.0
 30
0.0
  3
*D4
  1

  0
MTEXT
  5
33A
330
220
100
AcDbEntity
  8
0
  6
Continuous
 62
     7
100
AcDbMText
 10
26.0156174833
 20
56.69747260770001
 30
0.0
 40
1.333333333299999
 41
6.4
 46
0.0
 71
     2
 72
     1
  1
20-1/2\P[52]
 73
     1
 44
0.9
  0
LINE
  5
33B
330
220
100
AcDbEntity
  8
0
  6
Continuous
 62
     7
100
AcDbLine
 10
36.2656174833
 20
71.99537355229999
 30
0.0
 11
36.2656174833
 21
54.69747260770001
 31
0.0
  0
LINE
  5
33C
330
220
100
AcDbEntity
  8
0
  6
Continuous
 62
     7
100
AcDbLine
 10
15.7656174833
 20
76.9170589009
 30
0.0
 11
15.7656174833
 21
54.69747260770001
 31
0.0
  0
LINE
  5
33D
330
220
100
AcDbEntity
  8
0
  6
Continuous
 62
     7
100
AcDbLine
 10
36.2656174833
 20
56.030805941
 30
0.0
 11
29.88228415
 21
56.030805941
 31
0.0
  0
LINE
  5
33E
330
220
100
AcDbEntity
  8
0
  6
Continuous
 62
     7
100
AcDbLine
 10
15.7656174833
 20
56.030805941
 30
0.0
 11
22.1489508166
 21
56.030805941
 31
0.0
  0
INSERT
  5
33F
330
220
100
AcDbEntity
  8
0
  6
Continuous
 62
     7
100
AcDbBlockReference
  2
_FILLED
 10
36.2656174833
 20
56.030805941
 30
0.0
 41
2.0
 42
2.0
 43
2.0
  0
INSERT
  5
340
330
220
100
AcDbEntity
  8
0
  6
Continuous
 62
     7
100
AcDbBlockReference
  2
_FILLED
 10
15.7656174833
 20
56.030805941
 30
0.0
 41
2.0
 42
2.0
 43
2.0
 50
180.0
  0
ENDBLK
  5
341
330
220
100
AcDbEntity
  8
0
  6
ByBlock
 62
     0
100
AcDbBlockEnd
  0
BLOCK
  5
342
330
221
100
AcDbEntity
  8
0
  6
Continuous
 62
     7
100
AcDbBlockBegin
  2
*D5
 70
     1
 10
0.0
 20
0.0
 30
0.0
  3
*D5
  1

  0
MTEXT
  5
343
330
221
100
AcDbEntity
  8
0
  6
Continuous
 62
     7
100
AcDbMText
 10
79.22381437109999
 20
55.6557614587
 30
0.0
 40
1.333333333299999
 41
5.333333333299999
 46
0.0
 71
     3
 72
     1
  1
3-1/4\P[8]
 73
     1
 44
0.9
  0
LINE
  5
344
330
221
100
AcDbEntity
  8
0
  6
Continuous
 62
     7
100
AcDbLine
 10
87.49279035799998
 20
76.9170589009
 30
0.0
 11
87.49279035799998
 21
53.6557614587
 31
0.0
  0
LINE
  5
345
330
221
100
AcDbEntity
  8
0
  6
Continuous
 62
     7
100
AcDbLine
 10
84.2937068218
 20
76.9170589009
 30
0.0
 11
84.2937068218
 21
53.6557614587
 31
0.0
  0
LINE
  5
346
330
221
100
AcDbEntity
  8
0
  6
Continuous
 62
     7
100
AcDbLine
 10
87.49279035799998
 20
54.98909479199999
 30
0.0
 11
92.8261236914
 21
54.98909479199999
 31
0.0
  0
LINE
  5
347
330
221
100
AcDbEntity
  8
0
  6
Continuous
 62
     7
100
AcDbLine
 10
84.2937068218
 20
54.98909479199999
 30
0.0
 11
79.8904810378
 21
54.98909479199999
 31
0.0
  0
INSERT
  5
348
330
221
100
AcDbEntity
  8
0
  6
Continuous
 62
     7
100
AcDbBlockReference
  2
_FILLED
 10
87.49279035799998
 20
54.98909479199999
 30
0.0
 41
2.0
 42
2.0
 43
2.0
 50
180.0
  0
INSERT
  5
349
330
221
100
AcDbEntity
  8
0
  6
Continuous
 62
     7
100
AcDbBlockReference
  2
_FILLED
 10
84.2937068218
 20
54.98909479199999
 30
0.0
 41
2.0
 42
2.0
 43
2.0
  0
ENDBLK
  5
34A
330
221
100
AcDbEntity
  8
0
  6
ByBlock
 62
     0
100
AcDbBlockEnd
  0
BLOCK
  5
34B
330
222
100
AcDbEntity
  8
0
  6
Continuous
 62
     7
100
AcDbBlockBegin
  2
*D6
 70
     1
 10
0.0
 20
0.0
 30
0.0
  3
*D6
  1

  0
MTEXT
  5
34C
330
222
100
AcDbEntity
  8
0
  6
Continuous
 62
     7
100
AcDbMText
 10
99.7143890068
 20
53.05963490609999
 30
0.0
 40
1.333333333299999
 41
5.333333333299999
 46
0.0
 71
     1
 72
     1
  1
4-7/8\P[12]
 73
     1
 44
0.9
  0
LINE
  5
34D
330
222
100
AcDbEntity
  8
0
  6
Continuous
 62
     7
100
AcDbLine
 10
63.21595081659999
 20
57.85655269279999
 30
0.0
 11
98.3810556735
 21
57.85655269279999
 31
0.0
  0
LINE
  5
34E
330
222
100
AcDbEntity
  8
0
  6
Continuous
 62
     7
100
AcDbLine
 10
79.29228415
 20
62.71998486930001
 30
0.0
 11
98.3810556735
 21
62.71998486930001
 31
0.0
  0
LINE
  5
34F
330
222
100
AcDbEntity
  8
0
  6
Continuous
 62
     7
100
AcDbLine
 10
97.04772234020001
 20
57.85655269279999
 30
0.0
 11
97.04772234020001
 21
52.3929682395
 31
0.0
  0
LINE
  5
350
330
222
100
AcDbEntity
  8
0
  6
Continuous
 62
     7
100
AcDbLine
 10
97.04772234020001
 20
52.3929682395
 30
0.0
 11
99.04772234020001
 21
52.3929682395
 31
0.0
  0
LINE
  5
351
330
222
100
AcDbEntity
  8
0
  6
Continuous
 62
     7
100
AcDbLine
 10
97.04772234020001
 20
62.71998486930001
 30
0.0
 11
97.04772234020001
 21
68.0533182027
 31
0.0
  0
INSERT
  5
352
330
222
100
AcDbEntity
  8
0
  6
Continuous
 62
     7
100
AcDbBlockReference
  2
_FILLED
 10
97.04772234020001
 20
57.85655269279999
 30
0.0
 41
2.0
 42
2.0
 43
2.0
 50
90.0
  0
INSERT
  5
353
330
222
100
AcDbEntity
  8
0
  6
Continuous
 62
     7
100
AcDbBlockReference
  2
_FILLED
 10
97.04772234020001
 20
62.71998486930001
 30
0.0
 41
2.0
 42
2.0
 43
2.0
 50
270.0
  0
ENDBLK
  5
354
330
222
100
AcDbEntity
  8
0
  6
ByBlock
 62
     0
100
AcDbBlockEnd
  0
BLOCK
  5
355
330
223
100
AcDbEntity
  8
0
  6
Continuous
 62
     7
100
AcDbBlockBegin
  2
*D7
 70
     1
 10
0.0
 20
0.0
 30
0.0
  3
*D7
  1

  0
MTEXT
  5
356
330
223
100
AcDbEntity
  8
0
  6
Continuous
 62
     7
100
AcDbMText
 10
109.6402955925
 20
53.52405972979999
 30
0.0
 40
1.333333333299999
 41
5.333333333299999
 46
0.0
 71
     1
 72
     1
  1
5-3/8\P[14]
 73
     1
 44
0.9
  0
LINE
  5
357
330
223
100
AcDbEntity
  8
0
  6
Continuous
 62
     7
100
AcDbLine
 10
61.9466174833
 20
57.5837255675
 30
0.0
 11
108.3069622592
 21
57.5837255675
 31
0.0
  0
LINE
  5
358
330
223
100
AcDbEntity
  8
0
  6
Continuous
 62
     7
100
AcDbLine
 10
78.6576174833
 20
62.9208559974
 30
0.0
 11
108.3069622592
 21
62.9208559974
 31
0.0
  0
LINE
  5
359
330
223
100
AcDbEntity
  8
0
  6
Continuous
 62
     7
100
AcDbLine
 10
106.9736289259
 20
57.5837255675
 30
0.0
 11
106.9736289259
 21
52.8573930631
 31
0.0
  0
LINE
  5
35A
330
223
100
AcDbEntity
  8
0
  6
Continuous
 62
     7
100
AcDbLine
 10
106.9736289259
 20
52.8573930631
 30
0.0
 11
108.9736289259
 21
52.8573930631
 31
0.0
  0
LINE
  5
35B
330
223
100
AcDbEntity
  8
0
  6
Continuous
 62
     7
100
AcDbLine
 10
106.9736289259
 20
62.9208559974
 30
0.0
 11
106.9736289259
 21
68.2541893307
 31
0.0
  0
INSERT
  5
35C
330
223
100
AcDbEntity
  8
0
  6
Continuous
 62
     7
100
AcDbBlockReference
  2
_FILLED
 10
106.9736289259
 20
57.5837255675
 30
0.0
 41
2.0
 42
2.0
 43
2.0
 50
90.0
  0
INSERT
  5
35D
330
223
100
AcDbEntity
  8
0
  6
Continuous
 62
     7
100
AcDbBlockReference
  2
_FILLED
 10
106.9736289259
 20
62.9208559974
 30
0.0
 41
2.0
 42
2.0
 43
2.0
 50
270.0
  0
ENDBLK
  5
35E
330
223
100
AcDbEntity
  8
0
  6
ByBlock
 62
     0
100
AcDbBlockEnd
  0
BLOCK
  5
35F
330
224
100
AcDbEntity
  8
0
  6
Continuous
 62
     7
100
AcDbBlockBegin
  2
*D8
 70
     1
 10
0.0
 20
0.0
 30
0.0
  3
*D8
  1

  0
MTEXT
  5
360
330
224
100
AcDbEntity
  8
0
  6
Continuous
 62
     7
100
AcDbMText
 10
113.362745351
 20
78.25039223420001
 30
0.0
 40
1.333333333299999
 41
5.333333333299999
 46
0.0
 71
     2
 72
     1
  1
40\P[102]
 73
     1
 44
0.9
  0
LINE
  5
361
330
224
100
AcDbEntity
  8
0
  6
Continuous
 62
     7
100
AcDbLine
 10
52.43228415
 20
57.5837255675
 30
0.0
 11
116.2960786843
 21
57.5837255675
 31
0.0
  0
LINE
  5
362
330
224
100
AcDbEntity
  8
0
  6
Continuous
 62
     7
100
AcDbLine
 10
52.43228415
 20
97.5837255675
 30
0.0
 11
116.2960786843
 21
97.5837255675
 31
0.0
  0
LINE
  5
363
330
224
100
AcDbEntity
  8
0
  6
Continuous
 62
     7
100
AcDbLine
 10
114.962745351
 20
57.5837255675
 30
0.0
 11
114.962745351
 21
74.2503922342
 31
0.0
  0
LINE
  5
364
330
224
100
AcDbEntity
  8
0
  6
Continuous
 62
     7
100
AcDbLine
 10
114.962745351
 20
97.5837255675
 30
0.0
 11
114.962745351
 21
78.9170589009
 31
0.0
  0
INSERT
  5
365
330
224
100
AcDbEntity
  8
0
  6
Continuous
 62
     7
100
AcDbBlockReference
  2
_FILLED
 10
114.962745351
 20
57.5837255675
 30
0.0
 41
2.0
 42
2.0
 43
2.0
 50
270.0
  0
INSERT
  5
366
330
224
100
AcDbEntity
  8
0
  6
Continuous
 62
     7
100
AcDbBlockReference
  2
_FILLED
 10
114.962745351
 20
97.5837255675
 30
0.0
 41
2.0
 42
2.0
 43
2.0
 50
90.0
  0
ENDBLK
  5
367
330
224
100
AcDbEntity
  8
0
  6
ByBlock
 62
     0
100
AcDbBlockEnd
  0
BLOCK
  5
368
330
225
100
AcDbEntity
  8
0
  6
Continuous
 62
     7
100
AcDbBlockBegin
  2
*D9
 70
     1
 10
0.0
 20
0.0
 30
0.0
  3
*D9
  1

  0
MTEXT
  5
369
330
225
100
AcDbEntity
  8
0
  6
Continuous
 62
     7
100
AcDbMText
 10
96.9327979192
 20
43.7869694505
 30
0.0
 40
1.333333333299999
 41
3.2
 46
0.0
 71
     1
 72
     1
  1
1/2\P[1]
 73
     1
 44
0.9
  0
LINE
  5
36A
330
225
100
AcDbEntity
  8
0
  6
Continuous
 62
     7
100
AcDbLine
 10
95.95690303479999
 20
38.2745619595
 30
0.0
 11
92.93279791919999
 21
38.2745619595
 31
0.0
  0
LINE
  5
36B
330
225
100
AcDbEntity
  8
0
  6
Continuous
 62
     7
100
AcDbLine
 10
95.68407590959999
 20
37.7745619595
 30
0.0
 11
92.93279791919999
 21
37.7745619595
 31
0.0
  0
LINE
  5
36C
330
225
100
AcDbEntity
  8
0
  6
Continuous
 62
     7
100
AcDbLine
 10
94.26613125260001
 20
38.2745619595
 30
0.0
 11
94.26613125260001
 21
43.12030278379999
 31
0.0
  0
LINE
  5
36D
330
225
100
AcDbEntity
  8
0
  6
Continuous
 62
     7
100
AcDbLine
 10
94.26613125260001
 20
43.12030278379999
 30
0.0
 11
96.2661312526
 21
43.12030278379999
 31
0.0
  0
LINE
  5
36E
330
225
100
AcDbEntity
  8
0
  6
Continuous
 62
     7
100
AcDbLine
 10
94.26613125260001
 20
37.7745619595
 30
0.0
 11
94.26613125260001
 21
32.4412286262
 31
0.0
  0
INSERT
  5
36F
330
225
100
AcDbEntity
  8
0
  6
Continuous
 62
     7
100
AcDbBlockReference
  2
_FILLED
 10
94.26613125260001
 20
38.2745619595
 30
0.0
 41
2.0
 42
2.0
 43
2.0
 50
270.0
  0
INSERT
  5
370
330
225
100
AcDbEntity
  8
0
  6
Continuous
 62
     7
100
AcDbBlockReference
  2
_FILLED
 10
94.26613125260001
 20
37.7745619595
 30
0.0
 41
2.0
 42
2.0
 43
2.0
 50
90.0
  0
ENDBLK
  5
371
330
225
100
AcDbEntity
  8
0
  6
ByBlock
 62
     0
100
AcDbBlockEnd
  0
BLOCK
  5
372
330
226
100
AcDbEntity
  8
0
  6
Continuous
 62
     7
100
AcDbBlockBegin
  2
*D10
 70
     1
 10
0.0
 20
0.0
 30
0.0
  3
*D10
  1

  0
MTEXT
  5
373
330
226
100
AcDbEntity
  8
0
  6
Continuous
 62
     7
100
AcDbMText
 10
6.307067157699999
 20
28.4412286262
 30
0.0
 40
1.333333333299999
 41
4.266666666699999
 46
0.0
 71
     2
 72
     1
  1
21\P[53]
 73
     1
 44
0.9
  0
LINE
  5
374
330
226
100
AcDbEntity
  8
0
  6
Continuous
 62
     7
100
AcDbLine
 10
37.1827779419
 20
17.2745619595
 30
0.0
 11
6.040400491099999
 21
17.2745619595
 31
0.0
  0
LINE
  5
375
330
226
100
AcDbEntity
  8
0
  6
Continuous
 62
     7
100
AcDbLine
 10
15.3717779419
 20
38.2745619595
 30
0.0
 11
6.040400491099999
 21
38.2745619595
 31
0.0
  0
LINE
  5
376
330
226
100
AcDbEntity
  8
0
  6
Continuous
 62
     7
100
AcDbLine
 10
7.3737338244
 20
17.2745619595
 30
0.0
 11
7.3737338244
 21
24.4412286262
 31
0.0
  0
LINE
  5
377
330
226
100
AcDbEntity
  8
0
  6
Continuous
 62
     7
100
AcDbLine
 10
7.3737338244
 20
38.2745619595
 30
0.0
 11
7.3737338244
 21
29.1078952929
 31
0.0
  0
INSERT
  5
378
330
226
100
AcDbEntity
  8
0
  6
Continuous
 62
     7
100
AcDbBlockReference
  2
_FILLED
 10
7.3737338244
 20
17.2745619595
 30
0.0
 41
2.0
 42
2.0
 43
2.0
 50
270.0
  0
INSERT
  5
379
330
226
100
AcDbEntity
  8
0
  6
Continuous
 62
     7
100
AcDbBlockReference
  2
_FILLED
 10
7.3737338244
 20
38.2745619595
 30
0.0
 41
2.0
 42
2.0
 43
2.0
 50
90.0
  0
ENDBLK
  5
37A
330
226
100
AcDbEntity
  8
0
  6
ByBlock
 62
     0
100
AcDbBlockEnd
  0
BLOCK
  5
37B
330
227
100
AcDbEntity
  8
0
  6
Continuous
 62
     7
100
AcDbBlockBegin
  2
*D11
 70
     1
 10
0.0
 20
0.0
 30
0.0
  3
*D11
  1

  0
MTEXT
  5
37C
330
227
100
AcDbEntity
  8
0
  6
Continuous
 62
     7
100
AcDbMText
 10
12.7543275787
 20
31.6275966607
 30
0.0
 40
1.333333333299999
 41
6.4
 46
0.0
 71
     2
 72
     1
  1
19-1/2\P[50]
 73
     1
 44
0.9
  0
LINE
  5
37D
330
227
100
AcDbEntity
  8
0
  6
Continuous
 62
     7
100
AcDbLine
 10
15.3717779419
 20
38.2745619595
 30
0.0
 11
11.4209942454
 21
38.2745619595
 31
0.0
  0
LINE
  5
37E
330
227
100
AcDbEntity
  8
0
  6
Continuous
 62
     7
100
AcDbLine
 10
28.9887779419
 20
18.7745619595
 30
0.0
 11
11.4209942454
 21
18.7745619595
 31
0.0
  0
LINE
  5
37F
330
227
100
AcDbEntity
  8
0
  6
Continuous
 62
     7
100
AcDbLine
 10
12.7543275787
 20
38.2745619595
 30
0.0
 11
12.7543275787
 21
32.2942633274
 31
0.0
  0
LINE
  5
380
330
227
100
AcDbEntity
  8
0
  6
Continuous
 62
     7
100
AcDbLine
 10
12.7543275787
 20
18.7745619595
 30
0.0
 11
12.7543275787
 21
27.6275966607
 31
0.0
  0
INSERT
  5
381
330
227
100
AcDbEntity
  8
0
  6
Continuous
 62
     7
100
AcDbBlockReference
  2
_FILLED
 10
12.7543275787
 20
38.2745619595
 30
0.0
 41
2.0
 42
2.0
 43
2.0
 50
90.0
  0
INSERT
  5
382
330
227
100
AcDbEntity
  8
0
  6
Continuous
 62
     7
100
AcDbBlockReference
  2
_FILLED
 10
12.7543275787
 20
18.7745619595
 30
0.0
 41
2.0
 42
2.0
 43
2.0
 50
270.0
  0
ENDBLK
  5
383
330
227
100
AcDbEntity
  8
0
  6
ByBlock
 62
     0
100
AcDbBlockEnd
  0
BLOCK
  5
384
330
228
100
AcDbEntity
  8
0
  6
Continuous
 62
     7
100
AcDbBlockBegin
  2
*D12
 70
     1
 10
0.0
 20
0.0
 30
0.0
  3
*D12
  1

  0
MTEXT
  5
385
330
228
100
AcDbEntity
  8
0
  6
Continuous
 62
     7
100
AcDbMText
 10
138.7716874658
 20
29.8515906524
 30
0.0
 40
1.333333333299999
 41
6.4
 46
0.0
 71
     2
 72
     1
  1
15-7/8\P[40]
 73
     1
 44
0.9
  0
LINE
  5
386
330
228
100
AcDbEntity
  8
0
  6
Continuous
 62
     7
100
AcDbLine
 10
123.4624629861
 20
18.7745619595
 30
0.0
 11
140.1050207992
 21
18.7745619595
 31
0.0
  0
LINE
  5
387
330
228
100
AcDbEntity
  8
0
  6
Continuous
 62
     7
100
AcDbLine
 10
130.8234629861
 20
34.5896334092
 30
0.0
 11
140.1050207992
 21
34.5896334092
 31
0.0
  0
LINE
  5
388
330
228
100
AcDbEntity
  8
0
  6
Continuous
 62
     7
100
AcDbLine
 10
138.7716874658
 20
18.7745619595
 30
0.0
 11
138.7716874658
 21
25.8515906524
 31
0.0
  0
LINE
  5
389
330
228
100
AcDbEntity
  8
0
  6
Continuous
 62
     7
100
AcDbLine
 10
138.7716874658
 20
34.5896334092
 30
0.0
 11
138.7716874658
 21
30.5182573191
 31
0.0
  0
INSERT
  5
38A
330
228
100
AcDbEntity
  8
0
  6
Continuous
 62
     7
100
AcDbBlockReference
  2
_FILLED
 10
138.7716874658
 20
18.7745619595
 30
0.0
 41
2.0
 42
2.0
 43
2.0
 50
270.0
  0
INSERT
  5
38B
330
228
100
AcDbEntity
  8
0
  6
Continuous
 62
     7
100
AcDbBlockReference
  2
_FILLED
 10
138.7716874658
 20
34.5896334092
 30
0.0
 41
2.0
 42
2.0
 43
2.0
 50
90.0
  0
ENDBLK
  5
38C
330
228
100
AcDbEntity
  8
0
  6
ByBlock
 62
     0
100
AcDbBlockEnd
  0
BLOCK
  5
38D
330
229
100
AcDbEntity
  8
0
  6
Continuous
 62
     7
100
AcDbBlockBegin
  2
*D13
 70
     1
 10
0.0
 20
0.0
 30
0.0
  3
*D13
  1

  0
MTEXT
  5
38E
330
229
100
AcDbEntity
  8
0
  6
Continuous
 62
     7
100
AcDbMText
 10
87.69850732209999
 20
27.1287286262
 30
0.0
 40
1.333333333299999
 41
6.4
 46
0.0
 71
     2
 72
     1
  1
16-5/8\P[42]
 73
     1
 44
0.9
  0
LINE
  5
38F
330
229
100
AcDbEntity
  8
0
  6
Continuous
 62
     7
100
AcDbLine
 10
65.171397426
 20
18.1495619595
 30
0.0
 11
89.03184065540001
 21
18.1495619595
 31
0.0
  0
LINE
  5
390
330
229
100
AcDbEntity
  8
0
  6
Continuous
 62
     7
100
AcDbLine
 10
79.39428415
 20
34.7745619595
 30
0.0
 11
89.03184065540001
 21
34.7745619595
 31
0.0
  0
LINE
  5
391
330
229
100
AcDbEntity
  8
0
  6
Continuous
 62
     7
100
AcDbLine
 10
87.69850732209999
 20
18.1495619595
 30
0.0
 11
87.69850732209999
 21
23.1287286262
 31
0.0
  0
LINE
  5
392
330
229
100
AcDbEntity
  8
0
  6
Continuous
 62
     7
100
AcDbLine
 10
87.69850732209999
 20
34.7745619595
 30
0.0
 11
87.69850732209999
 21
27.7953952929
 31
0.0
  0
INSERT
  5
393
330
229
100
AcDbEntity
  8
0
  6
Continuous
 62
     7
100
AcDbBlockReference
  2
_FILLED
 10
87.69850732209999
 20
18.1495619595
 30
0.0
 41
2.0
 42
2.0
 43
2.0
 50
270.0
  0
INSERT
  5
394
330
229
100
AcDbEntity
  8
0
  6
Continuous
 62
     7
100
AcDbBlockReference
  2
_FILLED
 10
87.69850732209999
 20
34.7745619595
 30
0.0
 41
2.0
 42
2.0
 43
2.0
 50
90.0
  0
ENDBLK
  5
395
330
229
100
AcDbEntity
  8
0
  6
ByBlock
 62
     0
100
AcDbBlockEnd
  0
BLOCK
  5
396
330
22A
100
AcDbEntity
  8
0
  6
Continuous
 62
     7
100
AcDbBlockBegin
  2
*D14
 70
     1
 10
0.0
 20
0.0
 30
0.0
  3
*D14
  1

  0
MTEXT
  5
397
330
22A
100
AcDbEntity
  8
0
  6
Continuous
 62
     7
100
AcDbMText
 10
51.02832732939999
 20
13.7612693046
 30
0.0
 40
1.333333333299999
 41
1.955555555599999
 46
0.0
 71
     2
 72
     1
  1
2\Fgdt;{\Fgdt;~}
 73
     1
 44
0.9
  0
LINE
  5
398
330
22A
100
AcDbEntity
  8
0
  6
Continuous
 62
     7
100
AcDbLine
 10
38.80728415
 20
18.7745619595
 30
0.0
 11
53.55780692829999
 21
18.7745619595
 31
0.0
  0
ARC
  5
399
330
22A
100
AcDbEntity
  8
0
  6
Continuous
 62
     7
100
AcDbCircle
 10
38.1406174833
 20
18.7745619595
 30
0.0
 40
14.0838561116
100
AcDbArc
 50
336.2156258907
 51
360.0
  0
ARC
  5
39A
330
22A
100
AcDbEntity
  8
0
  6
Continuous
 62
     7
100
AcDbCircle
 10
38.1406174833
 20
18.7745619595
 30
0.0
 40
14.0838561116
100
AcDbArc
 50
1.524498537599999
 51
23.2215031303
  0
SOLID
  5
39B
330
22A
100
AcDbEntity
  8
0
  6
Continuous
 62
     7
100
AcDbTrace
 10
52.415079764
 20
16.755953429
 30
0.0
 11
52.2244735949
 21
18.7745619595
 31
0.0
 12
51.7500928801
 22
16.8032491866
 32
0.0
 13
51.7500928801
 23
16.8032491866
 33
0.0
  0
SOLID
  5
39C
330
22A
100
AcDbEntity
  8
0
  6
Continuous
 62
     7
100
AcDbTrace
 10
51.69283012859999
 20
21.1072486168
 30
0.0
 11
52.2194884852
 21
19.1492542127
 31
0.0
 12
52.3563233601
 22
21.1722191971
 32
0.0
 13
52.3563233601
 23
21.1722191971
 33
0.0
  0
ENDBLK
  5
39D
330
22A
100
AcDbEntity
  8
0
  6
ByBlock
 62
     0
100
AcDbBlockEnd
  0
BLOCK
  5
39E
330
22B
100
AcDbEntity
  8
0
  6
Continuous
 62
     7
100
AcDbBlockBegin
  2
*D15
 70
     1
 10
0.0
 20
0.0
 30
0.0
  3
*D15
  1

  0
MTEXT
  5
39F
330
22B
100
AcDbEntity
  8
0
  6
Continuous
 62
     7
100
AcDbMText
 10
131.8044096536
 20
105.9808101356
 30
0.0
 40
1.333333333299999
 41
3.2
 46
0.0
 71
     1
 72
     1
  1
2\P[5]
 73
     1
 44
0.9
  0
LINE
  5
3A0
330
22B
100
AcDbEntity
  8
0
  6
Continuous
 62
     7
100
AcDbLine
 10
133.5774419032
 20
100.1130178438
 30
0.0
 11
127.8044096536
 21
100.1130178438
 31
0.0
  0
LINE
  5
3A1
330
22B
100
AcDbEntity
  8
0
  6
Continuous
 62
     7
100
AcDbLine
 10
133.173381783
 20
98.11301784379999
 30
0.0
 11
127.8044096536
 21
98.11301784379999
 31
0.0
  0
LINE
  5
3A2
330
22B
100
AcDbEntity
  8
0
  6
Continuous
 62
     7
100
AcDbLine
 10
129.1377429869
 20
100.1130178438
 30
0.0
 11
129.1377429869
 21
105.314143469
 31
0.0
  0
LINE
  5
3A3
330
22B
100
AcDbEntity
  8
0
  6
Continuous
 62
     7
100
AcDbLine
 10
129.1377429869
 20
105.314143469
 30
0.0
 11
131.1377429869
 21
105.314143469
 31
0.0
  0
LINE
  5
3A4
330
22B
100
AcDbEntity
  8
0
  6
Continuous
 62
     7
100
AcDbLine
 10
129.1377429869
 20
98.11301784379999
 30
0.0
 11
129.1377429869
 21
92.77968451049998
 31
0.0
  0
INSERT
  5
3A5
330
22B
100
AcDbEntity
  8
0
  6
Continuous
 62
     7
100
AcDbBlockReference
  2
_FILLED
 10
129.1377429869
 20
100.1130178438
 30
0.0
 41
2.0
 42
2.0
 43
2.0
 50
270.0
  0
INSERT
  5
3A6
330
22B
100
AcDbEntity
  8
0
  6
Continuous
 62
     7
100
AcDbBlockReference
  2
_FILLED
 10
129.1377429869
 20
98.11301784379999
 30
0.0
 41
2.0
 42
2.0
 43
2.0
 50
90.0
  0
ENDBLK
  5
3A7
330
22B
100
AcDbEntity
  8
0
  6
ByBlock
 62
     0
100
AcDbBlockEnd
  0
BLOCK
  5
3A8
330
22C
100
AcDbEntity
  8
0
  6
Continuous
 62
     7
100
AcDbBlockBegin
  2
*D16
 70
     1
 10
0.0
 20
0.0
 30
0.0
  3
*D16
  1

  0
MTEXT
  5
3A9
330
22C
100
AcDbEntity
  8
0
  6
Continuous
 62
     7
100
AcDbMText
 10
124.4065913879
 20
90.27968451049998
 30
0.0
 40
1.333333333299999
 41
4.266666666699999
 46
0.0
 71
     2
 72
     1
  1
21\P[53]
 73
     1
 44
0.9
  0
LINE
  5
3AA
330
22C
100
AcDbEntity
  8
0
  6
Continuous
 62
     7
100
AcDbLine
 10
133.5774419032
 20
100.1130178438
 30
0.0
 11
124.1399247212
 21
100.1130178438
 31
0.0
  0
LINE
  5
3AB
330
22C
100
AcDbEntity
  8
0
  6
Continuous
 62
     7
100
AcDbLine
 10
148.0387752365
 20
79.11301784379999
 30
0.0
 11
124.1399247212
 21
79.11301784379999
 31
0.0
  0
LINE
  5
3AC
330
22C
100
AcDbEntity
  8
0
  6
Continuous
 62
     7
100
AcDbLine
 10
125.4732580545
 20
100.1130178438
 30
0.0
 11
125.4732580545
 21
90.94635117709998
 31
0.0
  0
LINE
  5
3AD
330
22C
100
AcDbEntity
  8
0
  6
Continuous
 62
     7
100
AcDbLine
 10
125.4732580545
 20
79.11301784379999
 30
0.0
 11
125.4732580545
 21
86.2796845105
 31
0.0
  0
INSERT
  5
3AE
330
22C
100
AcDbEntity
  8
0
  6
Continuous
 62
     7
100
AcDbBlockReference
  2
_FILLED
 10
125.4732580545
 20
100.1130178438
 30
0.0
 41
2.0
 42
2.0
 43
2.0
 50
90.0
  0
INSERT
  5
3AF
330
22C
100
AcDbEntity
  8
0
  6
Continuous
 62
     7
100
AcDbBlockReference
  2
_FILLED
 10
125.4732580545
 20
79.11301784379999
 30
0.0
 41
2.0
 42
2.0
 43
2.0
 50
270.0
  0
ENDBLK
  5
3B0
330
22C
100
AcDbEntity
  8
0
  6
ByBlock
 62
     0
100
AcDbBlockEnd
  0
BLOCK
  5
3B1
330
22D
100
AcDbEntity
  8
0
  6
Continuous
 62
     7
100
AcDbBlockBegin
  2
*D17
 70
     1
 10
0.0
 20
0.0
 30
0.0
  3
*D17
  1

  0
MTEXT
  5
3B2
330
22D
100
AcDbEntity
  8
0
  6
Continuous
 62
     7
100
AcDbMText
 10
18.571234774
 20
24.1936930801
 30
0.0
 40
1.333333333299999
 41
3.0222222222
 46
0.0
 71
     2
 72
     1
  1
12\Fgdt;{\Fgdt;~}
 73
     1
 44
0.9
  0
LINE
  5
3B3
330
22D
100
AcDbEntity
  8
0
  6
Continuous
 62
     7
100
AcDbLine
 10
24.7605723222
 20
35.6078952929
 30
0.0
 11
24.7605723222
 21
20.7705701452
 31
0.0
  0
LINE
  5
3B4
330
22D
100
AcDbEntity
  8
0
  6
Continuous
 62
     7
100
AcDbLine
 10
24.8991801161
 20
35.62246355900001
 30
0.0
 11
27.9840334748
 21
21.1093695645
 31
0.0
  0
ARC
  5
3B5
330
22D
100
AcDbEntity
  8
0
  6
Continuous
 62
     7
100
AcDbCircle
 10
24.7605723222
 20
36.2745619595
 30
0.0
 40
14.170658481
100
AcDbArc
 50
244.1019390941
 51
270.0
  0
ARC
  5
3B6
330
22D
100
AcDbEntity
  8
0
  6
Continuous
 62
     7
100
AcDbCircle
 10
24.7605723222
 20
36.2745619595
 30
0.0
 40
14.170658481
100
AcDbArc
 50
282.0
 51
303.5640995897
  0
SOLID
  5
3B7
330
22D
100
AcDbEntity
  8
0
  6
Continuous
 62
     7
100
AcDbTrace
 10
22.7420468831
 20
21.9124193729
 30
0.0
 11
24.7605723222
 21
22.1039034785
 31
0.0
 12
22.7890534131
 22
22.5774267642
 32
0.0
 13
22.7890534131
 23
22.5774267642
 33
0.0
  0
SOLID
  5
3B8
330
22D
100
AcDbEntity
  8
0
  6
Continuous
 62
     7
100
AcDbTrace
 10
29.5368033508
 20
23.2866438612
 30
0.0
 11
27.706817887
 21
22.4135663655
 31
0.0
 12
29.7210454865
 22
22.645941684
 32
0.0
 13
29.7210454865
 23
22.645941684
 33
0.0
  0
ENDBLK
  5
3B9
330
22D
100
AcDbEntity
  8
0
  6
ByBlock
 62
     0
100
AcDbBlockEnd
  0
BLOCK
  5
3BA
330
22E
100
AcDbEntity
  8
0
  6
Continuous
 62
     7
100
AcDbBlockBegin
  2
*D18
 70
     1
 10
0.0
 20
0.0
 30
0.0
  3
*D18
  1

  0
MTEXT
  5
3BB
330
22E
100
AcDbEntity
  8
0
  6
Continuous
 62
     7
100
AcDbMText
 10
75.5800627212
 20
22.5493624207
 30
0.0
 40
1.333333333299999
 41
3.0222222222
 46
0.0
 71
     2
 72
     1
  1
25\Fgdt;{\Fgdt;~}
 73
     1
 44
0.9
  0
LINE
  5
3BC
330
22E
100
AcDbEntity
  8
0
  6
Continuous
 62
     7
100
AcDbLine
 10
78.48891713659999
 20
35.6703567682
 30
0.0
 11
71.97723169799999
 21
21.706002281
 31
0.0
  0
LINE
  5
3BD
330
22E
100
AcDbEntity
  8
0
  6
Continuous
 62
     7
100
AcDbLine
 10
78.77066264439999
 20
35.6078952929
 30
0.0
 11
78.77066264439999
 21
20.1999348992
 31
0.0
  0
ARC
  5
3BE
330
22E
100
AcDbEntity
  8
0
  6
Continuous
 62
     7
100
AcDbCircle
 10
78.77066264439999
 20
36.2745619595
 30
0.0
 40
14.741293727
100
AcDbArc
 50
224.2706463628
 51
245.0
  0
ARC
  5
3BF
330
22E
100
AcDbEntity
  8
0
  6
Continuous
 62
     7
100
AcDbCircle
 10
78.77066264439999
 20
36.2745619595
 30
0.0
 40
14.741293727
100
AcDbArc
 50
270.0
 51
290.7293536372
  0
SOLID
  5
3C0
330
22E
100
AcDbEntity
  8
0
  6
Continuous
 62
     7
100
AcDbTrace
 10
70.6285435894
 20
23.5887138632
 30
0.0
 11
72.54072271369999
 21
22.9144126638
 31
0.0
 12
70.95059690399999
 22
24.1724313522
 32
0.0
 13
70.95059690399999
 23
24.1724313522
 33
0.0
  0
SOLID
  5
3C1
330
22E
100
AcDbEntity
  8
0
  6
Continuous
 62
     7
100
AcDbTrace
 10
80.7434677194
 20
22.0014041605
 30
0.0
 11
78.77066264439999
 21
21.5332682325
 31
0.0
 12
80.7886574758
 22
21.3362708427
 32
0.0
 13
80.7886574758
 23
21.3362708427
 33
0.0
  0
ENDBLK
  5
3C2
330
22E
100
AcDbEntity
  8
0
  6
ByBlock
 62
     0
100
AcDbBlockEnd
  0
BLOCK
  5
3C3
330
22F
100
AcDbEntity
  8
0
  6
Continuous
 62
     7
100
AcDbBlockBegin
  2
*D19
 70
     1
 10
0.0
 20
0.0
 30
0.0
  3
*D19
  1

  0
MTEXT
  5
3C4
330
22F
100
AcDbEntity
  8
0
  6
Continuous
 62
     7
100
AcDbMText
 10
136.2319469502
 20
23.5241355228
 30
0.0
 40
1.333333333299999
 41
3.0222222222
 46
0.0
 71
     2
 72
     1
  1
10\Fgdt;{\Fgdt;~}
 73
     1
 44
0.9
  0
LINE
  5
3C5
330
22F
100
AcDbEntity
  8
0
  6
Continuous
 62
     7
100
AcDbLine
 10
130.6156742171
 20
37.3081415241
 30
0.0
 11
127.7080942112
 21
20.8184358979
 31
0.0
  0
LINE
  5
3C6
330
22F
100
AcDbEntity
  8
0
  6
Continuous
 62
     7
100
AcDbLine
 10
130.7314396688999
 20
37.2980133595
 30
0.0
 11
130.7314396688999
 21
20.5539274444
 31
0.0
  0
ARC
  5
3C7
330
22F
100
AcDbEntity
  8
0
  6
Continuous
 62
     7
100
AcDbCircle
 10
130.7314396688999
 20
37.9646800261
 30
0.0
 40
16.0774192484
100
AcDbArc
 50
240.9933742465001
 51
260.0
  0
ARC
  5
3C8
330
22F
100
AcDbEntity
  8
0
  6
Continuous
 62
     7
100
AcDbCircle
 10
130.7314396688999
 20
37.9646800261
 30
0.0
 40
16.0774192484
100
AcDbArc
 50
270.0
 51
290.0064702352
  0
SOLID
  5
3C9
330
22F
100
AcDbEntity
  8
0
  6
Continuous
 62
     7
100
AcDbTrace
 10
125.917230235
 20
22.2765303537
 30
0.0
 11
127.9396251148
 21
22.1315129019
 31
0.0
 12
126.0735815642
 22
22.9246034255
 32
0.0
 13
126.0735815642
 23
22.9246034255
 33
0.0
  0
SOLID
  5
3CA
330
22F
100
AcDbEntity
  8
0
  6
Continuous
 62
     7
100
AcDbTrace
 10
132.706852549
 20
22.3442674122
 30
0.0
 11
130.7314396688999
 21
21.8872607778
 31
0.0
 12
132.7482918424
 22
21.6788899032
 32
0.0
 13
132.7482918424
 23
21.6788899032
 33
0.0
  0
ENDBLK
  5
3CB
330
22F
100
AcDbEntity
  8
0
  6
ByBlock
 62
     0
100
AcDbBlockEnd
  0
BLOCK
  5
23C
330
230
100
AcDbEntity
  8
0
  6
Continuous
 62
     7
100
AcDbBlockBegin
  2
SYMBOL_11_BL5
 70
     0
 10
86.00022731260001
 20
78.0420584556
 30
0.0
  3
SYMBOL_11_BL5
  1

  0
TEXT
  5
23D
330
230
100
AcDbEntity
  8
0
  6
Continuous
 62
     7
100
AcDbText
 10
85.43726413059999
 20
77.3753915296
 30
0.0
 40
1.333333852099999
  1
T
  7
TEXTSTYLE_2
100
AcDbText
  0
ELLIPSE
  5
23E
330
230
100
AcDbEntity
  8
0
  6
Continuous
 62
     7
100
AcDbEllipse
 10
86.00022731260001
 20
78.0420584556
 30
0.0
 11
-1.942887567899999
 21
0.0
 31
0.0
210
0.0
220
0.0
230
1.0
 40
0.6606458385
 41
0.0
 42
6.283185307179586
  0
ENDBLK
  5
23F
330
230
100
AcDbEntity
  8
0
  6
ByBlock
 62
     0
100
AcDbBlockEnd
  0
BLOCK
  5
240
330
231
100
AcDbEntity
  8
0
  6
Continuous
 62
     7
100
AcDbBlockBegin
  2
SYMBOL_9_BL4
 70
     0
 10
52.4937437415
 20
60.7568663636
 30
0.0
  3
SYMBOL_9_BL4
  1

  0
TEXT
  5
241
330
231
100
AcDbEntity
  8
0
  6
Continuous
 62
     7
100
AcDbText
 10
51.8270768154
 20
60.0901994376
 30
0.0
 40
1.333333852099999
  1
C
  7
TEXTSTYLE_2
100
AcDbText
  0
ELLIPSE
  5
242
330
231
100
AcDbEntity
  8
0
  6
Continuous
 62
     7
100
AcDbEllipse
 10
52.4937437415
 20
60.7568663636
 30
0.0
 11
-1.942887567899999
 21
0.0
 31
0.0
210
0.0
220
0.0
230
1.0
 40
0.6606458385
 41
0.0
 42
6.283185307179586
  0
ENDBLK
  5
243
330
231
100
AcDbEntity
  8
0
  6
ByBlock
 62
     0
100
AcDbBlockEnd
  0
BLOCK
  5
244
330
232
100
AcDbEntity
  8
0
  6
Continuous
 62
     7
100
AcDbBlockBegin
  2
SYMBOL_7_BL3
 70
     0
 10
55.9791227948
 20
64.8142702151
 30
0.0
  3
SYMBOL_7_BL3
  1

  0
TEXT
  5
245
330
232
100
AcDbEntity
  8
0
  6
Continuous
 62
     7
100
AcDbText
 10
55.49092403979999
 20
64.0898866377
 30
0.0
 40
1.333333852099999
  1
L
 50
5.0
  7
TEXTSTYLE_2
100
AcDbText
  0
TEXT
  5
246
330
232
100
AcDbEntity
  8
0
  6
Continuous
 62
     7
100
AcDbText
 10
51.31011067270001
 20
63.73657109919999
 30
0.0
 40
1.333333852099999
  1
11
 50
5.0
  7
TEXTSTYLE_2
100
AcDbText
  0
TEXT
  5
247
330
232
100
AcDbEntity
  8
0
  6
Continuous
 62
     7
100
AcDbText
 10
58.7276771106
 20
64.38552407350001
 30
0.0
 40
1.333333852099999
  1
12
 50
5.0
  7
TEXTSTYLE_2
100
AcDbText
  0
ELLIPSE
  5
248
330
232
100
AcDbEntity
  8
0
  6
Continuous
 62
     7
100
AcDbEllipse
 10
55.95920475239999
 20
64.80006937679999
 30
0.0
 11
-1.9354942941
 21
-0.1693338091
 31
0.0
210
0.0
220
0.0
230
1.0
 40
0.6606458385
 41
0.0
 42
6.283185307179586
  0
ENDBLK
  5
249
330
232
100
AcDbEntity
  8
0
  6
ByBlock
 62
     0
100
AcDbBlockEnd
  0
BLOCK
  5
24A
330
233
100
AcDbEntity
  8
0
  6
Continuous
 62
     7
100
AcDbBlockBegin
  2
SYMBOL_6_BL2
 70
     0
 10
38.2326649697
 20
88.3663847644
 30
0.0
  3
SYMBOL_6_BL2
  1

  0
TEXT
  5
24B
330
233
100
AcDbEntity
  8
0
  6
Continuous
 62
     7
100
AcDbText
 10
37.8776709389
 20
87.56823137709998
 30
0.0
 40
1.333333852099999
  1
L
 50
15.0
  7
TEXTSTYLE_2
100
AcDbText
  0
TEXT
  5
24C
330
233
100
AcDbEntity
  8
0
  6
Continuous
 62
     7
100
AcDbText
 10
34.3154217349
 20
86.6265782143
 30
0.0
 40
1.333333852099999
  1
5
 50
15.0
  7
TEXTSTYLE_2
100
AcDbText
  0
TEXT
  5
24D
330
233
100
AcDbEntity
  8
0
  6
Continuous
 62
     7
100
AcDbText
 10
41.5076091701
 20
88.5537190293
 30
0.0
 40
1.333333852099999
  1
6
 50
15.0
  7
TEXTSTYLE_2
100
AcDbText
  0
ELLIPSE
  5
24E
330
233
100
AcDbEntity
  8
0
  6
Continuous
 62
     7
100
AcDbEllipse
 10
38.2155154769
 20
88.348940937
 30
0.0
 11
-1.8766852794
 21
-0.5028563051
 31
0.0
210
0.0
220
0.0
230
1.0
 40
0.6606458385
 41
0.0
 42
6.283185307179586
  0
ENDBLK
  5
24F
330
233
100
AcDbEntity
  8
0
  6
ByBlock
 62
     0
100
AcDbBlockEnd
  0
BLOCK
  5
250
330
234
100
AcDbEntity
  8
0
  6
Continuous
 62
     7
100
AcDbBlockBegin
  2
SYMBOL_3_BL1
 70
     0
 10
124.0609689666
 20
44.52254555169999
 30
0.0
  3
SYMBOL_3_BL1
  1

  0
TEXT
  5
251
330
234
100
AcDbEntity
  8
0
  6
Continuous
 62
     7
100
AcDbText
 10
117.7469086648
 20
46.7675795374
 30
0.0
 40
1.1626666667
  1
INTERNAL USE 
 50
10.0
  7
TEXTSTYLE_3
100
AcDbText
  0
TEXT
  5
252
330
234
100
AcDbEntity
  8
0
  6
Continuous
 62
     7
100
AcDbText
 10
117.0032244609
 20
44.7660583598
 30
0.0
 40
1.1626666667
  1
DOCUMENT ONLY
 50
10.0
  7
TEXTSTYLE_3
100
AcDbText
  0
TEXT
  5
253
330
234
100
AcDbEntity
  8
0
  6
Continuous
 62
     7
100
AcDbText
 10
122.7879520241
 20
44.5176303092
 30
0.0
 40
1.1626666667
  1
 
 50
10.0
  7
TEXTSTYLE_5
100
AcDbText
  0
TEXT
  5
254
330
234
100
AcDbEntity
  8
0
  6
Continuous
 62
     7
100
AcDbText
 10
114.3433041411
 20
40.3405359029
 30
0.0
 40
1.1626666667
  1
DOCUMENT POUR USAGE
 50
10.0
  7
TEXTSTYLE_3
100
AcDbText
  0
TEXT
  5
255
330
234
100
AcDbEntity
  8
0
  6
Continuous
 62
     7
100
AcDbText
 10
114.7724035871
 20
38.3237874425
 30
0.0
 40
1.1626666667
  1
A L'INTERNE SEULEMENT
 50
10.0
  7
TEXTSTYLE_3
100
AcDbText
  0
LINE
  5
256
330
234
100
AcDbEntity
  8
0
  6
Continuous
 62
     1
100
AcDbLine
 10
137.91752069
 20
40.1790119337
 30
0.0
 11
137.9242796226
 21
40.1857708663
 31
0.0
  0
LINE
  5
257
330
234
100
AcDbEntity
  8
0
  6
Continuous
 62
     1
100
AcDbLine
 10
137.1849511235
 20
40.04984015389999
 30
0.0
 11
137.8338325687
 21
40.698721599
 31
0.0
  0
LINE
  5
258
330
234
100
AcDbEntity
  8
0
  6
Continuous
 62
     1
100
AcDbLine
 10
136.4523815570999
 20
39.9206683741
 30
0.0
 11
137.7433855147
 21
41.2116723317
 31
0.0
  0
LINE
  5
259
330
234
100
AcDbEntity
  8
0
  6
Continuous
 62
     1
100
AcDbLine
 10
135.7198119907
 20
39.7914965943
 30
0.0
 11
137.6529384608
 21
41.72462306429999
 31
0.0
  0
LINE
  5
25A
330
234
100
AcDbEntity
  8
0
  6
Continuous
 62
     1
100
AcDbLine
 10
134.9872424243
 20
39.66232481449999
 30
0.0
 11
137.5624914068
 21
42.23757379699999
 31
0.0
  0
LINE
  5
25B
330
234
100
AcDbEntity
  8
0
  6
Continuous
 62
     1
100
AcDbLine
 10
134.2546728579
 20
39.5331530346
 30
0.0
 11
135.7956766726
 21
41.0741568494
 31
0.0
  0
LINE
  5
25C
330
234
100
AcDbEntity
  8
0
  6
Continuous
 62
     1
100
AcDbLine
 10
136.3930218654
 20
41.6715020421
 30
0.0
 11
137.4720443529
 21
42.75052452969999
 31
0.0
  0
LINE
  5
25D
330
234
100
AcDbEntity
  8
0
  6
Continuous
 62
     1
100
AcDbLine
 10
133.5221032914
 20
39.4039812548
 30
0.0
 11
135.0631071062
 21
40.94498506959999
 31
0.0
  0
LINE
  5
25E
330
234
100
AcDbEntity
  8
0
  6
Continuous
 62
     1
100
AcDbLine
 10
136.3025748114
 20
42.18445277479999
 30
0.0
 11
137.3815972989
 21
43.2634752623
 31
0.0
  0
LINE
  5
25F
330
234
100
AcDbEntity
  8
0
  6
Continuous
 62
     1
100
AcDbLine
 10
132.789533725
 20
39.274809475
 30
0.0
 11
134.3305375398
 21
40.81581328979999
 31
0.0
  0
LINE
  5
260
330
234
100
AcDbEntity
  8
0
  6
Continuous
 62
     1
100
AcDbLine
 10
136.2121277575
 20
42.6974035075
 30
0.0
 11
137.291150245
 21
43.77642599499999
 31
0.0
  0
LINE
  5
261
330
234
100
AcDbEntity
  8
0
  6
Continuous
 62
     1
100
AcDbLine
 10
132.0569641586
 20
39.1456376952
 30
0.0
 11
133.5979679734
 21
40.68664151
 31
0.0
  0
LINE
  5
262
330
234
100
AcDbEntity
  8
0
  6
Continuous
 62
     1
100
AcDbLine
 10
136.1216807035
 20
43.2103542402
 30
0.0
 11
137.2007031911
 21
44.2893767277
 31
0.0
  0
LINE
  5
263
330
234
100
AcDbEntity
  8
0
  6
Continuous
 62
     1
100
AcDbLine
 10
131.3243945921999
 20
39.0164659154
 30
0.0
 11
132.865398407
 21
40.55746973019999
 31
0.0
  0
LINE
  5
264
330
234
100
AcDbEntity
  8
0
  6
Continuous
 62
     1
100
AcDbLine
 10
136.0312336496
 20
43.72330497279999
 30
0.0
 11
137.1102561370999
 21
44.8023274603
 31
0.0
  0
LINE
  5
265
330
234
100
AcDbEntity
  8
0
  6
Continuous
 62
     1
100
AcDbLine
 10
130.5918250258
 20
38.8872941356
 30
0.0
 11
132.1328288406
 21
40.4282979504
 31
0.0
  0
LINE
  5
266
330
234
100
AcDbEntity
  8
0
  6
Continuous
 62
     1
100
AcDbLine
 10
135.9407865956
 20
44.2362557055
 30
0.0
 11
137.0198090832
 21
45.315278193
 31
0.0
  0
LINE
  5
267
330
234
100
AcDbEntity
  8
0
  6
Continuous
 62
     1
100
AcDbLine
 10
129.8592554594
 20
38.7581223558
 30
0.0
 11
131.4002592741
 21
40.29912617059999
 31
0.0
  0
LINE
  5
268
330
234
100
AcDbEntity
  8
0
  6
Continuous
 62
     1
100
AcDbLine
 10
135.8503395417
 20
44.74920643819999
 30
0.0
 11
136.9293620292
 21
45.82822892569999
 31
0.0
  0
LINE
  5
269
330
234
100
AcDbEntity
  8
0
  6
Continuous
 62
     1
100
AcDbLine
 10
129.1266858929
 20
38.628950576
 30
0.0
 11
130.6676897077
 21
40.1699543908
 31
0.0
  0
LINE
  5
26A
330
234
100
AcDbEntity
  8
0
  6
Continuous
 62
     1
100
AcDbLine
 10
135.7598924878
 20
45.2621571708
 30
0.0
 11
136.8389149753
 21
46.34117965829999
 31
0.0
  0
LINE
  5
26B
330
234
100
AcDbEntity
  8
0
  6
Continuous
 62
     1
100
AcDbLine
 10
128.3941163265
 20
38.4997787962
 30
0.0
 11
129.9351201413
 21
40.040782611
 31
0.0
  0
LINE
  5
26C
330
234
100
AcDbEntity
  8
0
  6
Continuous
 62
     1
100
AcDbLine
 10
135.6694454337999
 20
45.77510790349999
 30
0.0
 11
136.7484679213
 21
46.85413039100001
 31
0.0
  0
LINE
  5
26D
330
234
100
AcDbEntity
  8
0
  6
Continuous
 62
     1
100
AcDbLine
 10
127.6615467601
 20
38.3706070164
 30
0.0
 11
129.2025505749
 21
39.9116108312
 31
0.0
  0
LINE
  5
26E
330
234
100
AcDbEntity
  8
0
  6
Continuous
 62
     1
100
AcDbLine
 10
135.366565834
 20
46.0756260903
 30
0.0
 11
136.6580208674
 21
47.36708112369999
 31
0.0
  0
LINE
  5
26F
330
234
100
AcDbEntity
  8
0
  6
Continuous
 62
     1
100
AcDbLine
 10
126.9289771937
 20
38.2414352366
 30
0.0
 11
128.4699810085
 21
39.7824390514
 31
0.0
  0
LINE
  5
270
330
234
100
AcDbEntity
  8
0
  6
Continuous
 62
     1
100
AcDbLine
 10
134.6339962676
 20
45.9464543105
 30
0.0
 11
136.5675738134
 21
47.8800318564
 31
0.0
  0
LINE
  5
271
330
234
100
AcDbEntity
  8
0
  6
Continuous
 62
     1
100
AcDbLine
 10
126.1964076273
 20
38.1122634568
 30
0.0
 11
127.737411442
 21
39.6532672716
 31
0.0
  0
LINE
  5
272
330
234
100
AcDbEntity
  8
0
  6
Continuous
 62
     1
100
AcDbLine
 10
133.9014267012
 20
45.81728253069999
 30
0.0
 11
134.9287689994
 21
46.8446248289
 31
0.0
  0
LINE
  5
273
330
234
100
AcDbEntity
  8
0
  6
Continuous
 62
     1
100
AcDbLine
 10
135.398104272
 20
47.31396010149999
 30
0.0
 11
136.4771267595
 21
48.392982589
 31
0.0
  0
LINE
  5
274
330
234
100
AcDbEntity
  8
0
  6
Continuous
 62
     1
100
AcDbLine
 10
125.4638380608
 20
37.983091677
 30
0.0
 11
127.0048418756
 21
39.5240954918
 31
0.0
  0
LINE
  5
275
330
234
100
AcDbEntity
  8
0
  6
Continuous
 62
     1
100
AcDbLine
 10
133.1688571347
 20
45.6881107509
 30
0.0
 11
134.1961992234
 21
46.71545283949999
 31
0.0
  0
LINE
  5
276
330
234
100
AcDbEntity
  8
0
  6
Continuous
 62
     1
100
AcDbLine
 10
135.307657218
 20
47.8269108342
 30
0.0
 11
136.3866797056
 21
48.90593332169999
 31
0.0
  0
LINE
  5
277
330
234
100
AcDbEntity
  8
0
  6
Continuous
 62
     1
100
AcDbLine
 10
124.7312684944
 20
37.8539198972
 30
0.0
 11
126.2722723092
 21
39.394923712
 31
0.0
  0
LINE
  5
278
330
234
100
AcDbEntity
  8
0
  6
Continuous
 62
     1
100
AcDbLine
 10
132.4362875683
 20
45.55893897109999
 30
0.0
 11
133.4636294474
 21
46.5862808501
 31
0.0
  0
LINE
  5
279
330
234
100
AcDbEntity
  8
0
  6
Continuous
 62
     1
100
AcDbLine
 10
135.2172101641
 20
48.3398615668
 30
0.0
 11
136.2962326516
 21
49.4188840544
 31
0.0
  0
LINE
  5
27A
330
234
100
AcDbEntity
  8
0
  6
Continuous
 62
     1
100
AcDbLine
 10
123.998698928
 20
37.7247481174
 30
0.0
 11
125.5397027428
 21
39.2657519321
 31
0.0
  0
LINE
  5
27B
330
234
100
AcDbEntity
  8
0
  6
Continuous
 62
     1
100
AcDbLine
 10
131.7037180019
 20
45.4297671913
 30
0.0
 11
132.7310596713
 21
46.45710886069999
 31
0.0
  0
LINE
  5
27C
330
234
100
AcDbEntity
  8
0
  6
Continuous
 62
     1
100
AcDbLine
 10
135.1267631102
 20
48.85281229949999
 30
0.0
 11
136.2057855977
 21
49.931834787
 31
0.0
  0
LINE
  5
27D
330
234
100
AcDbEntity
  8
0
  6
Continuous
 62
     1
100
AcDbLine
 10
123.2661293616
 20
37.5955763376
 30
0.0
 11
124.8071331764
 21
39.1365801523
 31
0.0
  0
LINE
  5
27E
330
234
100
AcDbEntity
  8
0
  6
Continuous
 62
     1
100
AcDbLine
 10
130.9711484355
 20
45.30059541149999
 30
0.0
 11
131.9984898953
 21
46.3279368713
 31
0.0
  0
LINE
  5
27F
330
234
100
AcDbEntity
  8
0
  6
Continuous
 62
     1
100
AcDbLine
 10
135.0363160562
 20
49.3657630322
 30
0.0
 11
136.1153385437
 21
50.44478551970001
 31
0.0
  0
LINE
  5
280
330
234
100
AcDbEntity
  8
0
  6
Continuous
 62
     1
100
AcDbLine
 10
122.5335597952
 20
37.46640455780001
 30
0.0
 11
124.07456361
 21
39.0074083725
 31
0.0
  0
LINE
  5
281
330
234
100
AcDbEntity
  8
0
  6
Continuous
 62
     1
100
AcDbLine
 10
130.2385788691
 20
45.1714236316
 30
0.0
 11
131.2659201193
 21
46.1987648819
 31
0.0
  0
LINE
  5
282
330
234
100
AcDbEntity
  8
0
  6
Continuous
 62
     1
100
AcDbLine
 10
134.9458690023
 20
49.8787137648
 30
0.0
 11
136.0248914898
 21
50.95773625239999
 31
0.0
  0
LINE
  5
283
330
234
100
AcDbEntity
  8
0
  6
Continuous
 62
     1
100
AcDbLine
 10
121.8009902288
 20
37.337232778
 30
0.0
 11
123.3419940435
 21
38.8782365927
 31
0.0
  0
LINE
  5
284
330
234
100
AcDbEntity
  8
0
  6
Continuous
 62
     1
100
AcDbLine
 10
129.5060093026
 20
45.0422518518
 30
0.0
 11
130.5333503432
 21
46.06959289239999
 31
0.0
  0
LINE
  5
285
330
234
100
AcDbEntity
  8
0
  6
Continuous
 62
     1
100
AcDbLine
 10
134.8554219483
 20
50.3916644975
 30
0.0
 11
135.9344444358
 21
51.470686985
 31
0.0
  0
LINE
  5
286
330
234
100
AcDbEntity
  8
0
  6
Continuous
 62
     1
100
AcDbLine
 10
121.0684206623
 20
37.2080609981
 30
0.0
 11
122.6094244771
 21
38.7490648129
 31
0.0
  0
LINE
  5
287
330
234
100
AcDbEntity
  8
0
  6
Continuous
 62
     1
100
AcDbLine
 10
128.7734397362
 20
44.91308007199999
 30
0.0
 11
129.8007805672
 21
45.940420903
 31
0.0
  0
LINE
  5
288
330
234
100
AcDbEntity
  8
0
  6
Continuous
 62
     1
100
AcDbLine
 10
134.7649748944
 20
50.9046152302
 30
0.0
 11
135.8439973819
 21
51.98363771770001
 31
0.0
  0
LINE
  5
289
330
234
100
AcDbEntity
  8
0
  6
Continuous
 62
     1
100
AcDbLine
 10
120.3358510959
 20
37.0788892183
 30
0.0
 11
121.8768549107
 21
38.6198930331
 31
0.0
  0
LINE
  5
28A
330
234
100
AcDbEntity
  8
0
  6
Continuous
 62
     1
100
AcDbLine
 10
128.0408701698
 20
44.7839082922
 30
0.0
 11
129.0682107912
 21
45.8112489136
 31
0.0
  0
LINE
  5
28B
330
234
100
AcDbEntity
  8
0
  6
Continuous
 62
     1
100
AcDbLine
 10
134.6745278404
 20
51.4175659629
 30
0.0
 11
135.753550328
 21
52.49658845039999
 31
0.0
  0
LINE
  5
28C
330
234
100
AcDbEntity
  8
0
  6
Continuous
 62
     1
100
AcDbLine
 10
119.6032815295
 20
36.9497174385
 30
0.0
 11
121.1442853443
 21
38.4907212533
 31
0.0
  0
LINE
  5
28D
330
234
100
AcDbEntity
  8
0
  6
Continuous
 62
     1
100
AcDbLine
 10
127.3083006034
 20
44.65473651239999
 30
0.0
 11
128.3356410152
 21
45.6820769242
 31
0.0
  0
LINE
  5
28E
330
234
100
AcDbEntity
  8
0
  6
Continuous
 62
     1
100
AcDbLine
 10
134.499651739
 20
51.846087648
 30
0.0
 11
135.663103274
 21
53.009539183
 31
0.0
  0
LINE
  5
28F
330
234
100
AcDbEntity
  8
0
  6
Continuous
 62
     1
100
AcDbLine
 10
118.8707119631
 20
36.8205456587
 30
0.0
 11
120.4117157779
 21
38.3615494735
 31
0.0
  0
LINE
  5
290
330
234
100
AcDbEntity
  8
0
  6
Continuous
 62
     1
100
AcDbLine
 10
126.575731037
 20
44.5255647326
 30
0.0
 11
127.6030712391
 21
45.5529049348
 31
0.0
  0
LINE
  5
291
330
234
100
AcDbEntity
  8
0
  6
Continuous
 62
     1
100
AcDbLine
 10
133.7670821726
 20
51.71691586819999
 30
0.0
 11
135.3080859874
 21
53.257919683
 31
0.0
  0
LINE
  5
292
330
234
100
AcDbEntity
  8
0
  6
Continuous
 62
     1
100
AcDbLine
 10
118.1381423967
 20
36.6913738789
 30
0.0
 11
119.6791462114
 21
38.2323776937
 31
0.0
  0
LINE
  5
293
330
234
100
AcDbEntity
  8
0
  6
Continuous
 62
     1
100
AcDbLine
 10
125.8431614706
 20
44.3963929528
 30
0.0
 11
126.8705014631
 21
45.42373294539999
 31
0.0
  0
LINE
  5
294
330
234
100
AcDbEntity
  8
0
  6
Continuous
 62
     1
100
AcDbLine
 10
133.0345126062
 20
51.5877440884
 30
0.0
 11
134.575516421
 21
53.12874790319999
 31
0.0
  0
LINE
  5
295
330
234
100
AcDbEntity
  8
0
  6
Continuous
 62
     1
100
AcDbLine
 10
117.4055728303
 20
36.5622020991
 30
0.0
 11
118.946576645
 21
38.1032059139
 31
0.0
  0
LINE
  5
296
330
234
100
AcDbEntity
  8
0
  6
Continuous
 62
     1
100
AcDbLine
 10
125.1105919041
 20
44.267221173
 30
0.0
 11
126.1379316871
 21
45.2945609559
 31
0.0
  0
LINE
  5
297
330
234
100
AcDbEntity
  8
0
  6
Continuous
 62
     1
100
AcDbLine
 10
132.3019430398
 20
51.45857230859999
 30
0.0
 11
133.8429468545
 21
52.9995761234
 31
0.0
  0
LINE
  5
298
330
234
100
AcDbEntity
  8
0
  6
Continuous
 62
     1
100
AcDbLine
 10
116.6730032638
 20
36.43303031929999
 30
0.0
 11
118.2140070786
 21
37.9740341341
 31
0.0
  0
LINE
  5
299
330
234
100
AcDbEntity
  8
0
  6
Continuous
 62
     1
100
AcDbLine
 10
124.3780223377
 20
44.1380493932
 30
0.0
 11
125.405361911
 21
45.1653889665
 31
0.0
  0
LINE
  5
29A
330
234
100
AcDbEntity
  8
0
  6
Continuous
 62
     1
100
AcDbLine
 10
131.5693734733
 20
51.3294005288
 30
0.0
 11
133.1103772881
 21
52.87040434359999
 31
0.0
  0
LINE
  5
29B
330
234
100
AcDbEntity
  8
0
  6
Continuous
 62
     1
100
AcDbLine
 10
115.9404336974
 20
36.3038585395
 30
0.0
 11
117.4814375122
 21
37.8448623543
 31
0.0
  0
LINE
  5
29C
330
234
100
AcDbEntity
  8
0
  6
Continuous
 62
     1
100
AcDbLine
 10
123.6454527713
 20
44.0088776134
 30
0.0
 11
124.672792135
 21
45.03621697709999
 31
0.0
  0
LINE
  5
29D
330
234
100
AcDbEntity
  8
0
  6
Continuous
 62
     1
100
AcDbLine
 10
130.8368039069
 20
51.200228749
 30
0.0
 11
132.3778077217
 21
52.74123256380001
 31
0.0
  0
LINE
  5
29E
330
234
100
AcDbEntity
  8
0
  6
Continuous
 62
     1
100
AcDbLine
 10
115.207864131
 20
36.1746867597
 30
0.0
 11
116.7488679458
 21
37.7156905745
 31
0.0
  0
LINE
  5
29F
330
234
100
AcDbEntity
  8
0
  6
Continuous
 62
     1
100
AcDbLine
 10
122.9128832049
 20
43.8797058336
 30
0.0
 11
123.940222359
 21
44.9070449877
 31
0.0
  0
LINE
  5
2A0
330
234
100
AcDbEntity
  8
0
  6
Continuous
 62
     1
100
AcDbLine
 10
130.1042343405
 20
51.0710569692
 30
0.0
 11
131.6452381553
 21
52.61206078399999
 31
0.0
  0
LINE
  5
2A1
330
234
100
AcDbEntity
  8
0
  6
Continuous
 62
     1
100
AcDbLine
 10
114.4752945646
 20
36.0455149799
 30
0.0
 11
116.0162983794
 21
37.5865187947
 31
0.0
  0
LINE
  5
2A2
330
234
100
AcDbEntity
  8
0
  6
Continuous
 62
     1
100
AcDbLine
 10
122.1803136385
 20
43.7505340538
 30
0.0
 11
123.207652583
 21
44.7778729983
 31
0.0
  0
LINE
  5
2A3
330
234
100
AcDbEntity
  8
0
  6
Continuous
 62
     1
100
AcDbLine
 10
129.3716647741
 20
50.9418851894
 30
0.0
 11
130.9126685889
 21
52.4828890042
 31
0.0
  0
LINE
  5
2A4
330
234
100
AcDbEntity
  8
0
  6
Continuous
 62
     1
100
AcDbLine
 10
113.7427249982
 20
35.9163432001
 30
0.0
 11
115.2837288129
 21
37.45734701489999
 31
0.0
  0
LINE
  5
2A5
330
234
100
AcDbEntity
  8
0
  6
Continuous
 62
     1
100
AcDbLine
 10
121.447744072
 20
43.62136227399999
 30
0.0
 11
122.4750828069
 21
44.6487010089
 31
0.0
  0
LINE
  5
2A6
330
234
100
AcDbEntity
  8
0
  6
Continuous
 62
     1
100
AcDbLine
 10
128.6390952077
 20
50.8127134096
 30
0.0
 11
130.1800990225
 21
52.3537172244
 31
0.0
  0
LINE
  5
2A7
330
234
100
AcDbEntity
  8
0
  6
Continuous
 62
     1
100
AcDbLine
 10
113.0101554317
 20
35.78717142030001
 30
0.0
 11
114.5511592465
 21
37.3281752351
 31
0.0
  0
LINE
  5
2A8
330
234
100
AcDbEntity
  8
0
  6
Continuous
 62
     1
100
AcDbLine
 10
120.7151745056
 20
43.4921904942
 30
0.0
 11
121.7425130309
 21
44.51952901939999
 31
0.0
  0
LINE
  5
2A9
330
234
100
AcDbEntity
  8
0
  6
Continuous
 62
     1
100
AcDbLine
 10
127.9065256413
 20
50.6835416298
 30
0.0
 11
129.447529456
 21
52.2245454446
 31
0.0
  0
LINE
  5
2AA
330
234
100
AcDbEntity
  8
0
  6
Continuous
 62
     1
100
AcDbLine
 10
112.4588346592
 20
35.8392484344
 30
0.0
 11
113.8185896801
 21
37.1990034553
 31
0.0
  0
LINE
  5
2AB
330
234
100
AcDbEntity
  8
0
  6
Continuous
 62
     1
100
AcDbLine
 10
119.9826049392
 20
43.36301871439999
 30
0.0
 11
121.0099432549
 21
44.39035703
 31
0.0
  0
LINE
  5
2AC
330
234
100
AcDbEntity
  8
0
  6
Continuous
 62
     1
100
AcDbLine
 10
127.1739560748
 20
50.55436985
 30
0.0
 11
128.7149598895999
 21
52.09537366479999
 31
0.0
  0
LINE
  5
2AD
330
234
100
AcDbEntity
  8
0
  6
Continuous
 62
     1
100
AcDbLine
 10
112.3683876053
 20
36.352199167
 30
0.0
 11
113.4474100928
 21
37.4312216546
 31
0.0
  0
LINE
  5
2AE
330
234
100
AcDbEntity
  8
0
  6
Continuous
 62
     1
100
AcDbLine
 10
119.2500353728
 20
43.2338469346
 30
0.0
 11
120.2773734788
 21
44.2611850406
 31
0.0
  0
LINE
  5
2AF
330
234
100
AcDbEntity
  8
0
  6
Continuous
 62
     1
100
AcDbLine
 10
126.4413865084
 20
50.4251980702
 30
0.0
 11
127.9823903232
 21
51.96620188499999
 31
0.0
  0
LINE
  5
2B0
330
234
100
AcDbEntity
  8
0
  6
Continuous
 62
     1
100
AcDbLine
 10
112.2779405513
 20
36.8651498997
 30
0.0
 11
113.3569630389
 21
37.9441723872
 31
0.0
  0
LINE
  5
2B1
330
234
100
AcDbEntity
  8
0
  6
Continuous
 62
     1
100
AcDbLine
 10
118.5174658064
 20
43.1046751548
 30
0.0
 11
119.5448037028
 21
44.1320130512
 31
0.0
  0
LINE
  5
2B2
330
234
100
AcDbEntity
  8
0
  6
Continuous
 62
     1
100
AcDbLine
 10
125.708816942
 20
50.2960262904
 30
0.0
 11
127.2498207568
 21
51.83703010520001
 31
0.0
  0
LINE
  5
2B3
330
234
100
AcDbEntity
  8
0
  6
Continuous
 62
     1
100
AcDbLine
 10
112.1874934974
 20
37.3781006324
 30
0.0
 11
113.2665159849
 21
38.4571231199
 31
0.0
  0
LINE
  5
2B4
330
234
100
AcDbEntity
  8
0
  6
Continuous
 62
     1
100
AcDbLine
 10
117.78489624
 20
42.975503375
 30
0.0
 11
118.8122339268
 21
44.0028410618
 31
0.0
  0
LINE
  5
2B5
330
234
100
AcDbEntity
  8
0
  6
Continuous
 62
     1
100
AcDbLine
 10
124.9762473756
 20
50.1668545106
 30
0.0
 11
126.5172511904
 21
51.7078583254
 31
0.0
  0
LINE
  5
2B6
330
234
100
AcDbEntity
  8
0
  6
Continuous
 62
     1
100
AcDbLine
 10
112.0970464434
 20
37.89105136510001
 30
0.0
 11
113.176068931
 21
38.9700738526
 31
0.0
  0
LINE
  5
2B7
330
234
100
AcDbEntity
  8
0
  6
Continuous
 62
     1
100
AcDbLine
 10
117.0523266735
 20
42.8463315951
 30
0.0
 11
118.0796641508
 21
43.87366907239999
 31
0.0
  0
LINE
  5
2B8
330
234
100
AcDbEntity
  8
0
  6
Continuous
 62
     1
100
AcDbLine
 10
124.2436778092
 20
50.0376827308
 30
0.0
 11
125.7846816239
 21
51.57868654560001
 31
0.0
  0
LINE
  5
2B9
330
234
100
AcDbEntity
  8
0
  6
Continuous
 62
     1
100
AcDbLine
 10
112.0065993895
 20
38.4040020977
 30
0.0
 11
113.085621877
 21
39.4830245852
 31
0.0
  0
LINE
  5
2BA
330
234
100
AcDbEntity
  8
0
  6
Continuous
 62
     1
100
AcDbLine
 10
116.3197571071
 20
42.71715981529999
 30
0.0
 11
117.3470943747
 21
43.7444970829
 31
0.0
  0
LINE
  5
2BB
330
234
100
AcDbEntity
  8
0
  6
Continuous
 62
     1
100
AcDbLine
 10
123.5111082427
 20
49.908510951
 30
0.0
 11
125.0521120575
 21
51.4495147657
 31
0.0
  0
LINE
  5
2BC
330
234
100
AcDbEntity
  8
0
  6
Continuous
 62
     1
100
AcDbLine
 10
111.9161523356
 20
38.9169528304
 30
0.0
 11
112.9951748231
 21
39.9959753179
 31
0.0
  0
LINE
  5
2BD
330
234
100
AcDbEntity
  8
0
  6
Continuous
 62
     1
100
AcDbLine
 10
115.5871875407
 20
42.5879880355
 30
0.0
 11
116.6145245987
 21
43.6153250935
 31
0.0
  0
LINE
  5
2BE
330
234
100
AcDbEntity
  8
0
  6
Continuous
 62
     1
100
AcDbLine
 10
122.7785386763
 20
49.7793391712
 30
0.0
 11
124.3195424911
 21
51.32034298589999
 31
0.0
  0
LINE
  5
2BF
330
234
100
AcDbEntity
  8
0
  6
Continuous
 62
     1
100
AcDbLine
 10
111.8257052816
 20
39.4299035631
 30
0.0
 11
112.9047277691
 21
40.50892605059999
 31
0.0
  0
LINE
  5
2C0
330
234
100
AcDbEntity
  8
0
  6
Continuous
 62
     1
100
AcDbLine
 10
114.8546179743
 20
42.4588162557
 30
0.0
 11
115.8819548227
 21
43.48615310409999
 31
0.0
  0
LINE
  5
2C1
330
234
100
AcDbEntity
  8
0
  6
Continuous
 62
     1
100
AcDbLine
 10
122.0459691099
 20
49.65016739140001
 30
0.0
 11
123.5869729247
 21
51.19117120609999
 31
0.0
  0
LINE
  5
2C2
330
234
100
AcDbEntity
  8
0
  6
Continuous
 62
     1
100
AcDbLine
 10
111.7352582277
 20
39.9428542957
 30
0.0
 11
112.8142807152
 21
41.02187678319999
 31
0.0
  0
LINE
  5
2C3
330
234
100
AcDbEntity
  8
0
  6
Continuous
 62
     1
100
AcDbLine
 10
114.1220484079
 20
42.3296444759
 30
0.0
 11
115.1493850466
 21
43.35698111470001
 31
0.0
  0
LINE
  5
2C4
330
234
100
AcDbEntity
  8
0
  6
Continuous
 62
     1
100
AcDbLine
 10
121.3133995435
 20
49.5209956116
 30
0.0
 11
122.8544033583
 21
51.06199942629999
 31
0.0
  0
LINE
  5
2C5
330
234
100
AcDbEntity
  8
0
  6
Continuous
 62
     1
100
AcDbLine
 10
111.6448111737
 20
40.4558050284
 30
0.0
 11
112.7238336612
 21
41.5348275159
 31
0.0
  0
LINE
  5
2C6
330
234
100
AcDbEntity
  8
0
  6
Continuous
 62
     1
100
AcDbLine
 10
113.3894788415
 20
42.2004726961
 30
0.0
 11
114.4168152706
 21
43.22780912529999
 31
0.0
  0
LINE
  5
2C7
330
234
100
AcDbEntity
  8
0
  6
Continuous
 62
     1
100
AcDbLine
 10
120.5808299771
 20
49.3918238317
 30
0.0
 11
122.1218337919
 21
50.93282764649999
 31
0.0
  0
LINE
  5
2C8
330
234
100
AcDbEntity
  8
0
  6
Continuous
 62
     1
100
AcDbLine
 10
111.5543641198
 20
40.9687557611
 30
0.0
 11
112.6333866073
 21
42.0477782486
 31
0.0
  0
LINE
  5
2C9
330
234
100
AcDbEntity
  8
0
  6
Continuous
 62
     1
100
AcDbLine
 10
112.656909275
 20
42.0713009163
 30
0.0
 11
113.6842454946
 21
43.0986371359
 31
0.0
  0
LINE
  5
2CA
330
234
100
AcDbEntity
  8
0
  6
Continuous
 62
     1
100
AcDbLine
 10
119.8482604107
 20
49.26265205189999
 30
0.0
 11
121.3892642254
 21
50.8036558667
 31
0.0
  0
LINE
  5
2CB
330
234
100
AcDbEntity
  8
0
  6
Continuous
 62
     1
100
AcDbLine
 10
111.4639170658
 20
41.48170649369999
 30
0.0
 11
112.9516757186
 21
42.9694651465
 31
0.0
  0
LINE
  5
2CC
330
234
100
AcDbEntity
  8
0
  6
Continuous
 62
     1
100
AcDbLine
 10
119.1156908442
 20
49.1334802721
 30
0.0
 11
120.656694659
 21
50.67448408689999
 31
0.0
  0
LINE
  5
2CD
330
234
100
AcDbEntity
  8
0
  6
Continuous
 62
     1
100
AcDbLine
 10
111.3734700119
 20
41.9946572264
 30
0.0
 11
112.4524924994
 21
43.0736797139
 31
0.0
  0
LINE
  5
2CE
330
234
100
AcDbEntity
  8
0
  6
Continuous
 62
     1
100
AcDbLine
 10
118.3831212778
 20
49.0043084923
 30
0.0
 11
119.9241250926
 21
50.5453123071
 31
0.0
  0
LINE
  5
2CF
330
234
100
AcDbEntity
  8
0
  6
Continuous
 62
     1
100
AcDbLine
 10
111.283022958
 20
42.50760795909999
 30
0.0
 11
112.3620454455
 21
43.5866304466
 31
0.0
  0
LINE
  5
2D0
330
234
100
AcDbEntity
  8
0
  6
Continuous
 62
     1
100
AcDbLine
 10
117.6505517114
 20
48.8751367125
 30
0.0
 11
119.1915555262
 21
50.41614052729999
 31
0.0
  0
LINE
  5
2D1
330
234
100
AcDbEntity
  8
0
  6
Continuous
 62
     1
100
AcDbLine
 10
111.192575904
 20
43.0205586917
 30
0.0
 11
112.2715983915
 21
44.0995811793
 31
0.0
  0
LINE
  5
2D2
330
234
100
AcDbEntity
  8
0
  6
Continuous
 62
     1
100
AcDbLine
 10
116.917982145
 20
48.74596493270001
 30
0.0
 11
118.4589859598
 21
50.2869687475
 31
0.0
  0
LINE
  5
2D3
330
234
100
AcDbEntity
  8
0
  6
Continuous
 62
     1
100
AcDbLine
 10
111.1021288501
 20
43.53350942439999
 30
0.0
 11
112.1811513376
 21
44.61253191189999
 31
0.0
  0
LINE
  5
2D4
330
234
100
AcDbEntity
  8
0
  6
Continuous
 62
     1
100
AcDbLine
 10
116.1854125786
 20
48.6167931529
 30
0.0
 11
117.7264163933
 21
50.1577969677
 31
0.0
  0
LINE
  5
2D5
330
234
100
AcDbEntity
  8
0
  6
Continuous
 62
     1
100
AcDbLine
 10
111.0116817961
 20
44.0464601571
 30
0.0
 11
112.0907042836
 21
45.1254826446
 31
0.0
  0
LINE
  5
2D6
330
234
100
AcDbEntity
  8
0
  6
Continuous
 62
     1
100
AcDbLine
 10
115.4528430122
 20
48.4876213731
 30
0.0
 11
116.9938468269
 21
50.02862518789999
 31
0.0
  0
LINE
  5
2D7
330
234
100
AcDbEntity
  8
0
  6
Continuous
 62
     1
100
AcDbLine
 10
110.9212347422
 20
44.5594108898
 30
0.0
 11
112.0002572297
 21
45.63843337729999
 31
0.0
  0
LINE
  5
2D8
330
234
100
AcDbEntity
  8
0
  6
Continuous
 62
     1
100
AcDbLine
 10
114.7202734457
 20
48.3584495933
 30
0.0
 11
116.2612772605
 21
49.8994534081
 31
0.0
  0
LINE
  5
2D9
330
234
100
AcDbEntity
  8
0
  6
Continuous
 62
     1
100
AcDbLine
 10
110.8307876882
 20
45.07236162239999
 30
0.0
 11
111.9098101758
 21
46.1513841099
 31
0.0
  0
LINE
  5
2DA
330
234
100
AcDbEntity
  8
0
  6
Continuous
 62
     1
100
AcDbLine
 10
113.9877038793
 20
48.2292778135
 30
0.0
 11
115.5287076941
 21
49.77028162829999
 31
0.0
  0
LINE
  5
2DB
330
234
100
AcDbEntity
  8
0
  6
Continuous
 62
     1
100
AcDbLine
 10
110.7403406343
 20
45.5853123551
 30
0.0
 11
111.8193631218
 21
46.66433484259999
 31
0.0
  0
LINE
  5
2DC
330
234
100
AcDbEntity
  8
0
  6
Continuous
 62
     1
100
AcDbLine
 10
113.2551343129
 20
48.1001060337
 30
0.0
 11
114.7961381277
 21
49.6411098485
 31
0.0
  0
LINE
  5
2DD
330
234
100
AcDbEntity
  8
0
  6
Continuous
 62
     1
100
AcDbLine
 10
110.6498935804
 20
46.09826308779999
 30
0.0
 11
111.7289160679
 21
47.1772855753
 31
0.0
  0
LINE
  5
2DE
330
234
100
AcDbEntity
  8
0
  6
Continuous
 62
     1
100
AcDbLine
 10
112.5225647465
 20
47.9709342539
 30
0.0
 11
114.0635685613
 21
49.5119380687
 31
0.0
  0
LINE
  5
2DF
330
234
100
AcDbEntity
  8
0
  6
Continuous
 62
     1
100
AcDbLine
 10
110.5594465264
 20
46.6112138204
 30
0.0
 11
111.6384690139
 21
47.6902363079
 31
0.0
  0
LINE
  5
2E0
330
234
100
AcDbEntity
  8
0
  6
Continuous
 62
     1
100
AcDbLine
 10
111.7899951801
 20
47.8417624741
 30
0.0
 11
113.3309989948
 21
49.3827662889
 31
0.0
  0
LINE
  5
2E1
330
234
100
AcDbEntity
  8
0
  6
Continuous
 62
     1
100
AcDbLine
 10
110.4689994725
 20
47.1241645531
 30
0.0
 11
112.5984294284
 21
49.2535945091
 31
0.0
  0
LINE
  5
2E2
330
234
100
AcDbEntity
  8
0
  6
Continuous
 62
     1
100
AcDbLine
 10
110.3785524185
 20
47.6371152858
 30
0.0
 11
111.865859862
 21
49.12442272919999
 31
0.0
  0
LINE
  5
2E3
330
234
100
AcDbEntity
  8
0
  6
Continuous
 62
     1
100
AcDbLine
 10
110.2881053646
 20
48.1500660184
 30
0.0
 11
111.1332902956
 21
48.99525094939999
 31
0.0
  0
LINE
  5
2E4
330
234
100
AcDbEntity
  8
0
  6
Continuous
 62
     1
100
AcDbLine
 10
110.1976583106
 20
48.66301675109999
 30
0.0
 11
110.4007207292
 21
48.8660791696
 31
0.0
  0
ENDBLK
  5
2E5
330
234
100
AcDbEntity
  8
0
  6
ByBlock
 62
     0
100
AcDbBlockEnd
  0
BLOCK
  5
2E6
330
235
100
AcDbEntity
  8
0
  6
Continuous
 62
     7
100
AcDbBlockBegin
  2
SYMBOL_0_BL0
 70
     0
 10
160.6625860677
 20
55.3372436533
 30
0.0
  3
SYMBOL_0_BL0
  1

  0
TEXT
  5
2E7
330
235
100
AcDbEntity
  8
0
  6
Continuous
 62
     7
100
AcDbText
 10
144.4148009916
 20
63.1106770444
 30
0.0
 40
0.5
  1
Infomations Techniques/Technical Infomations
  7
TEXTSTYLE_2
100
AcDbText
  0
TEXT
  5
2E8
330
235
100
AcDbEntity
  8
0
  6
Continuous
 62
     7
100
AcDbText
 10
144.6625860677
 20
61.67057698659999
 30
0.0
 40
0.6666666667
  1
NOMBRE DE JETS:     
  7
TEXTSTYLE_2
100
AcDbText
  0
TEXT
  5
2E9
330
235
100
AcDbEntity
  8
0
  6
Continuous
 62
     7
100
AcDbText
 10
154.5070305122
 20
61.67057698659999
 30
0.0
 40
0.6666666667
  1
37
  7
TEXTSTYLE_2
100
AcDbText
  0
TEXT
  5
2EA
330
235
100
AcDbEntity
  8
0
  6
Continuous
 62
     7
100
AcDbText
 10
144.6625860677
 20
60.6705769866
 30
0.0
 40
0.6666666667
  1
 
  7
TEXTSTYLE_2
100
AcDbText
  0
TEXT
  5
2EB
330
235
100
AcDbEntity
  8
0
  6
Continuous
 62
     7
100
AcDbText
 10
144.6625860677
 20
59.67057698659999
 30
0.0
 40
0.6666666667
  1
NIVEAU D'EAU              GALLONS(US)        LITRES        GALLONS(UK)
  7
TEXTSTYLE_2
100
AcDbText
  0
TEXT
  5
2EC
330
235
100
AcDbEntity
  8
0
  6
Continuous
 62
     7
100
AcDbText
 10
144.6625860677
 20
58.6705769866
 30
0.0
 40
0.6666666667
  1
PLEIN
  7
TEXTSTYLE_2
100
AcDbText
  0
TEXT
  5
2ED
330
235
100
AcDbEntity
  8
0
  6
Continuous
 62
     7
100
AcDbText
 10
144.6625860677
 20
57.6705769866
 30
0.0
 40
0.6666666667
  1
HAUT T.PLEIN
  7
TEXTSTYLE_2
100
AcDbText
  0
TEXT
  5
2EE
330
235
100
AcDbEntity
  8
0
  6
Continuous
 62
     7
100
AcDbText
 10
144.6625860677
 20
56.67057698659999
 30
0.0
 40
0.6666666667
  1
MILIEU T.PLEIN
  7
TEXTSTYLE_2
100
AcDbText
  0
TEXT
  5
2EF
330
235
100
AcDbEntity
  8
0
  6
Continuous
 62
     7
100
AcDbText
 10
144.6625860677
 20
55.6705769866
 30
0.0
 40
0.6666666667
  1
BAS T.PLEIN
  7
TEXTSTYLE_2
100
AcDbText
  0
TEXT
  5
2F0
330
235
100
AcDbEntity
  8
0
  6
Continuous
 62
     7
100
AcDbText
 10
144.6625860677
 20
54.67057698659999
 30
0.0
 40
0.6666666667
  1
3" EN BAS T.PLEIN
  7
TEXTSTYLE_2
100
AcDbText
  0
TEXT
  5
2F1
330
235
100
AcDbEntity
  8
0
  6
Continuous
 62
     7
100
AcDbText
 10
144.6625860677
 20
53.6705769866
 30
0.0
 40
0.6666666667
  1
 
  7
TEXTSTYLE_2
100
AcDbText
  0
TEXT
  5
2F2
330
235
100
AcDbEntity
  8
0
  6
Continuous
 62
     7
100
AcDbText
 10
144.4624245621
 20
53.1237900618
 30
0.0
 40
0.5
  1
Legende/Legend
  7
TEXTSTYLE_2
100
AcDbText
  0
TEXT
  5
2F3
330
235
100
AcDbEntity
  8
0
  6
Continuous
 62
     7
100
AcDbText
 10
150.9912595062
 20
51.6125250841
 30
0.0
 40
0.6666666667
  1
ZONE DE ROBINETTERIE
  7
TEXTSTYLE_2
100
AcDbText
  0
TEXT
  5
2F4
330
235
100
AcDbEntity
  8
0
  6
Continuous
 62
     7
100
AcDbText
 10
145.9115349392
 20
50.1172805697
 30
0.0
 40
0.6666666667
  1
L   :  SYSTEME LED       DC   :  DOUBLE DOSSIER CHAUFFANT
  7
TEXTSTYLE_2
100
AcDbText
  0
TEXT
  5
2F5
330
235
100
AcDbEntity
  8
0
  6
Continuous
 62
     7
100
AcDbText
 10
145.9115349392
 20
48.7839472363
 30
0.0
 40
0.6666666667
  1
C   :  CONTROLE
  7
TEXTSTYLE_2
100
AcDbText
  0
TEXT
  5
2F6
330
235
100
AcDbEntity
  8
0
  6
Continuous
 62
     7
100
AcDbText
 10
145.9115349392
 20
47.450613903
 30
0.0
 40
0.6666666667
  1
T   :  MOTEUR
  7
TEXTSTYLE_2
100
AcDbText
  0
TEXT
  5
2F7
330
235
100
AcDbEntity
  8
0
  6
Continuous
 62
     7
100
AcDbText
 10
157.495282767
 20
58.6705769866
 30
0.0
 40
0.6666666667
  1
83
  7
TEXTSTYLE_2
100
AcDbText
  0
TEXT
  5
2F8
330
235
100
AcDbEntity
  8
0
  6
Continuous
 62
     7
100
AcDbText
 10
157.495282767
 20
57.6705769866
 30
0.0
 40
0.6666666667
  1
65
  7
TEXTSTYLE_2
100
AcDbText
  0
TEXT
  5
2F9
330
235
100
AcDbEntity
  8
0
  6
Continuous
 62
     7
100
AcDbText
 10
157.495282767
 20
56.67057698659999
 30
0.0
 40
0.6666666667
  1
64
  7
TEXTSTYLE_2
100
AcDbText
  0
TEXT
  5
2FA
330
235
100
AcDbEntity
  8
0
  6
Continuous
 62
     7
100
AcDbText
 10
157.495282767
 20
55.6705769866
 30
0.0
 40
0.6666666667
  1
63
  7
TEXTSTYLE_2
100
AcDbText
  0
TEXT
  5
2FB
330
235
100
AcDbEntity
  8
0
  6
Continuous
 62
     7
100
AcDbText
 10
157.495282767
 20
54.67057698659999
 30
0.0
 40
0.6666666667
  1
50
  7
TEXTSTYLE_2
100
AcDbText
  0
TEXT
  5
2FC
330
235
100
AcDbEntity
  8
0
  6
Continuous
 62
     7
100
AcDbText
 10
164.4154887107
 20
58.6876563887
 30
0.0
 40
0.6666666667
  1
315
  7
TEXTSTYLE_2
100
AcDbText
  0
TEXT
  5
2FD
330
235
100
AcDbEntity
  8
0
  6
Continuous
 62
     7
100
AcDbText
 10
164.4154887107
 20
57.6876563887
 30
0.0
 40
0.6666666667
  1
247
  7
TEXTSTYLE_2
100
AcDbText
  0
TEXT
  5
2FE
330
235
100
AcDbEntity
  8
0
  6
Continuous
 62
     7
100
AcDbText
 10
164.4154887107
 20
56.6876563887
 30
0.0
 40
0.6666666667
  1
243
  7
TEXTSTYLE_2
100
AcDbText
  0
TEXT
  5
2FF
330
235
100
AcDbEntity
  8
0
  6
Continuous
 62
     7
100
AcDbText
 10
164.4154887107
 20
55.6876563887
 30
0.0
 40
0.6666666667
  1
240
  7
TEXTSTYLE_2
100
AcDbText
  0
TEXT
  5
300
330
235
100
AcDbEntity
  8
0
  6
Continuous
 62
     7
100
AcDbText
 10
164.4154887107
 20
54.68765638869999
 30
0.0
 40
0.6666666667
  1
188
  7
TEXTSTYLE_2
100
AcDbText
  0
TEXT
  5
301
330
235
100
AcDbEntity
  8
0
  6
Continuous
 62
     7
100
AcDbText
 10
171.3601276482
 20
58.6705769866
 30
0.0
 40
0.6666666667
  1
69
  7
TEXTSTYLE_2
100
AcDbText
  0
TEXT
  5
302
330
235
100
AcDbEntity
  8
0
  6
Continuous
 62
     7
100
AcDbText
 10
171.3601276482
 20
57.6705769866
 30
0.0
 40
0.6666666667
  1
54
  7
TEXTSTYLE_2
100
AcDbText
  0
TEXT
  5
303
330
235
100
AcDbEntity
  8
0
  6
Continuous
 62
     7
100
AcDbText
 10
171.3601276482
 20
56.67057698659999
 30
0.0
 40
0.6666666667
  1
53
  7
TEXTSTYLE_2
100
AcDbText
  0
TEXT
  5
304
330
235
100
AcDbEntity
  8
0
  6
Continuous
 62
     7
100
AcDbText
 10
171.3601276482
 20
55.6705769866
 30
0.0
 40
0.6666666667
  1
53
  7
TEXTSTYLE_2
100
AcDbText
  0
TEXT
  5
305
330
235
100
AcDbEntity
  8
0
  6
Continuous
 62
     7
100
AcDbText
 10
171.3601276482
 20
54.67057698659999
 30
0.0
 40
0.6666666667
  1
41
  7
TEXTSTYLE_2
100
AcDbText
  0
LINE
  5
306
330
235
100
AcDbEntity
  8
0
  6
Continuous
 62
     7
100
AcDbLine
 10
143.995919401
 20
64.0039103199
 30
0.0
 11
143.995919401
 21
46.67057698659999
 31
0.0
  0
LINE
  5
307
330
235
100
AcDbEntity
  8
0
  6
Continuous
 62
     7
100
AcDbLine
 10
143.995919401
 20
64.0039103199
 30
0.0
 11
177.3292527343999
 21
64.0039103199
 31
0.0
  0
LINE
  5
308
330
235
100
AcDbEntity
  8
0
  6
Continuous
 62
     7
100
AcDbLine
 10
177.3292527343999
 20
64.0039103199
 30
0.0
 11
177.3292527343999
 21
46.67057698659999
 31
0.0
  0
LINE
  5
309
330
235
100
AcDbEntity
  8
0
  6
Continuous
 62
     7
100
AcDbLine
 10
143.995919401
 20
46.67057698659999
 30
0.0
 11
177.3292527343999
 21
46.67057698659999
 31
0.0
  0
LINE
  5
30A
330
235
100
AcDbEntity
  8
0
  6
Continuous
 62
     7
100
AcDbLine
 10
145.3292527344
 20
54.0039103199
 30
0.0
 11
175.995919401
 21
54.0039103199
 31
0.0
  0
LINE
  5
30B
330
235
100
AcDbEntity
  8
0
  6
Continuous
 62
     7
100
AcDbLine
 10
145.3292527344
 20
61.0039103199
 30
0.0
 11
175.995919401
 21
61.0039103199
 31
0.0
  0
LINE
  5
30C
330
235
100
AcDbEntity
  8
0
  6
Continuous
 62
     7
100
AcDbLine
 10
144.8048259603
 20
52.3820748243
 30
0.0
 11
144.435805218
 21
52.01305408199999
 31
0.0
  0
LINE
  5
30D
330
235
100
AcDbEntity
  8
0
  6
Continuous
 62
     7
100
AcDbLine
 10
145.471492627
 20
52.3820748243
 30
0.0
 11
144.6734768366
 21
51.58405903390001
 31
0.0
  0
LINE
  5
30E
330
235
100
AcDbEntity
  8
0
  6
Continuous
 62
     7
100
AcDbLine
 10
146.1381592937
 20
52.3820748243
 30
0.0
 11
145.3401435032
 21
51.58405903390001
 31
0.0
  0
LINE
  5
30F
330
235
100
AcDbEntity
  8
0
  6
Continuous
 62
     7
100
AcDbLine
 10
146.8048259603
 20
52.3820748243
 30
0.0
 11
146.0068101699
 21
51.58405903390001
 31
0.0
  0
LINE
  5
310
330
235
100
AcDbEntity
  8
0
  6
Continuous
 62
     7
100
AcDbLine
 10
147.471492627
 20
52.3820748243
 30
0.0
 11
146.6734768366
 21
51.58405903390001
 31
0.0
  0
LINE
  5
311
330
235
100
AcDbEntity
  8
0
  6
Continuous
 62
     7
100
AcDbLine
 10
148.1381592937
 20
52.3820748243
 30
0.0
 11
147.3401435032
 21
51.58405903390001
 31
0.0
  0
LINE
  5
312
330
235
100
AcDbEntity
  8
0
  6
Continuous
 62
     7
100
AcDbLine
 10
148.8048259603
 20
52.3820748243
 30
0.0
 11
148.0068101699
 21
51.58405903390001
 31
0.0
  0
LINE
  5
313
330
235
100
AcDbEntity
  8
0
  6
Continuous
 62
     7
100
AcDbLine
 10
149.471492627
 20
52.3820748243
 30
0.0
 11
148.6734768366
 21
51.58405903390001
 31
0.0
  0
LINE
  5
314
330
235
100
AcDbEntity
  8
0
  6
Continuous
 62
     7
100
AcDbLine
 10
150.1381592937
 20
52.3820748243
 30
0.0
 11
149.3401435032
 21
51.58405903390001
 31
0.0
  0
LINE
  5
315
330
235
100
AcDbEntity
  8
0
  6
Continuous
 62
     7
100
AcDbLine
 10
150.5816467278
 20
52.1588955918
 30
0.0
 11
150.0068101699
 21
51.58405903390001
 31
0.0
  0
ELLIPSE
  5
316
330
235
100
AcDbEntity
  8
0
  6
Continuous
 62
     7
100
AcDbEllipse
 10
146.1413218832
 20
50.4348580269
 30
0.0
 11
1.0473539356
 21
0.0
 31
0.0
210
0.0
220
0.0
230
1.0
 40
0.4938647983
 41
0.0
 42
6.283185307179586
  0
ELLIPSE
  5
317
330
235
100
AcDbEntity
  8
0
  6
Continuous
 62
     7
100
AcDbEllipse
 10
146.1413218832
 20
49.1015246935
 30
0.0
 11
1.0473539356
 21
0.0
 31
0.0
210
0.0
220
0.0
230
1.0
 40
0.4938647983
 41
0.0
 42
6.283185307179586
  0
ELLIPSE
  5
318
330
235
100
AcDbEntity
  8
0
  6
Continuous
 62
     7
100
AcDbEllipse
 10
146.1413218832
 20
47.76819136020001
 30
0.0
 11
1.0473539356
 21
0.0
 31
0.0
210
0.0
220
0.0
230
1.0
 40
0.4938647983
 41
0.0
 42
6.283185307179586
  0
ELLIPSE
  5
319
330
235
100
AcDbEntity
  8
0
  6
Continuous
 62
     7
100
AcDbEllipse
 10
157.1599574643
 20
50.4543793839
 30
0.0
 11
1.0473539356
 21
0.0
 31
0.0
210
0.0
220
0.0
230
1.0
 40
0.4938647983
 41
0.0
 42
6.283185307179586
  0
ENDBLK
  5
31A
330
235
100
AcDbEntity
  8
0
  6
ByBlock
 62
     0
100
AcDbBlockEnd
  0
ENDSEC
  0
SECTION
  2
ENTITIES
  0
LINE
  5
45C
330
21A
100
AcDbEntity
  8
DEFAULT_2
  6
HIDDEN
 62
     7
100
AcDbLine
 10
24.789813413
 20
36.1369934434
 30
0.0
 11
28.0844716416
 21
20.6368451404
 31
0.0
  0
LINE
  5
45E
330
21A
100
AcDbEntity
  8
DEFAULT_2
  6
HIDDEN
 62
     7
100
AcDbLine
 10
34.4595388546
 20
18.7056405882
 30
0.0
 11
34.8173941786
 21
18.3477852642
 31
0.0
  0
LINE
  5
49F
330
21A
100
AcDbEntity
  8
DEFAULT_2
  6
HIDDEN
 62
     7
100
AcDbLine
 10
38.2402601385
 20
18.7772138292
 30
0.0
 11
69.7044013478
 21
19.6145941818
 31
0.0
  0
LINE
  5
4A2
330
21A
100
AcDbEntity
  8
DEFAULT_2
  6
HIDDEN
 62
     7
100
AcDbLine
 10
34.9941708739
 20
18.2745619595
 30
0.0
 11
37.5370640927
 21
18.2745619595
 31
0.0
  0
LINE
  5
4A7
330
21A
100
AcDbEntity
  8
DEFAULT_2
  6
HIDDEN
 62
     7
100
AcDbLine
 10
30.07402905
 20
18.9555223279
 30
0.0
 11
34.293233482
 21
18.7786444995
 31
0.0
  0
LWPOLYLINE
  5
527
330
21A
100
AcDbEntity
  8
DEFAULT_2
  6
HIDDEN
 62
     7
100
AcDbPolyline
 90
       22
 70
     0
 43
0.0
 10
19.2935107688
 20
38.2695065819
 10
19.5604188776
 20
38.2187089437
 10
19.8264836048
 20
38.16367978800001
 10
20.0916415023
 20
38.1044419714
 10
20.3558291215
 20
38.0410183506
 10
20.6189830143
 20
37.9734317823
 10
20.8810397323
 20
37.9017051232
 10
21.1419358273
 20
37.8258612298
 10
21.4016078509
 20
37.7459229589
 10
21.6599923548
 20
37.6619131671
 10
21.91702589070001
 20
37.5738547111
 10
22.1726450102
 20
37.4817704476
 10
22.4267862652
 20
37.3856832332
 10
22.6793862073
 20
37.2856159245
 10
22.9303813882
 20
37.1815913783
 10
23.1797083595
 20
37.0736324513
 10
23.427303673
 20
36.961762
 10
23.6731038803
 20
36.8460028811
 10
23.9170455333
 20
36.7263779514
 10
24.1590651834
 20
36.6029100674
 10
24.3990993825
 20
36.4756220858
 10
24.6370846823
 20
36.3445368634
  0
LWPOLYLINE
  5
58F
330
21A
100
AcDbEntity
  8
DEFAULT_2
  6
HIDDEN
 62
     7
100
AcDbPolyline
 90
      101
 70
     0
 43
0.0
 10
50.4531174833
 20
34.9104920018
 10
50.4472283439
 20
34.9104007465
 10
50.4413442609
 20
34.9101270876
 10
50.4354723302
 20
34.9096712976
 10
50.42961750199999
 20
34.909033785
 10
50.4237864283
 20
34.9082152779
 10
50.4179834868
 20
34.9072164088
 10
50.4122161454
 20
34.9060384325
 10
50.40648812949999
 20
34.9046821314
 10
50.4008073039
 20
34.90314935030001
 10
50.3951767969
 20
34.9014409543
 10
50.389604883
 20
34.8995594308
 10
50.38409412970001
 20
34.8975056692
 10
50.3786531031
 20
34.8952828388
 10
50.37328386609999
 20
34.8928918066
 10
50.3679951809
 20
34.89033644900001
 10
50.3627886694
 20
34.8876175755
 10
50.3576731784
 20
34.8847397788
 10
50.3526499592
 20
34.8817037908
 10
50.3477278311
 20
34.8785149121
 10
50.3429077485
 20
34.87517379150001
 10
50.3381983893
 20
34.8716864119
 10
50.3336004852
 20
34.8680533485
 10
50.3291224622
 20
34.8642812236
 10
50.3247649009
 20
34.86037056300001
 10
50.3205358702
 20
34.85632856880001
 10
50.31643586569999
 20
34.8521557554
 10
50.31247250279999
 20
34.84785983
 10
50.3086462503
 20
34.84344134590001
 10
50.3049641854
 20
34.838908427
 10
50.30142679689999
 20
34.83426172610001
 10
50.298040553
 20
34.8295096849
 10
50.2948059973
 20
34.8246531239
 10
50.2917289336
 20
34.8197006949
 10
50.28880998079999
 20
34.81465346010001
 10
50.2860542401
 20
34.8095201682
 10
50.283462411
 20
34.8043021987
 10
50.2810388717
 20
34.7990082826
 10
50.2787843922
 20
34.7936401914
 10
50.2767026256
 20
34.7882065248
 10
50.2747943865
 20
34.7827095163
 10
50.2730626184
 20
34.77715752570001
 10
50.2715081406
 20
34.7715533118
 10
50.2701332187
 20
34.7659048931
 10
50.2689386238
 20
34.7602156064
 10
50.2679259903
 20
34.7544930386
 10
50.2670959768
 20
34.7487411447
 10
50.2664496462
 20
34.7429670029
 10
50.2659874717
 20
34.7371752113
 10
50.2657100143
 20
34.73137227760001
 10
50.26561748329999
 20
34.7255634515
 10
50.2657100143
 20
34.71975462550001
 10
50.2659874717
 20
34.7139516918
 10
50.2664496462
 20
34.7081599002
 10
50.2670959768
 20
34.7023857583
 10
50.2679259903
 20
34.6966338645
 10
50.2689386238
 20
34.6909112967
 10
50.2701332187
 20
34.68522201
 10
50.2715081406
 20
34.6795735912
 10
50.2730626184
 20
34.6739693773
 10
50.2747943865
 20
34.6684173867
 10
50.2767026256
 20
34.6629203783
 10
50.2787843922
 20
34.6574867117
 10
50.2810388717
 20
34.6521186204
 10
50.283462411
 20
34.6468247044
 10
50.2860542401
 20
34.64160673489999
 10
50.28880998079999
 20
34.636473443
 10
50.2917289336
 20
34.6314262081
 10
50.2948059973
 20
34.6264737791
 10
50.298040553
 20
34.6216172182
 10
50.30142679689999
 20
34.6168651769
 10
50.3049641854
 20
34.6122184761
 10
50.3086462503
 20
34.6076855572
 10
50.31247250279999
 20
34.6032670731
 10
50.31643586569999
 20
34.5989711476
 10
50.3205358702
 20
34.5947983343
 10
50.3247649009
 20
34.5907563401
 10
50.3291224622
 20
34.5868456795
 10
50.3336004852
 20
34.5830735546
 10
50.3381983893
 20
34.5794404912
 10
50.3429077485
 20
34.5759531116
 10
50.3477278311
 20
34.572611991
 10
50.3526499592
 20
34.5694231123
 10
50.3576731784
 20
34.5663871243
 10
50.3627886694
 20
34.5635093276
 10
50.3679951809
 20
34.5607904541
 10
50.37328386609999
 20
34.5582350965
 10
50.3786531031
 20
34.5558440642
 10
50.38409412970001
 20
34.5536212339
 10
50.389604883
 20
34.5515674723
 10
50.3951767969
 20
34.5496859487
 10
50.4008073039
 20
34.5479775528
 10
50.40648812949999
 20
34.5464447717
 10
50.4122161454
 20
34.5450884706
 10
50.4179834868
 20
34.5439104943
 10
50.4237864283
 20
34.54291162510001
 10
50.42961750199999
 20
34.5420931181
 10
50.4354723302
 20
34.54145560550001
 10
50.4413442609
 20
34.5409998155
 10
50.4472283439
 20
34.5407261566
 10
50.4531174833
 20
34.5406349012
  0
LINE
  5
5A5
330
21A
100
AcDbEntity
  8
DEFAULT_2
  6
HIDDEN
 62
     7
100
AcDbLine
 10
53.07811748329999
 20
34.5406349012
 30
0.0
 11
50.4531174833
 21
34.5406349012
 31
0.0
  0
LINE
  5
5A6
330
21A
100
AcDbEntity
  8
DEFAULT_2
  6
HIDDEN
 62
     7
100
AcDbLine
 10
50.4531174833
 20
34.9104920018
 30
0.0
 11
53.07811748329999
 21
34.9104920018
 31
0.0
  0
LWPOLYLINE
  5
5CC
330
21A
100
AcDbEntity
  8
DEFAULT_2
  6
HIDDEN
 62
     7
100
AcDbPolyline
 90
      101
 70
     0
 43
0.0
 10
53.07811748329999
 20
34.9104920018
 10
53.0840066227
 20
34.9104007465
 10
53.0898907057
 20
34.9101270876
 10
53.0957626364
 20
34.9096712976
 10
53.1016174646
 20
34.909033785
 10
53.1074485383
 20
34.9082152779
 10
53.11325147979999
 20
34.9072164088
 10
53.1190188212
 20
34.9060384325
 10
53.1247468371
 20
34.9046821314
 10
53.13042766270001
 20
34.90314935030001
 10
53.1360581697
 20
34.9014409543
 10
53.1416300836
 20
34.8995594308
 10
53.14714083689999
 20
34.8975056692
 10
53.1525818635
 20
34.8952828388
 10
53.1579511005
 20
34.8928918066
 10
53.1632397857
 20
34.89033644900001
 10
53.1684462972
 20
34.8876175755
 10
53.17356178819999
 20
34.8847397788
 10
53.17858500739999
 20
34.8817037908
 10
53.1835071355
 20
34.8785149121
 10
53.1883272181
 20
34.87517379150001
 10
53.19303657729999
 20
34.8716864119
 10
53.1976344814
 20
34.8680533485
 10
53.20211250439999
 20
34.8642812236
 10
53.20647006569999
 20
34.86037056300001
 10
53.21069909640001
 20
34.85632856880001
 10
53.2147991009
 20
34.8521557554
 10
53.2187624638
 20
34.84785983
 10
53.2225887163
 20
34.84344134590001
 10
53.2262707812
 20
34.838908427
 10
53.2298081697
 20
34.83426172610001
 10
53.23319441359999
 20
34.8295096849
 10
53.2364289693
 20
34.8246531239
 10
53.23950603300001
 20
34.8197006949
 10
53.2424249858
 20
34.81465346010001
 10
53.2451807265
 20
34.8095201682
 10
53.2477725556
 20
34.8043021987
 10
53.25019609489999
 20
34.7990082826
 10
53.2524505744
 20
34.7936401914
 10
53.254532341
 20
34.7882065248
 10
53.2564405801
 20
34.7827095163
 10
53.2581723482
 20
34.77715752570001
 10
53.259726826
 20
34.7715533118
 10
53.2611017479
 20
34.7659048931
 10
53.2622963428
 20
34.7602156064
 10
53.26330897630001
 20
34.7544930386
 10
53.2641389898
 20
34.7487411447
 10
53.2647853204
 20
34.7429670029
 10
53.26524749489999
 20
34.7371752113
 10
53.2655249523
 20
34.73137227760001
 10
53.2656174833
 20
34.7255634515
 10
53.2655249523
 20
34.71975462550001
 10
53.26524749489999
 20
34.7139516918
 10
53.2647853204
 20
34.7081599002
 10
53.2641389898
 20
34.7023857583
 10
53.26330897630001
 20
34.6966338645
 10
53.2622963428
 20
34.6909112967
 10
53.2611017479
 20
34.68522201
 10
53.259726826
 20
34.6795735912
 10
53.2581723482
 20
34.6739693773
 10
53.2564405801
 20
34.6684173867
 10
53.254532341
 20
34.6629203783
 10
53.2524505744
 20
34.6574867117
 10
53.25019609489999
 20
34.6521186204
 10
53.2477725556
 20
34.6468247044
 10
53.2451807265
 20
34.64160673489999
 10
53.2424249858
 20
34.636473443
 10
53.23950603300001
 20
34.6314262081
 10
53.2364289693
 20
34.6264737791
 10
53.23319441359999
 20
34.6216172182
 10
53.2298081697
 20
34.6168651769
 10
53.2262707812
 20
34.6122184761
 10
53.2225887163
 20
34.6076855572
 10
53.2187624638
 20
34.6032670731
 10
53.2147991009
 20
34.5989711476
 10
53.21069909640001
 20
34.5947983343
 10
53.20647006569999
 20
34.5907563401
 10
53.20211250439999
 20
34.5868456795
 10
53.1976344814
 20
34.5830735546
 10
53.19303657729999
 20
34.5794404912
 10
53.1883272181
 20
34.5759531116
 10
53.1835071355
 20
34.572611991
 10
53.17858500739999
 20
34.5694231123
 10
53.17356178819999
 20
34.5663871243
 10
53.1684462972
 20
34.5635093276
 10
53.1632397857
 20
34.5607904541
 10
53.1579511005
 20
34.5582350965
 10
53.1525818635
 20
34.5558440642
 10
53.14714083689999
 20
34.5536212339
 10
53.1416300836
 20
34.5515674723
 10
53.1360581697
 20
34.5496859487
 10
53.13042766270001
 20
34.5479775528
 10
53.1247468371
 20
34.5464447717
 10
53.1190188212
 20
34.5450884706
 10
53.11325147979999
 20
34.5439104943
 10
53.1074485383
 20
34.54291162510001
 10
53.1016174646
 20
34.5420931181
 10
53.0957626364
 20
34.54145560550001
 10
53.0898907057
 20
34.5409998155
 10
53.0840066227
 20
34.5407261566
 10
53.07811748329999
 20
34.5406349012
  0
LINE
  5
672
330
21A
100
AcDbEntity
  8
DEFAULT_2
  6
HIDDEN
 62
     7
100
AcDbLine
 10
37.713840788
 20
18.3477852642
 30
0.0
 11
38.0701345381
 21
18.7040790143
 31
0.0
  0
LINE
  5
6D7
330
21A
100
AcDbEntity
  8
DEFAULT_2
  6
HIDDEN
 62
     7
100
AcDbLine
 10
71.5737710888
 20
20.8407782124
 30
0.0
 11
78.72852416349999
 21
36.1841956955
 31
0.0
  0
LWPOLYLINE
  5
7FC
330
21A
100
AcDbEntity
  8
DEFAULT_2
  6
HIDDEN
 62
     7
100
AcDbPolyline
 90
       22
 70
     0
 43
0.0
 10
78.8581497166
 20
36.3242756696
 10
79.0975483248
 20
36.4568705036
 10
79.3390345302
 20
36.5856172709
 10
79.582543527
 20
36.7104925378
 10
79.8280105094
 20
36.8314728708
 10
80.0753706715
 20
36.9485348365
 10
80.32455920770001
 20
37.0616550014
 10
80.5755113122
 20
37.1708099318
 10
80.8281621791
 20
37.2759761944
 10
81.0824470026
 20
37.37713035560001
 10
81.338300977
 20
37.4742489819
 10
81.5956592965
 20
37.5673086397
 10
81.85445715529999
 20
37.6562858956
 10
82.11462974760001
 20
37.741157316
 10
82.3761122676
 20
37.8218994675
 10
82.6388399096
 20
37.8984889165
 10
82.9027478677
 20
37.9709022295
 10
83.1677713362
 20
38.0391159731
 10
83.43384550919999
 20
38.1031067136
 10
83.70090558100001
 20
38.16285101750001
 10
83.96888674580001
 20
38.2183254515
 10
84.23772419779998
 20
38.2695065819
  0
LINE
  5
14F7
330
21A
100
AcDbEntity
  8
0
  6
Continuous
 62
     7
100
AcDbLine
 10
15.7656174833
 20
37.7745619595
 30
0.0
 11
15.789395934
 21
38.0463508952
 31
0.0
  0
LINE
  5
14F8
330
21A
100
AcDbEntity
  8
0
  6
Continuous
 62
     7
100
AcDbLine
 10
24.6675449629
 20
36.1110044821
 30
0.0
 11
27.9622031916
 21
20.6108561791
 31
0.0
  0
LINE
  5
14F9
330
21A
100
AcDbEntity
  8
0
  6
Continuous
 62
     7
100
AcDbLine
 10
34.7290058309
 20
18.2593969166
 30
0.0
 11
34.3711505069
 21
18.6172522406
 31
0.0
  0
LINE
  5
14FA
330
21A
100
AcDbEntity
  8
0
  6
Continuous
 62
     7
100
AcDbLine
 10
36.8948248453
 20
18.5728001096
 30
0.0
 11
36.9267578221
 21
18.5402417329
 31
0.0
  0
LINE
  5
14FB
330
21A
100
AcDbEntity
  8
0
  6
Continuous
 62
     7
100
AcDbLine
 10
36.9267578221
 20
18.5402417329
 30
0.0
 11
36.9544933129
 21
18.504045497
 31
0.0
  0
LINE
  5
14FC
330
21A
100
AcDbEntity
  8
0
  6
Continuous
 62
     7
100
AcDbLine
 10
36.9544933129
 20
18.504045497
 30
0.0
 11
36.9776204441
 21
18.4647476127
 31
0.0
  0
LINE
  5
14FD
330
21A
100
AcDbEntity
  8
0
  6
Continuous
 62
     7
100
AcDbLine
 10
36.9776204441
 20
18.4647476127
 30
0.0
 11
36.9957966105
 21
18.4229302389
 31
0.0
  0
LWPOLYLINE
  5
14FE
330
21A
100
AcDbEntity
  8
0
  6
Continuous
 62
     7
100
AcDbPolyline
 90
        6
 70
     0
 43
0.0
 10
37.1346556513
 20
18.0414180752
 10
37.16111555280001
 20
17.97643171
 10
37.1925055453
 20
17.9133384194
 10
37.2285132531
 20
17.8527985538
 10
37.26886346020001
 20
17.795259944
 10
37.3134423934
 20
17.740905051
  0
LINE
  5
14FF
330
21A
100
AcDbEntity
  8
DEFAULT_1
  6
CENTER
 62
     7
100
AcDbLine
 10
36.2656174833
 20
16.2078952929
 30
0.0
 11
36.2656174833
 21
23.8197216638
 31
0.0
  0
LINE
  5
1500
330
21A
100
AcDbEntity
  8
0
  6
Continuous
 62
     7
100
AcDbLine
 10
36.6449496047
 20
18.7014457801
 30
0.0
 11
36.6448189233
 21
18.6702244097
 31
0.0
  0
LINE
  5
1501
330
21A
100
AcDbEntity
  8
0
  6
Continuous
 62
     7
100
AcDbLine
 10
36.6449761871
 20
18.6693389301
 30
0.0
 11
36.645106546
 21
18.7005611318
 31
0.0
  0
LWPOLYLINE
  5
1502
330
21A
100
AcDbEntity
  8
0
  6
Continuous
 62
     7
100
AcDbPolyline
 90
        6
 70
     0
 43
0.0
 10
37.6720789348
 20
17.4897850381
 10
37.7384028886
 20
17.4664849588
 10
37.8062720423
 20
17.4482475517
 10
37.8754762294
 20
17.4351172433
 10
37.94550049770001
 20
17.4271994847
 10
38.0156174833
 20
17.4245619595
  0
LINE
  5
1503
330
21A
100
AcDbEntity
  8
0
  6
Continuous
 62
     7
100
AcDbLine
 10
37.6720789348
 20
17.4897850381
 30
0.0
 11
37.6507401799
 21
17.5044950615
 31
0.0
  0
LINE
  5
1504
330
21A
100
AcDbEntity
  8
0
  6
Continuous
 62
     7
100
AcDbLine
 10
37.6507401799
 20
17.5044950615
 30
0.0
 11
37.6414277841
 21
17.5109415455
 31
0.0
  0
LWPOLYLINE
  5
1505
330
21A
100
AcDbEntity
  8
0
  6
Continuous
 62
     7
100
AcDbPolyline
 90
        4
 70
     0
 43
0.0
 10
37.6186406946
 20
17.5247468803
 10
37.6330279553
 20
17.5147664796
 10
37.64450886800001
 20
17.5068254711
 10
37.6595060586
 20
17.4964854981
  0
LINE
  5
1506
330
21A
100
AcDbEntity
  8
0
  6
Continuous
 62
     7
100
AcDbLine
 10
37.6414277841
 20
17.5109415455
 30
0.0
 11
37.6172575815
 21
17.5277330662
 31
0.0
  0
LWPOLYLINE
  5
1507
330
21A
100
AcDbEntity
  8
0
  6
Continuous
 62
     7
100
AcDbPolyline
 90
        4
 70
     0
 43
0.0
 10
37.6172575815
 20
17.5277330662
 10
37.5842709818
 20
17.5507376626
 10
37.56429612210001
 20
17.564702198
 10
37.5424617471
 20
17.5799930111
  0
LWPOLYLINE
  5
1508
330
21A
100
AcDbEntity
  8
0
  6
Continuous
 62
     7
100
AcDbPolyline
 90
        5
 70
     0
 43
0.0
 10
37.5389213047
 20
17.5803966888
 10
37.5613695641
 20
17.5646820331
 10
37.5824243918
 20
17.5499710652
 10
37.6016518683
 20
17.5365644992
 10
37.6186406946
 20
17.5247468803
  0
LINE
  5
1509
330
21A
100
AcDbEntity
  8
0
  6
Continuous
 62
     7
100
AcDbLine
 10
37.3379229754
 20
17.723743345
 30
0.0
 11
37.3134423934
 21
17.740905051
 31
0.0
  0
LINE
  5
150A
330
21A
100
AcDbEntity
  8
0
  6
Continuous
 62
     7
100
AcDbLine
 10
37.3244841702
 20
17.7310686319
 30
0.0
 11
37.3507572866
 21
17.7126420905
 31
0.0
  0
LINE
  5
150B
330
21A
100
AcDbEntity
  8
0
  6
Continuous
 62
     7
100
AcDbLine
 10
37.4916722835
 20
17.6135523796
 30
0.0
 11
37.5389213047
 21
17.5803966888
 31
0.0
  0
LINE
  5
150C
330
21A
100
AcDbEntity
  8
0
  6
Continuous
 62
     7
100
AcDbLine
 10
37.5424617471
 20
17.5799930111
 30
0.0
 11
37.4956964603
 21
17.6128142698
 31
0.0
  0
LINE
  5
150D
330
21A
100
AcDbEntity
  8
0
  6
Continuous
 62
     7
100
AcDbLine
 10
37.4956964603
 20
17.6128142698
 30
0.0
 11
37.4261721268
 21
17.661677316
 31
0.0
  0
LWPOLYLINE
  5
150E
330
21A
100
AcDbEntity
  8
0
  6
Continuous
 62
     7
100
AcDbPolyline
 90
        3
 70
     0
 43
0.0
 10
37.3507572866
 20
17.7126420905
 10
37.4010392487
 20
17.677276696
 10
37.4916722835
 20
17.6135523796
  0
LWPOLYLINE
  5
150F
330
21A
100
AcDbEntity
  8
0
  6
Continuous
 62
     7
100
AcDbPolyline
 90
        3
 70
     0
 43
0.0
 10
37.4261721268
 20
17.661677316
 10
37.3849331371
 20
17.6906839521
 10
37.3379229754
 20
17.723743345
  0
LWPOLYLINE
  5
1510
330
21A
100
AcDbEntity
  8
0
  6
Continuous
 62
     7
100
AcDbPolyline
 90
        3
 70
     0
 43
0.0
 10
36.645106546
 20
18.7005611318
 10
36.6514193975
 20
18.6958028627
 10
36.6525898355
 20
18.6954421898
  0
LWPOLYLINE
  5
1511
330
21A
100
AcDbEntity
  8
0
  6
Continuous
 62
     7
100
AcDbPolyline
 90
        5
 70
     0
 43
0.0
 10
36.6449761872
 20
18.66933894369999
 10
36.6509270832
 20
18.6647422238
 10
36.6655708608
 20
18.660102481
 10
36.6889038306
 20
18.6554693852
 10
36.7207965043
 20
18.6508925229
  0
LINE
  5
1512
330
21A
100
AcDbEntity
  8
0
  6
Continuous
 62
     7
100
AcDbLine
 10
37.1346556513
 20
18.0414180752
 30
0.0
 11
36.9957965833
 21
18.422930229
 31
0.0
  0
LINE
  5
1513
330
21A
100
AcDbEntity
  8
0
  6
Continuous
 62
     7
100
AcDbLine
 10
36.6449496019
 20
18.7014450767
 30
0.0
 11
36.645106546
 21
18.7005611318
 31
0.0
  0
LINE
  5
1514
330
21A
100
AcDbEntity
  8
0
  6
Continuous
 62
     7
100
AcDbLine
 10
36.6448192139
 20
18.6702244084
 30
0.0
 11
36.6449761871
 21
18.6693389301
 31
0.0
  0
LINE
  5
1515
330
21A
100
AcDbEntity
  8
0
  6
Continuous
 62
     7
100
AcDbLine
 10
38.0155829931
 20
18.7244988965
 30
0.0
 11
38.0155801189
 21
18.7557229419
 31
0.0
  0
LWPOLYLINE
  5
1516
330
21A
100
AcDbEntity
  8
0
  6
Continuous
 62
     7
100
AcDbPolyline
 90
       17
 70
     0
 43
0.0
 10
36.7474559833
 20
18.6509911257
 10
36.7476121123
 20
18.6509597026
 10
36.7501969741
 20
18.6504039183
 10
36.7557812122
 20
18.6490423014
 10
36.7643249858
 20
18.6466563748
 10
36.7755280402
 20
18.6430593025
 10
36.7892449716
 20
18.6379854199
 10
36.8059766846
 20
18.630818383
 10
36.8262226167
 20
18.6206729969
 10
36.84921664
 20
18.6070568356
 10
36.8735904703
 20
18.5899011603
 10
36.8983100072
 20
18.5691383938
 10
36.9226016724
 20
18.5446400139
 10
36.9456746827
 20
18.5163947734
 10
36.9667911281
 20
18.4844395767
 10
36.9852547715
 20
18.4488223462
 10
36.9957961516
 20
18.4229314997
  0
LWPOLYLINE
  5
1517
330
21A
100
AcDbEntity
  8
0
  6
Continuous
 62
     7
100
AcDbPolyline
 90
        5
 70
     0
 43
0.0
 10
36.73535913110001
 20
18.6579606237
 10
36.7788395921
 20
18.6441363099
 10
36.8203138273
 20
18.6251350429
 10
36.8591674375
 20
18.6012383074
 10
36.8948248453
 20
18.5728001096
  0
LWPOLYLINE
  5
1518
330
21A
100
AcDbEntity
  8
0
  6
Continuous
 62
     7
100
AcDbPolyline
 90
       11
 70
     0
 43
0.0
 10
65.08956542359999
 20
19.2506967718
 10
65.0449204452
 20
19.2468540899
 10
65.00105259699999
 20
19.2377136181
 10
64.9585882565
 20
19.223405871
 10
64.9181337607
 20
19.2041351449
 10
64.8802667488
 20
19.1801766015
 10
64.84552791369999
 20
19.1518723385
 10
64.8144132822
 20
19.1196265051
 10
64.78736713169999
 20
19.0838995308
 10
64.76477564719999
 20
19.0452015518
 10
64.74696140649999
 20
19.0040851262
  0
LINE
  5
1519
330
21A
100
AcDbEntity
  8
0
  6
Continuous
 62
     7
100
AcDbLine
 10
64.6297865596
 20
18.6821497129
 30
0.0
 11
66.2998786109
 21
18.7215502678
 31
0.0
  0
LINE
  5
151A
330
21A
100
AcDbEntity
  8
0
  6
Continuous
 62
     7
100
AcDbLine
 10
38.0156174833
 20
17.4245619595
 30
0.0
 11
63.51561748329999
 21
17.4245619595
 31
0.0
  0
LINE
  5
151B
330
21A
100
AcDbEntity
  8
0
  6
Continuous
 62
     7
100
AcDbLine
 10
34.9941708739
 20
18.1495619595
 30
0.0
 11
37.0952944964
 21
18.1495619595
 31
0.0
  0
LINE
  5
151C
330
21A
100
AcDbEntity
  8
0
  6
Continuous
 62
     7
100
AcDbLine
 10
34.2879978207
 20
18.6537541962
 30
0.0
 11
30.0687933887
 21
18.8306320246
 31
0.0
  0
LWPOLYLINE
  5
151D
330
21A
100
AcDbEntity
  8
0
  6
Continuous
 62
     7
100
AcDbPolyline
 90
        3
 70
     0
 43
0.0
 10
36.6449761872
 20
18.66933894369999
 10
36.6905165635
 20
18.666403191
 10
36.73535913110001
 20
18.6579606237
  0
LINE
  5
151E
330
21A
100
AcDbEntity
  8
0
  6
Continuous
 62
     7
100
AcDbLine
 10
36.7610185567
 20
18.6464211884
 30
0.0
 11
36.7666205291
 21
18.6459193227
 31
0.0
  0
LINE
  5
151F
330
21A
100
AcDbEntity
  8
0
  6
Continuous
 62
     7
100
AcDbLine
 10
36.7207965043
 20
18.6508925229
 30
0.0
 11
36.7610185567
 21
18.6464211884
 31
0.0
  0
LWPOLYLINE
  5
1520
330
21A
100
AcDbEntity
  8
0
  6
Continuous
 62
     7
100
AcDbPolyline
 90
        4
 70
     0
 43
0.0
 10
65.06321115819999
 20
19.2488902416
 10
65.0686817948
 20
19.2491344721
 10
65.0842257199
 20
19.2500382926
 10
65.0895654241
 20
19.2506967551
  0
LINE
  5
1521
330
21A
100
AcDbEntity
  8
0
  6
Continuous
 62
     7
100
AcDbLine
 10
66.25448366429999
 20
19.2729379257
 30
0.0
 11
65.06706911970001
 21
19.2413533922
 31
0.0
  0
LWPOLYLINE
  5
1522
330
21A
100
AcDbEntity
  8
0
  6
Continuous
 62
     7
100
AcDbPolyline
 90
        3
 70
     0
 43
0.0
 10
66.4357593668
 20
19.2777525575
 10
66.34554412909999
 20
19.2753583866
 10
66.2544836677
 20
19.272937799
  0
LINE
  5
1523
330
21A
100
AcDbEntity
  8
0
  6
Continuous
 62
     7
100
AcDbLine
 10
66.2540681721
 20
19.2885573986
 30
0.0
 11
65.08938480170001
 21
19.2575754189
 31
0.0
  0
LWPOLYLINE
  5
1524
330
21A
100
AcDbEntity
  8
0
  6
Continuous
 62
     7
100
AcDbPolyline
 90
        3
 70
     0
 43
0.0
 10
66.43744759329999
 20
19.2934278079
 10
66.34607836
 20
19.2910030823
 10
66.2540681721
 20
19.2885573986
  0
LINE
  5
1525
330
21A
100
AcDbEntity
  8
0
  6
Continuous
 62
     7
100
AcDbLine
 10
44.1391889571
 20
18.8091624788
 30
0.0
 11
69.7077268953
 21
19.4896384266
 31
0.0
  0
LWPOLYLINE
  5
1526
330
21A
100
AcDbEntity
  8
0
  6
Continuous
 62
     7
100
AcDbPolyline
 90
        5
 70
     0
 43
0.0
 10
66.85443728740001
 20
19.2888175721
 10
66.7766182543
 20
19.2867664706
 10
66.69545455579999
 20
19.284624608
 10
66.6113002429
 20
19.2824009174
 10
66.4357593668
 20
19.2777525575
  0
LWPOLYLINE
  5
1527
330
21A
100
AcDbEntity
  8
0
  6
Continuous
 62
     7
100
AcDbPolyline
 90
        5
 70
     0
 43
0.0
 10
66.859917955
 20
19.3045923325
 10
66.78222703260001
 20
19.3025447919
 10
66.7004283233
 20
19.3003863668
 10
66.61533401559999
 20
19.2981380174
 10
66.43744759329999
 20
19.2934278079
  0
LWPOLYLINE
  5
1528
330
21A
100
AcDbEntity
  8
0
  6
Continuous
 62
     7
100
AcDbPolyline
 90
        9
 70
     0
 43
0.0
 10
67.30698800350001
 20
19.3007030598
 10
67.27449981470001
 20
19.2998517105
 10
67.2463496611
 20
19.2991139277
 10
67.210524608
 20
19.2981747387
 10
67.16729487949999
 20
19.2970409793
 10
67.1170098459
 20
19.2957214944
 10
67.06007916449999
 20
19.2942266569
 10
66.99696087689999
 20
19.29256806599999
 10
66.85443728740001
 20
19.2888175721
  0
LINE
  5
1529
330
21A
100
AcDbEntity
  8
0
  6
Continuous
 62
     7
100
AcDbLine
 10
67.3110658114
 20
19.3008098872
 30
0.0
 11
67.30698800350001
 21
19.3007030598
 31
0.0
  0
LWPOLYLINE
  5
152A
330
21A
100
AcDbEntity
  8
0
  6
Continuous
 62
     7
100
AcDbPolyline
 90
        9
 70
     0
 43
0.0
 10
67.30662817229999
 20
19.3163239926
 10
67.27463192329999
 20
19.3154855348
 10
67.2468759685
 20
19.3147580875
 10
67.2115974797
 20
19.3138332338
 10
67.16897343779999
 20
19.3127153778
 10
67.1194383038
 20
19.3114156036
 10
67.06328892720001
 20
19.3099413369
 10
67.0010061542
 20
19.3083047853
 10
66.859917955
 20
19.3045923325
  0
LINE
  5
152B
330
21A
100
AcDbEntity
  8
0
  6
Continuous
 62
     7
100
AcDbLine
 10
67.3106501219
 20
19.3164293562
 30
0.0
 11
67.30662817229999
 21
19.3163239926
 31
0.0
  0
LWPOLYLINE
  5
152C
330
21A
100
AcDbEntity
  8
0
  6
Continuous
 62
     7
100
AcDbPolyline
 90
       42
 70
     0
 43
0.0
 10
63.5052756604
 20
19.24961469
 10
62.9569663232
 20
19.2356310665
 10
62.4040607455
 20
19.2215619476
 10
61.8522206107
 20
19.2075538188
 10
61.3069506968
 20
19.1937479362
 10
60.76394764879999
 20
19.1800369549
 10
60.2057928752
 20
19.1659850468
 10
59.6141388652
 20
19.1511392859
 10
58.97590967060001
 20
19.1351864352
 10
58.31018625369999
 20
19.1186202064
 10
57.6477321892
 20
19.1022168288
 10
57.00048745229999
 20
19.0862757604
 10
56.3582884677
 20
19.0705502704
 10
55.711458932
 20
19.0548118354
 10
55.05874632939999
 20
19.0390420144
 10
54.4000181883
 20
19.0232516188
 10
53.73052547989999
 20
19.0073443922
 10
53.0446826066
 20
18.9912114836
 10
52.3405103563
 20
18.9748372605
 10
51.6168523774
 20
18.9582329225
 10
50.8744074847
 20
18.9414601587
 10
50.1348883032
 20
18.9250502706
 10
49.432712364
 20
18.9097770561
 10
48.7973182137
 20
18.8962459873
 10
48.2230609744
 20
18.8842800247
 10
47.68886565959999
 20
18.8733964316
 10
47.17363440829999
 20
18.8631474463
 10
46.6631953128
 20
18.8532570629
 10
46.15377839109999
 20
18.8436726002
 10
45.6433258279
 20
18.8343830384
 10
45.130657079
 20
18.825400724
 10
44.6147667942
 20
18.8167476383
 10
44.09542383669999
 20
18.8084644534
 10
43.5777348152
 20
18.8006727993
 10
43.0656631113
 20
18.7934551714
 10
42.5352190098
 20
18.7865235178
 10
41.9502468022
 20
18.7795660929
 10
41.27643566919999
 20
18.7725124269
 10
40.5111156336
 20
18.7658537554
 10
39.6882815847
 20
18.7604459743
 10
38.8442890157
 20
18.7569552582
 10
38.0155801189
 20
18.7557229419
  0
LWPOLYLINE
  5
152D
330
21A
100
AcDbEntity
  8
0
  6
Continuous
 62
     7
100
AcDbPolyline
 90
       31
 70
     0
 43
0.0
 10
61.9735933794
 20
19.1793726085
 10
60.5808475856
 20
19.1441636331
 10
59.30276907100001
 20
19.1120896301
 10
58.1161873353
 20
19.0825496017
 10
57.0095864037
 20
19.0552414802
 10
55.9757865472
 20
19.0299733038
 10
55.0055444026
 20
19.0065050728
 10
54.0891660934
 20
18.9845909088
 10
53.2198944221
 20
18.964060637
 10
52.39176120979999
 20
18.9447669753
 10
51.59805722579999
 20
18.926550503
 10
50.83318669949999
 20
18.9092837002
 10
50.0925371476
 20
18.892867386
 10
49.3717941459
 20
18.8772154158
 10
48.66679846050001
 20
18.8622524904
 10
47.9735273265
 20
18.8479151352
 10
47.2881002055
 20
18.8341535618
 10
46.6067135996
 20
18.820932549
 10
45.92610463039999
 20
18.8082428666
 10
45.2438051643
 20
18.7961074536
 10
44.5569685343
 20
18.7845616609
 10
43.8672955187
 20
18.7737313317
 10
43.1811397344
 20
18.7638007981
 10
42.50297148739999
 20
18.7548848944
 10
41.83134877709999
 20
18.7470108363
 10
41.1671064183
 20
18.7402387069
 10
40.5119501577
 20
18.7346305001
 10
39.8673916216
 20
18.7302326103
 10
39.2353661404
 20
18.7270762894
 10
38.6177298277
 20
18.725170407
 10
38.0155829931
 20
18.7244988965
  0
LWPOLYLINE
  5
152E
330
21A
100
AcDbEntity
  8
0
  6
Continuous
 62
     7
100
AcDbPolyline
 90
       23
 70
     0
 43
0.0
 10
65.06929934049999
 20
19.2512690279
 10
65.0438323203
 20
19.2511792089
 10
65.0084927968
 20
19.2508399609
 10
64.9635958643
 20
19.2502566715
 10
64.9093566055
 20
19.2494310518
 10
64.8459494379
 20
19.2483651234
 10
64.77397385199999
 20
19.2470690416
 10
64.6940221095
 20
19.2455508635
 10
64.6073075338
 20
19.2438336076
 10
64.5169521018
 20
19.2419800687
 10
64.42652178340001
 20
19.2400704158
 10
64.33830998890001
 20
19.2381616396
 10
64.25409303640001
 20
19.2363008489
 10
64.1741370932
 20
19.234501836
 10
64.09738401119999
 20
19.2327464663
 10
64.0228547733
 20
19.2310164555
 10
63.94963534689999
 20
19.2292931863
 10
63.8771818537
 20
19.2275654525
 10
63.8049499866
 20
19.2258212145
 10
63.73235037569999
 20
19.2240463979
 10
63.6587638766
 20
19.2222253782
 10
63.5835571497
 20
19.2203412685
 10
61.9735933794
 20
19.1793726085
  0
LWPOLYLINE
  5
152F
330
21A
100
AcDbEntity
  8
0
  6
Continuous
 62
     7
100
AcDbPolyline
 90
        4
 70
     0
 43
0.0
 10
34.6994146148
 20
18.6547368151
 10
34.3056246741
 20
18.6537896177
 10
34.2924257476
 20
18.653762705
 10
34.2879978207
 20
18.6537541962
  0
LWPOLYLINE
  5
1530
330
21A
100
AcDbEntity
  8
0
  6
Continuous
 62
     7
100
AcDbPolyline
 90
       25
 70
     0
 43
0.0
 10
38.0155829931
 20
18.724498897
 10
37.9029063213
 20
18.7243211185
 10
37.7915023332
 20
18.7238147575
 10
37.6889514587
 20
18.7230459314
 10
37.595884446
 20
18.7220809982
 10
37.5104688841
 20
18.7209532429
 10
37.4313251973
 20
18.7196821172
 10
37.3576531906
 20
18.718284091
 10
37.2886257522
 20
18.7167674087
 10
37.22362045030001
 20
18.7151348987
 10
37.1622061319
 20
18.7133868716
 10
37.1040064599
 20
18.7115188235
 10
37.0486799336
 20
18.7095205236
 10
36.9959603883
 20
18.7073769248
 10
36.945609137
 20
18.7050682419
 10
36.8971947636
 20
18.7025525901
 10
36.8510951791
 20
18.6998159032
 10
36.8078994733
 20
18.6968514165
 10
36.7682023937
 20
18.6936506038
 10
36.7326178324
 20
18.6901962409
 10
36.7018832718
 20
18.6864795247
 10
36.6768662429
 20
18.6825049133
 10
36.6584853811
 20
18.6782949275
 10
36.6476130502
 20
18.6738858574
 10
36.6448192139
 20
18.6702244084
  0
LWPOLYLINE
  5
1531
330
21A
100
AcDbEntity
  8
0
  6
Continuous
 62
     7
100
AcDbPolyline
 90
       23
 70
     0
 43
0.0
 10
38.0155801189
 20
18.7557229419
 10
37.94940412400001
 20
18.7556591894
 10
37.8825943552
 20
18.7554769704
 10
37.8162359179
 20
18.7551792139
 10
37.75139198780001
 20
18.7547737126
 10
37.68690459230001
 20
18.7542508523
 10
37.6185475318
 20
18.7535634897
 10
37.5421157049
 20
18.7526230633
 10
37.45578292800001
 20
18.751320554
 10
37.3621029572
 20
18.7495968569
 10
37.2654654016
 20
18.747431241
 10
37.1721372741
 20
18.7449047935
 10
37.0847916669
 20
18.742070954
 10
37.004090407
 20
18.7389426454
 10
36.9304174231
 20
18.7355302062
 10
36.8641376942
 20
18.7318453883
 10
36.8058651114
 20
18.7279137683
 10
36.7561373899
 20
18.7237641877
 10
36.7152579909
 20
18.719416775
 10
36.6834892097
 20
18.7148849696
 10
36.6610762379
 20
18.710206052
 10
36.64823343030001
 20
18.7054150253
 10
36.6449496019
 20
18.7014450767
  0
LWPOLYLINE
  5
1532
330
21A
100
AcDbEntity
  8
0
  6
Continuous
 62
     7
100
AcDbPolyline
 90
       11
 70
     0
 43
0.0
 10
35.885597521
 20
18.655176336
 10
35.7590532574
 20
18.6553411998
 10
35.6347046812
 20
18.6554666098
 10
35.5131318356
 20
18.655547008
 10
35.3948770167
 20
18.6555778211
 10
35.2804388803
 20
18.6555587301
 10
35.17029545800001
 20
18.6554939524
 10
35.0649299709
 20
18.6553887744
 10
34.9647465025
 20
18.6552508097
 10
34.8701629808
 20
18.6550902239
 10
34.6994146148
 20
18.6547368151
  0
LWPOLYLINE
  5
1533
330
21A
100
AcDbEntity
  8
0
  6
Continuous
 62
     7
100
AcDbPolyline
 90
        6
 70
     0
 43
0.0
 10
36.70046892030001
 20
18.6538096992
 10
36.5307878636
 20
18.6540886596
 10
36.4020709006
 20
18.6543111387
 10
36.272618365
 20
18.6545394753
 10
36.1430037441
 20
18.65476565099999
 10
35.885597521
 20
18.655176336
  0
LWPOLYLINE
  5
1534
330
21A
100
AcDbEntity
  8
0
  6
Continuous
 62
     7
100
AcDbPolyline
 90
        3
 70
     0
 43
0.0
 10
65.0895675368
 20
19.2507081435
 10
65.0846035444
 20
19.2511079706
 10
65.06929934049999
 20
19.2512690279
  0
LWPOLYLINE
  5
1535
330
21A
100
AcDbEntity
  8
0
  6
Continuous
 62
     7
100
AcDbPolyline
 90
       21
 70
     0
 43
0.0
 10
65.08875243129999
 20
19.281947291
 10
65.08402520149999
 20
19.2823402442
 10
65.06947682919999
 20
19.2825061368
 10
65.0452433904
 20
19.2824333123
 10
65.0115114293
 20
19.2821229763
 10
64.9685456678
 20
19.2815768129
 10
64.9165103575
 20
19.2807967334
 10
64.8556748128
 20
19.2797875511
 10
64.78663040890001
 20
19.2785556571
 10
64.71027542219999
 20
19.2771211034
 10
64.62691359689999
 20
19.2754815402
 10
64.53702214439999
 20
19.2736523155
 10
64.44055909560001
 20
19.2716265022
 10
64.3374909609
 20
19.2694003803
 10
64.2289663837
 20
19.2669963067
 10
64.116231322
 20
19.2644370268
 10
63.9998085396
 20
19.2617345217
 10
63.8796518602
 20
19.2588829722
 10
63.7563021486
 20
19.2558929961
 10
63.631022306
 20
19.2527921658
 10
63.5052756604
 20
19.24961469
  0
LWPOLYLINE
  5
1536
330
21A
100
AcDbEntity
  8
0
  6
Continuous
 62
     7
100
AcDbPolyline
 90
        8
 70
     0
 43
0.0
 10
82.66925509229999
 20
37.7745619595
 10
82.41188174420001
 20
37.7025548805
 10
81.8081741916
 20
37.5092672303
 10
81.21205504869999
 20
37.29371312860001
 10
80.6243431683
 20
37.0561886602
 10
80.04583334899999
 20
36.7970553106
 10
79.4773180886
 20
36.51667696
 10
78.9195879687
 20
36.2154163972
  0
LWPOLYLINE
  5
1537
330
21A
100
AcDbEntity
  8
0
  6
Continuous
 62
     7
100
AcDbPolyline
 90
        8
 70
     0
 43
0.0
 10
20.8622773632
 20
37.7745619595
 10
21.1062576216
 20
37.7064771549
 10
21.7058047916
 20
37.51513745
 10
22.2978958106
 20
37.3018425203
 10
22.8817289751
 20
37.0668811578
 10
23.4565258466
 20
36.8106057373
 10
24.0215102034
 20
36.53337097820001
 10
24.5759077245
 20
36.2355305341
  0
LINE
  5
1538
330
21A
100
AcDbEntity
  8
0
  6
Continuous
 62
     7
100
AcDbLine
 10
15.7656174833
 20
37.7745619595
 30
0.0
 11
87.76561748330001
 21
37.7745619595
 31
0.0
  0
LINE
  5
1539
330
21A
100
AcDbEntity
  8
0
  6
Continuous
 62
     7
100
AcDbLine
 10
87.49279035799998
 20
38.2745619595
 30
0.0
 11
16.0384446086
 21
38.2745619595
 31
0.0
  0
LWPOLYLINE
  5
153A
330
21A
100
AcDbEntity
  8
0
  6
Continuous
 62
     7
100
AcDbPolyline
 90
       32
 70
     0
 43
0.0
 10
58.4144959722
 20
37.7745619595
 10
59.11028987159999
 20
37.7435271381
 10
60.5625048651
 20
37.6701755658
 10
62.05619590979999
 20
37.5864766191
 10
63.5234115128
 20
37.49700127820001
 10
64.94000227729999
 20
37.4044242628
 10
66.2868292064
 20
37.3112029628
 10
67.542955993
 20
37.2199728935
 10
68.70109686870001
 20
37.1323651681
 10
69.7644771926
 20
37.0490679654
 10
70.7371238609
 20
36.97053195650001
 10
71.6243976043
 20
36.8969537772
 10
72.4322039715
 20
36.8283573271
 10
73.166622089
 20
36.7646468397
 10
73.8335263451
 20
36.7056619543
 10
74.4384363612
 20
36.6512096523
 10
74.98666764399999
 20
36.6010578477
 10
75.4832329205
 20
36.5549540033
 10
75.9326876656
 20
36.5126482338
 10
76.3391398122
 20
36.4739001174
 10
76.70625614409999
 20
36.4384855168
 10
77.03729377710001
 20
36.4061990543
 10
77.3351196837
 20
36.3768555197
 10
77.602072287
 20
36.350306857
 10
77.8401270746
 20
36.3264287909
 10
78.05107922270001
 20
36.3051044727
 10
78.2366011577
 20
36.2862197809
 10
78.3981158543
 20
36.2696744391
 10
78.536739816
 20
36.2553894733
 10
78.65336268580001
 20
36.2433045999
 10
78.7485864466
 20
36.2333856145
 10
78.8227989217
 20
36.2256174694
  0
LINE
  5
153B
330
21A
100
AcDbEntity
  8
0
  6
Continuous
 62
     7
100
AcDbLine
 10
63.50607118520001
 20
19.2183755517
 30
0.0
 11
63.5052756604
 21
19.24961469
 31
0.0
  0
LWPOLYLINE
  5
153C
330
21A
100
AcDbEntity
  8
0
  6
Continuous
 62
     7
100
AcDbPolyline
 90
       40
 70
     0
 43
0.0
 10
24.5759077245
 20
36.2355305341
 10
24.6566018986
 20
36.2437325342
 10
24.7177454241
 20
36.2499109824
 10
24.7953471682
 20
36.2577209518
 10
24.889500065
 20
36.2671569382
 10
25.000298319
 20
36.2782124361
 10
25.1280164069
 20
36.2908981038
 10
25.2730413649
 20
36.3052346071
 10
25.4359434466
 20
36.3212588974
 10
25.6174170182
 20
36.3390149893
 10
25.8182908879
 20
36.3585546376
 10
26.03960912030001
 20
36.3799466401
 10
26.2825387188
 20
36.403267302
 10
26.5484922153
 20
36.4286114567
 10
26.8389940182
 20
36.4560784681
 10
27.1557678815
 20
36.4857795691
 10
27.5007371238
 20
36.5178366256
 10
27.8760164332
 20
36.5523801432
 10
28.2839560965
 20
36.5895513335
 10
28.7271743165
 20
36.629501566
 10
29.2083195738
 20
36.6723679292
 10
29.7302386619
 20
36.7182855589
 10
30.2960565771
 20
36.7673905865
 10
30.9091693866
 20
36.8198143283
 10
31.573161737
 20
36.8756733741
 10
32.2918115385
 20
36.9350620739
 10
33.0688724276
 20
36.9980226269
 10
33.9080344969
 20
37.0645323723
 10
34.812762182
 20
37.1344791517
 10
35.7860801935
 20
37.2076347837
 10
36.8302951761
 20
37.2836213855
 10
37.9484223031
 20
37.36198897
 10
39.1130696382
 20
37.4401313543
 10
40.2357789471
 20
37.5118674838
 10
41.2644471112
 20
37.57427687150001
 10
42.1878382292
 20
37.6273973342
 10
43.02217442859999
 20
37.6728607723
 10
43.78377099629999
 20
37.71211005860001
 10
44.47895255329999
 20
37.7459319749
 10
45.10349612259999
 20
37.7745619595
  0
LWPOLYLINE
  5
153D
330
21A
100
AcDbEntity
  8
0
  6
Continuous
 62
     7
100
AcDbPolyline
 90
        3
 70
     0
 43
0.0
 10
78.8227989217
 20
36.2256174694
 10
78.90848040279999
 20
36.2165935569
 10
78.9195879687
 20
36.2154163972
  0
LINE
  5
153E
330
21A
100
AcDbEntity
  8
0
  6
Continuous
 62
     7
100
AcDbLine
 10
66.2544836677
 20
19.272937799
 30
0.0
 11
66.2540681721
 21
19.2885573986
 31
0.0
  0
LINE
  5
153F
330
21A
100
AcDbEntity
  8
0
  6
Continuous
 62
     7
100
AcDbLine
 10
67.31106581199999
 20
19.3008098616
 30
0.0
 11
67.3106501219
 21
19.3164293562
 31
0.0
  0
LINE
  5
1540
330
21A
100
AcDbEntity
  8
0
  6
Continuous
 62
     7
100
AcDbLine
 10
65.0895654241
 20
19.2506967551
 30
0.0
 11
65.0887503621
 21
19.2819358723
 31
0.0
  0
LINE
  5
1541
330
21A
100
AcDbEntity
  8
0
  6
Continuous
 62
     7
100
AcDbLine
 10
64.3965793153
 20
18.0414180752
 30
0.0
 11
64.7469614603
 21
19.0040851067
 31
0.0
  0
LWPOLYLINE
  5
1542
330
21A
100
AcDbEntity
  8
0
  6
Continuous
 62
     7
100
AcDbPolyline
 90
        6
 70
     0
 43
0.0
 10
63.8591560318
 20
17.4897850381
 10
63.792832078
 20
17.4664849588
 10
63.7249629243
 20
17.4482475517
 10
63.6557587372
 20
17.4351172433
 10
63.5857344689
 20
17.4271994847
 10
63.51561748329999
 20
17.4245619595
  0
LWPOLYLINE
  5
1543
330
21A
100
AcDbEntity
  8
0
  6
Continuous
 62
     7
100
AcDbPolyline
 90
       28
 70
     0
 43
0.0
 10
64.74696146069999
 20
19.0040851952
 10
64.7521706765
 20
19.0175814414
 10
64.7636346442
 20
19.0429281588
 10
64.77656903509999
 20
19.0667187882
 10
64.79076554489999
 20
19.0889052026
 10
64.80602268050001
 20
19.1094614473
 10
64.8221473671
 20
19.1283814909
 10
64.83895549199999
 20
19.1456763451
 10
64.85627361289999
 20
19.161372994
 10
64.87393970149999
 20
19.1755122765
 10
64.8918029573
 20
19.1881464208
 10
64.90970302859999
 20
19.1993250646
 10
64.92745633040001
 20
19.2090939926
 10
64.9448865601
 20
19.2175171981
 10
64.9618692676
 20
19.2246913569
 10
64.97831206939999
 20
19.2307246592
 10
64.99413835
 20
19.2357256151
 10
65.0091934947
 20
19.2397782329
 10
65.022861655
 20
19.2428804143
 10
65.03448025029999
 20
19.245094173
 10
65.0438194132
 20
19.2465940275
 10
65.0511607259
 20
19.2475971855
 10
65.05680207410001
 20
19.2482604241
 10
65.0609544117
 20
19.2486858381
 10
65.06383892699999
 20
19.2489471014
 10
65.0656761755
 20
19.2490964086
 10
65.06663680369999
 20
19.2491675145
 10
65.06686085750001
 20
19.2491829694
  0
LWPOLYLINE
  5
1544
330
21A
100
AcDbEntity
  8
0
  6
Continuous
 62
     7
100
AcDbPolyline
 90
        6
 70
     0
 43
0.0
 10
64.3965793153
 20
18.0414180752
 10
64.37011941379999
 20
17.97643171
 10
64.3387294213
 20
17.9133384194
 10
64.30272171350001
 20
17.8527985538
 10
64.2623715064
 20
17.795259944
 10
64.2177925732
 20
17.740905051
  0
LINE
  5
1545
330
21A
100
AcDbEntity
  8
0
  6
Continuous
 62
     7
100
AcDbLine
 10
66.9332463865
 20
19.0276701068
 30
0.0
 11
66.89925746170001
 21
19.0030887866
 31
0.0
  0
LINE
  5
1546
330
21A
100
AcDbEntity
  8
0
  6
Continuous
 62
     7
100
AcDbLine
 10
66.88117973060001
 20
18.9876551654
 30
0.0
 11
66.92183578739999
 21
19.0170064987
 31
0.0
  0
LINE
  5
1547
330
21A
100
AcDbEntity
  8
0
  6
Continuous
 62
     7
100
AcDbLine
 10
66.89925746170001
 20
19.0030887866
 30
0.0
 11
66.8687104887
 21
18.9810508965
 31
0.0
  0
LWPOLYLINE
  5
1548
330
21A
100
AcDbEntity
  8
0
  6
Continuous
 62
     7
100
AcDbPolyline
 90
       12
 70
     0
 43
0.0
 10
66.8687104887
 20
18.9810508965
 10
66.83103555009999
 20
18.9539493469
 10
66.8102463971
 20
18.9390360597
 10
66.7885898416
 20
18.923535385
 10
66.7663836996
 20
18.9076819827
 10
66.7439601823
 20
18.8917198875
 10
66.7216507695
 20
18.8758913157
 10
66.6998966804
 20
18.860514132
 10
66.6792615467
 20
18.8459884622
 10
66.6605129641
 20
18.8328504699
 10
66.64414101910001
 20
18.8214323887
 10
66.6301102087
 20
18.811694414
  0
LINE
  5
1549
330
21A
100
AcDbEntity
  8
0
  6
Continuous
 62
     7
100
AcDbLine
 10
64.13020205640001
 20
17.6772811554
 30
0.0
 11
64.1662061678
 21
17.7026089103
 31
0.0
  0
LINE
  5
154A
330
21A
100
AcDbEntity
  8
0
  6
Continuous
 62
     7
100
AcDbLine
 10
64.0355385063
 20
17.6128142698
 30
0.0
 11
64.19331199120001
 21
17.723743345
 31
0.0
  0
LINE
  5
154B
330
21A
100
AcDbEntity
  8
0
  6
Continuous
 62
     7
100
AcDbLine
 10
64.03957438329999
 20
17.6135605984
 30
0.0
 11
64.13020205640001
 21
17.6772811554
 31
0.0
  0
LINE
  5
154C
330
21A
100
AcDbEntity
  8
0
  6
Continuous
 62
     7
100
AcDbLine
 10
64.1662061678
 20
17.7026089103
 30
0.0
 11
64.2067515161
 21
17.731069134
 31
0.0
  0
LWPOLYLINE
  5
154D
330
21A
100
AcDbEntity
  8
0
  6
Continuous
 62
     7
100
AcDbPolyline
 90
        3
 70
     0
 43
0.0
 10
63.9669388445
 20
17.564702198
 10
63.98877321949999
 20
17.5799930111
 10
64.0355385063
 20
17.6128142698
  0
LINE
  5
154E
330
21A
100
AcDbEntity
  8
0
  6
Continuous
 62
     7
100
AcDbLine
 10
64.19331199120001
 20
17.723743345
 30
0.0
 11
64.2177925732
 21
17.740905051
 31
0.0
  0
LWPOLYLINE
  5
154F
330
21A
100
AcDbEntity
  8
0
  6
Continuous
 62
     7
100
AcDbPolyline
 90
        3
 70
     0
 43
0.0
 10
63.91397738510001
 20
17.5277330662
 10
63.9292708072
 20
17.5383890808
 10
63.9669388445
 20
17.564702198
  0
LWPOLYLINE
  5
1550
330
21A
100
AcDbEntity
  8
0
  6
Continuous
 62
     7
100
AcDbPolyline
 90
        6
 70
     0
 43
0.0
 10
63.91260675
 20
17.5247555484
 10
63.9295964325
 20
17.5365737861
 10
63.94882401770001
 20
17.5499804482
 10
63.96987866659999
 20
17.5646913096
 10
63.99232661430001
 20
17.5804057644
 10
64.03957438329999
 20
17.6135605984
  0
LINE
  5
1551
330
21A
100
AcDbEntity
  8
0
  6
Continuous
 62
     7
100
AcDbLine
 10
63.8898071825
 20
17.5109415455
 30
0.0
 11
63.91397738510001
 21
17.5277330662
 31
0.0
  0
LINE
  5
1552
330
21A
100
AcDbEntity
  8
0
  6
Continuous
 62
     7
100
AcDbLine
 10
63.8982176139
 20
17.5147738233
 30
0.0
 11
63.91260675
 21
17.5247555484
 31
0.0
  0
LWPOLYLINE
  5
1553
330
21A
100
AcDbEntity
  8
0
  6
Continuous
 62
     7
100
AcDbPolyline
 90
       12
 70
     0
 43
0.0
 10
66.62993728869999
 20
18.8093714436
 10
66.6468704959
 20
18.8211076492
 10
66.66598690399999
 20
18.8344350071
 10
66.68687858910001
 20
18.8490786022
 10
66.70911927049999
 20
18.8647433156
 10
66.73226764849999
 20
18.8811175469
 10
66.755869867
 20
18.8978762088
 10
66.7794628368
 20
18.9146841282
 10
66.80257244429999
 20
18.9311955961
 10
66.82473164060001
 20
18.9470679919
 10
66.845492823
 20
18.9619713373
 10
66.88117973060001
 20
18.9876551654
  0
LINE
  5
1554
330
21A
100
AcDbEntity
  8
0
  6
Continuous
 62
     7
100
AcDbLine
 10
63.8804947867
 20
17.5044950615
 30
0.0
 11
63.8898071825
 21
17.5109415455
 31
0.0
  0
LINE
  5
1555
330
21A
100
AcDbEntity
  8
0
  6
Continuous
 62
     7
100
AcDbLine
 10
63.8591560318
 20
17.4897850381
 30
0.0
 11
63.8804947867
 21
17.5044950615
 31
0.0
  0
LINE
  5
1556
330
21A
100
AcDbEntity
  8
0
  6
Continuous
 62
     7
100
AcDbLine
 10
66.6301102087
 20
18.811694414
 30
0.0
 11
66.60793003270001
 21
18.7964089484
 31
0.0
  0
LINE
  5
1557
330
21A
100
AcDbEntity
  8
0
  6
Continuous
 62
     7
100
AcDbLine
 10
63.87172793569999
 20
17.4964848274
 30
0.0
 11
63.8982176139
 21
17.5147738233
 31
0.0
  0
LWPOLYLINE
  5
1558
330
21A
100
AcDbEntity
  8
0
  6
Continuous
 62
     7
100
AcDbPolyline
 90
        3
 70
     0
 43
0.0
 10
66.60402471890001
 20
18.7915719911
 10
66.61555180890001
 20
18.7994627302
 10
66.62993728869999
 20
18.8093714436
  0
LINE
  5
1559
330
21A
100
AcDbEntity
  8
0
  6
Continuous
 62
     7
100
AcDbLine
 10
66.60793003270001
 20
18.7964089484
 30
0.0
 11
66.5992629747
 21
18.7904796754
 31
0.0
  0
LINE
  5
155A
330
21A
100
AcDbEntity
  8
0
  6
Continuous
 62
     7
100
AcDbLine
 10
66.5992629747
 20
18.7904796754
 30
0.0
 11
66.58614262100001
 21
18.7815614616
 31
0.0
  0
LINE
  5
155B
330
21A
100
AcDbEntity
  8
0
  6
Continuous
 62
     7
100
AcDbLine
 10
66.5887598826
 20
18.78120534089999
 30
0.0
 11
66.60402471890001
 21
18.7915719911
 31
0.0
  0
LINE
  5
155C
330
21A
100
AcDbEntity
  8
0
  6
Continuous
 62
     7
100
AcDbLine
 10
66.58614262100001
 20
18.7815614616
 30
0.0
 11
66.5755206367
 21
18.7744024659
 31
0.0
  0
LINE
  5
155D
330
21A
100
AcDbEntity
  8
0
  6
Continuous
 62
     7
100
AcDbLine
 10
72.3605853251
 20
22.2323315895
 30
0.0
 11
72.36814068120001
 21
22.2487673171
 31
0.0
  0
LINE
  5
155E
330
21A
100
AcDbEntity
  8
0
  6
Continuous
 62
     7
100
AcDbLine
 10
72.36814068120001
 20
22.2487673171
 30
0.0
 11
72.37690665009999
 21
22.2677600259
 31
0.0
  0
LINE
  5
155F
330
21A
100
AcDbEntity
  8
0
  6
Continuous
 62
     7
100
AcDbLine
 10
72.37690665009999
 20
22.2677600259
 30
0.0
 11
72.38756719379999
 21
22.2907473501
 31
0.0
  0
LINE
  5
1560
330
21A
100
AcDbEntity
  8
0
  6
Continuous
 62
     7
100
AcDbLine
 10
71.68705956220001
 20
20.7879509296
 30
0.0
 11
72.3605853251
 21
22.2323315895
 31
0.0
  0
LINE
  5
1561
330
21A
100
AcDbEntity
  8
0
  6
Continuous
 62
     7
100
AcDbLine
 10
72.4266194285
 20
22.3739421812
 30
0.0
 11
78.8418126368
 21
36.1313684128
 31
0.0
  0
LINE
  5
1562
330
21A
100
AcDbEntity
  8
0
  6
Continuous
 62
     7
100
AcDbLine
 10
72.38756719379999
 20
22.2907473501
 30
0.0
 11
72.3991323987
 21
22.3155498271
 31
0.0
  0
LINE
  5
1563
330
21A
100
AcDbEntity
  8
0
  6
Continuous
 62
     7
100
AcDbLine
 10
72.3991323987
 20
22.3155498271
 30
0.0
 11
72.4098929147
 21
22.3385013438
 31
0.0
  0
LINE
  5
1564
330
21A
100
AcDbEntity
  8
0
  6
Continuous
 62
     7
100
AcDbLine
 10
72.4098929147
 20
22.3385013438
 30
0.0
 11
72.4188346196
 21
22.3574827466
 31
0.0
  0
LINE
  5
1565
330
21A
100
AcDbEntity
  8
0
  6
Continuous
 62
     7
100
AcDbLine
 10
72.4188346196
 20
22.3574827466
 30
0.0
 11
72.4266194285
 21
22.3739421812
 31
0.0
  0
LINE
  5
1566
330
21A
100
AcDbEntity
  8
0
  6
Continuous
 62
     7
100
AcDbLine
 10
87.76561748330001
 20
37.7745619595
 30
0.0
 11
87.7418390326
 21
38.0463508952
 31
0.0
  0
ARC
  5
1741
330
21A
100
AcDbEntity
  8
DEFAULT_2
  6
HIDDEN
 62
     7
100
AcDbCircle
 10
69.6478670413
 20
21.7388420186
 30
0.0
 40
2.125
100
AcDbArc
 50
271.5244985361
 51
334.9999999968
  0
ARC
  5
1742
330
21A
100
AcDbEntity
  8
DEFAULT_2
  6
HIDDEN
 62
     7
100
AcDbCircle
 10
30.1630352932
 20
21.0786574834
 30
0.0
 40
2.125
100
AcDbArc
 50
192.000000004
 51
267.5994473455
  0
ARC
  5
1746
330
21A
100
AcDbEntity
  8
DEFAULT_2
  6
HIDDEN
 62
     7
100
AcDbCircle
 10
79.01174534689999
 20
36.0521274887
 30
0.0
 40
0.3125
100
AcDbArc
 50
119.4396158573
 51
154.9999999965
  0
ARC
  5
1747
330
21A
100
AcDbEntity
  8
DEFAULT_2
  6
HIDDEN
 62
     7
100
AcDbCircle
 10
24.4841422878
 20
36.07202104010001
 30
0.0
 40
0.3125
100
AcDbArc
 50
12.000000001
 51
60.69781800330001
  0
ARC
  5
1748
330
21A
100
AcDbEntity
  8
DEFAULT_2
  6
HIDDEN
 62
     7
100
AcDbCircle
 10
19.2375281448
 20
37.9620619595
 30
0.0
 40
0.3125
100
AcDbArc
 50
79.6800726929
 51
90.0
  0
ARC
  5
174D
330
21A
100
AcDbEntity
  8
DEFAULT_2
  6
HIDDEN
 62
     7
100
AcDbCircle
 10
38.2469112333
 20
18.527302319
 30
0.0
 40
0.25
100
AcDbArc
 50
91.5244985376
 51
134.9999999897
  0
ARC
  5
174E
330
21A
100
AcDbEntity
  8
DEFAULT_2
  6
HIDDEN
 62
     7
100
AcDbCircle
 10
37.5370640927
 20
18.5245619595
 30
0.0
 40
0.25
100
AcDbArc
 50
270.0
 51
315.0
  0
ARC
  5
174F
330
21A
100
AcDbEntity
  8
DEFAULT_2
  6
HIDDEN
 62
     7
100
AcDbCircle
 10
34.9941708739
 20
18.5245619595
 30
0.0
 40
0.25
100
AcDbArc
 50
225.0
 51
270.0
  0
ARC
  5
1750
330
21A
100
AcDbEntity
  8
DEFAULT_2
  6
HIDDEN
 62
     7
100
AcDbCircle
 10
34.2827621593
 20
18.5288638929
 30
0.0
 40
0.25
100
AcDbArc
 50
45.0000000103
 51
87.5994473455
  0
ARC
  5
1753
330
21A
100
AcDbEntity
  8
0
  6
Continuous
 62
     7
100
AcDbCircle
 10
30.1630352932
 20
21.0786574834
 30
0.0
 40
2.25
100
AcDbArc
 50
192.0
 51
267.5994473455
  0
ARC
  5
1754
330
21A
100
AcDbEntity
  8
0
  6
Continuous
 62
     7
100
AcDbCircle
 10
69.6478670413
 20
21.7388420186
 30
0.0
 40
2.25
100
AcDbArc
 50
271.5244985376
 51
335.0
  0
ARC
  5
1755
330
21A
100
AcDbEntity
  8
0
  6
Continuous
 62
     7
100
AcDbCircle
 10
66.2798311197
 20
19.5713138221
 30
0.0
 40
0.85
100
AcDbArc
 50
320.2394289973
 51
328.2082364125
  0
ARC
  5
1756
330
21A
100
AcDbEntity
  8
0
  6
Continuous
 62
     7
100
AcDbCircle
 10
66.2798311197
 20
19.5713138221
 30
0.0
 40
0.85
100
AcDbArc
 50
271.3514625302
 51
290.357091242
  0
ARC
  5
1757
330
21A
100
AcDbEntity
  8
0
  6
Continuous
 62
     7
100
AcDbCircle
 10
34.9941708739
 20
18.5245619595
 30
0.0
 40
0.375
100
AcDbArc
 50
225.0
 51
270.0
  0
ARC
  5
1758
330
21A
100
AcDbEntity
  8
0
  6
Continuous
 62
     7
100
AcDbCircle
 10
67.32104238879999
 20
18.925942641
 30
0.0
 40
0.374999984
100
AcDbArc
 50
91.52448870319998
 51
148.2082310168
  0
ARC
  5
1759
330
21A
100
AcDbEntity
  8
0
  6
Continuous
 62
     7
100
AcDbCircle
 10
16.0384446086
 20
38.0245619595
 30
0.0
 40
0.25
100
AcDbArc
 50
90.0
 51
175.0
  0
ARC
  5
175A
330
21A
100
AcDbEntity
  8
0
  6
Continuous
 62
     7
100
AcDbCircle
 10
87.49279035799998
 20
38.0245619595
 30
0.0
 40
0.25
100
AcDbArc
 50
5.0
 51
90.0
  0
ARC
  5
175B
330
21A
100
AcDbEntity
  8
0
  6
Continuous
 62
     7
100
AcDbCircle
 10
79.01174534689999
 20
36.0521274887
 30
0.0
 40
0.1875
100
AcDbArc
 50
119.4396158573
 51
155.0
  0
ARC
  5
175C
330
21A
100
AcDbEntity
  8
0
  6
Continuous
 62
     7
100
AcDbCircle
 10
24.4841422878
 20
36.07202104010001
 30
0.0
 40
0.1875
100
AcDbArc
 50
12.0
 51
60.69781800359999
  0
ARC
  5
175D
330
21A
100
AcDbEntity
  8
0
  6
Continuous
 62
     7
100
AcDbCircle
 10
34.2827621593
 20
18.5288638929
 30
0.0
 40
0.125
100
AcDbArc
 50
45.0
 51
87.5994473455
  0
ARC
  5
175E
330
21A
100
AcDbEntity
  8
0
  6
Continuous
 62
     7
100
AcDbCircle
 10
66.55377875550001
 20
18.8329988849
 30
0.0
 40
0.0625000006
100
AcDbArc
 50
290.3570969181
 51
304.0339633382
  0
ARC
  5
175F
330
21A
100
AcDbEntity
  8
0
  6
Continuous
 62
     7
100
AcDbCircle
 10
37.6949953496
 20
17.5479321663
 30
0.0
 40
0.0624999961
100
AcDbArc
 50
235.4021326773
 51
248.4900616519
  0
ARC
  5
1760
330
21A
100
AcDbEntity
  8
0
  6
Continuous
 62
     7
100
AcDbCircle
 10
63.83623961699999
 20
17.5479321663
 30
0.0
 40
0.0624999961
100
AcDbArc
 50
291.5099383481
 51
304.5988417789
  0
ARC
  5
1761
330
21A
100
AcDbEntity
  8
0
  6
Continuous
 62
     7
100
AcDbCircle
 10
64.1709898771
 20
17.7823268236
 30
0.0
 40
0.0624999773
100
AcDbArc
 50
304.9029256489
 51
318.4902097331
  0
ARC
  5
1762
330
21A
100
AcDbEntity
  8
0
  6
Continuous
 62
     7
100
AcDbCircle
 10
37.3602450895
 20
17.7823268236
 30
0.0
 40
0.0624999773
100
AcDbArc
 50
221.5097902669
 51
235.0979628223
  0
ARC
  5
1763
330
21A
100
AcDbEntity
  8
0
  6
Continuous
 62
     7
100
AcDbCircle
 10
66.88520095520001
 20
19.0676437693
 30
0.0
 40
0.0624999735
100
AcDbArc
 50
305.8848261259
 51
320.2396397916
  0
ENDSEC
  0
SECTION
  2
OBJECTS
  0
DICTIONARY
  5
C
330
0
100
AcDbDictionary
281
     1
  3
ACAD_COLOR
350
17A7
  3
ACAD_GROUP
350
D
  3
ACAD_LAYOUT
350
1A
  3
ACAD_MATERIAL
350
177A
  3
ACAD_MLEADERSTYLE
350
17CC
  3
ACAD_MLINESTYLE
350
17
  3
ACAD_PLOTSETTINGS
350
19
  3
ACAD_PLOTSTYLENAME
350
E
  3
ACAD_SCALELIST
350
17AA
  3
ACAD_TABLESTYLE
350
17A8
  3
ACAD_VISUALSTYLE
350
1793
  3
ACDB_RECOMPOSE_DATA
350
17D2
  3
AcDbVariableDictionary
350
1804
  0
DICTIONARY
  5
17D3
330
8
100
AcDbDictionary
280
     1
281
     1
  0
DICTIONARY
  5
1813
330
10
100
AcDbDictionary
280
     1
281
     1
  3
ADSK_XREC_LAYER_RECONCILED
360
1814
  0
DICTIONARY
  5
1815
330
1FA
100
AcDbDictionary
280
     1
281
     1
  3
ADSK_XREC_LAYER_RECONCILED
360
1816
  0
DICTIONARY
  5
1817
330
1FB
100
AcDbDictionary
280
     1
281
     1
  3
ADSK_XREC_LAYER_RECONCILED
360
1818
  0
DICTIONARY
  5
1819
330
1FC
100
AcDbDictionary
280
     1
281
     1
  3
ADSK_XREC_LAYER_RECONCILED
360
181A
  0
DICTIONARY
  5
181B
330
1FD
100
AcDbDictionary
280
     1
281
     1
  3
ADSK_XREC_LAYER_RECONCILED
360
181C
  0
DICTIONARY
  5
181D
330
1FE
100
AcDbDictionary
280
     1
281
     1
  3
ADSK_XREC_LAYER_RECONCILED
360
181E
  0
DICTIONARY
  5
181F
330
1FF
100
AcDbDictionary
280
     1
281
     1
  3
ADSK_XREC_LAYER_RECONCILED
360
1820
  0
DICTIONARY
  5
1821
330
200
100
AcDbDictionary
280
     1
281
     1
  3
ADSK_XREC_LAYER_RECONCILED
360
1822
  0
DICTIONARY
  5
1823
330
201
100
AcDbDictionary
280
     1
281
     1
  3
ADSK_XREC_LAYER_RECONCILED
360
1824
  0
DICTIONARY
  5
1825
330
202
100
AcDbDictionary
280
     1
281
     1
  3
ADSK_XREC_LAYER_RECONCILED
360
1826
  0
DICTIONARY
  5
1827
330
203
100
AcDbDictionary
280
     1
281
     1
  3
ADSK_XREC_LAYER_RECONCILED
360
1828
  0
DICTIONARY
  5
1829
330
204
100
AcDbDictionary
280
     1
281
     1
  3
ADSK_XREC_LAYER_RECONCILED
360
182A
  0
DICTIONARY
  5
182B
330
205
100
AcDbDictionary
280
     1
281
     1
  3
ADSK_XREC_LAYER_RECONCILED
360
182C
  0
DICTIONARY
  5
182D
330
206
100
AcDbDictionary
280
     1
281
     1
  3
ADSK_XREC_LAYER_RECONCILED
360
182E
  0
DICTIONARY
  5
182F
330
207
100
AcDbDictionary
280
     1
281
     1
  3
ADSK_XREC_LAYER_RECONCILED
360
1830
  0
DICTIONARY
  5
1831
330
208
100
AcDbDictionary
280
     1
281
     1
  3
ADSK_XREC_LAYER_RECONCILED
360
1832
  0
DICTIONARY
  5
1833
330
209
100
AcDbDictionary
280
     1
281
     1
  3
ADSK_XREC_LAYER_RECONCILED
360
1834
  0
DICTIONARY
  5
1835
330
20A
100
AcDbDictionary
280
     1
281
     1
  3
ADSK_XREC_LAYER_RECONCILED
360
1836
  0
DICTIONARY
  5
1837
330
20B
100
AcDbDictionary
280
     1
281
     1
  3
ADSK_XREC_LAYER_RECONCILED
360
1838
  0
DICTIONARY
  5
1839
330
20C
100
AcDbDictionary
280
     1
281
     1
  3
ADSK_XREC_LAYER_RECONCILED
360
183A
  0
DICTIONARY
  5
183B
330
20D
100
AcDbDictionary
280
     1
281
     1
  3
ADSK_XREC_LAYER_RECONCILED
360
183C
  0
DICTIONARY
  5
183D
330
20E
100
AcDbDictionary
280
     1
281
     1
  3
ADSK_XREC_LAYER_RECONCILED
360
183E
  0
DICTIONARY
  5
183F
330
20F
100
AcDbDictionary
280
     1
281
     1
  3
ADSK_XREC_LAYER_RECONCILED
360
1840
  0
DICTIONARY
  5
1841
330
210
100
AcDbDictionary
280
     1
281
     1
  3
ADSK_XREC_LAYER_RECONCILED
360
1842
  0
DICTIONARY
  5
1843
330
211
100
AcDbDictionary
280
     1
281
     1
  3
ADSK_XREC_LAYER_RECONCILED
360
1844
  0
DICTIONARY
  5
17A7
102
{ACAD_REACTORS
330
C
102
}
330
C
100
AcDbDictionary
281
     1
  0
DICTIONARY
  5
D
102
{ACAD_REACTORS
330
C
102
}
330
C
100
AcDbDictionary
281
     1
  0
DICTIONARY
  5
1A
102
{ACAD_REACTORS
330
C
102
}
330
C
100
AcDbDictionary
281
     1
  3
Layout1
350
1776
  3
Model
350
1775
  0
DICTIONARY
  5
177A
102
{ACAD_REACTORS
330
C
102
}
330
C
100
AcDbDictionary
281
     1
  3
ByBlock
350
1783
  3
ByLayer
350
177B
  3
Global
350
178B
  0
DICTIONARY
  5
17CC
102
{ACAD_REACTORS
330
C
102
}
330
C
100
AcDbDictionary
281
     1
  3
Standard
350
17CD
  0
DICTIONARY
  5
17
102
{ACAD_REACTORS
330
C
102
}
330
C
100
AcDbDictionary
281
     1
  3
Standard
350
18
  0
DICTIONARY
  5
19
102
{ACAD_REACTORS
330
C
102
}
330
C
100
AcDbDictionary
281
     1
  0
ACDBDICTIONARYWDFLT
  5
E
102
{ACAD_REACTORS
330
C
102
}
330
C
100
AcDbDictionary
281
     1
  3
Normal
350
F
100
AcDbDictionaryWithDefault
340
F
  0
DICTIONARY
  5
17AA
102
{ACAD_REACTORS
330
C
102
}
330
C
100
AcDbDictionary
281
     1
  3
A0
350
17AB
  3
A1
350
17AC
  3
A2
350
17AD
  3
A3
350
17AE
  3
A4
350
17AF
  3
A5
350
17B0
  3
A6
350
17B1
  3
A7
350
17B2
  3
A8
350
17B3
  3
A9
350
17B4
  3
B0
350
17B5
  3
B1
350
17B6
  3
B2
350
17B7
  3
B3
350
17B8
  3
B4
350
17B9
  3
B5
350
17BA
  3
B6
350
17BB
  3
B7
350
17BC
  3
B8
350
17BD
  3
B9
350
17BE
  3
C0
350
17BF
  3
C1
350
17C0
  3
C2
350
17C1
  3
C3
350
17C2
  3
C4
350
17C3
  3
C5
350
17C4
  3
C6
350
17C5
  3
C7
350
17C6
  3
C8
350
17C7
  3
C9
350
17C8
  3
D0
350
17C9
  3
D1
350
17CA
  3
D2
350
17CB
  0
DICTIONARY
  5
17A8
102
{ACAD_REACTORS
330
C
102
}
330
C
100
AcDbDictionary
281
     1
  3
Standard
350
17A9
  0
DICTIONARY
  5
1793
102
{ACAD_REACTORS
330
C
102
}
330
C
100
AcDbDictionary
281
     1
  3
2dWireframe
350
1799
  3
3D Hidden
350
179B
  3
3dWireframe
350
179A
  3
Basic
350
1798
  3
Brighten
350
179F
  3
ColorChange
350
17A3
  3
Conceptual
350
179C
  3
Dim
350
179E
  3
EdgeColorOff
350
17A6
  3
Facepattern
350
17A2
  3
Flat
350
1794
  3
FlatWithEdges
350
1795
  3
Gouraud
350
1796
  3
GouraudWithEdges
350
1797
  3
JitterOff
350
17A4
  3
Linepattern
350
17A1
  3
OverhangOff
350
17A5
  3
Realistic
350
179D
  3
Thicken
350
17A0
  0
XRECORD
  5
17D2
102
{ACAD_REACTORS
330
C
102
}
330
C
100
AcDbXrecord
280
     1
 90
        1
330
17A9
  0
DICTIONARY
  5
1804
102
{ACAD_REACTORS
330
C
102
}
330
C
100
AcDbDictionary
281
     1
  3
CANNOSCALE
350
1807
  3
CMLEADERSTYLE
350
1806
  3
CTABLESTYLE
350
1805
  3
DIMASSOC
350
180A
  3
INDEXCTL
350
1809
  3
LAYEREVAL
350
1851
  3
LAYERNOTIFY
350
1852
  3
LIGHTINGUNITS
350
1850
  3
MSLTSCALE
350
184F
  3
SORTENTS
350
1808
  3
XCLIPFRAME
350
180B
  0
XRECORD
  5
1814
102
{ACAD_REACTORS
330
1813
102
}
330
1813
100
AcDbXrecord
280
     1
290
     1
  0
XRECORD
  5
1816
102
{ACAD_REACTORS
330
1815
102
}
330
1815
100
AcDbXrecord
280
     1
290
     1
  0
XRECORD
  5
1818
102
{ACAD_REACTORS
330
1817
102
}
330
1817
100
AcDbXrecord
280
     1
290
     1
  0
XRECORD
  5
181A
102
{ACAD_REACTORS
330
1819
102
}
330
1819
100
AcDbXrecord
280
     1
290
     1
  0
XRECORD
  5
181C
102
{ACAD_REACTORS
330
181B
102
}
330
181B
100
AcDbXrecord
280
     1
290
     1
  0
XRECORD
  5
181E
102
{ACAD_REACTORS
330
181D
102
}
330
181D
100
AcDbXrecord
280
     1
290
     1
  0
XRECORD
  5
1820
102
{ACAD_REACTORS
330
181F
102
}
330
181F
100
AcDbXrecord
280
     1
290
     1
  0
XRECORD
  5
1822
102
{ACAD_REACTORS
330
1821
102
}
330
1821
100
AcDbXrecord
280
     1
290
     1
  0
XRECORD
  5
1824
102
{ACAD_REACTORS
330
1823
102
}
330
1823
100
AcDbXrecord
280
     1
290
     1
  0
XRECORD
  5
1826
102
{ACAD_REACTORS
330
1825
102
}
330
1825
100
AcDbXrecord
280
     1
290
     1
  0
XRECORD
  5
1828
102
{ACAD_REACTORS
330
1827
102
}
330
1827
100
AcDbXrecord
280
     1
290
     1
  0
XRECORD
  5
182A
102
{ACAD_REACTORS
330
1829
102
}
330
1829
100
AcDbXrecord
280
     1
290
     1
  0
XRECORD
  5
182C
102
{ACAD_REACTORS
330
182B
102
}
330
182B
100
AcDbXrecord
280
     1
290
     1
  0
XRECORD
  5
182E
102
{ACAD_REACTORS
330
182D
102
}
330
182D
100
AcDbXrecord
280
     1
290
     1
  0
XRECORD
  5
1830
102
{ACAD_REACTORS
330
182F
102
}
330
182F
100
AcDbXrecord
280
     1
290
     1
  0
XRECORD
  5
1832
102
{ACAD_REACTORS
330
1831
102
}
330
1831
100
AcDbXrecord
280
     1
290
     1
  0
XRECORD
  5
1834
102
{ACAD_REACTORS
330
1833
102
}
330
1833
100
AcDbXrecord
280
     1
290
     1
  0
XRECORD
  5
1836
102
{ACAD_REACTORS
330
1835
102
}
330
1835
100
AcDbXrecord
280
     1
290
     1
  0
XRECORD
  5
1838
102
{ACAD_REACTORS
330
1837
102
}
330
1837
100
AcDbXrecord
280
     1
290
     1
  0
XRECORD
  5
183A
102
{ACAD_REACTORS
330
1839
102
}
330
1839
100
AcDbXrecord
280
     1
290
     1
  0
XRECORD
  5
183C
102
{ACAD_REACTORS
330
183B
102
}
330
183B
100
AcDbXrecord
280
     1
290
     1
  0
XRECORD
  5
183E
102
{ACAD_REACTORS
330
183D
102
}
330
183D
100
AcDbXrecord
280
     1
290
     1
  0
XRECORD
  5
1840
102
{ACAD_REACTORS
330
183F
102
}
330
183F
100
AcDbXrecord
280
     1
290
     1
  0
XRECORD
  5
1842
102
{ACAD_REACTORS
330
1841
102
}
330
1841
100
AcDbXrecord
280
     1
290
     1
  0
XRECORD
  5
1844
102
{ACAD_REACTORS
330
1843
102
}
330
1843
100
AcDbXrecord
280
     1
290
     1
  0
LAYOUT
  5
1776
102
{ACAD_REACTORS
330
1A
102
}
330
1A
100
AcDbPlotSettings
  1

  2
none_device
  4
ANSI_B_(17.00_x_11.00_Inches)
  6

 40
0.0
 41
0.0
 42
0.0
 43
0.0
 44
431.8
 45
279.4
 46
0.0
 47
0.0
 48
0.0
 49
0.0
140
0.0
141
0.0
142
1.0
143
1.0
 70
     0
 72
     0
 73
     0
 74
     0
  7

 75
     0
147
1.0
 76
     0
 77
     2
 78
   300
148
0.0
149
0.0
100
AcDbLayout
  1
Layout1
 70
     1
 71
     1
 10
0.0
 20
0.0
 11
12.0
 21
9.0
 12
0.0
 22
0.0
 32
0.0
 14
1.000000000000000E+20
 24
1.000000000000000E+20
 34
1.000000000000000E+20
 15
-1.000000000000000E+20
 25
-1.000000000000000E+20
 35
-1.000000000000000E+20
146
0.0
 13
0.0
 23
0.0
 33
0.0
 16
1.0
 26
0.0
 36
0.0
 17
0.0
 27
1.0
 37
0.0
 76
     0
330
21B
  0
LAYOUT
  5
1775
102
{ACAD_REACTORS
330
1A
102
}
330
1A
100
AcDbPlotSettings
  1

  2
none_device
  4
ANSI_B_(17.00_x_11.00_Inches)
  6

 40
0.0
 41
0.0
 42
0.0
 43
0.0
 44
431.8
 45
279.4
 46
0.0
 47
0.0
 48
0.0
 49
0.0
140
0.0
141
0.0
142
1.0
143
1.0
 70
  1024
 72
     0
 73
     0
 74
     0
  7

 75
     0
147
1.0
 76
     0
 77
     2
 78
   300
148
0.0
149
0.0
100
AcDbLayout
  1
Model
 70
     0
 71
     0
 10
0.0
 20
0.0
 11
17.0
 21
11.0
 12
0.0
 22
0.0
 32
0.0
 14
0.0
 24
0.0
 34
0.0
 15
0.0
 25
0.0
 35
0.0
146
0.0
 13
0.0
 23
0.0
 33
0.0
 16
1.0
 26
0.0
 36
0.0
 17
0.0
 27
1.0
 37
0.0
 76
     0
330
21A
331
1F4
  0
MATERIAL
  5
1783
102
{ACAD_XDICTIONARY
360
1784
102
}
102
{ACAD_REACTORS
330
177A
102
}
330
177A
100
AcDbMaterial
  1
ByBlock
 72
     0
 43
0.0208333333333333
 43
0.0
 43
0.0
 43
0.0
 43
0.0
 43
0.0208333333333333
 43
0.0
 43
0.0
 43
0.0
 43
0.0
 43
1.0
 43
0.0
 43
0.0
 43
0.0
 43
0.0
 43
1.0
 77
     0
 47
0.0208333333333333
 47
0.0
 47
0.0
 47
0.0
 47
0.0
 47
0.0208333333333333
 47
0.0
 47
0.0
 47
0.0
 47
0.0
 47
1.0
 47
0.0
 47
0.0
 47
0.0
 47
0.0
 47
1.0
171
     0
 49
0.0208333333333333
 49
0.0
 49
0.0
 49
0.0
 49
0.0
 49
0.0208333333333333
 49
0.0
 49
0.0
 49
0.0
 49
0.0
 49
1.0
 49
0.0
 49
0.0
 49
0.0
 49
0.0
 49
1.0
175
     0
142
0.0208333333333333
142
0.0
142
0.0
142
0.0
142
0.0
142
0.0208333333333333
142
0.0
142
0.0
142
0.0
142
0.0
142
1.0
142
0.0
142
0.0
142
0.0
142
0.0
142
1.0
179
     0
144
0.0208333333333333
144
0.0
144
0.0
144
0.0
144
0.0
144
0.0208333333333333
144
0.0
144
0.0
144
0.0
144
0.0
144
1.0
144
0.0
144
0.0
144
0.0
144
0.0
144
1.0
147
0.0208333333333333
147
0.0
147
0.0
147
0.0
147
0.0
147
0.0208333333333333
147
0.0
147
0.0
147
0.0
147
0.0
147
1.0
147
0.0
147
0.0
147
0.0
147
0.0
147
1.0
  0
MATERIAL
  5
177B
102
{ACAD_XDICTIONARY
360
177C
102
}
102
{ACAD_REACTORS
330
177A
102
}
330
177A
100
AcDbMaterial
  1
ByLayer
 72
     0
 43
0.0208333333333333
 43
0.0
 43
0.0
 43
0.0
 43
0.0
 43
0.0208333333333333
 43
0.0
 43
0.0
 43
0.0
 43
0.0
 43
1.0
 43
0.0
 43
0.0
 43
0.0
 43
0.0
 43
1.0
 77
     0
 47
0.0208333333333333
 47
0.0
 47
0.0
 47
0.0
 47
0.0
 47
0.0208333333333333
 47
0.0
 47
0.0
 47
0.0
 47
0.0
 47
1.0
 47
0.0
 47
0.0
 47
0.0
 47
0.0
 47
1.0
171
     0
 49
0.0208333333333333
 49
0.0
 49
0.0
 49
0.0
 49
0.0
 49
0.0208333333333333
 49
0.0
 49
0.0
 49
0.0
 49
0.0
 49
1.0
 49
0.0
 49
0.0
 49
0.0
 49
0.0
 49
1.0
175
     0
142
0.0208333333333333
142
0.0
142
0.0
142
0.0
142
0.0
142
0.0208333333333333
142
0.0
142
0.0
142
0.0
142
0.0
142
1.0
142
0.0
142
0.0
142
0.0
142
0.0
142
1.0
179
     0
144
0.0208333333333333
144
0.0
144
0.0
144
0.0
144
0.0
144
0.0208333333333333
144
0.0
144
0.0
144
0.0
144
0.0
144
1.0
144
0.0
144
0.0
144
0.0
144
0.0
144
1.0
147
0.0208333333333333
147
0.0
147
0.0
147
0.0
147
0.0
147
0.0208333333333333
147
0.0
147
0.0
147
0.0
147
0.0
147
1.0
147
0.0
147
0.0
147
0.0
147
0.0
147
1.0
  0
MATERIAL
  5
178B
102
{ACAD_XDICTIONARY
360
178C
102
}
102
{ACAD_REACTORS
330
177A
102
}
330
177A
100
AcDbMaterial
  1
Global
 72
     0
 43
0.0208333333333333
 43
0.0
 43
0.0
 43
0.0
 43
0.0
 43
0.0208333333333333
 43
0.0
 43
0.0
 43
0.0
 43
0.0
 43
1.0
 43
0.0
 43
0.0
 43
0.0
 43
0.0
 43
1.0
 77
     0
 47
0.0208333333333333
 47
0.0
 47
0.0
 47
0.0
 47
0.0
 47
0.0208333333333333
 47
0.0
 47
0.0
 47
0.0
 47
0.0
 47
1.0
 47
0.0
 47
0.0
 47
0.0
 47
0.0
 47
1.0
171
     0
 49
0.0208333333333333
 49
0.0
 49
0.0
 49
0.0
 49
0.0
 49
0.0208333333333333
 49
0.0
 49
0.0
 49
0.0
 49
0.0
 49
1.0
 49
0.0
 49
0.0
 49
0.0
 49
0.0
 49
1.0
175
     0
142
0.0208333333333333
142
0.0
142
0.0
142
0.0
142
0.0
142
0.0208333333333333
142
0.0
142
0.0
142
0.0
142
0.0
142
1.0
142
0.0
142
0.0
142
0.0
142
0.0
142
1.0
179
     0
144
0.0208333333333333
144
0.0
144
0.0
144
0.0
144
0.0
144
0.0208333333333333
144
0.0
144
0.0
144
0.0
144
0.0
144
1.0
144
0.0
144
0.0
144
0.0
144
0.0
144
1.0
147
0.0208333333333333
147
0.0
147
0.0
147
0.0
147
0.0
147
0.0208333333333333
147
0.0
147
0.0
147
0.0
147
0.0
147
1.0
147
0.0
147
0.0
147
0.0
147
0.0
147
1.0
  0
MLEADERSTYLE
  5
17CD
102
{ACAD_REACTORS
330
17CC
102
}
330
17CC
100
AcDbMLeaderStyle
170
     2
171
     1
172
     0
 90
        2
 40
0.0
 41
0.0
173
     1
 91
-1056964608
340
14
 92
       -2
290
     1
 42
0.09
291
     1
 43
0.36
  3
Standard
 44
0.18
300

342
11
174
     1
178
     6
175
     1
176
     0
 93
-1056964608
 45
0.18
292
     0
297
     0
 46
0.18
 94
-1056964608
 47
1.0
 49
1.0
140
1.0
293
     1
141
0.0
294
     1
177
     0
142
1.0
295
     0
296
     0
143
0.125
1001
ACAD_MLEADERVER
1070
     2
  0
MLINESTYLE
  5
18
102
{ACAD_REACTORS
330
17
102
}
330
17
100
AcDbMlineStyle
  2
STANDARD
 70
     0
  3

 62
   256
 51
90.0
 52
90.0
 71
     2
 49
0.5
 62
   256
  6
BYLAYER
 49
-0.5
 62
   256
  6
BYLAYER
  0
ACDBPLACEHOLDER
  5
F
102
{ACAD_REACTORS
330
E
102
}
330
E
  0
SCALE
  5
17AB
102
{ACAD_REACTORS
330
17AA
102
}
330
17AA
100
AcDbScale
 70
     0
300
1:1
140
1.0
141
1.0
290
     1
  0
SCALE
  5
17AC
102
{ACAD_REACTORS
330
17AA
102
}
330
17AA
100
AcDbScale
 70
     0
300
1:2
140
1.0
141
2.0
290
     0
  0
SCALE
  5
17AD
102
{ACAD_REACTORS
330
17AA
102
}
330
17AA
100
AcDbScale
 70
     0
300
1:4
140
1.0
141
4.0
290
     0
  0
SCALE
  5
17AE
102
{ACAD_REACTORS
330
17AA
102
}
330
17AA
100
AcDbScale
 70
     0
300
1:5
140
1.0
141
5.0
290
     0
  0
SCALE
  5
17AF
102
{ACAD_REACTORS
330
17AA
102
}
330
17AA
100
AcDbScale
 70
     0
300
1:8
140
1.0
141
8.0
290
     0
  0
SCALE
  5
17B0
102
{ACAD_REACTORS
330
17AA
102
}
330
17AA
100
AcDbScale
 70
     0
300
1:10
140
1.0
141
10.0
290
     0
  0
SCALE
  5
17B1
102
{ACAD_REACTORS
330
17AA
102
}
330
17AA
100
AcDbScale
 70
     0
300
1:16
140
1.0
141
16.0
290
     0
  0
SCALE
  5
17B2
102
{ACAD_REACTORS
330
17AA
102
}
330
17AA
100
AcDbScale
 70
     0
300
1:20
140
1.0
141
20.0
290
     0
  0
SCALE
  5
17B3
102
{ACAD_REACTORS
330
17AA
102
}
330
17AA
100
AcDbScale
 70
     0
300
1:30
140
1.0
141
30.0
290
     0
  0
SCALE
  5
17B4
102
{ACAD_REACTORS
330
17AA
102
}
330
17AA
100
AcDbScale
 70
     0
300
1:40
140
1.0
141
40.0
290
     0
  0
SCALE
  5
17B5
102
{ACAD_REACTORS
330
17AA
102
}
330
17AA
100
AcDbScale
 70
     0
300
1:50
140
1.0
141
50.0
290
     0
  0
SCALE
  5
17B6
102
{ACAD_REACTORS
330
17AA
102
}
330
17AA
100
AcDbScale
 70
     0
300
1:100
140
1.0
141
100.0
290
     0
  0
SCALE
  5
17B7
102
{ACAD_REACTORS
330
17AA
102
}
330
17AA
100
AcDbScale
 70
     0
300
2:1
140
2.0
141
1.0
290
     0
  0
SCALE
  5
17B8
102
{ACAD_REACTORS
330
17AA
102
}
330
17AA
100
AcDbScale
 70
     0
300
4:1
140
4.0
141
1.0
290
     0
  0
SCALE
  5
17B9
102
{ACAD_REACTORS
330
17AA
102
}
330
17AA
100
AcDbScale
 70
     0
300
8:1
140
8.0
141
1.0
290
     0
  0
SCALE
  5
17BA
102
{ACAD_REACTORS
330
17AA
102
}
330
17AA
100
AcDbScale
 70
     0
300
10:1
140
10.0
141
1.0
290
     0
  0
SCALE
  5
17BB
102
{ACAD_REACTORS
330
17AA
102
}
330
17AA
100
AcDbScale
 70
     0
300
100:1
140
100.0
141
1.0
290
     0
  0
SCALE
  5
17BC
102
{ACAD_REACTORS
330
17AA
102
}
330
17AA
100
AcDbScale
 70
     0
300
1/128" = 1'-0"
140
0.0078125
141
12.0
290
     0
  0
SCALE
  5
17BD
102
{ACAD_REACTORS
330
17AA
102
}
330
17AA
100
AcDbScale
 70
     0
300
1/64" = 1'-0"
140
0.015625
141
12.0
290
     0
  0
SCALE
  5
17BE
102
{ACAD_REACTORS
330
17AA
102
}
330
17AA
100
AcDbScale
 70
     0
300
1/32" = 1'-0"
140
0.03125
141
12.0
290
     0
  0
SCALE
  5
17BF
102
{ACAD_REACTORS
330
17AA
102
}
330
17AA
100
AcDbScale
 70
     0
300
1/16" = 1'-0"
140
0.0625
141
12.0
290
     0
  0
SCALE
  5
17C0
102
{ACAD_REACTORS
330
17AA
102
}
330
17AA
100
AcDbScale
 70
     0
300
3/32" = 1'-0"
140
0.09375
141
12.0
290
     0
  0
SCALE
  5
17C1
102
{ACAD_REACTORS
330
17AA
102
}
330
17AA
100
AcDbScale
 70
     0
300
1/8" = 1'-0"
140
0.125
141
12.0
290
     0
  0
SCALE
  5
17C2
102
{ACAD_REACTORS
330
17AA
102
}
330
17AA
100
AcDbScale
 70
     0
300
3/16" = 1'-0"
140
0.1875
141
12.0
290
     0
  0
SCALE
  5
17C3
102
{ACAD_REACTORS
330
17AA
102
}
330
17AA
100
AcDbScale
 70
     0
300
1/4" = 1'-0"
140
0.25
141
12.0
290
     0
  0
SCALE
  5
17C4
102
{ACAD_REACTORS
330
17AA
102
}
330
17AA
100
AcDbScale
 70
     0
300
3/8" = 1'-0"
140
0.375
141
12.0
290
     0
  0
SCALE
  5
17C5
102
{ACAD_REACTORS
330
17AA
102
}
330
17AA
100
AcDbScale
 70
     0
300
1/2" = 1'-0"
140
0.5
141
12.0
290
     0
  0
SCALE
  5
17C6
102
{ACAD_REACTORS
330
17AA
102
}
330
17AA
100
AcDbScale
 70
     0
300
3/4" = 1'-0"
140
0.75
141
12.0
290
     0
  0
SCALE
  5
17C7
102
{ACAD_REACTORS
330
17AA
102
}
330
17AA
100
AcDbScale
 70
     0
300
1" = 1'-0"
140
1.0
141
12.0
290
     0
  0
SCALE
  5
17C8
102
{ACAD_REACTORS
330
17AA
102
}
330
17AA
100
AcDbScale
 70
     0
300
1-1/2" = 1'-0"
140
1.5
141
12.0
290
     0
  0
SCALE
  5
17C9
102
{ACAD_REACTORS
330
17AA
102
}
330
17AA
100
AcDbScale
 70
     0
300
3" = 1'-0"
140
3.0
141
12.0
290
     0
  0
SCALE
  5
17CA
102
{ACAD_REACTORS
330
17AA
102
}
330
17AA
100
AcDbScale
 70
     0
300
6" = 1'-0"
140
6.0
141
12.0
290
     0
  0
SCALE
  5
17CB
102
{ACAD_REACTORS
330
17AA
102
}
330
17AA
100
AcDbScale
 70
     0
300
1'-0" = 1'-0"
140
12.0
141
12.0
290
     0
  0
TABLESTYLE
  5
17A9
102
{ACAD_XDICTIONARY
360
17D0
102
}
102
{ACAD_REACTORS
330
17A8
102
}
330
17A8
100
AcDbTableStyle
  3
Standard
 70
     0
 71
     0
 40
0.06
 41
0.06
280
     0
281
     0
  7
STANDARD
140
0.18
170
     2
 62
     0
 63
     7
283
     0
 90
      512
 91
        0
  1

274
    -2
284
     1
 64
     0
275
    -2
285
     1
 65
     0
276
    -2
286
     1
 66
     0
277
    -2
287
     1
 67
     0
278
    -2
288
     1
 68
     0
279
    -2
289
     1
 69
     0
  7
STANDARD
140
0.25
170
     5
 62
     0
 63
     7
283
     0
 90
      512
 91
        0
  1

274
    -2
284
     1
 64
     0
275
    -2
285
     1
 65
     0
276
    -2
286
     1
 66
     0
277
    -2
287
     1
 67
     0
278
    -2
288
     1
 68
     0
279
    -2
289
     1
 69
     0
  7
STANDARD
140
0.18
170
     5
 62
     0
 63
     7
283
     0
 90
      512
 91
        0
  1

274
    -2
284
     1
 64
     0
275
    -2
285
     1
 65
     0
276
    -2
286
     1
 66
     0
277
    -2
287
     1
 67
     0
278
    -2
288
     1
 68
     0
279
    -2
289
     1
 69
     0
  0
VISUALSTYLE
  5
1799
102
{ACAD_XDICTIONARY
360
17E6
102
}
102
{ACAD_REACTORS
330
1793
102
}
330
1793
100
AcDbVisualStyle
  2
2dWireframe
 70
     4
 71
     0
 72
     2
 73
     0
 90
        0
 40
-0.6
 41
-30.0
 62
     5
 63
     7
 74
     1
 91
        4
 64
     7
 65
   257
 75
     1
175
     1
 42
1.0
 92
        0
 66
   257
 43
1.0
 76
     1
 77
     6
 78
     2
 67
     7
 79
     5
170
     0
171
     0
290
     0
174
     0
 93
        1
 44
0.0
173
     0
291
     0
 45
0.0
  0
VISUALSTYLE
  5
179B
102
{ACAD_XDICTIONARY
360
17EA
102
}
102
{ACAD_REACTORS
330
1793
102
}
330
1793
100
AcDbVisualStyle
  2
3D Hidden
 70
     6
 71
     1
 72
     2
 73
     2
 90
        0
 40
-0.6
 41
-30.0
 62
     5
 63
     7
 74
     2
 91
        2
 64
     7
 65
   257
 75
     2
175
     1
 42
179.0
 92
        0
 66
   257
 43
1.0
 76
     1
 77
     6
 78
     2
 67
     7
 79
     3
170
     0
171
     0
290
     0
174
     0
 93
        1
 44
0.0
173
     0
291
     0
 45
0.0
  0
VISUALSTYLE
  5
179A
102
{ACAD_XDICTIONARY
360
17E8
102
}
102
{ACAD_REACTORS
330
1793
102
}
330
1793
100
AcDbVisualStyle
  2
3dWireframe
 70
     5
 71
     0
 72
     2
 73
     0
 90
        0
 40
-0.6
 41
-30.0
 62
     5
 63
     7
 74
     1
 91
        4
 64
     7
 65
   257
 75
     1
175
     1
 42
1.0
 92
        0
 66
   257
 43
1.0
 76
     1
 77
     6
 78
     2
 67
     7
 79
     5
170
     0
171
     0
290
     0
174
     0
 93
        1
 44
0.0
173
     0
291
     0
 45
0.0
  0
VISUALSTYLE
  5
1798
102
{ACAD_XDICTIONARY
360
17E4
102
}
102
{ACAD_REACTORS
330
1793
102
}
330
1793
100
AcDbVisualStyle
  2
Basic
 70
     7
 71
     1
 72
     0
 73
     1
 90
        0
 40
-0.6
 41
-30.0
 62
     5
 63
     7
 74
     0
 91
        4
 64
     7
 65
   257
 75
     1
175
     1
 42
1.0
 92
        8
 66
     7
 43
1.0
 76
     1
 77
     6
 78
     2
 67
     7
 79
     5
170
     0
171
     0
290
     0
174
     0
 93
        1
 44
0.0
173
     0
291
     1
 45
0.0
  0
VISUALSTYLE
  5
179F
102
{ACAD_XDICTIONARY
360
17F2
102
}
102
{ACAD_REACTORS
330
1793
102
}
330
1793
100
AcDbVisualStyle
  2
Brighten
 70
    12
 71
     2
 72
     2
 73
     0
 90
        0
 40
-0.6
 41
-30.0
 62
     5
 63
     7
 74
     1
 91
        4
 64
     7
 65
   257
 75
     1
175
     1
 42
1.0
 92
        8
 66
     7
 43
1.0
 76
     1
 77
     6
 78
     2
 67
     7
 79
     5
170
     0
171
     0
290
     0
174
     0
 93
        1
 44
50.0
173
     0
291
     1
 45
0.0
  0
VISUALSTYLE
  5
17A3
102
{ACAD_XDICTIONARY
360
17FA
102
}
102
{ACAD_REACTORS
330
1793
102
}
330
1793
100
AcDbVisualStyle
  2
ColorChange
 70
    16
 71
     2
 72
     2
 73
     3
 90
        0
 40
-0.6
 41
-30.0
 62
     5
 63
     8
 74
     1
 91
        4
 64
     7
 65
   257
 75
     1
175
     1
 42
1.0
 92
        8
 66
     8
 43
1.0
 76
     1
 77
     6
 78
     2
 67
     7
 79
     5
170
     0
171
     0
290
     0
174
     0
 93
        1
 44
0.0
173
     0
291
     1
 45
0.0
  0
VISUALSTYLE
  5
179C
102
{ACAD_XDICTIONARY
360
17EC
102
}
102
{ACAD_REACTORS
330
1793
102
}
330
1793
100
AcDbVisualStyle
  2
Conceptual
 70
     9
 71
     3
 72
     2
 73
     0
 90
        0
 40
-0.6
 41
-30.0
 62
     5
 63
     7
 74
     2
 91
        2
 64
     7
 65
   257
 75
     1
175
     1
 42
179.0
 92
        8
 66
     7
 43
1.0
 76
     1
 77
     6
 78
     2
 67
     7
 79
     3
170
     0
171
     0
290
     0
174
     0
 93
        1
 44
0.0
173
     0
291
     0
 45
0.0
  0
VISUALSTYLE
  5
179E
102
{ACAD_XDICTIONARY
360
17F0
102
}
102
{ACAD_REACTORS
330
1793
102
}
330
1793
100
AcDbVisualStyle
  2
Dim
 70
    11
 71
     2
 72
     2
 73
     0
 90
        0
 40
-0.6
 41
-30.0
 62
     5
 63
     7
 74
     1
 91
        4
 64
     7
 65
   257
 75
     1
175
     1
 42
1.0
 92
        8
 66
     7
 43
1.0
 76
     1
 77
     6
 78
     2
 67
     7
 79
     5
170
     0
171
     0
290
     0
174
     0
 93
        1
 44
-50.0
173
     0
291
     1
 45
0.0
  0
VISUALSTYLE
  5
17A6
102
{ACAD_XDICTIONARY
360
1800
102
}
102
{ACAD_REACTORS
330
1793
102
}
330
1793
100
AcDbVisualStyle
  2
EdgeColorOff
 70
    22
 71
     2
 72
     2
 73
     0
 90
        0
 40
-0.6
 41
-30.0
 62
     5
 63
     7
 74
     1
 91
        4
 64
     7
 65
   257
 75
     1
175
     1
 42
1.0
 92
        8
 66
     7
 43
1.0
 76
     1
 77
     6
 78
     2
 67
     7
 79
     5
170
     0
171
     0
290
     0
174
     0
 93
        1
 44
0.0
173
     0
291
     1
 45
0.0
  0
VISUALSTYLE
  5
17A2
102
{ACAD_XDICTIONARY
360
17F8
102
}
102
{ACAD_REACTORS
330
1793
102
}
330
1793
100
AcDbVisualStyle
  2
Facepattern
 70
    15
 71
     2
 72
     2
 73
     0
 90
        0
 40
-0.6
 41
-30.0
 62
     5
 63
     7
 74
     1
 91
        4
 64
     7
 65
   257
 75
     1
175
     1
 42
1.0
 92
        8
 66
     7
 43
1.0
 76
     1
 77
     6
 78
     2
 67
     7
 79
     5
170
     0
171
     0
290
     0
174
     0
 93
        1
 44
0.0
173
     0
291
     1
 45
0.0
  0
VISUALSTYLE
  5
1794
102
{ACAD_XDICTIONARY
360
17DC
102
}
102
{ACAD_REACTORS
330
1793
102
}
330
1793
100
AcDbVisualStyle
  2
Flat
 70
     0
 71
     2
 72
     1
 73
     1
 90
        2
 40
-0.6
 41
30.0
 62
     5
 63
     7
 74
     0
 91
        4
 64
     7
 65
   257
 75
     1
175
     1
 42
1.0
 92
        8
 66
     7
 43
1.0
 76
     1
 77
     6
 78
     2
 67
     7
 79
     5
170
     0
171
     0
290
     0
174
     0
 93
       13
 44
0.0
173
     0
291
     1
 45
0.0
  0
VISUALSTYLE
  5
1795
102
{ACAD_XDICTIONARY
360
17DE
102
}
102
{ACAD_REACTORS
330
1793
102
}
330
1793
100
AcDbVisualStyle
  2
FlatWithEdges
 70
     1
 71
     2
 72
     1
 73
     1
 90
        2
 40
-0.6
 41
30.0
 62
     5
 63
     7
 74
     1
 91
        4
 64
     7
 65
   257
 75
     1
175
     1
 42
1.0
 92
        0
 66
   257
 43
1.0
 76
     1
 77
     6
 78
     2
 67
     7
 79
     5
170
     0
171
     0
290
     0
174
     0
 93
       13
 44
0.0
173
     0
291
     1
 45
0.0
  0
VISUALSTYLE
  5
1796
102
{ACAD_XDICTIONARY
360
17E0
102
}
102
{ACAD_REACTORS
330
1793
102
}
330
1793
100
AcDbVisualStyle
  2
Gouraud
 70
     2
 71
     2
 72
     2
 73
     1
 90
        2
 40
-0.6
 41
30.0
 62
     5
 63
     7
 74
     0
 91
        4
 64
     7
 65
   257
 75
     1
175
     1
 42
1.0
 92
        0
 66
     7
 43
1.0
 76
     1
 77
     6
 78
     2
 67
     7
 79
     5
170
     0
171
     0
290
     0
174
     0
 93
       13
 44
0.0
173
     0
291
     1
 45
0.0
  0
VISUALSTYLE
  5
1797
102
{ACAD_XDICTIONARY
360
17E2
102
}
102
{ACAD_REACTORS
330
1793
102
}
330
1793
100
AcDbVisualStyle
  2
GouraudWithEdges
 70
     3
 71
     2
 72
     2
 73
     1
 90
        2
 40
-0.6
 41
30.0
 62
     5
 63
     7
 74
     1
 91
        4
 64
     7
 65
   257
 75
     1
175
     1
 42
1.0
 92
        0
 66
   257
 43
1.0
 76
     1
 77
     6
 78
     2
 67
     7
 79
     5
170
     0
171
     0
290
     0
174
     0
 93
       13
 44
0.0
173
     0
291
     1
 45
0.0
  0
VISUALSTYLE
  5
17A4
102
{ACAD_XDICTIONARY
360
17FC
102
}
102
{ACAD_REACTORS
330
1793
102
}
330
1793
100
AcDbVisualStyle
  2
JitterOff
 70
    20
 71
     2
 72
     2
 73
     0
 90
        0
 40
-0.6
 41
-30.0
 62
     5
 63
     7
 74
     1
 91
        4
 64
     7
 65
   257
 75
     1
175
     1
 42
1.0
 92
       10
 66
     7
 43
1.0
 76
     1
 77
     6
 78
     2
 67
     7
 79
     5
170
     0
171
     0
290
     0
174
     0
 93
        1
 44
0.0
173
     0
291
     1
 45
0.0
  0
VISUALSTYLE
  5
17A1
102
{ACAD_XDICTIONARY
360
17F6
102
}
102
{ACAD_REACTORS
330
1793
102
}
330
1793
100
AcDbVisualStyle
  2
Linepattern
 70
    14
 71
     2
 72
     2
 73
     0
 90
        0
 40
-0.6
 41
-30.0
 62
     5
 63
     7
 74
     1
 91
        4
 64
     7
 65
   257
 75
     7
175
     7
 42
1.0
 92
        8
 66
     7
 43
1.0
 76
     1
 77
     6
 78
     2
 67
     7
 79
     5
170
     0
171
     0
290
     0
174
     0
 93
        1
 44
0.0
173
     0
291
     1
 45
0.0
  0
VISUALSTYLE
  5
17A5
102
{ACAD_XDICTIONARY
360
17FE
102
}
102
{ACAD_REACTORS
330
1793
102
}
330
1793
100
AcDbVisualStyle
  2
OverhangOff
 70
    21
 71
     2
 72
     2
 73
     0
 90
        0
 40
-0.6
 41
-30.0
 62
     5
 63
     7
 74
     1
 91
        4
 64
     7
 65
   257
 75
     1
175
     1
 42
1.0
 92
        9
 66
     7
 43
1.0
 76
     1
 77
     6
 78
     2
 67
     7
 79
     5
170
     0
171
     0
290
     0
174
     0
 93
        1
 44
0.0
173
     0
291
     1
 45
0.0
  0
VISUALSTYLE
  5
179D
102
{ACAD_XDICTIONARY
360
17EE
102
}
102
{ACAD_REACTORS
330
1793
102
}
330
1793
100
AcDbVisualStyle
  2
Realistic
 70
     8
 71
     2
 72
     2
 73
     0
 90
        0
 40
-0.6
 41
-30.0
 62
     5
 63
     7
 74
     1
 91
        0
 64
     7
 65
   257
 75
     1
175
     1
 42
1.0
 92
        8
 66
     8
 43
1.0
 76
     1
 77
     6
 78
     2
 67
     7
 79
     5
170
     0
171
     0
290
     0
174
     0
 93
       13
 44
0.0
173
     0
291
     0
 45
0.0
  0
VISUALSTYLE
  5
17A0
102
{ACAD_XDICTIONARY
360
17F4
102
}
102
{ACAD_REACTORS
330
1793
102
}
330
1793
100
AcDbVisualStyle
  2
Thicken
 70
    13
 71
     2
 72
     2
 73
     0
 90
        0
 40
-0.6
 41
-30.0
 62
     5
 63
     7
 74
     1
 91
        4
 64
     7
 65
   257
 75
     1
175
     1
 42
1.0
 92
       12
 66
     7
 43
1.0
 76
     1
 77
     6
 78
     2
 67
     7
 79
     5
170
     0
171
     0
290
     0
174
     0
 93
        1
 44
0.0
173
     0
291
     1
 45
0.0
  0
DICTIONARYVAR
  5
1807
102
{ACAD_REACTORS
330
1804
102
}
330
1804
100
DictionaryVariables
280
     0
  1
1:1
  0
DICTIONARYVAR
  5
1806
102
{ACAD_REACTORS
330
1804
102
}
330
1804
100
DictionaryVariables
280
     0
  1
STANDARD
  0
DICTIONARYVAR
  5
1805
102
{ACAD_REACTORS
330
1804
102
}
330
1804
100
DictionaryVariables
280
     0
  1
STANDARD
  0
DICTIONARYVAR
  5
180A
102
{ACAD_REACTORS
330
1804
102
}
330
1804
100
DictionaryVariables
280
     0
  1
1
  0
DICTIONARYVAR
  5
1809
102
{ACAD_REACTORS
330
1804
102
}
330
1804
100
DictionaryVariables
280
     0
  1
0
  0
DICTIONARYVAR
  5
1851
102
{ACAD_REACTORS
330
1804
102
}
330
1804
100
DictionaryVariables
280
     0
  1
1
  0
DICTIONARYVAR
  5
1852
102
{ACAD_REACTORS
330
1804
102
}
330
1804
100
DictionaryVariables
280
     0
  1
15
  0
DICTIONARYVAR
  5
1850
102
{ACAD_REACTORS
330
1804
102
}
330
1804
100
DictionaryVariables
280
     0
  1
0
  0
DICTIONARYVAR
  5
184F
102
{ACAD_REACTORS
330
1804
102
}
330
1804
100
DictionaryVariables
280
     0
  1
0
  0
DICTIONARYVAR
  5
1808
102
{ACAD_REACTORS
330
1804
102
}
330
1804
100
DictionaryVariables
280
     0
  1
127
  0
DICTIONARYVAR
  5
180B
102
{ACAD_REACTORS
330
1804
102
}
330
1804
100
DictionaryVariables
280
     0
  1
2
  0
DICTIONARY
  5
1784
330
1783
100
AcDbDictionary
280
     1
281
     1
  3
BUMPTILE
360
1786
  3
DIFFUSETILE
360
1785
  3
OPACITYTILE
360
1789
  3
REFLECTIONTILE
360
1788
  3
REFRACTIONTILE
360
178A
  3
SPECULARTILE
360
1787
  0
DICTIONARY
  5
177C
330
177B
100
AcDbDictionary
280
     1
281
     1
  3
BUMPTILE
360
177E
  3
DIFFUSETILE
360
177D
  3
OPACITYTILE
360
1781
  3
REFLECTIONTILE
360
1780
  3
REFRACTIONTILE
360
1782
  3
SPECULARTILE
360
177F
  0
DICTIONARY
  5
178C
330
178B
100
AcDbDictionary
280
     1
281
     1
  3
BUMPTILE
360
178E
  3
DIFFUSETILE
360
178D
  3
OPACITYTILE
360
1791
  3
REFLECTIONTILE
360
1790
  3
REFRACTIONTILE
360
1792
  3
SPECULARTILE
360
178F
  0
DICTIONARY
  5
17D0
330
17A9
100
AcDbDictionary
280
     1
281
     1
  3
ACAD_ROUNDTRIP_2008_TABLESTYLE_CELLSTYLEMAP
360
1853
  0
DICTIONARY
  5
17E6
330
1799
100
AcDbDictionary
280
     1
281
     1
  3
ACAD_XREC_ROUNDTRIP
360
17E7
  0
DICTIONARY
  5
17EA
330
179B
100
AcDbDictionary
280
     1
281
     1
  3
ACAD_XREC_ROUNDTRIP
360
17EB
  0
DICTIONARY
  5
17E8
330
179A
100
AcDbDictionary
280
     1
281
     1
  3
ACAD_XREC_ROUNDTRIP
360
17E9
  0
DICTIONARY
  5
17E4
330
1798
100
AcDbDictionary
280
     1
281
     1
  3
ACAD_XREC_ROUNDTRIP
360
17E5
  0
DICTIONARY
  5
17F2
330
179F
100
AcDbDictionary
280
     1
281
     1
  3
ACAD_XREC_ROUNDTRIP
360
17F3
  0
DICTIONARY
  5
17FA
330
17A3
100
AcDbDictionary
280
     1
281
     1
  3
ACAD_XREC_ROUNDTRIP
360
17FB
  0
DICTIONARY
  5
17EC
330
179C
100
AcDbDictionary
280
     1
281
     1
  3
ACAD_XREC_ROUNDTRIP
360
17ED
  0
DICTIONARY
  5
17F0
330
179E
100
AcDbDictionary
280
     1
281
     1
  3
ACAD_XREC_ROUNDTRIP
360
17F1
  0
DICTIONARY
  5
1800
330
17A6
100
AcDbDictionary
280
     1
281
     1
  3
ACAD_XREC_ROUNDTRIP
360
1801
  0
DICTIONARY
  5
17F8
330
17A2
100
AcDbDictionary
280
     1
281
     1
  3
ACAD_XREC_ROUNDTRIP
360
17F9
  0
DICTIONARY
  5
17DC
330
1794
100
AcDbDictionary
280
     1
281
     1
  3
ACAD_XREC_ROUNDTRIP
360
17DD
  0
DICTIONARY
  5
17DE
330
1795
100
AcDbDictionary
280
     1
281
     1
  3
ACAD_XREC_ROUNDTRIP
360
17DF
  0
DICTIONARY
  5
17E0
330
1796
100
AcDbDictionary
280
     1
281
     1
  3
ACAD_XREC_ROUNDTRIP
360
17E1
  0
DICTIONARY
  5
17E2
330
1797
100
AcDbDictionary
280
     1
281
     1
  3
ACAD_XREC_ROUNDTRIP
360
17E3
  0
DICTIONARY
  5
17FC
330
17A4
100
AcDbDictionary
280
     1
281
     1
  3
ACAD_XREC_ROUNDTRIP
360
17FD
  0
DICTIONARY
  5
17F6
330
17A1
100
AcDbDictionary
280
     1
281
     1
  3
ACAD_XREC_ROUNDTRIP
360
17F7
  0
DICTIONARY
  5
17FE
330
17A5
100
AcDbDictionary
280
     1
281
     1
  3
ACAD_XREC_ROUNDTRIP
360
17FF
  0
DICTIONARY
  5
17EE
330
179D
100
AcDbDictionary
280
     1
281
     1
  3
ACAD_XREC_ROUNDTRIP
360
17EF
  0
DICTIONARY
  5
17F4
330
17A0
100
AcDbDictionary
280
     1
281
     1
  3
ACAD_XREC_ROUNDTRIP
360
17F5
  0
XRECORD
  5
1786
102
{ACAD_REACTORS
330
1784
102
}
330
1784
100
AcDbXrecord
280
     1
270
     1
271
     1
  0
XRECORD
  5
1785
102
{ACAD_REACTORS
330
1784
102
}
330
1784
100
AcDbXrecord
280
     1
270
     1
271
     1
  0
XRECORD
  5
1789
102
{ACAD_REACTORS
330
1784
102
}
330
1784
100
AcDbXrecord
280
     1
270
     1
271
     1
  0
XRECORD
  5
1788
102
{ACAD_REACTORS
330
1784
102
}
330
1784
100
AcDbXrecord
280
     1
270
     1
271
     1
  0
XRECORD
  5
178A
102
{ACAD_REACTORS
330
1784
102
}
330
1784
100
AcDbXrecord
280
     1
270
     1
271
     1
  0
XRECORD
  5
1787
102
{ACAD_REACTORS
330
1784
102
}
330
1784
100
AcDbXrecord
280
     1
270
     1
271
     1
  0
XRECORD
  5
177E
102
{ACAD_REACTORS
330
177C
102
}
330
177C
100
AcDbXrecord
280
     1
270
     1
271
     1
  0
XRECORD
  5
177D
102
{ACAD_REACTORS
330
177C
102
}
330
177C
100
AcDbXrecord
280
     1
270
     1
271
     1
  0
XRECORD
  5
1781
102
{ACAD_REACTORS
330
177C
102
}
330
177C
100
AcDbXrecord
280
     1
270
     1
271
     1
  0
XRECORD
  5
1780
102
{ACAD_REACTORS
330
177C
102
}
330
177C
100
AcDbXrecord
280
     1
270
     1
271
     1
  0
XRECORD
  5
1782
102
{ACAD_REACTORS
330
177C
102
}
330
177C
100
AcDbXrecord
280
     1
270
     1
271
     1
  0
XRECORD
  5
177F
102
{ACAD_REACTORS
330
177C
102
}
330
177C
100
AcDbXrecord
280
     1
270
     1
271
     1
  0
XRECORD
  5
178E
102
{ACAD_REACTORS
330
178C
102
}
330
178C
100
AcDbXrecord
280
     1
270
     1
271
     1
  0
XRECORD
  5
178D
102
{ACAD_REACTORS
330
178C
102
}
330
178C
100
AcDbXrecord
280
     1
270
     1
271
     1
  0
XRECORD
  5
1791
102
{ACAD_REACTORS
330
178C
102
}
330
178C
100
AcDbXrecord
280
     1
270
     1
271
     1
  0
XRECORD
  5
1790
102
{ACAD_REACTORS
330
178C
102
}
330
178C
100
AcDbXrecord
280
     1
270
     1
271
     1
  0
XRECORD
  5
1792
102
{ACAD_REACTORS
330
178C
102
}
330
178C
100
AcDbXrecord
280
     1
270
     1
271
     1
  0
XRECORD
  5
178F
102
{ACAD_REACTORS
330
178C
102
}
330
178C
100
AcDbXrecord
280
     1
270
     1
271
     1
  0
CELLSTYLEMAP
  5
1853
102
{ACAD_REACTORS
330
17D0
102
}
330
17D0
100
AcDbCellStyleMap
 90
        3
300
CELLSTYLE
  1
TABLEFORMAT_BEGIN
 90
        5
170
     1
 91
        0
 92
    32768
 62
   257
 93
        1
300
CONTENTFORMAT
  1
CONTENTFORMAT_BEGIN
 90
        0
 91
        0
 92
      512
 93
        0
300

 40
0.0
140
1.0
 94
        5
 62
     0
340
11
144
0.25
309
CONTENTFORMAT_END
171
     0
 94
        0
309
TABLEFORMAT_END
  1
CELLSTYLE_BEGIN
 90
        1
 91
        1
300
_TITLE
309
CELLSTYLE_END
300
CELLSTYLE
  1
TABLEFORMAT_BEGIN
 90
        5
170
     1
 91
        0
 92
        0
 62
   257
 93
        1
300
CONTENTFORMAT
  1
CONTENTFORMAT_BEGIN
 90
        0
 91
        0
 92
      512
 93
        0
300

 40
0.0
140
1.0
 94
        5
 62
     0
340
11
144
0.18
309
CONTENTFORMAT_END
171
     0
 94
        0
309
TABLEFORMAT_END
  1
CELLSTYLE_BEGIN
 90
        2
 91
        1
300
_HEADER
309
CELLSTYLE_END
300
CELLSTYLE
  1
TABLEFORMAT_BEGIN
 90
        5
170
     1
 91
        0
 92
        0
 62
   257
 93
        1
300
CONTENTFORMAT
  1
CONTENTFORMAT_BEGIN
 90
        0
 91
        0
 92
      512
 93
        0
300

 40
0.0
140
1.0
 94
        2
 62
     0
340
11
144
0.18
309
CONTENTFORMAT_END
171
     0
 94
        0
309
TABLEFORMAT_END
  1
CELLSTYLE_BEGIN
 90
        3
 91
        2
300
_DATA
309
CELLSTYLE_END
  0
XRECORD
  5
17E7
102
{ACAD_REACTORS
330
17E6
102
}
330
17E6
100
AcDbXrecord
280
     1
102
RTVSPropertyOp0
 70
     1
102
RTVSPropertyOp1
 70
     1
102
RTVSPropertyOp2
 70
     1
102
RTVSPropertyOp3
 70
     1
102
RTVSPropertyOp4
 70
     1
102
RTVSPropertyOp5
 70
     1
102
RTVSPropertyOp6
 70
     1
102
RTVSPropertyOp7
 70
     1
102
RTVSPropertyOp8
 70
     1
102
RTVSPropertyOp9
 70
     1
102
RTVSPropertyOp10
 70
     1
102
RTVSPropertyOp11
 70
     1
102
RTVSPropertyOp12
 70
     1
102
RTVSPropertyOp13
 70
     1
102
RTVSPropertyOp14
 70
     1
102
RTVSPropertyOp15
 70
     1
102
RTVSPropertyOp16
 70
     1
102
RTVSPropertyOp17
 70
     1
102
RTVSPropertyOp18
 70
     1
102
RTVSPropertyOp19
 70
     1
102
RTVSPropertyOp20
 70
     1
102
RTVSPropertyOp21
 70
     1
102
RTVSPropertyOp22
 70
     1
102
RTVSPropertyOp23
 70
     1
102
RTVSPropertyOp24
 70
     1
102
RTVSPropertyOp25
 70
     1
102
RTVSPropertyOp26
 70
     1
102
RTVSPropertyOp27
 70
     1
  0
XRECORD
  5
17EB
102
{ACAD_REACTORS
330
17EA
102
}
330
17EA
100
AcDbXrecord
280
     1
102
RTVSPropertyOp0
 70
     1
102
RTVSPropertyOp1
 70
     1
102
RTVSPropertyOp2
 70
     1
102
RTVSPropertyOp3
 70
     1
102
RTVSPropertyOp4
 70
     1
102
RTVSPropertyOp5
 70
     1
102
RTVSPropertyOp6
 70
     1
102
RTVSPropertyOp7
 70
     1
102
RTVSPropertyOp8
 70
     1
102
RTVSPropertyOp9
 70
     1
102
RTVSPropertyOp10
 70
     1
102
RTVSPropertyOp11
 70
     1
102
RTVSPropertyOp12
 70
     1
102
RTVSPropertyOp13
 70
     1
102
RTVSPropertyOp14
 70
     1
102
RTVSPropertyOp15
 70
     1
102
RTVSPropertyOp16
 70
     1
102
RTVSPropertyOp17
 70
     1
102
RTVSPropertyOp18
 70
     1
102
RTVSPropertyOp19
 70
     1
102
RTVSPropertyOp20
 70
     1
102
RTVSPropertyOp21
 70
     1
102
RTVSPropertyOp22
 70
     1
102
RTVSPropertyOp23
 70
     1
102
RTVSPropertyOp24
 70
     1
102
RTVSPropertyOp25
 70
     1
102
RTVSPropertyOp26
 70
     1
102
RTVSPropertyOp27
 70
     1
  0
XRECORD
  5
17E9
102
{ACAD_REACTORS
330
17E8
102
}
330
17E8
100
AcDbXrecord
280
     1
102
RTVSPropertyOp0
 70
     1
102
RTVSPropertyOp1
 70
     1
102
RTVSPropertyOp2
 70
     1
102
RTVSPropertyOp3
 70
     1
102
RTVSPropertyOp4
 70
     1
102
RTVSPropertyOp5
 70
     1
102
RTVSPropertyOp6
 70
     1
102
RTVSPropertyOp7
 70
     1
102
RTVSPropertyOp8
 70
     1
102
RTVSPropertyOp9
 70
     1
102
RTVSPropertyOp10
 70
     1
102
RTVSPropertyOp11
 70
     1
102
RTVSPropertyOp12
 70
     1
102
RTVSPropertyOp13
 70
     1
102
RTVSPropertyOp14
 70
     1
102
RTVSPropertyOp15
 70
     1
102
RTVSPropertyOp16
 70
     1
102
RTVSPropertyOp17
 70
     1
102
RTVSPropertyOp18
 70
     1
102
RTVSPropertyOp19
 70
     1
102
RTVSPropertyOp20
 70
     1
102
RTVSPropertyOp21
 70
     1
102
RTVSPropertyOp22
 70
     1
102
RTVSPropertyOp23
 70
     1
102
RTVSPropertyOp24
 70
     1
102
RTVSPropertyOp25
 70
     1
102
RTVSPropertyOp26
 70
     1
102
RTVSPropertyOp27
 70
     1
  0
XRECORD
  5
17E5
102
{ACAD_REACTORS
330
17E4
102
}
330
17E4
100
AcDbXrecord
280
     1
102
RTVSPropertyOp0
 70
     1
102
RTVSPropertyOp1
 70
     1
102
RTVSPropertyOp2
 70
     1
102
RTVSPropertyOp3
 70
     1
102
RTVSPropertyOp4
 70
     1
102
RTVSPropertyOp5
 70
     1
102
RTVSPropertyOp6
 70
     1
102
RTVSPropertyOp7
 70
     1
102
RTVSPropertyOp8
 70
     1
102
RTVSPropertyOp9
 70
     1
102
RTVSPropertyOp10
 70
     1
102
RTVSPropertyOp11
 70
     1
102
RTVSPropertyOp12
 70
     1
102
RTVSPropertyOp13
 70
     1
102
RTVSPropertyOp14
 70
     1
102
RTVSPropertyOp15
 70
     1
102
RTVSPropertyOp16
 70
     1
102
RTVSPropertyOp17
 70
     1
102
RTVSPropertyOp18
 70
     1
102
RTVSPropertyOp19
 70
     1
102
RTVSPropertyOp20
 70
     1
102
RTVSPropertyOp21
 70
     1
102
RTVSPropertyOp22
 70
     1
102
RTVSPropertyOp23
 70
     1
102
RTVSPropertyOp24
 70
     1
102
RTVSPropertyOp25
 70
     1
102
RTVSPropertyOp26
 70
     1
102
RTVSPropertyOp27
 70
     1
  0
XRECORD
  5
17F3
102
{ACAD_REACTORS
330
17F2
102
}
330
17F2
100
AcDbXrecord
280
     1
102
RTVSPropertyOp0
 70
     1
102
RTVSPropertyOp1
 70
     1
102
RTVSPropertyOp2
 70
     1
102
RTVSPropertyOp3
 70
     1
102
RTVSPropertyOp4
 70
     1
102
RTVSPropertyOp5
 70
     1
102
RTVSPropertyOp6
 70
     1
102
RTVSPropertyOp7
 70
     1
102
RTVSPropertyOp8
 70
     1
102
RTVSPropertyOp9
 70
     1
102
RTVSPropertyOp10
 70
     1
102
RTVSPropertyOp11
 70
     1
102
RTVSPropertyOp12
 70
     1
102
RTVSPropertyOp13
 70
     1
102
RTVSPropertyOp14
 70
     1
102
RTVSPropertyOp15
 70
     1
102
RTVSPropertyOp16
 70
     1
102
RTVSPropertyOp17
 70
     1
102
RTVSPropertyOp18
 70
     1
102
RTVSPropertyOp19
 70
     1
102
RTVSPropertyOp20
 70
     1
102
RTVSPropertyOp21
 70
     1
102
RTVSPropertyOp22
 70
     1
102
RTVSPropertyOp23
 70
     1
102
RTVSPropertyOp24
 70
     1
102
RTVSPropertyOp25
 70
     1
102
RTVSPropertyOp26
 70
     1
102
RTVSPropertyOp27
 70
     1
  0
XRECORD
  5
17FB
102
{ACAD_REACTORS
330
17FA
102
}
330
17FA
100
AcDbXrecord
280
     1
102
RTVSPropertyOp0
 70
     1
102
RTVSPropertyOp1
 70
     1
102
RTVSPropertyOp2
 70
     1
102
RTVSPropertyOp3
 70
     1
102
RTVSPropertyOp4
 70
     1
102
RTVSPropertyOp5
 70
     1
102
RTVSPropertyOp6
 70
     1
102
RTVSPropertyOp7
 70
     1
102
RTVSPropertyOp8
 70
     1
102
RTVSPropertyOp9
 70
     1
102
RTVSPropertyOp10
 70
     1
102
RTVSPropertyOp11
 70
     1
102
RTVSPropertyOp12
 70
     1
102
RTVSPropertyOp13
 70
     1
102
RTVSPropertyOp14
 70
     1
102
RTVSPropertyOp15
 70
     1
102
RTVSPropertyOp16
 70
     1
102
RTVSPropertyOp17
 70
     1
102
RTVSPropertyOp18
 70
     1
102
RTVSPropertyOp19
 70
     1
102
RTVSPropertyOp20
 70
     1
102
RTVSPropertyOp21
 70
     1
102
RTVSPropertyOp22
 70
     1
102
RTVSPropertyOp23
 70
     1
102
RTVSPropertyOp24
 70
     1
102
RTVSPropertyOp25
 70
     1
102
RTVSPropertyOp26
 70
     1
102
RTVSPropertyOp27
 70
     1
  0
XRECORD
  5
17ED
102
{ACAD_REACTORS
330
17EC
102
}
330
17EC
100
AcDbXrecord
280
     1
102
RTVSPropertyOp0
 70
     1
102
RTVSPropertyOp1
 70
     1
102
RTVSPropertyOp2
 70
     1
102
RTVSPropertyOp3
 70
     1
102
RTVSPropertyOp4
 70
     1
102
RTVSPropertyOp5
 70
     1
102
RTVSPropertyOp6
 70
     1
102
RTVSPropertyOp7
 70
     1
102
RTVSPropertyOp8
 70
     1
102
RTVSPropertyOp9
 70
     1
102
RTVSPropertyOp10
 70
     1
102
RTVSPropertyOp11
 70
     1
102
RTVSPropertyOp12
 70
     1
102
RTVSPropertyOp13
 70
     1
102
RTVSPropertyOp14
 70
     1
102
RTVSPropertyOp15
 70
     1
102
RTVSPropertyOp16
 70
     1
102
RTVSPropertyOp17
 70
     1
102
RTVSPropertyOp18
 70
     1
102
RTVSPropertyOp19
 70
     1
102
RTVSPropertyOp20
 70
     1
102
RTVSPropertyOp21
 70
     1
102
RTVSPropertyOp22
 70
     1
102
RTVSPropertyOp23
 70
     1
102
RTVSPropertyOp24
 70
     1
102
RTVSPropertyOp25
 70
     1
102
RTVSPropertyOp26
 70
     1
102
RTVSPropertyOp27
 70
     1
  0
XRECORD
  5
17F1
102
{ACAD_REACTORS
330
17F0
102
}
330
17F0
100
AcDbXrecord
280
     1
102
RTVSPropertyOp0
 70
     1
102
RTVSPropertyOp1
 70
     1
102
RTVSPropertyOp2
 70
     1
102
RTVSPropertyOp3
 70
     1
102
RTVSPropertyOp4
 70
     1
102
RTVSPropertyOp5
 70
     1
102
RTVSPropertyOp6
 70
     1
102
RTVSPropertyOp7
 70
     1
102
RTVSPropertyOp8
 70
     1
102
RTVSPropertyOp9
 70
     1
102
RTVSPropertyOp10
 70
     1
102
RTVSPropertyOp11
 70
     1
102
RTVSPropertyOp12
 70
     1
102
RTVSPropertyOp13
 70
     1
102
RTVSPropertyOp14
 70
     1
102
RTVSPropertyOp15
 70
     1
102
RTVSPropertyOp16
 70
     1
102
RTVSPropertyOp17
 70
     1
102
RTVSPropertyOp18
 70
     1
102
RTVSPropertyOp19
 70
     1
102
RTVSPropertyOp20
 70
     1
102
RTVSPropertyOp21
 70
     1
102
RTVSPropertyOp22
 70
     1
102
RTVSPropertyOp23
 70
     1
102
RTVSPropertyOp24
 70
     1
102
RTVSPropertyOp25
 70
     1
102
RTVSPropertyOp26
 70
     1
102
RTVSPropertyOp27
 70
     1
  0
XRECORD
  5
1801
102
{ACAD_REACTORS
330
1800
102
}
330
1800
100
AcDbXrecord
280
     1
102
RTVSPropertyOp0
 70
     0
102
RTVSPropertyOp1
 70
     0
102
RTVSPropertyOp2
 70
     0
102
RTVSPropertyOp3
 70
     0
102
RTVSPropertyOp4
 70
     0
102
RTVSPropertyOp5
 70
     0
102
RTVSPropertyOp6
 70
     0
102
RTVSPropertyOp7
 70
     0
102
RTVSPropertyOp8
 70
     0
102
RTVSPropertyOp9
 70
     0
102
RTVSPropertyOp10
 70
     0
102
RTVSPropertyOp11
 70
     0
102
RTVSPropertyOp12
 70
     0
102
RTVSPropertyOp13
 70
     0
102
RTVSPropertyOp14
 70
     2
102
RTVSPropertyOp15
 70
     0
102
RTVSPropertyOp16
 70
     0
102
RTVSPropertyOp17
 70
     0
102
RTVSPropertyOp18
 70
     0
102
RTVSPropertyOp19
 70
     0
102
RTVSPropertyOp20
 70
     0
102
RTVSPropertyOp21
 70
     0
102
RTVSPropertyOp22
 70
     0
102
RTVSPropertyOp23
 70
     0
102
RTVSPropertyOp24
 70
     0
102
RTVSPropertyOp25
 70
     0
102
RTVSPropertyOp26
 70
     0
102
RTVSPropertyOp27
 70
     0
  0
XRECORD
  5
17F9
102
{ACAD_REACTORS
330
17F8
102
}
330
17F8
100
AcDbXrecord
280
     1
102
RTVSPropertyOp0
 70
     1
102
RTVSPropertyOp1
 70
     1
102
RTVSPropertyOp2
 70
     1
102
RTVSPropertyOp3
 70
     1
102
RTVSPropertyOp4
 70
     1
102
RTVSPropertyOp5
 70
     1
102
RTVSPropertyOp6
 70
     1
102
RTVSPropertyOp7
 70
     1
102
RTVSPropertyOp8
 70
     1
102
RTVSPropertyOp9
 70
     1
102
RTVSPropertyOp10
 70
     1
102
RTVSPropertyOp11
 70
     1
102
RTVSPropertyOp12
 70
     1
102
RTVSPropertyOp13
 70
     1
102
RTVSPropertyOp14
 70
     1
102
RTVSPropertyOp15
 70
     1
102
RTVSPropertyOp16
 70
     1
102
RTVSPropertyOp17
 70
     1
102
RTVSPropertyOp18
 70
     1
102
RTVSPropertyOp19
 70
     1
102
RTVSPropertyOp20
 70
     1
102
RTVSPropertyOp21
 70
     1
102
RTVSPropertyOp22
 70
     1
102
RTVSPropertyOp23
 70
     1
102
RTVSPropertyOp24
 70
     1
102
RTVSPropertyOp25
 70
     1
102
RTVSPropertyOp26
 70
     1
102
RTVSPropertyOp27
 70
     1
  0
XRECORD
  5
17DD
102
{ACAD_REACTORS
330
17DC
102
}
330
17DC
100
AcDbXrecord
280
     1
102
RTVSPropertyOp0
 70
     1
102
RTVSPropertyOp1
 70
     1
102
RTVSPropertyOp2
 70
     1
102
RTVSPropertyOp3
 70
     1
102
RTVSPropertyOp4
 70
     1
102
RTVSPropertyOp5
 70
     1
102
RTVSPropertyOp6
 70
     1
102
RTVSPropertyOp7
 70
     1
102
RTVSPropertyOp8
 70
     1
102
RTVSPropertyOp9
 70
     1
102
RTVSPropertyOp10
 70
     1
102
RTVSPropertyOp11
 70
     1
102
RTVSPropertyOp12
 70
     1
102
RTVSPropertyOp13
 70
     1
102
RTVSPropertyOp14
 70
     1
102
RTVSPropertyOp15
 70
     1
102
RTVSPropertyOp16
 70
     1
102
RTVSPropertyOp17
 70
     1
102
RTVSPropertyOp18
 70
     1
102
RTVSPropertyOp19
 70
     1
102
RTVSPropertyOp20
 70
     1
102
RTVSPropertyOp21
 70
     1
102
RTVSPropertyOp22
 70
     1
102
RTVSPropertyOp23
 70
     1
102
RTVSPropertyOp24
 70
     1
102
RTVSPropertyOp25
 70
     1
102
RTVSPropertyOp26
 70
     1
102
RTVSPropertyOp27
 70
     1
  0
XRECORD
  5
17DF
102
{ACAD_REACTORS
330
17DE
102
}
330
17DE
100
AcDbXrecord
280
     1
102
RTVSPropertyOp0
 70
     1
102
RTVSPropertyOp1
 70
     1
102
RTVSPropertyOp2
 70
     1
102
RTVSPropertyOp3
 70
     1
102
RTVSPropertyOp4
 70
     1
102
RTVSPropertyOp5
 70
     1
102
RTVSPropertyOp6
 70
     1
102
RTVSPropertyOp7
 70
     1
102
RTVSPropertyOp8
 70
     1
102
RTVSPropertyOp9
 70
     1
102
RTVSPropertyOp10
 70
     1
102
RTVSPropertyOp11
 70
     1
102
RTVSPropertyOp12
 70
     1
102
RTVSPropertyOp13
 70
     1
102
RTVSPropertyOp14
 70
     1
102
RTVSPropertyOp15
 70
     1
102
RTVSPropertyOp16
 70
     1
102
RTVSPropertyOp17
 70
     1
102
RTVSPropertyOp18
 70
     1
102
RTVSPropertyOp19
 70
     1
102
RTVSPropertyOp20
 70
     1
102
RTVSPropertyOp21
 70
     1
102
RTVSPropertyOp22
 70
     1
102
RTVSPropertyOp23
 70
     1
102
RTVSPropertyOp24
 70
     1
102
RTVSPropertyOp25
 70
     1
102
RTVSPropertyOp26
 70
     1
102
RTVSPropertyOp27
 70
     1
  0
XRECORD
  5
17E1
102
{ACAD_REACTORS
330
17E0
102
}
330
17E0
100
AcDbXrecord
280
     1
102
RTVSPropertyOp0
 70
     1
102
RTVSPropertyOp1
 70
     1
102
RTVSPropertyOp2
 70
     1
102
RTVSPropertyOp3
 70
     1
102
RTVSPropertyOp4
 70
     1
102
RTVSPropertyOp5
 70
     1
102
RTVSPropertyOp6
 70
     1
102
RTVSPropertyOp7
 70
     1
102
RTVSPropertyOp8
 70
     1
102
RTVSPropertyOp9
 70
     1
102
RTVSPropertyOp10
 70
     1
102
RTVSPropertyOp11
 70
     1
102
RTVSPropertyOp12
 70
     1
102
RTVSPropertyOp13
 70
     1
102
RTVSPropertyOp14
 70
     1
102
RTVSPropertyOp15
 70
     1
102
RTVSPropertyOp16
 70
     1
102
RTVSPropertyOp17
 70
     1
102
RTVSPropertyOp18
 70
     1
102
RTVSPropertyOp19
 70
     1
102
RTVSPropertyOp20
 70
     1
102
RTVSPropertyOp21
 70
     1
102
RTVSPropertyOp22
 70
     1
102
RTVSPropertyOp23
 70
     1
102
RTVSPropertyOp24
 70
     1
102
RTVSPropertyOp25
 70
     1
102
RTVSPropertyOp26
 70
     1
102
RTVSPropertyOp27
 70
     1
  0
XRECORD
  5
17E3
102
{ACAD_REACTORS
330
17E2
102
}
330
17E2
100
AcDbXrecord
280
     1
102
RTVSPropertyOp0
 70
     1
102
RTVSPropertyOp1
 70
     1
102
RTVSPropertyOp2
 70
     1
102
RTVSPropertyOp3
 70
     1
102
RTVSPropertyOp4
 70
     1
102
RTVSPropertyOp5
 70
     1
102
RTVSPropertyOp6
 70
     1
102
RTVSPropertyOp7
 70
     1
102
RTVSPropertyOp8
 70
     1
102
RTVSPropertyOp9
 70
     1
102
RTVSPropertyOp10
 70
     1
102
RTVSPropertyOp11
 70
     1
102
RTVSPropertyOp12
 70
     1
102
RTVSPropertyOp13
 70
     1
102
RTVSPropertyOp14
 70
     1
102
RTVSPropertyOp15
 70
     1
102
RTVSPropertyOp16
 70
     1
102
RTVSPropertyOp17
 70
     1
102
RTVSPropertyOp18
 70
     1
102
RTVSPropertyOp19
 70
     1
102
RTVSPropertyOp20
 70
     1
102
RTVSPropertyOp21
 70
     1
102
RTVSPropertyOp22
 70
     1
102
RTVSPropertyOp23
 70
     1
102
RTVSPropertyOp24
 70
     1
102
RTVSPropertyOp25
 70
     1
102
RTVSPropertyOp26
 70
     1
102
RTVSPropertyOp27
 70
     1
  0
XRECORD
  5
17FD
102
{ACAD_REACTORS
330
17FC
102
}
330
17FC
100
AcDbXrecord
280
     1
102
RTVSPropertyOp0
 70
     0
102
RTVSPropertyOp1
 70
     0
102
RTVSPropertyOp2
 70
     0
102
RTVSPropertyOp3
 70
     0
102
RTVSPropertyOp4
 70
     0
102
RTVSPropertyOp5
 70
     0
102
RTVSPropertyOp6
 70
     0
102
RTVSPropertyOp7
 70
     0
102
RTVSPropertyOp8
 70
     0
102
RTVSPropertyOp9
 70
     0
102
RTVSPropertyOp10
 70
     0
102
RTVSPropertyOp11
 70
     0
102
RTVSPropertyOp12
 70
     0
102
RTVSPropertyOp13
 70
     0
102
RTVSPropertyOp14
 70
     2
102
RTVSPropertyOp15
 70
     0
102
RTVSPropertyOp16
 70
     0
102
RTVSPropertyOp17
 70
     0
102
RTVSPropertyOp18
 70
     0
102
RTVSPropertyOp19
 70
     0
102
RTVSPropertyOp20
 70
     0
102
RTVSPropertyOp21
 70
     0
102
RTVSPropertyOp22
 70
     0
102
RTVSPropertyOp23
 70
     0
102
RTVSPropertyOp24
 70
     0
102
RTVSPropertyOp25
 70
     0
102
RTVSPropertyOp26
 70
     0
102
RTVSPropertyOp27
 70
     0
  0
XRECORD
  5
17F7
102
{ACAD_REACTORS
330
17F6
102
}
330
17F6
100
AcDbXrecord
280
     1
102
RTVSPropertyOp0
 70
     1
102
RTVSPropertyOp1
 70
     1
102
RTVSPropertyOp2
 70
     1
102
RTVSPropertyOp3
 70
     1
102
RTVSPropertyOp4
 70
     1
102
RTVSPropertyOp5
 70
     1
102
RTVSPropertyOp6
 70
     1
102
RTVSPropertyOp7
 70
     1
102
RTVSPropertyOp8
 70
     1
102
RTVSPropertyOp9
 70
     1
102
RTVSPropertyOp10
 70
     1
102
RTVSPropertyOp11
 70
     1
102
RTVSPropertyOp12
 70
     1
102
RTVSPropertyOp13
 70
     1
102
RTVSPropertyOp14
 70
     1
102
RTVSPropertyOp15
 70
     1
102
RTVSPropertyOp16
 70
     1
102
RTVSPropertyOp17
 70
     1
102
RTVSPropertyOp18
 70
     1
102
RTVSPropertyOp19
 70
     1
102
RTVSPropertyOp20
 70
     1
102
RTVSPropertyOp21
 70
     1
102
RTVSPropertyOp22
 70
     1
102
RTVSPropertyOp23
 70
     1
102
RTVSPropertyOp24
 70
     1
102
RTVSPropertyOp25
 70
     1
102
RTVSPropertyOp26
 70
     1
102
RTVSPropertyOp27
 70
     1
  0
XRECORD
  5
17FF
102
{ACAD_REACTORS
330
17FE
102
}
330
17FE
100
AcDbXrecord
280
     1
102
RTVSPropertyOp0
 70
     0
102
RTVSPropertyOp1
 70
     0
102
RTVSPropertyOp2
 70
     0
102
RTVSPropertyOp3
 70
     0
102
RTVSPropertyOp4
 70
     0
102
RTVSPropertyOp5
 70
     0
102
RTVSPropertyOp6
 70
     0
102
RTVSPropertyOp7
 70
     0
102
RTVSPropertyOp8
 70
     0
102
RTVSPropertyOp9
 70
     0
102
RTVSPropertyOp10
 70
     0
102
RTVSPropertyOp11
 70
     0
102
RTVSPropertyOp12
 70
     0
102
RTVSPropertyOp13
 70
     0
102
RTVSPropertyOp14
 70
     2
102
RTVSPropertyOp15
 70
     0
102
RTVSPropertyOp16
 70
     0
102
RTVSPropertyOp17
 70
     0
102
RTVSPropertyOp18
 70
     0
102
RTVSPropertyOp19
 70
     0
102
RTVSPropertyOp20
 70
     0
102
RTVSPropertyOp21
 70
     0
102
RTVSPropertyOp22
 70
     0
102
RTVSPropertyOp23
 70
     0
102
RTVSPropertyOp24
 70
     0
102
RTVSPropertyOp25
 70
     0
102
RTVSPropertyOp26
 70
     0
102
RTVSPropertyOp27
 70
     0
  0
XRECORD
  5
17EF
102
{ACAD_REACTORS
330
17EE
102
}
330
17EE
100
AcDbXrecord
280
     1
102
RTVSPropertyOp0
 70
     1
102
RTVSPropertyOp1
 70
     1
102
RTVSPropertyOp2
 70
     1
102
RTVSPropertyOp3
 70
     1
102
RTVSPropertyOp4
 70
     1
102
RTVSPropertyOp5
 70
     1
102
RTVSPropertyOp6
 70
     1
102
RTVSPropertyOp7
 70
     1
102
RTVSPropertyOp8
 70
     1
102
RTVSPropertyOp9
 70
     1
102
RTVSPropertyOp10
 70
     1
102
RTVSPropertyOp11
 70
     1
102
RTVSPropertyOp12
 70
     1
102
RTVSPropertyOp13
 70
     1
102
RTVSPropertyOp14
 70
     1
102
RTVSPropertyOp15
 70
     1
102
RTVSPropertyOp16
 70
     1
102
RTVSPropertyOp17
 70
     1
102
RTVSPropertyOp18
 70
     1
102
RTVSPropertyOp19
 70
     1
102
RTVSPropertyOp20
 70
     1
102
RTVSPropertyOp21
 70
     1
102
RTVSPropertyOp22
 70
     1
102
RTVSPropertyOp23
 70
     1
102
RTVSPropertyOp24
 70
     1
102
RTVSPropertyOp25
 70
     1
102
RTVSPropertyOp26
 70
     1
102
RTVSPropertyOp27
 70
     1
  0
XRECORD
  5
17F5
102
{ACAD_REACTORS
330
17F4
102
}
330
17F4
100
AcDbXrecord
280
     1
102
RTVSPropertyOp0
 70
     1
102
RTVSPropertyOp1
 70
     1
102
RTVSPropertyOp2
 70
     1
102
RTVSPropertyOp3
 70
     1
102
RTVSPropertyOp4
 70
     1
102
RTVSPropertyOp5
 70
     1
102
RTVSPropertyOp6
 70
     1
102
RTVSPropertyOp7
 70
     1
102
RTVSPropertyOp8
 70
     1
102
RTVSPropertyOp9
 70
     1
102
RTVSPropertyOp10
 70
     1
102
RTVSPropertyOp11
 70
     1
102
RTVSPropertyOp12
 70
     1
102
RTVSPropertyOp13
 70
     1
102
RTVSPropertyOp14
 70
     1
102
RTVSPropertyOp15
 70
     1
102
RTVSPropertyOp16
 70
     1
102
RTVSPropertyOp17
 70
     1
102
RTVSPropertyOp18
 70
     1
102
RTVSPropertyOp19
 70
     1
102
RTVSPropertyOp20
 70
     1
102
RTVSPropertyOp21
 70
     1
102
RTVSPropertyOp22
 70
     1
102
RTVSPropertyOp23
 70
     1
102
RTVSPropertyOp24
 70
     1
102
RTVSPropertyOp25
 70
     1
102
RTVSPropertyOp26
 70
     1
102
RTVSPropertyOp27
 70
     1
  0
ENDSEC
  0
EOF
