  0
SECTION
  2
HEADER
  9
$ACADVER
  1
AC1021
  9
$ACADMAINTVER
 70
    50
  9
$DWGCODEPAGE
  3
ANSI_1252
  9
$LASTSAVEDBY
  1
francoisbu
  9
$INSBASE
 10
0.0
 20
0.0
 30
0.0
  9
$EXTMIN
 10
96.33886772183513
 20
16.19921904204173
 30
-0.0015258207003583
  9
$EXTMAX
 10
136.3624678177382
 20
40.34228533979711
 30
0.0000000349246037
  9
$LIMMIN
 10
0.0
 20
0.0
  9
$LIMMAX
 10
181.3333333333
 20
117.3333333333
  9
$ORTHOMODE
 70
     0
  9
$REGENMODE
 70
     1
  9
$FILLMODE
 70
     1
  9
$QTEXTMODE
 70
     0
  9
$MIRRTEXT
 70
     0
  9
$LTSCALE
 40
9.973333333300001
  9
$ATTMODE
 70
     1
  9
$TEXTSIZE
 40
0.2
  9
$TRACEWID
 40
0.05
  9
$TEXTSTYLE
  7
STANDARD
  9
$CLAYER
  8
0
  9
$CELTYPE
  6
BYLAYER
  9
$CECOLOR
 62
   256
  9
$CELTSCALE
 40
1.0
  9
$DISPSILH
 70
     0
  9
$DIMSCALE
 40
1.0
  9
$DIMASZ
 40
2.0
  9
$DIMEXO
 40
0.0625
  9
$DIMDLI
 40
6.890666666699999
  9
$DIMRND
 40
0.0
  9
$DIMDLE
 40
0.0
  9
$DIMEXE
 40
0.125
  9
$DIMTP
 40
0.00001
  9
$DIMTM
 40
0.00001
  9
$DIMTXT
 40
1.333333333299999
  9
$DIMCEN
 40
1.631999999999999
  9
$DIMTSZ
 40
0.0
  9
$DIMTOL
 70
     1
  9
$DIMLIM
 70
     0
  9
$DIMTIH
 70
     1
  9
$DIMTOH
 70
     1
  9
$DIMSE1
 70
     0
  9
$DIMSE2
 70
     0
  9
$DIMTAD
 70
     0
  9
$DIMZIN
 70
     0
  9
$DIMBLK
  1
_FILLED
  9
$DIMASO
 70
     1
  9
$DIMSHO
 70
     1
  9
$DIMPOST
  1

  9
$DIMAPOST
  1

  9
$DIMALT
 70
     0
  9
$DIMALTD
 70
     2
  9
$DIMALTF
 40
25.4
  9
$DIMLFAC
 40
1.0
  9
$DIMTOFL
 70
     0
  9
$DIMTVP
 40
0.0
  9
$DIMTIX
 70
     0
  9
$DIMSOXD
 70
     0
  9
$DIMSAH
 70
     0
  9
$DIMBLK1
  1

  9
$DIMBLK2
  1

  9
$DIMSTYLE
  2
STANDARD
  9
$DIMCLRD
 70
     0
  9
$DIMCLRE
 70
     0
  9
$DIMCLRT
 70
     0
  9
$DIMTFAC
 40
1.0
  9
$DIMGAP
 40
0.09
  9
$DIMJUST
 70
     0
  9
$DIMSD1
 70
     0
  9
$DIMSD2
 70
     0
  9
$DIMTOLJ
 70
     1
  9
$DIMTZIN
 70
     0
  9
$DIMALTZ
 70
     0
  9
$DIMALTTZ
 70
     0
  9
$DIMUPT
 70
     0
  9
$DIMDEC
 70
     4
  9
$DIMTDEC
 70
     4
  9
$DIMALTU
 70
     2
  9
$DIMALTTD
 70
     2
  9
$DIMTXSTY
  7
STANDARD
  9
$DIMAUNIT
 70
     0
  9
$DIMADEC
 70
     0
  9
$DIMALTRND
 40
0.0
  9
$DIMAZIN
 70
     0
  9
$DIMDSEP
 70
    46
  9
$DIMATFIT
 70
     3
  9
$DIMFRAC
 70
     0
  9
$DIMLDRBLK
  1

  9
$DIMLUNIT
 70
     2
  9
$DIMLWD
 70
    -2
  9
$DIMLWE
 70
    -2
  9
$DIMTMOVE
 70
     0
  9
$DIMFXL
 40
1.0
  9
$DIMFXLON
 70
     0
  9
$DIMJOGANG
 40
0.7853981633974483
  9
$DIMTFILL
 70
     0
  9
$DIMTFILLCLR
 70
     0
  9
$DIMARCSYM
 70
     0
  9
$DIMLTYPE
  6

  9
$DIMLTEX1
  6

  9
$DIMLTEX2
  6

  9
$LUNITS
 70
     2
  9
$LUPREC
 70
     4
  9
$SKETCHINC
 40
0.1
  9
$FILLETRAD
 40
0.0
  9
$AUNITS
 70
     0
  9
$AUPREC
 70
     0
  9
$MENU
  1
.
  9
$ELEVATION
 40
0.0
  9
$PELEVATION
 40
0.0
  9
$THICKNESS
 40
0.0
  9
$LIMCHECK
 70
     0
  9
$CHAMFERA
 40
0.0
  9
$CHAMFERB
 40
0.0
  9
$CHAMFERC
 40
0.0
  9
$CHAMFERD
 40
0.0
  9
$SKPOLY
 70
     0
  9
$TDCREATE
 40
2456461.564061412
  9
$TDUCREATE
 40
2456461.730728079
  9
$TDUPDATE
 40
2456583.318706817
  9
$TDUUPDATE
 40
2456583.485373484
  9
$TDINDWG
 40
0.0011152894
  9
$TDUSRTIMER
 40
0.0011152894
  9
$USRTIMER
 70
     1
  9
$ANGBASE
 50
0.0
  9
$ANGDIR
 70
     0
  9
$PDMODE
 70
     3
  9
$PDSIZE
 40
0.03125
  9
$PLINEWID
 40
0.0
  9
$SPLFRAME
 70
     0
  9
$SPLINETYPE
 70
     6
  9
$SPLINESEGS
 70
     8
  9
$HANDSEED
  5
1854
  9
$SURFTAB1
 70
     6
  9
$SURFTAB2
 70
     6
  9
$SURFTYPE
 70
     6
  9
$SURFU
 70
     6
  9
$SURFV
 70
     6
  9
$UCSBASE
  2

  9
$UCSNAME
  2

  9
$UCSORG
 10
0.0
 20
0.0
 30
0.0
  9
$UCSXDIR
 10
1.0
 20
0.0
 30
0.0
  9
$UCSYDIR
 10
0.0
 20
1.0
 30
0.0
  9
$UCSORTHOREF
  2

  9
$UCSORTHOVIEW
 70
     0
  9
$UCSORGTOP
 10
0.0
 20
0.0
 30
0.0
  9
$UCSORGBOTTOM
 10
0.0
 20
0.0
 30
0.0
  9
$UCSORGLEFT
 10
0.0
 20
0.0
 30
0.0
  9
$UCSORGRIGHT
 10
0.0
 20
0.0
 30
0.0
  9
$UCSORGFRONT
 10
0.0
 20
0.0
 30
0.0
  9
$UCSORGBACK
 10
0.0
 20
0.0
 30
0.0
  9
$PUCSBASE
  2

  9
$PUCSNAME
  2

  9
$PUCSORG
 10
0.0
 20
0.0
 30
0.0
  9
$PUCSXDIR
 10
1.0
 20
0.0
 30
0.0
  9
$PUCSYDIR
 10
0.0
 20
1.0
 30
0.0
  9
$PUCSORTHOREF
  2

  9
$PUCSORTHOVIEW
 70
     0
  9
$PUCSORGTOP
 10
0.0
 20
0.0
 30
0.0
  9
$PUCSORGBOTTOM
 10
0.0
 20
0.0
 30
0.0
  9
$PUCSORGLEFT
 10
0.0
 20
0.0
 30
0.0
  9
$PUCSORGRIGHT
 10
0.0
 20
0.0
 30
0.0
  9
$PUCSORGFRONT
 10
0.0
 20
0.0
 30
0.0
  9
$PUCSORGBACK
 10
0.0
 20
0.0
 30
0.0
  9
$USERI1
 70
     0
  9
$USERI2
 70
     0
  9
$USERI3
 70
     0
  9
$USERI4
 70
     0
  9
$USERI5
 70
     0
  9
$USERR1
 40
0.0
  9
$USERR2
 40
0.0
  9
$USERR3
 40
0.0
  9
$USERR4
 40
0.0
  9
$USERR5
 40
0.0
  9
$WORLDVIEW
 70
     1
  9
$SHADEDGE
 70
     3
  9
$SHADEDIF
 70
    70
  9
$TILEMODE
 70
     1
  9
$MAXACTVP
 70
    64
  9
$PINSBASE
 10
0.0
 20
0.0
 30
0.0
  9
$PLIMCHECK
 70
     0
  9
$PEXTMIN
 10
1.000000000000000E+20
 20
1.000000000000000E+20
 30
1.000000000000000E+20
  9
$PEXTMAX
 10
-1.000000000000000E+20
 20
-1.000000000000000E+20
 30
-1.000000000000000E+20
  9
$PLIMMIN
 10
0.0
 20
0.0
  9
$PLIMMAX
 10
12.0
 20
9.0
  9
$UNITMODE
 70
     0
  9
$VISRETAIN
 70
     1
  9
$PLINEGEN
 70
     0
  9
$PSLTSCALE
 70
     1
  9
$TREEDEPTH
 70
  3020
  9
$CMLSTYLE
  2
Standard
  9
$CMLJUST
 70
     0
  9
$CMLSCALE
 40
1.0
  9
$PROXYGRAPHICS
 70
     1
  9
$MEASUREMENT
 70
     0
  9
$CELWEIGHT
370
    -1
  9
$ENDCAPS
280
     0
  9
$JOINSTYLE
280
     0
  9
$LWDISPLAY
290
     0
  9
$INSUNITS
 70
     1
  9
$HYPERLINKBASE
  1

  9
$STYLESHEET
  1

  9
$XEDIT
290
     1
  9
$CEPSNTYPE
380
     0
  9
$PSTYLEMODE
290
     1
  9
$FINGERPRINTGUID
  2
{BB3EC937-9698-4E5C-B42E-F391DE163BF6}
  9
$VERSIONGUID
  2
{9D3879CB-8FE1-4017-B550-0548AFBA0BFB}
  9
$EXTNAMES
290
     1
  9
$PSVPSCALE
 40
0.0
  9
$OLESTARTUP
290
     0
  9
$SORTENTS
280
   127
  9
$INDEXCTL
280
     0
  9
$HIDETEXT
280
     0
  9
$XCLIPFRAME
290
     0
  9
$HALOGAP
280
     0
  9
$OBSCOLOR
 70
   257
  9
$OBSLTYPE
280
     0
  9
$INTERSECTIONDISPLAY
280
     0
  9
$INTERSECTIONCOLOR
 70
   257
  9
$DIMASSOC
280
     1
  9
$PROJECTNAME
  1

  9
$CAMERADISPLAY
290
     0
  9
$LENSLENGTH
 40
50.0
  9
$CAMERAHEIGHT
 40
0.0
  9
$STEPSPERSEC
 40
2.0
  9
$STEPSIZE
 40
6.0
  9
$3DDWFPREC
 40
2.0
  9
$PSOLWIDTH
 40
0.25
  9
$PSOLHEIGHT
 40
4.0
  9
$LOFTANG1
 40
1.570796326794896
  9
$LOFTANG2
 40
1.570796326794896
  9
$LOFTMAG1
 40
0.0
  9
$LOFTMAG2
 40
0.0
  9
$LOFTPARAM
 70
     7
  9
$LOFTNORMALS
280
     1
  9
$LATITUDE
 40
37.795
  9
$LONGITUDE
 40
-122.394
  9
$NORTHDIRECTION
 40
0.0
  9
$TIMEZONE
 70
 -8000
  9
$LIGHTGLYPHDISPLAY
280
     1
  9
$TILEMODELIGHTSYNCH
280
     1
  9
$CMATERIAL
347
177B
  9
$SOLIDHIST
280
     1
  9
$SHOWHIST
280
     1
  9
$DWFFRAME
280
     2
  9
$DGNFRAME
280
     0
  9
$REALWORLDSCALE
290
     1
  9
$INTERFERECOLOR
 62
     1
  9
$INTERFEREOBJVS
345
179D
  9
$INTERFEREVPVS
346
179A
  9
$CSHADOW
280
     0
  9
$SHADOWPLANELOCATION
 40
0.0
  0
ENDSEC
  0
SECTION
  2
CLASSES
  0
CLASS
  1
ACDBDICTIONARYWDFLT
  2
AcDbDictionaryWithDefault
  3
ObjectDBX Classes
 90
        0
 91
        1
280
     0
281
     0
  0
CLASS
  1
MATERIAL
  2
AcDbMaterial
  3
ObjectDBX Classes
 90
     1153
 91
        3
280
     0
281
     0
  0
CLASS
  1
VISUALSTYLE
  2
AcDbVisualStyle
  3
ObjectDBX Classes
 90
     4095
 91
       19
280
     0
281
     0
  0
CLASS
  1
TABLESTYLE
  2
AcDbTableStyle
  3
ObjectDBX Classes
 90
     4095
 91
        1
280
     0
281
     0
  0
CLASS
  1
SCALE
  2
AcDbScale
  3
ObjectDBX Classes
 90
     1153
 91
       33
280
     0
281
     0
  0
CLASS
  1
MLEADERSTYLE
  2
AcDbMLeaderStyle
  3
ACDB_MLEADERSTYLE_CLASS
 90
     4095
 91
        1
280
     0
281
     0
  0
CLASS
  1
CELLSTYLEMAP
  2
AcDbCellStyleMap
  3
ObjectDBX Classes
 90
     1152
 91
        4
280
     0
281
     0
  0
CLASS
  1
DICTIONARYVAR
  2
AcDbDictionaryVar
  3
ObjectDBX Classes
 90
        0
 91
       19
280
     0
281
     0
  0
ENDSEC
  0
SECTION
  2
TABLES
  0
TABLE
  2
VPORT
  5
8
102
{ACAD_XDICTIONARY
360
17D3
102
}
330
0
100
AcDbSymbolTable
 70
     1
  0
VPORT
  5
1F4
330
8
100
AcDbSymbolTableRecord
100
AcDbViewportTableRecord
  2
*ACTIVE
 70
     0
 10
0.0
 20
0.0
 11
1.0
 21
1.0
 12
116.3506677697867
 22
28.27075219091943
 13
0.0
 23
0.0
 14
1.0
 24
1.0
 15
0.0
 25
0.0
 16
0.0
 26
0.0
 36
1.0
 17
0.0
 27
0.0
 37
0.0
 40
24.34397947082963
 41
2.41111111111111
 42
50.0
 43
0.0
 44
0.0
 50
0.0
 51
0.0
 71
     0
 72
   100
 73
     1
 74
     1
 75
     0
 76
     0
 77
     0
 78
     0
281
     0
 65
     1
110
0.0
120
0.0
130
0.0
111
1.0
121
0.0
131
0.0
112
0.0
122
1.0
132
0.0
 79
     0
146
0.0
348
1799
 60
     3
 61
     5
292
     1
282
     1
141
0.0
142
0.0
 63
   250
421
  3355443
  0
ENDTAB
  0
TABLE
  2
LTYPE
  5
5
330
0
100
AcDbSymbolTable
 70
     6
  0
LTYPE
  5
14
330
5
100
AcDbSymbolTableRecord
100
AcDbLinetypeTableRecord
  2
BYBLOCK
 70
     0
  3

 72
    65
 73
     0
 40
0.0
  0
LTYPE
  5
15
330
5
100
AcDbSymbolTableRecord
100
AcDbLinetypeTableRecord
  2
BYLAYER
 70
     0
  3

 72
    65
 73
     0
 40
0.0
  0
LTYPE
  5
16
330
5
100
AcDbSymbolTableRecord
100
AcDbLinetypeTableRecord
  2
CONTINUOUS
 70
     0
  3
Solid line
 72
    65
 73
     0
 40
0.0
  0
LTYPE
  5
1F5
330
5
100
AcDbSymbolTableRecord
100
AcDbLinetypeTableRecord
  2
CENTER
 70
     0
  3
____ _ ____ _ ____ _ ____ _ ____ _ ____ _ ____
 72
    65
 73
     4
 40
0.6
 49
0.375
 74
     0
 49
-0.075
 74
     0
 49
0.075
 74
     0
 49
-0.075
 74
     0
  0
LTYPE
  5
1F6
330
5
100
AcDbSymbolTableRecord
100
AcDbLinetypeTableRecord
  2
HIDDEN
 70
     0
  3
- - - - - - - - - - - - - - - - - - - -
 72
    65
 73
     2
 40
0.2
 49
0.1
 74
     0
 49
-0.1
 74
     0
  0
LTYPE
  5
1F7
330
5
100
AcDbSymbolTableRecord
100
AcDbLinetypeTableRecord
  2
PHANTOM
 70
     0
  3
_____ _ _ _____ _ _ _____ _ _ _____
 72
    65
 73
     6
 40
0.8
 49
0.45
 74
     0
 49
-0.05
 74
     0
 49
0.1
 74
     0
 49
-0.05
 74
     0
 49
0.1
 74
     0
 49
-0.05
 74
     0
  0
LTYPE
  5
1F8
330
5
100
AcDbSymbolTableRecord
100
AcDbLinetypeTableRecord
  2
DOT
 70
     0
  3
. . . . . . . . . . . . . . . . . . . .
 72
    65
 73
     2
 40
0.2
 49
0.1
 74
     0
 49
-0.1
 74
     0
  0
LTYPE
  5
1F9
330
5
100
AcDbSymbolTableRecord
100
AcDbLinetypeTableRecord
  2
DASHED
 70
     0
  3
- - - - - - - - - - - - - - - - - - - -
 72
    65
 73
     2
 40
0.2
 49
0.1
 74
     0
 49
-0.1
 74
     0
  0
ENDTAB
  0
TABLE
  2
LAYER
  5
2
330
0
100
AcDbSymbolTable
 70
    25
  0
LAYER
  5
10
102
{ACAD_XDICTIONARY
360
1813
102
}
330
2
100
AcDbSymbolTableRecord
100
AcDbLayerTableRecord
  2
0
 70
     0
 62
     7
  6
CONTINUOUS
370
    -3
390
F
347
178B
  0
LAYER
  5
1FA
102
{ACAD_XDICTIONARY
360
1815
102
}
330
2
100
AcDbSymbolTableRecord
100
AcDbLayerTableRecord
  2
DEFAULT_1
 70
     0
 62
     7
  6
CENTER
370
    -3
390
F
347
178B
  0
LAYER
  5
1FB
102
{ACAD_XDICTIONARY
360
1817
102
}
330
2
100
AcDbSymbolTableRecord
100
AcDbLayerTableRecord
  2
DEFAULT_2
 70
     0
 62
     7
  6
HIDDEN
370
    -3
390
F
347
178B
  0
LAYER
  5
1FC
102
{ACAD_XDICTIONARY
360
1819
102
}
330
2
100
AcDbSymbolTableRecord
100
AcDbLayerTableRecord
  2
DEFAULT_3
 70
     0
 62
     7
  6
PHANTOM
370
    -3
390
F
347
178B
  0
LAYER
  5
1FD
102
{ACAD_XDICTIONARY
360
181B
102
}
330
2
100
AcDbSymbolTableRecord
100
AcDbLayerTableRecord
  2
1_CURVES
 70
     0
 62
     7
  6
CONTINUOUS
370
    -3
390
F
347
178B
  0
LAYER
  5
1FE
102
{ACAD_XDICTIONARY
360
181D
102
}
330
2
100
AcDbSymbolTableRecord
100
AcDbLayerTableRecord
  2
1_CURVES_JETS
 70
     0
 62
     7
  6
CONTINUOUS
370
    -3
390
F
347
178B
  0
LAYER
  5
1FF
102
{ACAD_XDICTIONARY
360
181F
102
}
330
2
100
AcDbSymbolTableRecord
100
AcDbLayerTableRecord
  2
1_CURVES_SPEC_DROP_IN
 70
     0
 62
     7
  6
CONTINUOUS
370
    -3
390
F
347
178B
  0
LAYER
  5
200
102
{ACAD_XDICTIONARY
360
1821
102
}
330
2
100
AcDbSymbolTableRecord
100
AcDbLayerTableRecord
  2
1_CURVES_SPEC_FS
 70
     0
 62
     7
  6
CONTINUOUS
370
    -3
390
F
347
178B
  0
LAYER
  5
201
102
{ACAD_XDICTIONARY
360
1823
102
}
330
2
100
AcDbSymbolTableRecord
100
AcDbLayerTableRecord
  2
2_PLANES
 70
     0
 62
     7
  6
CONTINUOUS
370
    -3
390
F
347
178B
  0
LAYER
  5
202
102
{ACAD_XDICTIONARY
360
1825
102
}
330
2
100
AcDbSymbolTableRecord
100
AcDbLayerTableRecord
  2
2_PLANES_JETS
 70
     0
 62
     7
  6
CONTINUOUS
370
    -3
390
F
347
178B
  0
LAYER
  5
203
102
{ACAD_XDICTIONARY
360
1827
102
}
330
2
100
AcDbSymbolTableRecord
100
AcDbLayerTableRecord
  2
3_POINTS
 70
     0
 62
     7
  6
CONTINUOUS
370
    -3
390
F
347
178B
  0
LAYER
  5
204
102
{ACAD_XDICTIONARY
360
1829
102
}
330
2
100
AcDbSymbolTableRecord
100
AcDbLayerTableRecord
  2
3_POINTS_JETS
 70
     0
 62
     7
  6
CONTINUOUS
370
    -3
390
F
347
178B
  0
LAYER
  5
205
102
{ACAD_XDICTIONARY
360
182B
102
}
330
2
100
AcDbSymbolTableRecord
100
AcDbLayerTableRecord
  2
4_CSYS
 70
     0
 62
     7
  6
CONTINUOUS
370
    -3
390
F
347
178B
  0
LAYER
  5
206
102
{ACAD_XDICTIONARY
360
182D
102
}
330
2
100
AcDbSymbolTableRecord
100
AcDbLayerTableRecord
  2
5_AXIS
 70
     0
 62
     7
  6
CONTINUOUS
370
    -3
390
F
347
178B
  0
LAYER
  5
207
102
{ACAD_XDICTIONARY
360
182F
102
}
330
2
100
AcDbSymbolTableRecord
100
AcDbLayerTableRecord
  2
5_AXIS_JETS
 70
     0
 62
     7
  6
CONTINUOUS
370
    -3
390
F
347
178B
  0
LAYER
  5
208
102
{ACAD_XDICTIONARY
360
1831
102
}
330
2
100
AcDbSymbolTableRecord
100
AcDbLayerTableRecord
  2
5_POINTS
 70
     0
 62
     7
  6
CONTINUOUS
370
    -3
390
F
347
178B
  0
LAYER
  5
209
102
{ACAD_XDICTIONARY
360
1833
102
}
330
2
100
AcDbSymbolTableRecord
100
AcDbLayerTableRecord
  2
6_SURFACES
 70
     0
 62
     7
  6
CONTINUOUS
370
    -3
390
F
347
178B
  0
LAYER
  5
20A
102
{ACAD_XDICTIONARY
360
1835
102
}
330
2
100
AcDbSymbolTableRecord
100
AcDbLayerTableRecord
  2
6_SURFACES_DROP_IN
 70
     0
 62
     7
  6
CONTINUOUS
370
    -3
390
F
347
178B
  0
LAYER
  5
20B
102
{ACAD_XDICTIONARY
360
1837
102
}
330
2
100
AcDbSymbolTableRecord
100
AcDbLayerTableRecord
  2
6_SURFACES_FIBRE_ACRYLIQUE
 70
     0
 62
     7
  6
CONTINUOUS
370
    -3
390
F
347
178B
  0
LAYER
  5
20C
102
{ACAD_XDICTIONARY
360
1839
102
}
330
2
100
AcDbSymbolTableRecord
100
AcDbLayerTableRecord
  2
6_SURFACES_FS
 70
     0
 62
     7
  6
CONTINUOUS
370
    -3
390
F
347
178B
  0
LAYER
  5
20D
102
{ACAD_XDICTIONARY
360
183B
102
}
330
2
100
AcDbSymbolTableRecord
100
AcDbLayerTableRecord
  2
6_SURFACES_PATINS_SPECS
 70
     0
 62
     7
  6
CONTINUOUS
370
    -3
390
F
347
178B
  0
LAYER
  5
20E
102
{ACAD_XDICTIONARY
360
183D
102
}
330
2
100
AcDbSymbolTableRecord
100
AcDbLayerTableRecord
  2
6_SURFACES_TOOLING_DROP_IN
 70
     0
 62
     7
  6
CONTINUOUS
370
    -3
390
F
347
178B
  0
LAYER
  5
20F
102
{ACAD_XDICTIONARY
360
183F
102
}
330
2
100
AcDbSymbolTableRecord
100
AcDbLayerTableRecord
  2
6_SURFACES_TOOLING_FS
 70
     0
 62
     7
  6
CONTINUOUS
370
    -3
390
F
347
178B
  0
LAYER
  5
210
102
{ACAD_XDICTIONARY
360
1841
102
}
330
2
100
AcDbSymbolTableRecord
100
AcDbLayerTableRecord
  2
7_NOTES
 70
     0
 62
     7
  6
CONTINUOUS
370
    -3
390
F
347
178B
  0
LAYER
  5
211
102
{ACAD_XDICTIONARY
360
1843
102
}
330
2
100
AcDbSymbolTableRecord
100
AcDbLayerTableRecord
  2
XSEC_DATUMS
 70
     0
 62
     7
  6
CONTINUOUS
370
    -3
390
F
347
178B
  0
ENDTAB
  0
TABLE
  2
STYLE
  5
3
330
0
100
AcDbSymbolTable
 70
     8
  0
STYLE
  5
11
330
3
100
AcDbSymbolTableRecord
100
AcDbTextStyleTableRecord
  2
STANDARD
 70
     0
 40
0.0
 41
0.8
 50
0.0
 71
     0
 42
0.2
  3
txt
  4

  0
STYLE
  5
212
330
3
100
AcDbSymbolTableRecord
100
AcDbTextStyleTableRecord
  2
TEXTSTYLE_1
 70
     0
 40
0.0
 41
0.8
 50
0.0
 71
     0
 42
0.2
  3
gdt
  4

  0
STYLE
  5
213
330
3
100
AcDbSymbolTableRecord
100
AcDbTextStyleTableRecord
  2
TEXTSTYLE_2
 70
     0
 40
0.0
 41
1.0
 50
0.0
 71
     0
 42
0.2
  3
trium.ttf
  4

  0
STYLE
  5
214
330
3
100
AcDbSymbolTableRecord
100
AcDbTextStyleTableRecord
  2
TEXTSTYLE_3
 70
     0
 40
0.0
 41
1.0
 50
0.0
 71
     0
 42
0.2
  3
trium.ttf
  4

  0
STYLE
  5
215
330
3
100
AcDbSymbolTableRecord
100
AcDbTextStyleTableRecord
  2
TEXTSTYLE_4
 70
     0
 40
0.0
 41
1.0
 50
0.0
 71
     0
 42
0.2
  3
txt_____.ttf
  4

1001
ACAD
1000
txt
1071
        2
  0
STYLE
  5
216
330
3
100
AcDbSymbolTableRecord
100
AcDbTextStyleTableRecord
  2
TEXTSTYLE_5
 70
     0
 40
0.0
 41
1.0
 50
0.0
 71
     0
 42
0.2
  3
txt_____.ttf
  4

1001
ACAD
1000
txt
1071
        2
  0
STYLE
  5
217
330
3
100
AcDbSymbolTableRecord
100
AcDbTextStyleTableRecord
  2
TEXTSTYLE_6
 70
     0
 40
0.0
 41
1.0
 50
0.0
 71
     0
 42
0.2
  3
trium.ttf
  4

  0
STYLE
  5
218
330
3
100
AcDbSymbolTableRecord
100
AcDbTextStyleTableRecord
  2
TEXTSTYLE_7
 70
     0
 40
0.0
 41
0.8
 50
0.0
 71
     0
 42
0.2
  3
txt_____.ttf
  4

1001
ACAD
1000
txt
1071
        2
  0
ENDTAB
  0
TABLE
  2
VIEW
  5
6
330
0
100
AcDbSymbolTable
 70
     0
  0
ENDTAB
  0
TABLE
  2
UCS
  5
7
330
0
100
AcDbSymbolTable
 70
     0
  0
ENDTAB
  0
TABLE
  2
APPID
  5
9
330
0
100
AcDbSymbolTable
 70
     2
  0
APPID
  5
219
330
9
100
AcDbSymbolTableRecord
100
AcDbRegAppTableRecord
  2
ACAD
 70
     0
  0
APPID
  5
1803
330
9
100
AcDbSymbolTableRecord
100
AcDbRegAppTableRecord
  2
ACAD_MLEADERVER
 70
     0
  0
ENDTAB
  0
TABLE
  2
DIMSTYLE
  5
A
330
0
100
AcDbSymbolTable
 70
     6
100
AcDbDimStyleTable
 71
     0
  0
DIMSTYLE
105
236
330
A
100
AcDbSymbolTableRecord
100
AcDbDimStyleTableRecord
  2
STANDARD
 70
     0
 41
2.0
 44
0.125
 47
0.00001
 48
0.00001
 71
     1
 78
     4
140
1.333333333299999
271
     5
272
     5
284
     4
340
11
341
21C
342
21C
343
21C
344
21C
  0
DIMSTYLE
105
237
330
A
100
AcDbSymbolTableRecord
100
AcDbDimStyleTableRecord
  2
DIMSTYLE_1
 70
     0
 41
2.0
 44
0.125
 47
0.00001
 48
0.00001
 78
     4
140
1.333333333299999
147
0.0625
284
     4
340
11
341
21C
342
21C
343
21C
344
21C
  0
DIMSTYLE
105
238
330
A
100
AcDbSymbolTableRecord
100
AcDbDimStyleTableRecord
  2
DIMSTYLE_2
 70
     0
 41
2.0
 44
0.125
 47
0.00001
 48
0.00001
 78
     4
140
1.333333333299999
147
0.0625
271
     3
272
     3
284
     4
340
11
341
21C
342
21C
343
21C
344
21C
  0
DIMSTYLE
105
239
330
A
100
AcDbSymbolTableRecord
100
AcDbDimStyleTableRecord
  2
DIMSTYLE_3
 70
     0
 41
2.0
 44
0.125
 47
1.0
 48
1.0
 78
     4
140
1.333333333299999
271
     0
272
     0
284
     4
340
11
341
21C
342
21C
343
21C
344
21C
  0
DIMSTYLE
105
23A
330
A
100
AcDbSymbolTableRecord
100
AcDbDimStyleTableRecord
  2
DIMSTYLE_4
 70
     0
 41
2.0
 44
0.125
 47
0.00001
 48
0.00001
 78
     4
140
1.333333333299999
147
0.0625
271
     6
272
     6
284
     4
340
11
341
21C
342
21C
343
21C
344
21C
  0
DIMSTYLE
105
23B
330
A
100
AcDbSymbolTableRecord
100
AcDbDimStyleTableRecord
  2
DIMSTYLE_5
 70
     0
 41
2.0
 44
0.125
 47
0.5
 48
0.5
 78
     4
140
1.333333333299999
271
     0
272
     0
284
     4
340
11
341
21C
342
21C
343
21C
344
21C
  0
ENDTAB
  0
TABLE
  2
BLOCK_RECORD
  5
1
330
0
100
AcDbSymbolTable
 70
    26
  0
BLOCK_RECORD
  5
21A
330
1
100
AcDbSymbolTableRecord
100
AcDbBlockTableRecord
  2
*Model_Space
340
1775
 70
     0
280
     1
281
     0
  0
BLOCK_RECORD
  5
21B
330
1
100
AcDbSymbolTableRecord
100
AcDbBlockTableRecord
  2
*Paper_Space
340
1776
 70
     0
280
     1
281
     0
  0
BLOCK_RECORD
  5
21C
330
1
100
AcDbSymbolTableRecord
100
AcDbBlockTableRecord
  2
_FILLED
340
0
102
{BLKREFS
331
324
331
325
331
32D
331
32E
331
336
331
337
331
33F
331
340
331
348
331
349
331
352
331
353
331
35C
331
35D
331
365
331
366
331
36F
331
370
331
378
331
379
331
381
331
382
331
38A
331
38B
331
393
331
394
331
3A5
331
3A6
331
3AE
331
3AF
102
}
 70
     0
280
     1
281
     0
  0
BLOCK_RECORD
  5
21D
330
1
100
AcDbSymbolTableRecord
100
AcDbBlockTableRecord
  2
*D1
340
0
 70
     0
280
     1
281
     0
  0
BLOCK_RECORD
  5
21E
330
1
100
AcDbSymbolTableRecord
100
AcDbBlockTableRecord
  2
*D2
340
0
 70
     0
280
     1
281
     0
  0
BLOCK_RECORD
  5
21F
330
1
100
AcDbSymbolTableRecord
100
AcDbBlockTableRecord
  2
*D3
340
0
 70
     0
280
     1
281
     0
  0
BLOCK_RECORD
  5
220
330
1
100
AcDbSymbolTableRecord
100
AcDbBlockTableRecord
  2
*D4
340
0
 70
     0
280
     1
281
     0
  0
BLOCK_RECORD
  5
221
330
1
100
AcDbSymbolTableRecord
100
AcDbBlockTableRecord
  2
*D5
340
0
 70
     0
280
     1
281
     0
  0
BLOCK_RECORD
  5
222
330
1
100
AcDbSymbolTableRecord
100
AcDbBlockTableRecord
  2
*D6
340
0
 70
     0
280
     1
281
     0
  0
BLOCK_RECORD
  5
223
330
1
100
AcDbSymbolTableRecord
100
AcDbBlockTableRecord
  2
*D7
340
0
 70
     0
280
     1
281
     0
  0
BLOCK_RECORD
  5
224
330
1
100
AcDbSymbolTableRecord
100
AcDbBlockTableRecord
  2
*D8
340
0
 70
     0
280
     1
281
     0
  0
BLOCK_RECORD
  5
225
330
1
100
AcDbSymbolTableRecord
100
AcDbBlockTableRecord
  2
*D9
340
0
 70
     0
280
     1
281
     0
  0
BLOCK_RECORD
  5
226
330
1
100
AcDbSymbolTableRecord
100
AcDbBlockTableRecord
  2
*D10
340
0
 70
     0
280
     1
281
     0
  0
BLOCK_RECORD
  5
227
330
1
100
AcDbSymbolTableRecord
100
AcDbBlockTableRecord
  2
*D11
340
0
 70
     0
280
     1
281
     0
  0
BLOCK_RECORD
  5
228
330
1
100
AcDbSymbolTableRecord
100
AcDbBlockTableRecord
  2
*D12
340
0
 70
     0
280
     1
281
     0
  0
BLOCK_RECORD
  5
229
330
1
100
AcDbSymbolTableRecord
100
AcDbBlockTableRecord
  2
*D13
340
0
 70
     0
280
     1
281
     0
  0
BLOCK_RECORD
  5
22A
330
1
100
AcDbSymbolTableRecord
100
AcDbBlockTableRecord
  2
*D14
340
0
 70
     0
280
     1
281
     0
  0
BLOCK_RECORD
  5
22B
330
1
100
AcDbSymbolTableRecord
100
AcDbBlockTableRecord
  2
*D15
340
0
 70
     0
280
     1
281
     0
  0
BLOCK_RECORD
  5
22C
330
1
100
AcDbSymbolTableRecord
100
AcDbBlockTableRecord
  2
*D16
340
0
 70
     0
280
     1
281
     0
  0
BLOCK_RECORD
  5
22D
330
1
100
AcDbSymbolTableRecord
100
AcDbBlockTableRecord
  2
*D17
340
0
 70
     0
280
     1
281
     0
  0
BLOCK_RECORD
  5
22E
330
1
100
AcDbSymbolTableRecord
100
AcDbBlockTableRecord
  2
*D18
340
0
 70
     0
280
     1
281
     0
  0
BLOCK_RECORD
  5
22F
330
1
100
AcDbSymbolTableRecord
100
AcDbBlockTableRecord
  2
*D19
340
0
 70
     0
280
     1
281
     0
  0
BLOCK_RECORD
  5
230
330
1
100
AcDbSymbolTableRecord
100
AcDbBlockTableRecord
  2
SYMBOL_11_BL5
340
0
 70
     0
280
     1
281
     0
  0
BLOCK_RECORD
  5
231
330
1
100
AcDbSymbolTableRecord
100
AcDbBlockTableRecord
  2
SYMBOL_9_BL4
340
0
 70
     0
280
     1
281
     0
  0
BLOCK_RECORD
  5
232
330
1
100
AcDbSymbolTableRecord
100
AcDbBlockTableRecord
  2
SYMBOL_7_BL3
340
0
 70
     0
280
     1
281
     0
  0
BLOCK_RECORD
  5
233
330
1
100
AcDbSymbolTableRecord
100
AcDbBlockTableRecord
  2
SYMBOL_6_BL2
340
0
 70
     0
280
     1
281
     0
  0
BLOCK_RECORD
  5
234
330
1
100
AcDbSymbolTableRecord
100
AcDbBlockTableRecord
  2
SYMBOL_3_BL1
340
0
 70
     0
280
     1
281
     0
  0
BLOCK_RECORD
  5
235
330
1
100
AcDbSymbolTableRecord
100
AcDbBlockTableRecord
  2
SYMBOL_0_BL0
340
0
 70
     0
280
     1
281
     0
  0
ENDTAB
  0
ENDSEC
  0
SECTION
  2
BLOCKS
  0
BLOCK
  5
20
330
21A
100
AcDbEntity
  8
0
100
AcDbBlockBegin
  2
*Model_Space
 70
     0
 10
0.0
 20
0.0
 30
0.0
  3
*Model_Space
  1

  0
ENDBLK
  5
21
330
21A
100
AcDbEntity
  8
0
100
AcDbBlockEnd
  0
BLOCK
  5
1C
330
21B
100
AcDbEntity
 67
     1
  8
0
100
AcDbBlockBegin
  2
*Paper_Space
 70
     0
 10
0.0
 20
0.0
 30
0.0
  3
*Paper_Space
  1

  0
ENDBLK
  5
1D
330
21B
100
AcDbEntity
 67
     1
  8
0
100
AcDbBlockEnd
  0
BLOCK
  5
31B
330
21C
100
AcDbEntity
  8
0
100
AcDbBlockBegin
  2
_FILLED
 70
     0
 10
0.0
 20
0.0
 30
0.0
  3
_FILLED
  1

  0
SOLID
  5
31C
330
21C
100
AcDbEntity
  8
0
  6
ByBlock
 62
     0
100
AcDbTrace
 10
0.0
 20
0.0
 30
0.0
 11
-1.0
 21
0.1666666667
 31
0.0
 12
-1.0
 22
-0.1666666667
 32
0.0
 13
-1.0
 23
-0.1666666667
 33
0.0
  0
ENDBLK
  5
31D
330
21C
100
AcDbEntity
  8
0
  6
ByBlock
 62
     0
100
AcDbBlockEnd
  0
BLOCK
  5
31E
330
21D
100
AcDbEntity
  8
0
  6
Continuous
 62
     7
100
AcDbBlockBegin
  2
*D1
 70
     1
 10
0.0
 20
0.0
 30
0.0
  3
*D1
  1

  0
MTEXT
  5
31F
330
21D
100
AcDbEntity
  8
0
  6
Continuous
 62
     7
100
AcDbMText
 10
93.8602735469
 20
78.25039223420001
 30
0.0
 40
1.333333333299999
 41
6.4
 46
0.0
 71
     2
 72
     1
  1
23-1/8\P[59]
 73
     1
 44
0.9
  0
LINE
  5
320
330
21D
100
AcDbEntity
  8
0
  6
Continuous
 62
     7
100
AcDbLine
 10
84.15428414999999
 20
89.14210068290001
 30
0.0
 11
95.19360688030001
 21
89.14210068290001
 31
0.0
  0
LINE
  5
321
330
21D
100
AcDbEntity
  8
0
  6
Continuous
 62
     7
100
AcDbLine
 10
84.26195081659999
 20
66.0253504522
 30
0.0
 11
95.19360688030001
 21
66.0253504522
 31
0.0
  0
LINE
  5
322
330
21D
100
AcDbEntity
  8
0
  6
Continuous
 62
     7
100
AcDbLine
 10
93.8602735469
 20
89.14210068290001
 30
0.0
 11
93.8602735469
 21
78.9170589009
 31
0.0
  0
LINE
  5
323
330
21D
100
AcDbEntity
  8
0
  6
Continuous
 62
     7
100
AcDbLine
 10
93.8602735469
 20
66.0253504522
 30
0.0
 11
93.8602735469
 21
74.2503922342
 31
0.0
  0
INSERT
  5
324
330
21D
100
AcDbEntity
  8
0
  6
Continuous
 62
     7
100
AcDbBlockReference
  2
_FILLED
 10
93.8602735469
 20
89.14210068290001
 30
0.0
 41
2.0
 42
2.0
 43
2.0
 50
90.0
  0
INSERT
  5
325
330
21D
100
AcDbEntity
  8
0
  6
Continuous
 62
     7
100
AcDbBlockReference
  2
_FILLED
 10
93.8602735469
 20
66.0253504522
 30
0.0
 41
2.0
 42
2.0
 43
2.0
 50
270.0
  0
ENDBLK
  5
326
330
21D
100
AcDbEntity
  8
0
  6
ByBlock
 62
     0
100
AcDbBlockEnd
  0
BLOCK
  5
327
330
21E
100
AcDbEntity
  8
0
  6
Continuous
 62
     7
100
AcDbBlockBegin
  2
*D2
 70
     1
 10
0.0
 20
0.0
 30
0.0
  3
*D2
  1

  0
MTEXT
  5
328
330
21E
100
AcDbEntity
  8
0
  6
Continuous
 62
     7
100
AcDbMText
 10
50.1656174833
 20
107.4103805207
 30
0.0
 40
1.333333333299999
 41
5.333333333299999
 46
0.0
 71
     2
 72
     1
  1
72\P[183]
 73
     1
 44
0.9
  0
LINE
  5
329
330
21E
100
AcDbEntity
  8
0
  6
Continuous
 62
     7
100
AcDbLine
 10
87.76561748330001
 20
78.25039223420001
 30
0.0
 11
87.76561748330001
 21
108.0770471874
 31
0.0
  0
LINE
  5
32A
330
21E
100
AcDbEntity
  8
0
  6
Continuous
 62
     7
100
AcDbLine
 10
15.7656174833
 20
78.25039223420001
 30
0.0
 11
15.7656174833
 21
108.0770471874
 31
0.0
  0
LINE
  5
32B
330
21E
100
AcDbEntity
  8
0
  6
Continuous
 62
     7
100
AcDbLine
 10
87.76561748330001
 20
106.7437138541
 30
0.0
 11
55.09895081659999
 21
106.7437138541
 31
0.0
  0
LINE
  5
32C
330
21E
100
AcDbEntity
  8
0
  6
Continuous
 62
     7
100
AcDbLine
 10
15.7656174833
 20
106.7437138541
 30
0.0
 11
48.43228415
 21
106.7437138541
 31
0.0
  0
INSERT
  5
32D
330
21E
100
AcDbEntity
  8
0
  6
Continuous
 62
     7
100
AcDbBlockReference
  2
_FILLED
 10
87.76561748330001
 20
106.7437138541
 30
0.0
 41
2.0
 42
2.0
 43
2.0
  0
INSERT
  5
32E
330
21E
100
AcDbEntity
  8
0
  6
Continuous
 62
     7
100
AcDbBlockReference
  2
_FILLED
 10
15.7656174833
 20
106.7437138541
 30
0.0
 41
2.0
 42
2.0
 43
2.0
 50
180.0
  0
ENDBLK
  5
32F
330
21E
100
AcDbEntity
  8
0
  6
ByBlock
 62
     0
100
AcDbBlockEnd
  0
BLOCK
  5
330
330
21F
100
AcDbEntity
  8
0
  6
Continuous
 62
     7
100
AcDbBlockBegin
  2
*D3
 70
     1
 10
0.0
 20
0.0
 30
0.0
  3
*D3
  1

  0
MTEXT
  5
331
330
21F
100
AcDbEntity
  8
0
  6
Continuous
 62
     7
100
AcDbMText
 10
50.14634801109999
 20
102.5110230109
 30
0.0
 40
1.333333333299999
 41
6.4
 46
0.0
 71
     2
 72
     1
  1
44-1/4\P[112]
 73
     1
 44
0.9
  0
LINE
  5
332
330
21F
100
AcDbEntity
  8
0
  6
Continuous
 62
     7
100
AcDbLine
 10
72.2803139035
 20
78.25039223420001
 30
0.0
 11
72.2803139035
 21
103.1776896776
 31
0.0
  0
LINE
  5
333
330
21F
100
AcDbEntity
  8
0
  6
Continuous
 62
     7
100
AcDbLine
 10
28.0123821188
 20
79.75039223420001
 30
0.0
 11
28.0123821188
 21
103.1776896776
 31
0.0
  0
LINE
  5
334
330
21F
100
AcDbEntity
  8
0
  6
Continuous
 62
     7
100
AcDbLine
 10
72.2803139035
 20
101.8443563442
 30
0.0
 11
54.01301467779999
 21
101.8443563442
 31
0.0
  0
LINE
  5
335
330
21F
100
AcDbEntity
  8
0
  6
Continuous
 62
     7
100
AcDbLine
 10
28.0123821188
 20
101.8443563442
 30
0.0
 11
46.27968134439999
 21
101.8443563442
 31
0.0
  0
INSERT
  5
336
330
21F
100
AcDbEntity
  8
0
  6
Continuous
 62
     7
100
AcDbBlockReference
  2
_FILLED
 10
72.2803139035
 20
101.8443563442
 30
0.0
 41
2.0
 42
2.0
 43
2.0
  0
INSERT
  5
337
330
21F
100
AcDbEntity
  8
0
  6
Continuous
 62
     7
100
AcDbBlockReference
  2
_FILLED
 10
28.0123821188
 20
101.8443563442
 30
0.0
 41
2.0
 42
2.0
 43
2.0
 50
180.0
  0
ENDBLK
  5
338
330
21F
100
AcDbEntity
  8
0
  6
ByBlock
 62
     0
100
AcDbBlockEnd
  0
BLOCK
  5
339
330
220
100
AcDbEntity
  8
0
  6
Continuous
 62
     7
100
AcDbBlockBegin
  2
*D4
 70
     1
 10
0.0
 20
0.0
 30
0.0
  3
*D4
  1

  0
MTEXT
  5
33A
330
220
100
AcDbEntity
  8
0
  6
Continuous
 62
     7
100
AcDbMText
 10
26.0156174833
 20
56.69747260770001
 30
0.0
 40
1.333333333299999
 41
6.4
 46
0.0
 71
     2
 72
     1
  1
20-1/2\P[52]
 73
     1
 44
0.9
  0
LINE
  5
33B
330
220
100
AcDbEntity
  8
0
  6
Continuous
 62
     7
100
AcDbLine
 10
36.2656174833
 20
71.99537355229999
 30
0.0
 11
36.2656174833
 21
54.69747260770001
 31
0.0
  0
LINE
  5
33C
330
220
100
AcDbEntity
  8
0
  6
Continuous
 62
     7
100
AcDbLine
 10
15.7656174833
 20
76.9170589009
 30
0.0
 11
15.7656174833
 21
54.69747260770001
 31
0.0
  0
LINE
  5
33D
330
220
100
AcDbEntity
  8
0
  6
Continuous
 62
     7
100
AcDbLine
 10
36.2656174833
 20
56.030805941
 30
0.0
 11
29.88228415
 21
56.030805941
 31
0.0
  0
LINE
  5
33E
330
220
100
AcDbEntity
  8
0
  6
Continuous
 62
     7
100
AcDbLine
 10
15.7656174833
 20
56.030805941
 30
0.0
 11
22.1489508166
 21
56.030805941
 31
0.0
  0
INSERT
  5
33F
330
220
100
AcDbEntity
  8
0
  6
Continuous
 62
     7
100
AcDbBlockReference
  2
_FILLED
 10
36.2656174833
 20
56.030805941
 30
0.0
 41
2.0
 42
2.0
 43
2.0
  0
INSERT
  5
340
330
220
100
AcDbEntity
  8
0
  6
Continuous
 62
     7
100
AcDbBlockReference
  2
_FILLED
 10
15.7656174833
 20
56.030805941
 30
0.0
 41
2.0
 42
2.0
 43
2.0
 50
180.0
  0
ENDBLK
  5
341
330
220
100
AcDbEntity
  8
0
  6
ByBlock
 62
     0
100
AcDbBlockEnd
  0
BLOCK
  5
342
330
221
100
AcDbEntity
  8
0
  6
Continuous
 62
     7
100
AcDbBlockBegin
  2
*D5
 70
     1
 10
0.0
 20
0.0
 30
0.0
  3
*D5
  1

  0
MTEXT
  5
343
330
221
100
AcDbEntity
  8
0
  6
Continuous
 62
     7
100
AcDbMText
 10
79.22381437109999
 20
55.6557614587
 30
0.0
 40
1.333333333299999
 41
5.333333333299999
 46
0.0
 71
     3
 72
     1
  1
3-1/4\P[8]
 73
     1
 44
0.9
  0
LINE
  5
344
330
221
100
AcDbEntity
  8
0
  6
Continuous
 62
     7
100
AcDbLine
 10
87.49279035799998
 20
76.9170589009
 30
0.0
 11
87.49279035799998
 21
53.6557614587
 31
0.0
  0
LINE
  5
345
330
221
100
AcDbEntity
  8
0
  6
Continuous
 62
     7
100
AcDbLine
 10
84.2937068218
 20
76.9170589009
 30
0.0
 11
84.2937068218
 21
53.6557614587
 31
0.0
  0
LINE
  5
346
330
221
100
AcDbEntity
  8
0
  6
Continuous
 62
     7
100
AcDbLine
 10
87.49279035799998
 20
54.98909479199999
 30
0.0
 11
92.8261236914
 21
54.98909479199999
 31
0.0
  0
LINE
  5
347
330
221
100
AcDbEntity
  8
0
  6
Continuous
 62
     7
100
AcDbLine
 10
84.2937068218
 20
54.98909479199999
 30
0.0
 11
79.8904810378
 21
54.98909479199999
 31
0.0
  0
INSERT
  5
348
330
221
100
AcDbEntity
  8
0
  6
Continuous
 62
     7
100
AcDbBlockReference
  2
_FILLED
 10
87.49279035799998
 20
54.98909479199999
 30
0.0
 41
2.0
 42
2.0
 43
2.0
 50
180.0
  0
INSERT
  5
349
330
221
100
AcDbEntity
  8
0
  6
Continuous
 62
     7
100
AcDbBlockReference
  2
_FILLED
 10
84.2937068218
 20
54.98909479199999
 30
0.0
 41
2.0
 42
2.0
 43
2.0
  0
ENDBLK
  5
34A
330
221
100
AcDbEntity
  8
0
  6
ByBlock
 62
     0
100
AcDbBlockEnd
  0
BLOCK
  5
34B
330
222
100
AcDbEntity
  8
0
  6
Continuous
 62
     7
100
AcDbBlockBegin
  2
*D6
 70
     1
 10
0.0
 20
0.0
 30
0.0
  3
*D6
  1

  0
MTEXT
  5
34C
330
222
100
AcDbEntity
  8
0
  6
Continuous
 62
     7
100
AcDbMText
 10
99.7143890068
 20
53.05963490609999
 30
0.0
 40
1.333333333299999
 41
5.333333333299999
 46
0.0
 71
     1
 72
     1
  1
4-7/8\P[12]
 73
     1
 44
0.9
  0
LINE
  5
34D
330
222
100
AcDbEntity
  8
0
  6
Continuous
 62
     7
100
AcDbLine
 10
63.21595081659999
 20
57.85655269279999
 30
0.0
 11
98.3810556735
 21
57.85655269279999
 31
0.0
  0
LINE
  5
34E
330
222
100
AcDbEntity
  8
0
  6
Continuous
 62
     7
100
AcDbLine
 10
79.29228415
 20
62.71998486930001
 30
0.0
 11
98.3810556735
 21
62.71998486930001
 31
0.0
  0
LINE
  5
34F
330
222
100
AcDbEntity
  8
0
  6
Continuous
 62
     7
100
AcDbLine
 10
97.04772234020001
 20
57.85655269279999
 30
0.0
 11
97.04772234020001
 21
52.3929682395
 31
0.0
  0
LINE
  5
350
330
222
100
AcDbEntity
  8
0
  6
Continuous
 62
     7
100
AcDbLine
 10
97.04772234020001
 20
52.3929682395
 30
0.0
 11
99.04772234020001
 21
52.3929682395
 31
0.0
  0
LINE
  5
351
330
222
100
AcDbEntity
  8
0
  6
Continuous
 62
     7
100
AcDbLine
 10
97.04772234020001
 20
62.71998486930001
 30
0.0
 11
97.04772234020001
 21
68.0533182027
 31
0.0
  0
INSERT
  5
352
330
222
100
AcDbEntity
  8
0
  6
Continuous
 62
     7
100
AcDbBlockReference
  2
_FILLED
 10
97.04772234020001
 20
57.85655269279999
 30
0.0
 41
2.0
 42
2.0
 43
2.0
 50
90.0
  0
INSERT
  5
353
330
222
100
AcDbEntity
  8
0
  6
Continuous
 62
     7
100
AcDbBlockReference
  2
_FILLED
 10
97.04772234020001
 20
62.71998486930001
 30
0.0
 41
2.0
 42
2.0
 43
2.0
 50
270.0
  0
ENDBLK
  5
354
330
222
100
AcDbEntity
  8
0
  6
ByBlock
 62
     0
100
AcDbBlockEnd
  0
BLOCK
  5
355
330
223
100
AcDbEntity
  8
0
  6
Continuous
 62
     7
100
AcDbBlockBegin
  2
*D7
 70
     1
 10
0.0
 20
0.0
 30
0.0
  3
*D7
  1

  0
MTEXT
  5
356
330
223
100
AcDbEntity
  8
0
  6
Continuous
 62
     7
100
AcDbMText
 10
109.6402955925
 20
53.52405972979999
 30
0.0
 40
1.333333333299999
 41
5.333333333299999
 46
0.0
 71
     1
 72
     1
  1
5-3/8\P[14]
 73
     1
 44
0.9
  0
LINE
  5
357
330
223
100
AcDbEntity
  8
0
  6
Continuous
 62
     7
100
AcDbLine
 10
61.9466174833
 20
57.5837255675
 30
0.0
 11
108.3069622592
 21
57.5837255675
 31
0.0
  0
LINE
  5
358
330
223
100
AcDbEntity
  8
0
  6
Continuous
 62
     7
100
AcDbLine
 10
78.6576174833
 20
62.9208559974
 30
0.0
 11
108.3069622592
 21
62.9208559974
 31
0.0
  0
LINE
  5
359
330
223
100
AcDbEntity
  8
0
  6
Continuous
 62
     7
100
AcDbLine
 10
106.9736289259
 20
57.5837255675
 30
0.0
 11
106.9736289259
 21
52.8573930631
 31
0.0
  0
LINE
  5
35A
330
223
100
AcDbEntity
  8
0
  6
Continuous
 62
     7
100
AcDbLine
 10
106.9736289259
 20
52.8573930631
 30
0.0
 11
108.9736289259
 21
52.8573930631
 31
0.0
  0
LINE
  5
35B
330
223
100
AcDbEntity
  8
0
  6
Continuous
 62
     7
100
AcDbLine
 10
106.9736289259
 20
62.9208559974
 30
0.0
 11
106.9736289259
 21
68.2541893307
 31
0.0
  0
INSERT
  5
35C
330
223
100
AcDbEntity
  8
0
  6
Continuous
 62
     7
100
AcDbBlockReference
  2
_FILLED
 10
106.9736289259
 20
57.5837255675
 30
0.0
 41
2.0
 42
2.0
 43
2.0
 50
90.0
  0
INSERT
  5
35D
330
223
100
AcDbEntity
  8
0
  6
Continuous
 62
     7
100
AcDbBlockReference
  2
_FILLED
 10
106.9736289259
 20
62.9208559974
 30
0.0
 41
2.0
 42
2.0
 43
2.0
 50
270.0
  0
ENDBLK
  5
35E
330
223
100
AcDbEntity
  8
0
  6
ByBlock
 62
     0
100
AcDbBlockEnd
  0
BLOCK
  5
35F
330
224
100
AcDbEntity
  8
0
  6
Continuous
 62
     7
100
AcDbBlockBegin
  2
*D8
 70
     1
 10
0.0
 20
0.0
 30
0.0
  3
*D8
  1

  0
MTEXT
  5
360
330
224
100
AcDbEntity
  8
0
  6
Continuous
 62
     7
100
AcDbMText
 10
113.362745351
 20
78.25039223420001
 30
0.0
 40
1.333333333299999
 41
5.333333333299999
 46
0.0
 71
     2
 72
     1
  1
40\P[102]
 73
     1
 44
0.9
  0
LINE
  5
361
330
224
100
AcDbEntity
  8
0
  6
Continuous
 62
     7
100
AcDbLine
 10
52.43228415
 20
57.5837255675
 30
0.0
 11
116.2960786843
 21
57.5837255675
 31
0.0
  0
LINE
  5
362
330
224
100
AcDbEntity
  8
0
  6
Continuous
 62
     7
100
AcDbLine
 10
52.43228415
 20
97.5837255675
 30
0.0
 11
116.2960786843
 21
97.5837255675
 31
0.0
  0
LINE
  5
363
330
224
100
AcDbEntity
  8
0
  6
Continuous
 62
     7
100
AcDbLine
 10
114.962745351
 20
57.5837255675
 30
0.0
 11
114.962745351
 21
74.2503922342
 31
0.0
  0
LINE
  5
364
330
224
100
AcDbEntity
  8
0
  6
Continuous
 62
     7
100
AcDbLine
 10
114.962745351
 20
97.5837255675
 30
0.0
 11
114.962745351
 21
78.9170589009
 31
0.0
  0
INSERT
  5
365
330
224
100
AcDbEntity
  8
0
  6
Continuous
 62
     7
100
AcDbBlockReference
  2
_FILLED
 10
114.962745351
 20
57.5837255675
 30
0.0
 41
2.0
 42
2.0
 43
2.0
 50
270.0
  0
INSERT
  5
366
330
224
100
AcDbEntity
  8
0
  6
Continuous
 62
     7
100
AcDbBlockReference
  2
_FILLED
 10
114.962745351
 20
97.5837255675
 30
0.0
 41
2.0
 42
2.0
 43
2.0
 50
90.0
  0
ENDBLK
  5
367
330
224
100
AcDbEntity
  8
0
  6
ByBlock
 62
     0
100
AcDbBlockEnd
  0
BLOCK
  5
368
330
225
100
AcDbEntity
  8
0
  6
Continuous
 62
     7
100
AcDbBlockBegin
  2
*D9
 70
     1
 10
0.0
 20
0.0
 30
0.0
  3
*D9
  1

  0
MTEXT
  5
369
330
225
100
AcDbEntity
  8
0
  6
Continuous
 62
     7
100
AcDbMText
 10
96.9327979192
 20
43.7869694505
 30
0.0
 40
1.333333333299999
 41
3.2
 46
0.0
 71
     1
 72
     1
  1
1/2\P[1]
 73
     1
 44
0.9
  0
LINE
  5
36A
330
225
100
AcDbEntity
  8
0
  6
Continuous
 62
     7
100
AcDbLine
 10
95.95690303479999
 20
38.2745619595
 30
0.0
 11
92.93279791919999
 21
38.2745619595
 31
0.0
  0
LINE
  5
36B
330
225
100
AcDbEntity
  8
0
  6
Continuous
 62
     7
100
AcDbLine
 10
95.68407590959999
 20
37.7745619595
 30
0.0
 11
92.93279791919999
 21
37.7745619595
 31
0.0
  0
LINE
  5
36C
330
225
100
AcDbEntity
  8
0
  6
Continuous
 62
     7
100
AcDbLine
 10
94.26613125260001
 20
38.2745619595
 30
0.0
 11
94.26613125260001
 21
43.12030278379999
 31
0.0
  0
LINE
  5
36D
330
225
100
AcDbEntity
  8
0
  6
Continuous
 62
     7
100
AcDbLine
 10
94.26613125260001
 20
43.12030278379999
 30
0.0
 11
96.2661312526
 21
43.12030278379999
 31
0.0
  0
LINE
  5
36E
330
225
100
AcDbEntity
  8
0
  6
Continuous
 62
     7
100
AcDbLine
 10
94.26613125260001
 20
37.7745619595
 30
0.0
 11
94.26613125260001
 21
32.4412286262
 31
0.0
  0
INSERT
  5
36F
330
225
100
AcDbEntity
  8
0
  6
Continuous
 62
     7
100
AcDbBlockReference
  2
_FILLED
 10
94.26613125260001
 20
38.2745619595
 30
0.0
 41
2.0
 42
2.0
 43
2.0
 50
270.0
  0
INSERT
  5
370
330
225
100
AcDbEntity
  8
0
  6
Continuous
 62
     7
100
AcDbBlockReference
  2
_FILLED
 10
94.26613125260001
 20
37.7745619595
 30
0.0
 41
2.0
 42
2.0
 43
2.0
 50
90.0
  0
ENDBLK
  5
371
330
225
100
AcDbEntity
  8
0
  6
ByBlock
 62
     0
100
AcDbBlockEnd
  0
BLOCK
  5
372
330
226
100
AcDbEntity
  8
0
  6
Continuous
 62
     7
100
AcDbBlockBegin
  2
*D10
 70
     1
 10
0.0
 20
0.0
 30
0.0
  3
*D10
  1

  0
MTEXT
  5
373
330
226
100
AcDbEntity
  8
0
  6
Continuous
 62
     7
100
AcDbMText
 10
6.307067157699999
 20
28.4412286262
 30
0.0
 40
1.333333333299999
 41
4.266666666699999
 46
0.0
 71
     2
 72
     1
  1
21\P[53]
 73
     1
 44
0.9
  0
LINE
  5
374
330
226
100
AcDbEntity
  8
0
  6
Continuous
 62
     7
100
AcDbLine
 10
37.1827779419
 20
17.2745619595
 30
0.0
 11
6.040400491099999
 21
17.2745619595
 31
0.0
  0
LINE
  5
375
330
226
100
AcDbEntity
  8
0
  6
Continuous
 62
     7
100
AcDbLine
 10
15.3717779419
 20
38.2745619595
 30
0.0
 11
6.040400491099999
 21
38.2745619595
 31
0.0
  0
LINE
  5
376
330
226
100
AcDbEntity
  8
0
  6
Continuous
 62
     7
100
AcDbLine
 10
7.3737338244
 20
17.2745619595
 30
0.0
 11
7.3737338244
 21
24.4412286262
 31
0.0
  0
LINE
  5
377
330
226
100
AcDbEntity
  8
0
  6
Continuous
 62
     7
100
AcDbLine
 10
7.3737338244
 20
38.2745619595
 30
0.0
 11
7.3737338244
 21
29.1078952929
 31
0.0
  0
INSERT
  5
378
330
226
100
AcDbEntity
  8
0
  6
Continuous
 62
     7
100
AcDbBlockReference
  2
_FILLED
 10
7.3737338244
 20
17.2745619595
 30
0.0
 41
2.0
 42
2.0
 43
2.0
 50
270.0
  0
INSERT
  5
379
330
226
100
AcDbEntity
  8
0
  6
Continuous
 62
     7
100
AcDbBlockReference
  2
_FILLED
 10
7.3737338244
 20
38.2745619595
 30
0.0
 41
2.0
 42
2.0
 43
2.0
 50
90.0
  0
ENDBLK
  5
37A
330
226
100
AcDbEntity
  8
0
  6
ByBlock
 62
     0
100
AcDbBlockEnd
  0
BLOCK
  5
37B
330
227
100
AcDbEntity
  8
0
  6
Continuous
 62
     7
100
AcDbBlockBegin
  2
*D11
 70
     1
 10
0.0
 20
0.0
 30
0.0
  3
*D11
  1

  0
MTEXT
  5
37C
330
227
100
AcDbEntity
  8
0
  6
Continuous
 62
     7
100
AcDbMText
 10
12.7543275787
 20
31.6275966607
 30
0.0
 40
1.333333333299999
 41
6.4
 46
0.0
 71
     2
 72
     1
  1
19-1/2\P[50]
 73
     1
 44
0.9
  0
LINE
  5
37D
330
227
100
AcDbEntity
  8
0
  6
Continuous
 62
     7
100
AcDbLine
 10
15.3717779419
 20
38.2745619595
 30
0.0
 11
11.4209942454
 21
38.2745619595
 31
0.0
  0
LINE
  5
37E
330
227
100
AcDbEntity
  8
0
  6
Continuous
 62
     7
100
AcDbLine
 10
28.9887779419
 20
18.7745619595
 30
0.0
 11
11.4209942454
 21
18.7745619595
 31
0.0
  0
LINE
  5
37F
330
227
100
AcDbEntity
  8
0
  6
Continuous
 62
     7
100
AcDbLine
 10
12.7543275787
 20
38.2745619595
 30
0.0
 11
12.7543275787
 21
32.2942633274
 31
0.0
  0
LINE
  5
380
330
227
100
AcDbEntity
  8
0
  6
Continuous
 62
     7
100
AcDbLine
 10
12.7543275787
 20
18.7745619595
 30
0.0
 11
12.7543275787
 21
27.6275966607
 31
0.0
  0
INSERT
  5
381
330
227
100
AcDbEntity
  8
0
  6
Continuous
 62
     7
100
AcDbBlockReference
  2
_FILLED
 10
12.7543275787
 20
38.2745619595
 30
0.0
 41
2.0
 42
2.0
 43
2.0
 50
90.0
  0
INSERT
  5
382
330
227
100
AcDbEntity
  8
0
  6
Continuous
 62
     7
100
AcDbBlockReference
  2
_FILLED
 10
12.7543275787
 20
18.7745619595
 30
0.0
 41
2.0
 42
2.0
 43
2.0
 50
270.0
  0
ENDBLK
  5
383
330
227
100
AcDbEntity
  8
0
  6
ByBlock
 62
     0
100
AcDbBlockEnd
  0
BLOCK
  5
384
330
228
100
AcDbEntity
  8
0
  6
Continuous
 62
     7
100
AcDbBlockBegin
  2
*D12
 70
     1
 10
0.0
 20
0.0
 30
0.0
  3
*D12
  1

  0
MTEXT
  5
385
330
228
100
AcDbEntity
  8
0
  6
Continuous
 62
     7
100
AcDbMText
 10
138.7716874658
 20
29.8515906524
 30
0.0
 40
1.333333333299999
 41
6.4
 46
0.0
 71
     2
 72
     1
  1
15-7/8\P[40]
 73
     1
 44
0.9
  0
LINE
  5
386
330
228
100
AcDbEntity
  8
0
  6
Continuous
 62
     7
100
AcDbLine
 10
123.4624629861
 20
18.7745619595
 30
0.0
 11
140.1050207992
 21
18.7745619595
 31
0.0
  0
LINE
  5
387
330
228
100
AcDbEntity
  8
0
  6
Continuous
 62
     7
100
AcDbLine
 10
130.8234629861
 20
34.5896334092
 30
0.0
 11
140.1050207992
 21
34.5896334092
 31
0.0
  0
LINE
  5
388
330
228
100
AcDbEntity
  8
0
  6
Continuous
 62
     7
100
AcDbLine
 10
138.7716874658
 20
18.7745619595
 30
0.0
 11
138.7716874658
 21
25.8515906524
 31
0.0
  0
LINE
  5
389
330
228
100
AcDbEntity
  8
0
  6
Continuous
 62
     7
100
AcDbLine
 10
138.7716874658
 20
34.5896334092
 30
0.0
 11
138.7716874658
 21
30.5182573191
 31
0.0
  0
INSERT
  5
38A
330
228
100
AcDbEntity
  8
0
  6
Continuous
 62
     7
100
AcDbBlockReference
  2
_FILLED
 10
138.7716874658
 20
18.7745619595
 30
0.0
 41
2.0
 42
2.0
 43
2.0
 50
270.0
  0
INSERT
  5
38B
330
228
100
AcDbEntity
  8
0
  6
Continuous
 62
     7
100
AcDbBlockReference
  2
_FILLED
 10
138.7716874658
 20
34.5896334092
 30
0.0
 41
2.0
 42
2.0
 43
2.0
 50
90.0
  0
ENDBLK
  5
38C
330
228
100
AcDbEntity
  8
0
  6
ByBlock
 62
     0
100
AcDbBlockEnd
  0
BLOCK
  5
38D
330
229
100
AcDbEntity
  8
0
  6
Continuous
 62
     7
100
AcDbBlockBegin
  2
*D13
 70
     1
 10
0.0
 20
0.0
 30
0.0
  3
*D13
  1

  0
MTEXT
  5
38E
330
229
100
AcDbEntity
  8
0
  6
Continuous
 62
     7
100
AcDbMText
 10
87.69850732209999
 20
27.1287286262
 30
0.0
 40
1.333333333299999
 41
6.4
 46
0.0
 71
     2
 72
     1
  1
16-5/8\P[42]
 73
     1
 44
0.9
  0
LINE
  5
38F
330
229
100
AcDbEntity
  8
0
  6
Continuous
 62
     7
100
AcDbLine
 10
65.171397426
 20
18.1495619595
 30
0.0
 11
89.03184065540001
 21
18.1495619595
 31
0.0
  0
LINE
  5
390
330
229
100
AcDbEntity
  8
0
  6
Continuous
 62
     7
100
AcDbLine
 10
79.39428415
 20
34.7745619595
 30
0.0
 11
89.03184065540001
 21
34.7745619595
 31
0.0
  0
LINE
  5
391
330
229
100
AcDbEntity
  8
0
  6
Continuous
 62
     7
100
AcDbLine
 10
87.69850732209999
 20
18.1495619595
 30
0.0
 11
87.69850732209999
 21
23.1287286262
 31
0.0
  0
LINE
  5
392
330
229
100
AcDbEntity
  8
0
  6
Continuous
 62
     7
100
AcDbLine
 10
87.69850732209999
 20
34.7745619595
 30
0.0
 11
87.69850732209999
 21
27.7953952929
 31
0.0
  0
INSERT
  5
393
330
229
100
AcDbEntity
  8
0
  6
Continuous
 62
     7
100
AcDbBlockReference
  2
_FILLED
 10
87.69850732209999
 20
18.1495619595
 30
0.0
 41
2.0
 42
2.0
 43
2.0
 50
270.0
  0
INSERT
  5
394
330
229
100
AcDbEntity
  8
0
  6
Continuous
 62
     7
100
AcDbBlockReference
  2
_FILLED
 10
87.69850732209999
 20
34.7745619595
 30
0.0
 41
2.0
 42
2.0
 43
2.0
 50
90.0
  0
ENDBLK
  5
395
330
229
100
AcDbEntity
  8
0
  6
ByBlock
 62
     0
100
AcDbBlockEnd
  0
BLOCK
  5
396
330
22A
100
AcDbEntity
  8
0
  6
Continuous
 62
     7
100
AcDbBlockBegin
  2
*D14
 70
     1
 10
0.0
 20
0.0
 30
0.0
  3
*D14
  1

  0
MTEXT
  5
397
330
22A
100
AcDbEntity
  8
0
  6
Continuous
 62
     7
100
AcDbMText
 10
51.02832732939999
 20
13.7612693046
 30
0.0
 40
1.333333333299999
 41
1.955555555599999
 46
0.0
 71
     2
 72
     1
  1
2\Fgdt;{\Fgdt;~}
 73
     1
 44
0.9
  0
LINE
  5
398
330
22A
100
AcDbEntity
  8
0
  6
Continuous
 62
     7
100
AcDbLine
 10
38.80728415
 20
18.7745619595
 30
0.0
 11
53.55780692829999
 21
18.7745619595
 31
0.0
  0
ARC
  5
399
330
22A
100
AcDbEntity
  8
0
  6
Continuous
 62
     7
100
AcDbCircle
 10
38.1406174833
 20
18.7745619595
 30
0.0
 40
14.0838561116
100
AcDbArc
 50
336.2156258907
 51
360.0
  0
ARC
  5
39A
330
22A
100
AcDbEntity
  8
0
  6
Continuous
 62
     7
100
AcDbCircle
 10
38.1406174833
 20
18.7745619595
 30
0.0
 40
14.0838561116
100
AcDbArc
 50
1.524498537599999
 51
23.2215031303
  0
SOLID
  5
39B
330
22A
100
AcDbEntity
  8
0
  6
Continuous
 62
     7
100
AcDbTrace
 10
52.415079764
 20
16.755953429
 30
0.0
 11
52.2244735949
 21
18.7745619595
 31
0.0
 12
51.7500928801
 22
16.8032491866
 32
0.0
 13
51.7500928801
 23
16.8032491866
 33
0.0
  0
SOLID
  5
39C
330
22A
100
AcDbEntity
  8
0
  6
Continuous
 62
     7
100
AcDbTrace
 10
51.69283012859999
 20
21.1072486168
 30
0.0
 11
52.2194884852
 21
19.1492542127
 31
0.0
 12
52.3563233601
 22
21.1722191971
 32
0.0
 13
52.3563233601
 23
21.1722191971
 33
0.0
  0
ENDBLK
  5
39D
330
22A
100
AcDbEntity
  8
0
  6
ByBlock
 62
     0
100
AcDbBlockEnd
  0
BLOCK
  5
39E
330
22B
100
AcDbEntity
  8
0
  6
Continuous
 62
     7
100
AcDbBlockBegin
  2
*D15
 70
     1
 10
0.0
 20
0.0
 30
0.0
  3
*D15
  1

  0
MTEXT
  5
39F
330
22B
100
AcDbEntity
  8
0
  6
Continuous
 62
     7
100
AcDbMText
 10
131.8044096536
 20
105.9808101356
 30
0.0
 40
1.333333333299999
 41
3.2
 46
0.0
 71
     1
 72
     1
  1
2\P[5]
 73
     1
 44
0.9
  0
LINE
  5
3A0
330
22B
100
AcDbEntity
  8
0
  6
Continuous
 62
     7
100
AcDbLine
 10
133.5774419032
 20
100.1130178438
 30
0.0
 11
127.8044096536
 21
100.1130178438
 31
0.0
  0
LINE
  5
3A1
330
22B
100
AcDbEntity
  8
0
  6
Continuous
 62
     7
100
AcDbLine
 10
133.173381783
 20
98.11301784379999
 30
0.0
 11
127.8044096536
 21
98.11301784379999
 31
0.0
  0
LINE
  5
3A2
330
22B
100
AcDbEntity
  8
0
  6
Continuous
 62
     7
100
AcDbLine
 10
129.1377429869
 20
100.1130178438
 30
0.0
 11
129.1377429869
 21
105.314143469
 31
0.0
  0
LINE
  5
3A3
330
22B
100
AcDbEntity
  8
0
  6
Continuous
 62
     7
100
AcDbLine
 10
129.1377429869
 20
105.314143469
 30
0.0
 11
131.1377429869
 21
105.314143469
 31
0.0
  0
LINE
  5
3A4
330
22B
100
AcDbEntity
  8
0
  6
Continuous
 62
     7
100
AcDbLine
 10
129.1377429869
 20
98.11301784379999
 30
0.0
 11
129.1377429869
 21
92.77968451049998
 31
0.0
  0
INSERT
  5
3A5
330
22B
100
AcDbEntity
  8
0
  6
Continuous
 62
     7
100
AcDbBlockReference
  2
_FILLED
 10
129.1377429869
 20
100.1130178438
 30
0.0
 41
2.0
 42
2.0
 43
2.0
 50
270.0
  0
INSERT
  5
3A6
330
22B
100
AcDbEntity
  8
0
  6
Continuous
 62
     7
100
AcDbBlockReference
  2
_FILLED
 10
129.1377429869
 20
98.11301784379999
 30
0.0
 41
2.0
 42
2.0
 43
2.0
 50
90.0
  0
ENDBLK
  5
3A7
330
22B
100
AcDbEntity
  8
0
  6
ByBlock
 62
     0
100
AcDbBlockEnd
  0
BLOCK
  5
3A8
330
22C
100
AcDbEntity
  8
0
  6
Continuous
 62
     7
100
AcDbBlockBegin
  2
*D16
 70
     1
 10
0.0
 20
0.0
 30
0.0
  3
*D16
  1

  0
MTEXT
  5
3A9
330
22C
100
AcDbEntity
  8
0
  6
Continuous
 62
     7
100
AcDbMText
 10
124.4065913879
 20
90.27968451049998
 30
0.0
 40
1.333333333299999
 41
4.266666666699999
 46
0.0
 71
     2
 72
     1
  1
21\P[53]
 73
     1
 44
0.9
  0
LINE
  5
3AA
330
22C
100
AcDbEntity
  8
0
  6
Continuous
 62
     7
100
AcDbLine
 10
133.5774419032
 20
100.1130178438
 30
0.0
 11
124.1399247212
 21
100.1130178438
 31
0.0
  0
LINE
  5
3AB
330
22C
100
AcDbEntity
  8
0
  6
Continuous
 62
     7
100
AcDbLine
 10
148.0387752365
 20
79.11301784379999
 30
0.0
 11
124.1399247212
 21
79.11301784379999
 31
0.0
  0
LINE
  5
3AC
330
22C
100
AcDbEntity
  8
0
  6
Continuous
 62
     7
100
AcDbLine
 10
125.4732580545
 20
100.1130178438
 30
0.0
 11
125.4732580545
 21
90.94635117709998
 31
0.0
  0
LINE
  5
3AD
330
22C
100
AcDbEntity
  8
0
  6
Continuous
 62
     7
100
AcDbLine
 10
125.4732580545
 20
79.11301784379999
 30
0.0
 11
125.4732580545
 21
86.2796845105
 31
0.0
  0
INSERT
  5
3AE
330
22C
100
AcDbEntity
  8
0
  6
Continuous
 62
     7
100
AcDbBlockReference
  2
_FILLED
 10
125.4732580545
 20
100.1130178438
 30
0.0
 41
2.0
 42
2.0
 43
2.0
 50
90.0
  0
INSERT
  5
3AF
330
22C
100
AcDbEntity
  8
0
  6
Continuous
 62
     7
100
AcDbBlockReference
  2
_FILLED
 10
125.4732580545
 20
79.11301784379999
 30
0.0
 41
2.0
 42
2.0
 43
2.0
 50
270.0
  0
ENDBLK
  5
3B0
330
22C
100
AcDbEntity
  8
0
  6
ByBlock
 62
     0
100
AcDbBlockEnd
  0
BLOCK
  5
3B1
330
22D
100
AcDbEntity
  8
0
  6
Continuous
 62
     7
100
AcDbBlockBegin
  2
*D17
 70
     1
 10
0.0
 20
0.0
 30
0.0
  3
*D17
  1

  0
MTEXT
  5
3B2
330
22D
100
AcDbEntity
  8
0
  6
Continuous
 62
     7
100
AcDbMText
 10
18.571234774
 20
24.1936930801
 30
0.0
 40
1.333333333299999
 41
3.0222222222
 46
0.0
 71
     2
 72
     1
  1
12\Fgdt;{\Fgdt;~}
 73
     1
 44
0.9
  0
LINE
  5
3B3
330
22D
100
AcDbEntity
  8
0
  6
Continuous
 62
     7
100
AcDbLine
 10
24.7605723222
 20
35.6078952929
 30
0.0
 11
24.7605723222
 21
20.7705701452
 31
0.0
  0
LINE
  5
3B4
330
22D
100
AcDbEntity
  8
0
  6
Continuous
 62
     7
100
AcDbLine
 10
24.8991801161
 20
35.62246355900001
 30
0.0
 11
27.9840334748
 21
21.1093695645
 31
0.0
  0
ARC
  5
3B5
330
22D
100
AcDbEntity
  8
0
  6
Continuous
 62
     7
100
AcDbCircle
 10
24.7605723222
 20
36.2745619595
 30
0.0
 40
14.170658481
100
AcDbArc
 50
244.1019390941
 51
270.0
  0
ARC
  5
3B6
330
22D
100
AcDbEntity
  8
0
  6
Continuous
 62
     7
100
AcDbCircle
 10
24.7605723222
 20
36.2745619595
 30
0.0
 40
14.170658481
100
AcDbArc
 50
282.0
 51
303.5640995897
  0
SOLID
  5
3B7
330
22D
100
AcDbEntity
  8
0
  6
Continuous
 62
     7
100
AcDbTrace
 10
22.7420468831
 20
21.9124193729
 30
0.0
 11
24.7605723222
 21
22.1039034785
 31
0.0
 12
22.7890534131
 22
22.5774267642
 32
0.0
 13
22.7890534131
 23
22.5774267642
 33
0.0
  0
SOLID
  5
3B8
330
22D
100
AcDbEntity
  8
0
  6
Continuous
 62
     7
100
AcDbTrace
 10
29.5368033508
 20
23.2866438612
 30
0.0
 11
27.706817887
 21
22.4135663655
 31
0.0
 12
29.7210454865
 22
22.645941684
 32
0.0
 13
29.7210454865
 23
22.645941684
 33
0.0
  0
ENDBLK
  5
3B9
330
22D
100
AcDbEntity
  8
0
  6
ByBlock
 62
     0
100
AcDbBlockEnd
  0
BLOCK
  5
3BA
330
22E
100
AcDbEntity
  8
0
  6
Continuous
 62
     7
100
AcDbBlockBegin
  2
*D18
 70
     1
 10
0.0
 20
0.0
 30
0.0
  3
*D18
  1

  0
MTEXT
  5
3BB
330
22E
100
AcDbEntity
  8
0
  6
Continuous
 62
     7
100
AcDbMText
 10
75.5800627212
 20
22.5493624207
 30
0.0
 40
1.333333333299999
 41
3.0222222222
 46
0.0
 71
     2
 72
     1
  1
25\Fgdt;{\Fgdt;~}
 73
     1
 44
0.9
  0
LINE
  5
3BC
330
22E
100
AcDbEntity
  8
0
  6
Continuous
 62
     7
100
AcDbLine
 10
78.48891713659999
 20
35.6703567682
 30
0.0
 11
71.97723169799999
 21
21.706002281
 31
0.0
  0
LINE
  5
3BD
330
22E
100
AcDbEntity
  8
0
  6
Continuous
 62
     7
100
AcDbLine
 10
78.77066264439999
 20
35.6078952929
 30
0.0
 11
78.77066264439999
 21
20.1999348992
 31
0.0
  0
ARC
  5
3BE
330
22E
100
AcDbEntity
  8
0
  6
Continuous
 62
     7
100
AcDbCircle
 10
78.77066264439999
 20
36.2745619595
 30
0.0
 40
14.741293727
100
AcDbArc
 50
224.2706463628
 51
245.0
  0
ARC
  5
3BF
330
22E
100
AcDbEntity
  8
0
  6
Continuous
 62
     7
100
AcDbCircle
 10
78.77066264439999
 20
36.2745619595
 30
0.0
 40
14.741293727
100
AcDbArc
 50
270.0
 51
290.7293536372
  0
SOLID
  5
3C0
330
22E
100
AcDbEntity
  8
0
  6
Continuous
 62
     7
100
AcDbTrace
 10
70.6285435894
 20
23.5887138632
 30
0.0
 11
72.54072271369999
 21
22.9144126638
 31
0.0
 12
70.95059690399999
 22
24.1724313522
 32
0.0
 13
70.95059690399999
 23
24.1724313522
 33
0.0
  0
SOLID
  5
3C1
330
22E
100
AcDbEntity
  8
0
  6
Continuous
 62
     7
100
AcDbTrace
 10
80.7434677194
 20
22.0014041605
 30
0.0
 11
78.77066264439999
 21
21.5332682325
 31
0.0
 12
80.7886574758
 22
21.3362708427
 32
0.0
 13
80.7886574758
 23
21.3362708427
 33
0.0
  0
ENDBLK
  5
3C2
330
22E
100
AcDbEntity
  8
0
  6
ByBlock
 62
     0
100
AcDbBlockEnd
  0
BLOCK
  5
3C3
330
22F
100
AcDbEntity
  8
0
  6
Continuous
 62
     7
100
AcDbBlockBegin
  2
*D19
 70
     1
 10
0.0
 20
0.0
 30
0.0
  3
*D19
  1

  0
MTEXT
  5
3C4
330
22F
100
AcDbEntity
  8
0
  6
Continuous
 62
     7
100
AcDbMText
 10
136.2319469502
 20
23.5241355228
 30
0.0
 40
1.333333333299999
 41
3.0222222222
 46
0.0
 71
     2
 72
     1
  1
10\Fgdt;{\Fgdt;~}
 73
     1
 44
0.9
  0
LINE
  5
3C5
330
22F
100
AcDbEntity
  8
0
  6
Continuous
 62
     7
100
AcDbLine
 10
130.6156742171
 20
37.3081415241
 30
0.0
 11
127.7080942112
 21
20.8184358979
 31
0.0
  0
LINE
  5
3C6
330
22F
100
AcDbEntity
  8
0
  6
Continuous
 62
     7
100
AcDbLine
 10
130.7314396688999
 20
37.2980133595
 30
0.0
 11
130.7314396688999
 21
20.5539274444
 31
0.0
  0
ARC
  5
3C7
330
22F
100
AcDbEntity
  8
0
  6
Continuous
 62
     7
100
AcDbCircle
 10
130.7314396688999
 20
37.9646800261
 30
0.0
 40
16.0774192484
100
AcDbArc
 50
240.9933742465001
 51
260.0
  0
ARC
  5
3C8
330
22F
100
AcDbEntity
  8
0
  6
Continuous
 62
     7
100
AcDbCircle
 10
130.7314396688999
 20
37.9646800261
 30
0.0
 40
16.0774192484
100
AcDbArc
 50
270.0
 51
290.0064702352
  0
SOLID
  5
3C9
330
22F
100
AcDbEntity
  8
0
  6
Continuous
 62
     7
100
AcDbTrace
 10
125.917230235
 20
22.2765303537
 30
0.0
 11
127.9396251148
 21
22.1315129019
 31
0.0
 12
126.0735815642
 22
22.9246034255
 32
0.0
 13
126.0735815642
 23
22.9246034255
 33
0.0
  0
SOLID
  5
3CA
330
22F
100
AcDbEntity
  8
0
  6
Continuous
 62
     7
100
AcDbTrace
 10
132.706852549
 20
22.3442674122
 30
0.0
 11
130.7314396688999
 21
21.8872607778
 31
0.0
 12
132.7482918424
 22
21.6788899032
 32
0.0
 13
132.7482918424
 23
21.6788899032
 33
0.0
  0
ENDBLK
  5
3CB
330
22F
100
AcDbEntity
  8
0
  6
ByBlock
 62
     0
100
AcDbBlockEnd
  0
BLOCK
  5
23C
330
230
100
AcDbEntity
  8
0
  6
Continuous
 62
     7
100
AcDbBlockBegin
  2
SYMBOL_11_BL5
 70
     0
 10
86.00022731260001
 20
78.0420584556
 30
0.0
  3
SYMBOL_11_BL5
  1

  0
TEXT
  5
23D
330
230
100
AcDbEntity
  8
0
  6
Continuous
 62
     7
100
AcDbText
 10
85.43726413059999
 20
77.3753915296
 30
0.0
 40
1.333333852099999
  1
T
  7
TEXTSTYLE_2
100
AcDbText
  0
ELLIPSE
  5
23E
330
230
100
AcDbEntity
  8
0
  6
Continuous
 62
     7
100
AcDbEllipse
 10
86.00022731260001
 20
78.0420584556
 30
0.0
 11
-1.942887567899999
 21
0.0
 31
0.0
210
0.0
220
0.0
230
1.0
 40
0.6606458385
 41
0.0
 42
6.283185307179586
  0
ENDBLK
  5
23F
330
230
100
AcDbEntity
  8
0
  6
ByBlock
 62
     0
100
AcDbBlockEnd
  0
BLOCK
  5
240
330
231
100
AcDbEntity
  8
0
  6
Continuous
 62
     7
100
AcDbBlockBegin
  2
SYMBOL_9_BL4
 70
     0
 10
52.4937437415
 20
60.7568663636
 30
0.0
  3
SYMBOL_9_BL4
  1

  0
TEXT
  5
241
330
231
100
AcDbEntity
  8
0
  6
Continuous
 62
     7
100
AcDbText
 10
51.8270768154
 20
60.0901994376
 30
0.0
 40
1.333333852099999
  1
C
  7
TEXTSTYLE_2
100
AcDbText
  0
ELLIPSE
  5
242
330
231
100
AcDbEntity
  8
0
  6
Continuous
 62
     7
100
AcDbEllipse
 10
52.4937437415
 20
60.7568663636
 30
0.0
 11
-1.942887567899999
 21
0.0
 31
0.0
210
0.0
220
0.0
230
1.0
 40
0.6606458385
 41
0.0
 42
6.283185307179586
  0
ENDBLK
  5
243
330
231
100
AcDbEntity
  8
0
  6
ByBlock
 62
     0
100
AcDbBlockEnd
  0
BLOCK
  5
244
330
232
100
AcDbEntity
  8
0
  6
Continuous
 62
     7
100
AcDbBlockBegin
  2
SYMBOL_7_BL3
 70
     0
 10
55.9791227948
 20
64.8142702151
 30
0.0
  3
SYMBOL_7_BL3
  1

  0
TEXT
  5
245
330
232
100
AcDbEntity
  8
0
  6
Continuous
 62
     7
100
AcDbText
 10
55.49092403979999
 20
64.0898866377
 30
0.0
 40
1.333333852099999
  1
L
 50
5.0
  7
TEXTSTYLE_2
100
AcDbText
  0
TEXT
  5
246
330
232
100
AcDbEntity
  8
0
  6
Continuous
 62
     7
100
AcDbText
 10
51.31011067270001
 20
63.73657109919999
 30
0.0
 40
1.333333852099999
  1
11
 50
5.0
  7
TEXTSTYLE_2
100
AcDbText
  0
TEXT
  5
247
330
232
100
AcDbEntity
  8
0
  6
Continuous
 62
     7
100
AcDbText
 10
58.7276771106
 20
64.38552407350001
 30
0.0
 40
1.333333852099999
  1
12
 50
5.0
  7
TEXTSTYLE_2
100
AcDbText
  0
ELLIPSE
  5
248
330
232
100
AcDbEntity
  8
0
  6
Continuous
 62
     7
100
AcDbEllipse
 10
55.95920475239999
 20
64.80006937679999
 30
0.0
 11
-1.9354942941
 21
-0.1693338091
 31
0.0
210
0.0
220
0.0
230
1.0
 40
0.6606458385
 41
0.0
 42
6.283185307179586
  0
ENDBLK
  5
249
330
232
100
AcDbEntity
  8
0
  6
ByBlock
 62
     0
100
AcDbBlockEnd
  0
BLOCK
  5
24A
330
233
100
AcDbEntity
  8
0
  6
Continuous
 62
     7
100
AcDbBlockBegin
  2
SYMBOL_6_BL2
 70
     0
 10
38.2326649697
 20
88.3663847644
 30
0.0
  3
SYMBOL_6_BL2
  1

  0
TEXT
  5
24B
330
233
100
AcDbEntity
  8
0
  6
Continuous
 62
     7
100
AcDbText
 10
37.8776709389
 20
87.56823137709998
 30
0.0
 40
1.333333852099999
  1
L
 50
15.0
  7
TEXTSTYLE_2
100
AcDbText
  0
TEXT
  5
24C
330
233
100
AcDbEntity
  8
0
  6
Continuous
 62
     7
100
AcDbText
 10
34.3154217349
 20
86.6265782143
 30
0.0
 40
1.333333852099999
  1
5
 50
15.0
  7
TEXTSTYLE_2
100
AcDbText
  0
TEXT
  5
24D
330
233
100
AcDbEntity
  8
0
  6
Continuous
 62
     7
100
AcDbText
 10
41.5076091701
 20
88.5537190293
 30
0.0
 40
1.333333852099999
  1
6
 50
15.0
  7
TEXTSTYLE_2
100
AcDbText
  0
ELLIPSE
  5
24E
330
233
100
AcDbEntity
  8
0
  6
Continuous
 62
     7
100
AcDbEllipse
 10
38.2155154769
 20
88.348940937
 30
0.0
 11
-1.8766852794
 21
-0.5028563051
 31
0.0
210
0.0
220
0.0
230
1.0
 40
0.6606458385
 41
0.0
 42
6.283185307179586
  0
ENDBLK
  5
24F
330
233
100
AcDbEntity
  8
0
  6
ByBlock
 62
     0
100
AcDbBlockEnd
  0
BLOCK
  5
250
330
234
100
AcDbEntity
  8
0
  6
Continuous
 62
     7
100
AcDbBlockBegin
  2
SYMBOL_3_BL1
 70
     0
 10
124.0609689666
 20
44.52254555169999
 30
0.0
  3
SYMBOL_3_BL1
  1

  0
TEXT
  5
251
330
234
100
AcDbEntity
  8
0
  6
Continuous
 62
     7
100
AcDbText
 10
117.7469086648
 20
46.7675795374
 30
0.0
 40
1.1626666667
  1
INTERNAL USE 
 50
10.0
  7
TEXTSTYLE_3
100
AcDbText
  0
TEXT
  5
252
330
234
100
AcDbEntity
  8
0
  6
Continuous
 62
     7
100
AcDbText
 10
117.0032244609
 20
44.7660583598
 30
0.0
 40
1.1626666667
  1
DOCUMENT ONLY
 50
10.0
  7
TEXTSTYLE_3
100
AcDbText
  0
TEXT
  5
253
330
234
100
AcDbEntity
  8
0
  6
Continuous
 62
     7
100
AcDbText
 10
122.7879520241
 20
44.5176303092
 30
0.0
 40
1.1626666667
  1
 
 50
10.0
  7
TEXTSTYLE_5
100
AcDbText
  0
TEXT
  5
254
330
234
100
AcDbEntity
  8
0
  6
Continuous
 62
     7
100
AcDbText
 10
114.3433041411
 20
40.3405359029
 30
0.0
 40
1.1626666667
  1
DOCUMENT POUR USAGE
 50
10.0
  7
TEXTSTYLE_3
100
AcDbText
  0
TEXT
  5
255
330
234
100
AcDbEntity
  8
0
  6
Continuous
 62
     7
100
AcDbText
 10
114.7724035871
 20
38.3237874425
 30
0.0
 40
1.1626666667
  1
A L'INTERNE SEULEMENT
 50
10.0
  7
TEXTSTYLE_3
100
AcDbText
  0
LINE
  5
256
330
234
100
AcDbEntity
  8
0
  6
Continuous
 62
     1
100
AcDbLine
 10
137.91752069
 20
40.1790119337
 30
0.0
 11
137.9242796226
 21
40.1857708663
 31
0.0
  0
LINE
  5
257
330
234
100
AcDbEntity
  8
0
  6
Continuous
 62
     1
100
AcDbLine
 10
137.1849511235
 20
40.04984015389999
 30
0.0
 11
137.8338325687
 21
40.698721599
 31
0.0
  0
LINE
  5
258
330
234
100
AcDbEntity
  8
0
  6
Continuous
 62
     1
100
AcDbLine
 10
136.4523815570999
 20
39.9206683741
 30
0.0
 11
137.7433855147
 21
41.2116723317
 31
0.0
  0
LINE
  5
259
330
234
100
AcDbEntity
  8
0
  6
Continuous
 62
     1
100
AcDbLine
 10
135.7198119907
 20
39.7914965943
 30
0.0
 11
137.6529384608
 21
41.72462306429999
 31
0.0
  0
LINE
  5
25A
330
234
100
AcDbEntity
  8
0
  6
Continuous
 62
     1
100
AcDbLine
 10
134.9872424243
 20
39.66232481449999
 30
0.0
 11
137.5624914068
 21
42.23757379699999
 31
0.0
  0
LINE
  5
25B
330
234
100
AcDbEntity
  8
0
  6
Continuous
 62
     1
100
AcDbLine
 10
134.2546728579
 20
39.5331530346
 30
0.0
 11
135.7956766726
 21
41.0741568494
 31
0.0
  0
LINE
  5
25C
330
234
100
AcDbEntity
  8
0
  6
Continuous
 62
     1
100
AcDbLine
 10
136.3930218654
 20
41.6715020421
 30
0.0
 11
137.4720443529
 21
42.75052452969999
 31
0.0
  0
LINE
  5
25D
330
234
100
AcDbEntity
  8
0
  6
Continuous
 62
     1
100
AcDbLine
 10
133.5221032914
 20
39.4039812548
 30
0.0
 11
135.0631071062
 21
40.94498506959999
 31
0.0
  0
LINE
  5
25E
330
234
100
AcDbEntity
  8
0
  6
Continuous
 62
     1
100
AcDbLine
 10
136.3025748114
 20
42.18445277479999
 30
0.0
 11
137.3815972989
 21
43.2634752623
 31
0.0
  0
LINE
  5
25F
330
234
100
AcDbEntity
  8
0
  6
Continuous
 62
     1
100
AcDbLine
 10
132.789533725
 20
39.274809475
 30
0.0
 11
134.3305375398
 21
40.81581328979999
 31
0.0
  0
LINE
  5
260
330
234
100
AcDbEntity
  8
0
  6
Continuous
 62
     1
100
AcDbLine
 10
136.2121277575
 20
42.6974035075
 30
0.0
 11
137.291150245
 21
43.77642599499999
 31
0.0
  0
LINE
  5
261
330
234
100
AcDbEntity
  8
0
  6
Continuous
 62
     1
100
AcDbLine
 10
132.0569641586
 20
39.1456376952
 30
0.0
 11
133.5979679734
 21
40.68664151
 31
0.0
  0
LINE
  5
262
330
234
100
AcDbEntity
  8
0
  6
Continuous
 62
     1
100
AcDbLine
 10
136.1216807035
 20
43.2103542402
 30
0.0
 11
137.2007031911
 21
44.2893767277
 31
0.0
  0
LINE
  5
263
330
234
100
AcDbEntity
  8
0
  6
Continuous
 62
     1
100
AcDbLine
 10
131.3243945921999
 20
39.0164659154
 30
0.0
 11
132.865398407
 21
40.55746973019999
 31
0.0
  0
LINE
  5
264
330
234
100
AcDbEntity
  8
0
  6
Continuous
 62
     1
100
AcDbLine
 10
136.0312336496
 20
43.72330497279999
 30
0.0
 11
137.1102561370999
 21
44.8023274603
 31
0.0
  0
LINE
  5
265
330
234
100
AcDbEntity
  8
0
  6
Continuous
 62
     1
100
AcDbLine
 10
130.5918250258
 20
38.8872941356
 30
0.0
 11
132.1328288406
 21
40.4282979504
 31
0.0
  0
LINE
  5
266
330
234
100
AcDbEntity
  8
0
  6
Continuous
 62
     1
100
AcDbLine
 10
135.9407865956
 20
44.2362557055
 30
0.0
 11
137.0198090832
 21
45.315278193
 31
0.0
  0
LINE
  5
267
330
234
100
AcDbEntity
  8
0
  6
Continuous
 62
     1
100
AcDbLine
 10
129.8592554594
 20
38.7581223558
 30
0.0
 11
131.4002592741
 21
40.29912617059999
 31
0.0
  0
LINE
  5
268
330
234
100
AcDbEntity
  8
0
  6
Continuous
 62
     1
100
AcDbLine
 10
135.8503395417
 20
44.74920643819999
 30
0.0
 11
136.9293620292
 21
45.82822892569999
 31
0.0
  0
LINE
  5
269
330
234
100
AcDbEntity
  8
0
  6
Continuous
 62
     1
100
AcDbLine
 10
129.1266858929
 20
38.628950576
 30
0.0
 11
130.6676897077
 21
40.1699543908
 31
0.0
  0
LINE
  5
26A
330
234
100
AcDbEntity
  8
0
  6
Continuous
 62
     1
100
AcDbLine
 10
135.7598924878
 20
45.2621571708
 30
0.0
 11
136.8389149753
 21
46.34117965829999
 31
0.0
  0
LINE
  5
26B
330
234
100
AcDbEntity
  8
0
  6
Continuous
 62
     1
100
AcDbLine
 10
128.3941163265
 20
38.4997787962
 30
0.0
 11
129.9351201413
 21
40.040782611
 31
0.0
  0
LINE
  5
26C
330
234
100
AcDbEntity
  8
0
  6
Continuous
 62
     1
100
AcDbLine
 10
135.6694454337999
 20
45.77510790349999
 30
0.0
 11
136.7484679213
 21
46.85413039100001
 31
0.0
  0
LINE
  5
26D
330
234
100
AcDbEntity
  8
0
  6
Continuous
 62
     1
100
AcDbLine
 10
127.6615467601
 20
38.3706070164
 30
0.0
 11
129.2025505749
 21
39.9116108312
 31
0.0
  0
LINE
  5
26E
330
234
100
AcDbEntity
  8
0
  6
Continuous
 62
     1
100
AcDbLine
 10
135.366565834
 20
46.0756260903
 30
0.0
 11
136.6580208674
 21
47.36708112369999
 31
0.0
  0
LINE
  5
26F
330
234
100
AcDbEntity
  8
0
  6
Continuous
 62
     1
100
AcDbLine
 10
126.9289771937
 20
38.2414352366
 30
0.0
 11
128.4699810085
 21
39.7824390514
 31
0.0
  0
LINE
  5
270
330
234
100
AcDbEntity
  8
0
  6
Continuous
 62
     1
100
AcDbLine
 10
134.6339962676
 20
45.9464543105
 30
0.0
 11
136.5675738134
 21
47.8800318564
 31
0.0
  0
LINE
  5
271
330
234
100
AcDbEntity
  8
0
  6
Continuous
 62
     1
100
AcDbLine
 10
126.1964076273
 20
38.1122634568
 30
0.0
 11
127.737411442
 21
39.6532672716
 31
0.0
  0
LINE
  5
272
330
234
100
AcDbEntity
  8
0
  6
Continuous
 62
     1
100
AcDbLine
 10
133.9014267012
 20
45.81728253069999
 30
0.0
 11
134.9287689994
 21
46.8446248289
 31
0.0
  0
LINE
  5
273
330
234
100
AcDbEntity
  8
0
  6
Continuous
 62
     1
100
AcDbLine
 10
135.398104272
 20
47.31396010149999
 30
0.0
 11
136.4771267595
 21
48.392982589
 31
0.0
  0
LINE
  5
274
330
234
100
AcDbEntity
  8
0
  6
Continuous
 62
     1
100
AcDbLine
 10
125.4638380608
 20
37.983091677
 30
0.0
 11
127.0048418756
 21
39.5240954918
 31
0.0
  0
LINE
  5
275
330
234
100
AcDbEntity
  8
0
  6
Continuous
 62
     1
100
AcDbLine
 10
133.1688571347
 20
45.6881107509
 30
0.0
 11
134.1961992234
 21
46.71545283949999
 31
0.0
  0
LINE
  5
276
330
234
100
AcDbEntity
  8
0
  6
Continuous
 62
     1
100
AcDbLine
 10
135.307657218
 20
47.8269108342
 30
0.0
 11
136.3866797056
 21
48.90593332169999
 31
0.0
  0
LINE
  5
277
330
234
100
AcDbEntity
  8
0
  6
Continuous
 62
     1
100
AcDbLine
 10
124.7312684944
 20
37.8539198972
 30
0.0
 11
126.2722723092
 21
39.394923712
 31
0.0
  0
LINE
  5
278
330
234
100
AcDbEntity
  8
0
  6
Continuous
 62
     1
100
AcDbLine
 10
132.4362875683
 20
45.55893897109999
 30
0.0
 11
133.4636294474
 21
46.5862808501
 31
0.0
  0
LINE
  5
279
330
234
100
AcDbEntity
  8
0
  6
Continuous
 62
     1
100
AcDbLine
 10
135.2172101641
 20
48.3398615668
 30
0.0
 11
136.2962326516
 21
49.4188840544
 31
0.0
  0
LINE
  5
27A
330
234
100
AcDbEntity
  8
0
  6
Continuous
 62
     1
100
AcDbLine
 10
123.998698928
 20
37.7247481174
 30
0.0
 11
125.5397027428
 21
39.2657519321
 31
0.0
  0
LINE
  5
27B
330
234
100
AcDbEntity
  8
0
  6
Continuous
 62
     1
100
AcDbLine
 10
131.7037180019
 20
45.4297671913
 30
0.0
 11
132.7310596713
 21
46.45710886069999
 31
0.0
  0
LINE
  5
27C
330
234
100
AcDbEntity
  8
0
  6
Continuous
 62
     1
100
AcDbLine
 10
135.1267631102
 20
48.85281229949999
 30
0.0
 11
136.2057855977
 21
49.931834787
 31
0.0
  0
LINE
  5
27D
330
234
100
AcDbEntity
  8
0
  6
Continuous
 62
     1
100
AcDbLine
 10
123.2661293616
 20
37.5955763376
 30
0.0
 11
124.8071331764
 21
39.1365801523
 31
0.0
  0
LINE
  5
27E
330
234
100
AcDbEntity
  8
0
  6
Continuous
 62
     1
100
AcDbLine
 10
130.9711484355
 20
45.30059541149999
 30
0.0
 11
131.9984898953
 21
46.3279368713
 31
0.0
  0
LINE
  5
27F
330
234
100
AcDbEntity
  8
0
  6
Continuous
 62
     1
100
AcDbLine
 10
135.0363160562
 20
49.3657630322
 30
0.0
 11
136.1153385437
 21
50.44478551970001
 31
0.0
  0
LINE
  5
280
330
234
100
AcDbEntity
  8
0
  6
Continuous
 62
     1
100
AcDbLine
 10
122.5335597952
 20
37.46640455780001
 30
0.0
 11
124.07456361
 21
39.0074083725
 31
0.0
  0
LINE
  5
281
330
234
100
AcDbEntity
  8
0
  6
Continuous
 62
     1
100
AcDbLine
 10
130.2385788691
 20
45.1714236316
 30
0.0
 11
131.2659201193
 21
46.1987648819
 31
0.0
  0
LINE
  5
282
330
234
100
AcDbEntity
  8
0
  6
Continuous
 62
     1
100
AcDbLine
 10
134.9458690023
 20
49.8787137648
 30
0.0
 11
136.0248914898
 21
50.95773625239999
 31
0.0
  0
LINE
  5
283
330
234
100
AcDbEntity
  8
0
  6
Continuous
 62
     1
100
AcDbLine
 10
121.8009902288
 20
37.337232778
 30
0.0
 11
123.3419940435
 21
38.8782365927
 31
0.0
  0
LINE
  5
284
330
234
100
AcDbEntity
  8
0
  6
Continuous
 62
     1
100
AcDbLine
 10
129.5060093026
 20
45.0422518518
 30
0.0
 11
130.5333503432
 21
46.06959289239999
 31
0.0
  0
LINE
  5
285
330
234
100
AcDbEntity
  8
0
  6
Continuous
 62
     1
100
AcDbLine
 10
134.8554219483
 20
50.3916644975
 30
0.0
 11
135.9344444358
 21
51.470686985
 31
0.0
  0
LINE
  5
286
330
234
100
AcDbEntity
  8
0
  6
Continuous
 62
     1
100
AcDbLine
 10
121.0684206623
 20
37.2080609981
 30
0.0
 11
122.6094244771
 21
38.7490648129
 31
0.0
  0
LINE
  5
287
330
234
100
AcDbEntity
  8
0
  6
Continuous
 62
     1
100
AcDbLine
 10
128.7734397362
 20
44.91308007199999
 30
0.0
 11
129.8007805672
 21
45.940420903
 31
0.0
  0
LINE
  5
288
330
234
100
AcDbEntity
  8
0
  6
Continuous
 62
     1
100
AcDbLine
 10
134.7649748944
 20
50.9046152302
 30
0.0
 11
135.8439973819
 21
51.98363771770001
 31
0.0
  0
LINE
  5
289
330
234
100
AcDbEntity
  8
0
  6
Continuous
 62
     1
100
AcDbLine
 10
120.3358510959
 20
37.0788892183
 30
0.0
 11
121.8768549107
 21
38.6198930331
 31
0.0
  0
LINE
  5
28A
330
234
100
AcDbEntity
  8
0
  6
Continuous
 62
     1
100
AcDbLine
 10
128.0408701698
 20
44.7839082922
 30
0.0
 11
129.0682107912
 21
45.8112489136
 31
0.0
  0
LINE
  5
28B
330
234
100
AcDbEntity
  8
0
  6
Continuous
 62
     1
100
AcDbLine
 10
134.6745278404
 20
51.4175659629
 30
0.0
 11
135.753550328
 21
52.49658845039999
 31
0.0
  0
LINE
  5
28C
330
234
100
AcDbEntity
  8
0
  6
Continuous
 62
     1
100
AcDbLine
 10
119.6032815295
 20
36.9497174385
 30
0.0
 11
121.1442853443
 21
38.4907212533
 31
0.0
  0
LINE
  5
28D
330
234
100
AcDbEntity
  8
0
  6
Continuous
 62
     1
100
AcDbLine
 10
127.3083006034
 20
44.65473651239999
 30
0.0
 11
128.3356410152
 21
45.6820769242
 31
0.0
  0
LINE
  5
28E
330
234
100
AcDbEntity
  8
0
  6
Continuous
 62
     1
100
AcDbLine
 10
134.499651739
 20
51.846087648
 30
0.0
 11
135.663103274
 21
53.009539183
 31
0.0
  0
LINE
  5
28F
330
234
100
AcDbEntity
  8
0
  6
Continuous
 62
     1
100
AcDbLine
 10
118.8707119631
 20
36.8205456587
 30
0.0
 11
120.4117157779
 21
38.3615494735
 31
0.0
  0
LINE
  5
290
330
234
100
AcDbEntity
  8
0
  6
Continuous
 62
     1
100
AcDbLine
 10
126.575731037
 20
44.5255647326
 30
0.0
 11
127.6030712391
 21
45.5529049348
 31
0.0
  0
LINE
  5
291
330
234
100
AcDbEntity
  8
0
  6
Continuous
 62
     1
100
AcDbLine
 10
133.7670821726
 20
51.71691586819999
 30
0.0
 11
135.3080859874
 21
53.257919683
 31
0.0
  0
LINE
  5
292
330
234
100
AcDbEntity
  8
0
  6
Continuous
 62
     1
100
AcDbLine
 10
118.1381423967
 20
36.6913738789
 30
0.0
 11
119.6791462114
 21
38.2323776937
 31
0.0
  0
LINE
  5
293
330
234
100
AcDbEntity
  8
0
  6
Continuous
 62
     1
100
AcDbLine
 10
125.8431614706
 20
44.3963929528
 30
0.0
 11
126.8705014631
 21
45.42373294539999
 31
0.0
  0
LINE
  5
294
330
234
100
AcDbEntity
  8
0
  6
Continuous
 62
     1
100
AcDbLine
 10
133.0345126062
 20
51.5877440884
 30
0.0
 11
134.575516421
 21
53.12874790319999
 31
0.0
  0
LINE
  5
295
330
234
100
AcDbEntity
  8
0
  6
Continuous
 62
     1
100
AcDbLine
 10
117.4055728303
 20
36.5622020991
 30
0.0
 11
118.946576645
 21
38.1032059139
 31
0.0
  0
LINE
  5
296
330
234
100
AcDbEntity
  8
0
  6
Continuous
 62
     1
100
AcDbLine
 10
125.1105919041
 20
44.267221173
 30
0.0
 11
126.1379316871
 21
45.2945609559
 31
0.0
  0
LINE
  5
297
330
234
100
AcDbEntity
  8
0
  6
Continuous
 62
     1
100
AcDbLine
 10
132.3019430398
 20
51.45857230859999
 30
0.0
 11
133.8429468545
 21
52.9995761234
 31
0.0
  0
LINE
  5
298
330
234
100
AcDbEntity
  8
0
  6
Continuous
 62
     1
100
AcDbLine
 10
116.6730032638
 20
36.43303031929999
 30
0.0
 11
118.2140070786
 21
37.9740341341
 31
0.0
  0
LINE
  5
299
330
234
100
AcDbEntity
  8
0
  6
Continuous
 62
     1
100
AcDbLine
 10
124.3780223377
 20
44.1380493932
 30
0.0
 11
125.405361911
 21
45.1653889665
 31
0.0
  0
LINE
  5
29A
330
234
100
AcDbEntity
  8
0
  6
Continuous
 62
     1
100
AcDbLine
 10
131.5693734733
 20
51.3294005288
 30
0.0
 11
133.1103772881
 21
52.87040434359999
 31
0.0
  0
LINE
  5
29B
330
234
100
AcDbEntity
  8
0
  6
Continuous
 62
     1
100
AcDbLine
 10
115.9404336974
 20
36.3038585395
 30
0.0
 11
117.4814375122
 21
37.8448623543
 31
0.0
  0
LINE
  5
29C
330
234
100
AcDbEntity
  8
0
  6
Continuous
 62
     1
100
AcDbLine
 10
123.6454527713
 20
44.0088776134
 30
0.0
 11
124.672792135
 21
45.03621697709999
 31
0.0
  0
LINE
  5
29D
330
234
100
AcDbEntity
  8
0
  6
Continuous
 62
     1
100
AcDbLine
 10
130.8368039069
 20
51.200228749
 30
0.0
 11
132.3778077217
 21
52.74123256380001
 31
0.0
  0
LINE
  5
29E
330
234
100
AcDbEntity
  8
0
  6
Continuous
 62
     1
100
AcDbLine
 10
115.207864131
 20
36.1746867597
 30
0.0
 11
116.7488679458
 21
37.7156905745
 31
0.0
  0
LINE
  5
29F
330
234
100
AcDbEntity
  8
0
  6
Continuous
 62
     1
100
AcDbLine
 10
122.9128832049
 20
43.8797058336
 30
0.0
 11
123.940222359
 21
44.9070449877
 31
0.0
  0
LINE
  5
2A0
330
234
100
AcDbEntity
  8
0
  6
Continuous
 62
     1
100
AcDbLine
 10
130.1042343405
 20
51.0710569692
 30
0.0
 11
131.6452381553
 21
52.61206078399999
 31
0.0
  0
LINE
  5
2A1
330
234
100
AcDbEntity
  8
0
  6
Continuous
 62
     1
100
AcDbLine
 10
114.4752945646
 20
36.0455149799
 30
0.0
 11
116.0162983794
 21
37.5865187947
 31
0.0
  0
LINE
  5
2A2
330
234
100
AcDbEntity
  8
0
  6
Continuous
 62
     1
100
AcDbLine
 10
122.1803136385
 20
43.7505340538
 30
0.0
 11
123.207652583
 21
44.7778729983
 31
0.0
  0
LINE
  5
2A3
330
234
100
AcDbEntity
  8
0
  6
Continuous
 62
     1
100
AcDbLine
 10
129.3716647741
 20
50.9418851894
 30
0.0
 11
130.9126685889
 21
52.4828890042
 31
0.0
  0
LINE
  5
2A4
330
234
100
AcDbEntity
  8
0
  6
Continuous
 62
     1
100
AcDbLine
 10
113.7427249982
 20
35.9163432001
 30
0.0
 11
115.2837288129
 21
37.45734701489999
 31
0.0
  0
LINE
  5
2A5
330
234
100
AcDbEntity
  8
0
  6
Continuous
 62
     1
100
AcDbLine
 10
121.447744072
 20
43.62136227399999
 30
0.0
 11
122.4750828069
 21
44.6487010089
 31
0.0
  0
LINE
  5
2A6
330
234
100
AcDbEntity
  8
0
  6
Continuous
 62
     1
100
AcDbLine
 10
128.6390952077
 20
50.8127134096
 30
0.0
 11
130.1800990225
 21
52.3537172244
 31
0.0
  0
LINE
  5
2A7
330
234
100
AcDbEntity
  8
0
  6
Continuous
 62
     1
100
AcDbLine
 10
113.0101554317
 20
35.78717142030001
 30
0.0
 11
114.5511592465
 21
37.3281752351
 31
0.0
  0
LINE
  5
2A8
330
234
100
AcDbEntity
  8
0
  6
Continuous
 62
     1
100
AcDbLine
 10
120.7151745056
 20
43.4921904942
 30
0.0
 11
121.7425130309
 21
44.51952901939999
 31
0.0
  0
LINE
  5
2A9
330
234
100
AcDbEntity
  8
0
  6
Continuous
 62
     1
100
AcDbLine
 10
127.9065256413
 20
50.6835416298
 30
0.0
 11
129.447529456
 21
52.2245454446
 31
0.0
  0
LINE
  5
2AA
330
234
100
AcDbEntity
  8
0
  6
Continuous
 62
     1
100
AcDbLine
 10
112.4588346592
 20
35.8392484344
 30
0.0
 11
113.8185896801
 21
37.1990034553
 31
0.0
  0
LINE
  5
2AB
330
234
100
AcDbEntity
  8
0
  6
Continuous
 62
     1
100
AcDbLine
 10
119.9826049392
 20
43.36301871439999
 30
0.0
 11
121.0099432549
 21
44.39035703
 31
0.0
  0
LINE
  5
2AC
330
234
100
AcDbEntity
  8
0
  6
Continuous
 62
     1
100
AcDbLine
 10
127.1739560748
 20
50.55436985
 30
0.0
 11
128.7149598895999
 21
52.09537366479999
 31
0.0
  0
LINE
  5
2AD
330
234
100
AcDbEntity
  8
0
  6
Continuous
 62
     1
100
AcDbLine
 10
112.3683876053
 20
36.352199167
 30
0.0
 11
113.4474100928
 21
37.4312216546
 31
0.0
  0
LINE
  5
2AE
330
234
100
AcDbEntity
  8
0
  6
Continuous
 62
     1
100
AcDbLine
 10
119.2500353728
 20
43.2338469346
 30
0.0
 11
120.2773734788
 21
44.2611850406
 31
0.0
  0
LINE
  5
2AF
330
234
100
AcDbEntity
  8
0
  6
Continuous
 62
     1
100
AcDbLine
 10
126.4413865084
 20
50.4251980702
 30
0.0
 11
127.9823903232
 21
51.96620188499999
 31
0.0
  0
LINE
  5
2B0
330
234
100
AcDbEntity
  8
0
  6
Continuous
 62
     1
100
AcDbLine
 10
112.2779405513
 20
36.8651498997
 30
0.0
 11
113.3569630389
 21
37.9441723872
 31
0.0
  0
LINE
  5
2B1
330
234
100
AcDbEntity
  8
0
  6
Continuous
 62
     1
100
AcDbLine
 10
118.5174658064
 20
43.1046751548
 30
0.0
 11
119.5448037028
 21
44.1320130512
 31
0.0
  0
LINE
  5
2B2
330
234
100
AcDbEntity
  8
0
  6
Continuous
 62
     1
100
AcDbLine
 10
125.708816942
 20
50.2960262904
 30
0.0
 11
127.2498207568
 21
51.83703010520001
 31
0.0
  0
LINE
  5
2B3
330
234
100
AcDbEntity
  8
0
  6
Continuous
 62
     1
100
AcDbLine
 10
112.1874934974
 20
37.3781006324
 30
0.0
 11
113.2665159849
 21
38.4571231199
 31
0.0
  0
LINE
  5
2B4
330
234
100
AcDbEntity
  8
0
  6
Continuous
 62
     1
100
AcDbLine
 10
117.78489624
 20
42.975503375
 30
0.0
 11
118.8122339268
 21
44.0028410618
 31
0.0
  0
LINE
  5
2B5
330
234
100
AcDbEntity
  8
0
  6
Continuous
 62
     1
100
AcDbLine
 10
124.9762473756
 20
50.1668545106
 30
0.0
 11
126.5172511904
 21
51.7078583254
 31
0.0
  0
LINE
  5
2B6
330
234
100
AcDbEntity
  8
0
  6
Continuous
 62
     1
100
AcDbLine
 10
112.0970464434
 20
37.89105136510001
 30
0.0
 11
113.176068931
 21
38.9700738526
 31
0.0
  0
LINE
  5
2B7
330
234
100
AcDbEntity
  8
0
  6
Continuous
 62
     1
100
AcDbLine
 10
117.0523266735
 20
42.8463315951
 30
0.0
 11
118.0796641508
 21
43.87366907239999
 31
0.0
  0
LINE
  5
2B8
330
234
100
AcDbEntity
  8
0
  6
Continuous
 62
     1
100
AcDbLine
 10
124.2436778092
 20
50.0376827308
 30
0.0
 11
125.7846816239
 21
51.57868654560001
 31
0.0
  0
LINE
  5
2B9
330
234
100
AcDbEntity
  8
0
  6
Continuous
 62
     1
100
AcDbLine
 10
112.0065993895
 20
38.4040020977
 30
0.0
 11
113.085621877
 21
39.4830245852
 31
0.0
  0
LINE
  5
2BA
330
234
100
AcDbEntity
  8
0
  6
Continuous
 62
     1
100
AcDbLine
 10
116.3197571071
 20
42.71715981529999
 30
0.0
 11
117.3470943747
 21
43.7444970829
 31
0.0
  0
LINE
  5
2BB
330
234
100
AcDbEntity
  8
0
  6
Continuous
 62
     1
100
AcDbLine
 10
123.5111082427
 20
49.908510951
 30
0.0
 11
125.0521120575
 21
51.4495147657
 31
0.0
  0
LINE
  5
2BC
330
234
100
AcDbEntity
  8
0
  6
Continuous
 62
     1
100
AcDbLine
 10
111.9161523356
 20
38.9169528304
 30
0.0
 11
112.9951748231
 21
39.9959753179
 31
0.0
  0
LINE
  5
2BD
330
234
100
AcDbEntity
  8
0
  6
Continuous
 62
     1
100
AcDbLine
 10
115.5871875407
 20
42.5879880355
 30
0.0
 11
116.6145245987
 21
43.6153250935
 31
0.0
  0
LINE
  5
2BE
330
234
100
AcDbEntity
  8
0
  6
Continuous
 62
     1
100
AcDbLine
 10
122.7785386763
 20
49.7793391712
 30
0.0
 11
124.3195424911
 21
51.32034298589999
 31
0.0
  0
LINE
  5
2BF
330
234
100
AcDbEntity
  8
0
  6
Continuous
 62
     1
100
AcDbLine
 10
111.8257052816
 20
39.4299035631
 30
0.0
 11
112.9047277691
 21
40.50892605059999
 31
0.0
  0
LINE
  5
2C0
330
234
100
AcDbEntity
  8
0
  6
Continuous
 62
     1
100
AcDbLine
 10
114.8546179743
 20
42.4588162557
 30
0.0
 11
115.8819548227
 21
43.48615310409999
 31
0.0
  0
LINE
  5
2C1
330
234
100
AcDbEntity
  8
0
  6
Continuous
 62
     1
100
AcDbLine
 10
122.0459691099
 20
49.65016739140001
 30
0.0
 11
123.5869729247
 21
51.19117120609999
 31
0.0
  0
LINE
  5
2C2
330
234
100
AcDbEntity
  8
0
  6
Continuous
 62
     1
100
AcDbLine
 10
111.7352582277
 20
39.9428542957
 30
0.0
 11
112.8142807152
 21
41.02187678319999
 31
0.0
  0
LINE
  5
2C3
330
234
100
AcDbEntity
  8
0
  6
Continuous
 62
     1
100
AcDbLine
 10
114.1220484079
 20
42.3296444759
 30
0.0
 11
115.1493850466
 21
43.35698111470001
 31
0.0
  0
LINE
  5
2C4
330
234
100
AcDbEntity
  8
0
  6
Continuous
 62
     1
100
AcDbLine
 10
121.3133995435
 20
49.5209956116
 30
0.0
 11
122.8544033583
 21
51.06199942629999
 31
0.0
  0
LINE
  5
2C5
330
234
100
AcDbEntity
  8
0
  6
Continuous
 62
     1
100
AcDbLine
 10
111.6448111737
 20
40.4558050284
 30
0.0
 11
112.7238336612
 21
41.5348275159
 31
0.0
  0
LINE
  5
2C6
330
234
100
AcDbEntity
  8
0
  6
Continuous
 62
     1
100
AcDbLine
 10
113.3894788415
 20
42.2004726961
 30
0.0
 11
114.4168152706
 21
43.22780912529999
 31
0.0
  0
LINE
  5
2C7
330
234
100
AcDbEntity
  8
0
  6
Continuous
 62
     1
100
AcDbLine
 10
120.5808299771
 20
49.3918238317
 30
0.0
 11
122.1218337919
 21
50.93282764649999
 31
0.0
  0
LINE
  5
2C8
330
234
100
AcDbEntity
  8
0
  6
Continuous
 62
     1
100
AcDbLine
 10
111.5543641198
 20
40.9687557611
 30
0.0
 11
112.6333866073
 21
42.0477782486
 31
0.0
  0
LINE
  5
2C9
330
234
100
AcDbEntity
  8
0
  6
Continuous
 62
     1
100
AcDbLine
 10
112.656909275
 20
42.0713009163
 30
0.0
 11
113.6842454946
 21
43.0986371359
 31
0.0
  0
LINE
  5
2CA
330
234
100
AcDbEntity
  8
0
  6
Continuous
 62
     1
100
AcDbLine
 10
119.8482604107
 20
49.26265205189999
 30
0.0
 11
121.3892642254
 21
50.8036558667
 31
0.0
  0
LINE
  5
2CB
330
234
100
AcDbEntity
  8
0
  6
Continuous
 62
     1
100
AcDbLine
 10
111.4639170658
 20
41.48170649369999
 30
0.0
 11
112.9516757186
 21
42.9694651465
 31
0.0
  0
LINE
  5
2CC
330
234
100
AcDbEntity
  8
0
  6
Continuous
 62
     1
100
AcDbLine
 10
119.1156908442
 20
49.1334802721
 30
0.0
 11
120.656694659
 21
50.67448408689999
 31
0.0
  0
LINE
  5
2CD
330
234
100
AcDbEntity
  8
0
  6
Continuous
 62
     1
100
AcDbLine
 10
111.3734700119
 20
41.9946572264
 30
0.0
 11
112.4524924994
 21
43.0736797139
 31
0.0
  0
LINE
  5
2CE
330
234
100
AcDbEntity
  8
0
  6
Continuous
 62
     1
100
AcDbLine
 10
118.3831212778
 20
49.0043084923
 30
0.0
 11
119.9241250926
 21
50.5453123071
 31
0.0
  0
LINE
  5
2CF
330
234
100
AcDbEntity
  8
0
  6
Continuous
 62
     1
100
AcDbLine
 10
111.283022958
 20
42.50760795909999
 30
0.0
 11
112.3620454455
 21
43.5866304466
 31
0.0
  0
LINE
  5
2D0
330
234
100
AcDbEntity
  8
0
  6
Continuous
 62
     1
100
AcDbLine
 10
117.6505517114
 20
48.8751367125
 30
0.0
 11
119.1915555262
 21
50.41614052729999
 31
0.0
  0
LINE
  5
2D1
330
234
100
AcDbEntity
  8
0
  6
Continuous
 62
     1
100
AcDbLine
 10
111.192575904
 20
43.0205586917
 30
0.0
 11
112.2715983915
 21
44.0995811793
 31
0.0
  0
LINE
  5
2D2
330
234
100
AcDbEntity
  8
0
  6
Continuous
 62
     1
100
AcDbLine
 10
116.917982145
 20
48.74596493270001
 30
0.0
 11
118.4589859598
 21
50.2869687475
 31
0.0
  0
LINE
  5
2D3
330
234
100
AcDbEntity
  8
0
  6
Continuous
 62
     1
100
AcDbLine
 10
111.1021288501
 20
43.53350942439999
 30
0.0
 11
112.1811513376
 21
44.61253191189999
 31
0.0
  0
LINE
  5
2D4
330
234
100
AcDbEntity
  8
0
  6
Continuous
 62
     1
100
AcDbLine
 10
116.1854125786
 20
48.6167931529
 30
0.0
 11
117.7264163933
 21
50.1577969677
 31
0.0
  0
LINE
  5
2D5
330
234
100
AcDbEntity
  8
0
  6
Continuous
 62
     1
100
AcDbLine
 10
111.0116817961
 20
44.0464601571
 30
0.0
 11
112.0907042836
 21
45.1254826446
 31
0.0
  0
LINE
  5
2D6
330
234
100
AcDbEntity
  8
0
  6
Continuous
 62
     1
100
AcDbLine
 10
115.4528430122
 20
48.4876213731
 30
0.0
 11
116.9938468269
 21
50.02862518789999
 31
0.0
  0
LINE
  5
2D7
330
234
100
AcDbEntity
  8
0
  6
Continuous
 62
     1
100
AcDbLine
 10
110.9212347422
 20
44.5594108898
 30
0.0
 11
112.0002572297
 21
45.63843337729999
 31
0.0
  0
LINE
  5
2D8
330
234
100
AcDbEntity
  8
0
  6
Continuous
 62
     1
100
AcDbLine
 10
114.7202734457
 20
48.3584495933
 30
0.0
 11
116.2612772605
 21
49.8994534081
 31
0.0
  0
LINE
  5
2D9
330
234
100
AcDbEntity
  8
0
  6
Continuous
 62
     1
100
AcDbLine
 10
110.8307876882
 20
45.07236162239999
 30
0.0
 11
111.9098101758
 21
46.1513841099
 31
0.0
  0
LINE
  5
2DA
330
234
100
AcDbEntity
  8
0
  6
Continuous
 62
     1
100
AcDbLine
 10
113.9877038793
 20
48.2292778135
 30
0.0
 11
115.5287076941
 21
49.77028162829999
 31
0.0
  0
LINE
  5
2DB
330
234
100
AcDbEntity
  8
0
  6
Continuous
 62
     1
100
AcDbLine
 10
110.7403406343
 20
45.5853123551
 30
0.0
 11
111.8193631218
 21
46.66433484259999
 31
0.0
  0
LINE
  5
2DC
330
234
100
AcDbEntity
  8
0
  6
Continuous
 62
     1
100
AcDbLine
 10
113.2551343129
 20
48.1001060337
 30
0.0
 11
114.7961381277
 21
49.6411098485
 31
0.0
  0
LINE
  5
2DD
330
234
100
AcDbEntity
  8
0
  6
Continuous
 62
     1
100
AcDbLine
 10
110.6498935804
 20
46.09826308779999
 30
0.0
 11
111.7289160679
 21
47.1772855753
 31
0.0
  0
LINE
  5
2DE
330
234
100
AcDbEntity
  8
0
  6
Continuous
 62
     1
100
AcDbLine
 10
112.5225647465
 20
47.9709342539
 30
0.0
 11
114.0635685613
 21
49.5119380687
 31
0.0
  0
LINE
  5
2DF
330
234
100
AcDbEntity
  8
0
  6
Continuous
 62
     1
100
AcDbLine
 10
110.5594465264
 20
46.6112138204
 30
0.0
 11
111.6384690139
 21
47.6902363079
 31
0.0
  0
LINE
  5
2E0
330
234
100
AcDbEntity
  8
0
  6
Continuous
 62
     1
100
AcDbLine
 10
111.7899951801
 20
47.8417624741
 30
0.0
 11
113.3309989948
 21
49.3827662889
 31
0.0
  0
LINE
  5
2E1
330
234
100
AcDbEntity
  8
0
  6
Continuous
 62
     1
100
AcDbLine
 10
110.4689994725
 20
47.1241645531
 30
0.0
 11
112.5984294284
 21
49.2535945091
 31
0.0
  0
LINE
  5
2E2
330
234
100
AcDbEntity
  8
0
  6
Continuous
 62
     1
100
AcDbLine
 10
110.3785524185
 20
47.6371152858
 30
0.0
 11
111.865859862
 21
49.12442272919999
 31
0.0
  0
LINE
  5
2E3
330
234
100
AcDbEntity
  8
0
  6
Continuous
 62
     1
100
AcDbLine
 10
110.2881053646
 20
48.1500660184
 30
0.0
 11
111.1332902956
 21
48.99525094939999
 31
0.0
  0
LINE
  5
2E4
330
234
100
AcDbEntity
  8
0
  6
Continuous
 62
     1
100
AcDbLine
 10
110.1976583106
 20
48.66301675109999
 30
0.0
 11
110.4007207292
 21
48.8660791696
 31
0.0
  0
ENDBLK
  5
2E5
330
234
100
AcDbEntity
  8
0
  6
ByBlock
 62
     0
100
AcDbBlockEnd
  0
BLOCK
  5
2E6
330
235
100
AcDbEntity
  8
0
  6
Continuous
 62
     7
100
AcDbBlockBegin
  2
SYMBOL_0_BL0
 70
     0
 10
160.6625860677
 20
55.3372436533
 30
0.0
  3
SYMBOL_0_BL0
  1

  0
TEXT
  5
2E7
330
235
100
AcDbEntity
  8
0
  6
Continuous
 62
     7
100
AcDbText
 10
144.4148009916
 20
63.1106770444
 30
0.0
 40
0.5
  1
Infomations Techniques/Technical Infomations
  7
TEXTSTYLE_2
100
AcDbText
  0
TEXT
  5
2E8
330
235
100
AcDbEntity
  8
0
  6
Continuous
 62
     7
100
AcDbText
 10
144.6625860677
 20
61.67057698659999
 30
0.0
 40
0.6666666667
  1
NOMBRE DE JETS:     
  7
TEXTSTYLE_2
100
AcDbText
  0
TEXT
  5
2E9
330
235
100
AcDbEntity
  8
0
  6
Continuous
 62
     7
100
AcDbText
 10
154.5070305122
 20
61.67057698659999
 30
0.0
 40
0.6666666667
  1
37
  7
TEXTSTYLE_2
100
AcDbText
  0
TEXT
  5
2EA
330
235
100
AcDbEntity
  8
0
  6
Continuous
 62
     7
100
AcDbText
 10
144.6625860677
 20
60.6705769866
 30
0.0
 40
0.6666666667
  1
 
  7
TEXTSTYLE_2
100
AcDbText
  0
TEXT
  5
2EB
330
235
100
AcDbEntity
  8
0
  6
Continuous
 62
     7
100
AcDbText
 10
144.6625860677
 20
59.67057698659999
 30
0.0
 40
0.6666666667
  1
NIVEAU D'EAU              GALLONS(US)        LITRES        GALLONS(UK)
  7
TEXTSTYLE_2
100
AcDbText
  0
TEXT
  5
2EC
330
235
100
AcDbEntity
  8
0
  6
Continuous
 62
     7
100
AcDbText
 10
144.6625860677
 20
58.6705769866
 30
0.0
 40
0.6666666667
  1
PLEIN
  7
TEXTSTYLE_2
100
AcDbText
  0
TEXT
  5
2ED
330
235
100
AcDbEntity
  8
0
  6
Continuous
 62
     7
100
AcDbText
 10
144.6625860677
 20
57.6705769866
 30
0.0
 40
0.6666666667
  1
HAUT T.PLEIN
  7
TEXTSTYLE_2
100
AcDbText
  0
TEXT
  5
2EE
330
235
100
AcDbEntity
  8
0
  6
Continuous
 62
     7
100
AcDbText
 10
144.6625860677
 20
56.67057698659999
 30
0.0
 40
0.6666666667
  1
MILIEU T.PLEIN
  7
TEXTSTYLE_2
100
AcDbText
  0
TEXT
  5
2EF
330
235
100
AcDbEntity
  8
0
  6
Continuous
 62
     7
100
AcDbText
 10
144.6625860677
 20
55.6705769866
 30
0.0
 40
0.6666666667
  1
BAS T.PLEIN
  7
TEXTSTYLE_2
100
AcDbText
  0
TEXT
  5
2F0
330
235
100
AcDbEntity
  8
0
  6
Continuous
 62
     7
100
AcDbText
 10
144.6625860677
 20
54.67057698659999
 30
0.0
 40
0.6666666667
  1
3" EN BAS T.PLEIN
  7
TEXTSTYLE_2
100
AcDbText
  0
TEXT
  5
2F1
330
235
100
AcDbEntity
  8
0
  6
Continuous
 62
     7
100
AcDbText
 10
144.6625860677
 20
53.6705769866
 30
0.0
 40
0.6666666667
  1
 
  7
TEXTSTYLE_2
100
AcDbText
  0
TEXT
  5
2F2
330
235
100
AcDbEntity
  8
0
  6
Continuous
 62
     7
100
AcDbText
 10
144.4624245621
 20
53.1237900618
 30
0.0
 40
0.5
  1
Legende/Legend
  7
TEXTSTYLE_2
100
AcDbText
  0
TEXT
  5
2F3
330
235
100
AcDbEntity
  8
0
  6
Continuous
 62
     7
100
AcDbText
 10
150.9912595062
 20
51.6125250841
 30
0.0
 40
0.6666666667
  1
ZONE DE ROBINETTERIE
  7
TEXTSTYLE_2
100
AcDbText
  0
TEXT
  5
2F4
330
235
100
AcDbEntity
  8
0
  6
Continuous
 62
     7
100
AcDbText
 10
145.9115349392
 20
50.1172805697
 30
0.0
 40
0.6666666667
  1
L   :  SYSTEME LED       DC   :  DOUBLE DOSSIER CHAUFFANT
  7
TEXTSTYLE_2
100
AcDbText
  0
TEXT
  5
2F5
330
235
100
AcDbEntity
  8
0
  6
Continuous
 62
     7
100
AcDbText
 10
145.9115349392
 20
48.7839472363
 30
0.0
 40
0.6666666667
  1
C   :  CONTROLE
  7
TEXTSTYLE_2
100
AcDbText
  0
TEXT
  5
2F6
330
235
100
AcDbEntity
  8
0
  6
Continuous
 62
     7
100
AcDbText
 10
145.9115349392
 20
47.450613903
 30
0.0
 40
0.6666666667
  1
T   :  MOTEUR
  7
TEXTSTYLE_2
100
AcDbText
  0
TEXT
  5
2F7
330
235
100
AcDbEntity
  8
0
  6
Continuous
 62
     7
100
AcDbText
 10
157.495282767
 20
58.6705769866
 30
0.0
 40
0.6666666667
  1
83
  7
TEXTSTYLE_2
100
AcDbText
  0
TEXT
  5
2F8
330
235
100
AcDbEntity
  8
0
  6
Continuous
 62
     7
100
AcDbText
 10
157.495282767
 20
57.6705769866
 30
0.0
 40
0.6666666667
  1
65
  7
TEXTSTYLE_2
100
AcDbText
  0
TEXT
  5
2F9
330
235
100
AcDbEntity
  8
0
  6
Continuous
 62
     7
100
AcDbText
 10
157.495282767
 20
56.67057698659999
 30
0.0
 40
0.6666666667
  1
64
  7
TEXTSTYLE_2
100
AcDbText
  0
TEXT
  5
2FA
330
235
100
AcDbEntity
  8
0
  6
Continuous
 62
     7
100
AcDbText
 10
157.495282767
 20
55.6705769866
 30
0.0
 40
0.6666666667
  1
63
  7
TEXTSTYLE_2
100
AcDbText
  0
TEXT
  5
2FB
330
235
100
AcDbEntity
  8
0
  6
Continuous
 62
     7
100
AcDbText
 10
157.495282767
 20
54.67057698659999
 30
0.0
 40
0.6666666667
  1
50
  7
TEXTSTYLE_2
100
AcDbText
  0
TEXT
  5
2FC
330
235
100
AcDbEntity
  8
0
  6
Continuous
 62
     7
100
AcDbText
 10
164.4154887107
 20
58.6876563887
 30
0.0
 40
0.6666666667
  1
315
  7
TEXTSTYLE_2
100
AcDbText
  0
TEXT
  5
2FD
330
235
100
AcDbEntity
  8
0
  6
Continuous
 62
     7
100
AcDbText
 10
164.4154887107
 20
57.6876563887
 30
0.0
 40
0.6666666667
  1
247
  7
TEXTSTYLE_2
100
AcDbText
  0
TEXT
  5
2FE
330
235
100
AcDbEntity
  8
0
  6
Continuous
 62
     7
100
AcDbText
 10
164.4154887107
 20
56.6876563887
 30
0.0
 40
0.6666666667
  1
243
  7
TEXTSTYLE_2
100
AcDbText
  0
TEXT
  5
2FF
330
235
100
AcDbEntity
  8
0
  6
Continuous
 62
     7
100
AcDbText
 10
164.4154887107
 20
55.6876563887
 30
0.0
 40
0.6666666667
  1
240
  7
TEXTSTYLE_2
100
AcDbText
  0
TEXT
  5
300
330
235
100
AcDbEntity
  8
0
  6
Continuous
 62
     7
100
AcDbText
 10
164.4154887107
 20
54.68765638869999
 30
0.0
 40
0.6666666667
  1
188
  7
TEXTSTYLE_2
100
AcDbText
  0
TEXT
  5
301
330
235
100
AcDbEntity
  8
0
  6
Continuous
 62
     7
100
AcDbText
 10
171.3601276482
 20
58.6705769866
 30
0.0
 40
0.6666666667
  1
69
  7
TEXTSTYLE_2
100
AcDbText
  0
TEXT
  5
302
330
235
100
AcDbEntity
  8
0
  6
Continuous
 62
     7
100
AcDbText
 10
171.3601276482
 20
57.6705769866
 30
0.0
 40
0.6666666667
  1
54
  7
TEXTSTYLE_2
100
AcDbText
  0
TEXT
  5
303
330
235
100
AcDbEntity
  8
0
  6
Continuous
 62
     7
100
AcDbText
 10
171.3601276482
 20
56.67057698659999
 30
0.0
 40
0.6666666667
  1
53
  7
TEXTSTYLE_2
100
AcDbText
  0
TEXT
  5
304
330
235
100
AcDbEntity
  8
0
  6
Continuous
 62
     7
100
AcDbText
 10
171.3601276482
 20
55.6705769866
 30
0.0
 40
0.6666666667
  1
53
  7
TEXTSTYLE_2
100
AcDbText
  0
TEXT
  5
305
330
235
100
AcDbEntity
  8
0
  6
Continuous
 62
     7
100
AcDbText
 10
171.3601276482
 20
54.67057698659999
 30
0.0
 40
0.6666666667
  1
41
  7
TEXTSTYLE_2
100
AcDbText
  0
LINE
  5
306
330
235
100
AcDbEntity
  8
0
  6
Continuous
 62
     7
100
AcDbLine
 10
143.995919401
 20
64.0039103199
 30
0.0
 11
143.995919401
 21
46.67057698659999
 31
0.0
  0
LINE
  5
307
330
235
100
AcDbEntity
  8
0
  6
Continuous
 62
     7
100
AcDbLine
 10
143.995919401
 20
64.0039103199
 30
0.0
 11
177.3292527343999
 21
64.0039103199
 31
0.0
  0
LINE
  5
308
330
235
100
AcDbEntity
  8
0
  6
Continuous
 62
     7
100
AcDbLine
 10
177.3292527343999
 20
64.0039103199
 30
0.0
 11
177.3292527343999
 21
46.67057698659999
 31
0.0
  0
LINE
  5
309
330
235
100
AcDbEntity
  8
0
  6
Continuous
 62
     7
100
AcDbLine
 10
143.995919401
 20
46.67057698659999
 30
0.0
 11
177.3292527343999
 21
46.67057698659999
 31
0.0
  0
LINE
  5
30A
330
235
100
AcDbEntity
  8
0
  6
Continuous
 62
     7
100
AcDbLine
 10
145.3292527344
 20
54.0039103199
 30
0.0
 11
175.995919401
 21
54.0039103199
 31
0.0
  0
LINE
  5
30B
330
235
100
AcDbEntity
  8
0
  6
Continuous
 62
     7
100
AcDbLine
 10
145.3292527344
 20
61.0039103199
 30
0.0
 11
175.995919401
 21
61.0039103199
 31
0.0
  0
LINE
  5
30C
330
235
100
AcDbEntity
  8
0
  6
Continuous
 62
     7
100
AcDbLine
 10
144.8048259603
 20
52.3820748243
 30
0.0
 11
144.435805218
 21
52.01305408199999
 31
0.0
  0
LINE
  5
30D
330
235
100
AcDbEntity
  8
0
  6
Continuous
 62
     7
100
AcDbLine
 10
145.471492627
 20
52.3820748243
 30
0.0
 11
144.6734768366
 21
51.58405903390001
 31
0.0
  0
LINE
  5
30E
330
235
100
AcDbEntity
  8
0
  6
Continuous
 62
     7
100
AcDbLine
 10
146.1381592937
 20
52.3820748243
 30
0.0
 11
145.3401435032
 21
51.58405903390001
 31
0.0
  0
LINE
  5
30F
330
235
100
AcDbEntity
  8
0
  6
Continuous
 62
     7
100
AcDbLine
 10
146.8048259603
 20
52.3820748243
 30
0.0
 11
146.0068101699
 21
51.58405903390001
 31
0.0
  0
LINE
  5
310
330
235
100
AcDbEntity
  8
0
  6
Continuous
 62
     7
100
AcDbLine
 10
147.471492627
 20
52.3820748243
 30
0.0
 11
146.6734768366
 21
51.58405903390001
 31
0.0
  0
LINE
  5
311
330
235
100
AcDbEntity
  8
0
  6
Continuous
 62
     7
100
AcDbLine
 10
148.1381592937
 20
52.3820748243
 30
0.0
 11
147.3401435032
 21
51.58405903390001
 31
0.0
  0
LINE
  5
312
330
235
100
AcDbEntity
  8
0
  6
Continuous
 62
     7
100
AcDbLine
 10
148.8048259603
 20
52.3820748243
 30
0.0
 11
148.0068101699
 21
51.58405903390001
 31
0.0
  0
LINE
  5
313
330
235
100
AcDbEntity
  8
0
  6
Continuous
 62
     7
100
AcDbLine
 10
149.471492627
 20
52.3820748243
 30
0.0
 11
148.6734768366
 21
51.58405903390001
 31
0.0
  0
LINE
  5
314
330
235
100
AcDbEntity
  8
0
  6
Continuous
 62
     7
100
AcDbLine
 10
150.1381592937
 20
52.3820748243
 30
0.0
 11
149.3401435032
 21
51.58405903390001
 31
0.0
  0
LINE
  5
315
330
235
100
AcDbEntity
  8
0
  6
Continuous
 62
     7
100
AcDbLine
 10
150.5816467278
 20
52.1588955918
 30
0.0
 11
150.0068101699
 21
51.58405903390001
 31
0.0
  0
ELLIPSE
  5
316
330
235
100
AcDbEntity
  8
0
  6
Continuous
 62
     7
100
AcDbEllipse
 10
146.1413218832
 20
50.4348580269
 30
0.0
 11
1.0473539356
 21
0.0
 31
0.0
210
0.0
220
0.0
230
1.0
 40
0.4938647983
 41
0.0
 42
6.283185307179586
  0
ELLIPSE
  5
317
330
235
100
AcDbEntity
  8
0
  6
Continuous
 62
     7
100
AcDbEllipse
 10
146.1413218832
 20
49.1015246935
 30
0.0
 11
1.0473539356
 21
0.0
 31
0.0
210
0.0
220
0.0
230
1.0
 40
0.4938647983
 41
0.0
 42
6.283185307179586
  0
ELLIPSE
  5
318
330
235
100
AcDbEntity
  8
0
  6
Continuous
 62
     7
100
AcDbEllipse
 10
146.1413218832
 20
47.76819136020001
 30
0.0
 11
1.0473539356
 21
0.0
 31
0.0
210
0.0
220
0.0
230
1.0
 40
0.4938647983
 41
0.0
 42
6.283185307179586
  0
ELLIPSE
  5
319
330
235
100
AcDbEntity
  8
0
  6
Continuous
 62
     7
100
AcDbEllipse
 10
157.1599574643
 20
50.4543793839
 30
0.0
 11
1.0473539356
 21
0.0
 31
0.0
210
0.0
220
0.0
230
1.0
 40
0.4938647983
 41
0.0
 42
6.283185307179586
  0
ENDBLK
  5
31A
330
235
100
AcDbEntity
  8
0
  6
ByBlock
 62
     0
100
AcDbBlockEnd
  0
ENDSEC
  0
SECTION
  2
ENTITIES
  0
LWPOLYLINE
  5
48A
330
21A
100
AcDbEntity
  8
DEFAULT_2
  6
HIDDEN
 62
     7
100
AcDbPolyline
 90
       37
 70
     0
 43
0.0
 10
118.3218762459
 20
18.7793940235
 10
118.3167622037
 20
18.7790843706
 10
118.3116670784
 20
18.7786712941
 10
118.3065898937
 20
18.7781548791
 10
118.3015296729
 20
18.77753521049999
 10
118.2964854395
 20
18.7768123734
 10
118.2914562171
 20
18.7759864529
 10
118.2864416735
 20
18.775057607
 10
118.2814440545
 20
18.7740262869
 10
118.2764662502
 20
18.7728930168
 10
118.2715111507
 20
18.7716583209
 10
118.2665816461
 20
18.7703227234
 10
118.2616806267
 20
18.7688867486
 10
118.2568108035
 20
18.7673509624
 10
118.2519741712
 20
18.7657160975
 10
118.2471725458
 20
18.7639829286
 10
118.2424077429
 20
18.7621522302
 10
118.2376815784
 20
18.7602247767
 10
118.2329958681
 20
18.7582013427
 10
118.2283524237
 20
18.7560827116
 10
118.2237530415
 20
18.7538697018
 10
118.2191995139
 20
18.7515631409
 10
118.2146936332
 20
18.7491638562
 10
118.2102371916
 20
18.746672675
 10
118.2058319815
 20
18.7440904249
 10
118.2014798844
 20
18.741418094
 10
118.1971831383
 20
18.7386573136
 10
118.1929440703
 20
18.735809876
 10
118.1887650077
 20
18.7328775733
 10
118.1846482777
 20
18.7298621976
 10
118.1805962073
 20
18.7267655412
 10
118.1766106374
 20
18.7235889672
 10
118.1726914625
 20
18.7203321233
 10
118.168838091
 20
18.7169942281
 10
118.1650499308
 20
18.7135745
 10
118.1613263904
 20
18.7100721578
 10
118.1576668778
 20
18.7064864201
  0
LINE
  5
48B
330
21A
100
AcDbEntity
  8
DEFAULT_2
  6
HIDDEN
 62
     7
100
AcDbLine
 10
118.4027064496
 20
18.7834566517
 30
0.0
 11
118.3218762436
 21
18.7793940682
 31
0.0
  0
LINE
  5
48C
330
21A
100
AcDbEntity
  8
DEFAULT_2
  6
HIDDEN
 62
     7
100
AcDbLine
 10
118.5242850589
 20
18.7895133887
 30
0.0
 11
118.4027064496
 21
18.7834566517
 31
0.0
  0
LINE
  5
48D
330
21A
100
AcDbEntity
  8
DEFAULT_2
  6
HIDDEN
 62
     7
100
AcDbLine
 10
118.6077311768
 20
18.7936149043
 30
0.0
 11
118.5242850589
 21
18.7895133887
 31
0.0
  0
LINE
  5
48E
330
21A
100
AcDbEntity
  8
DEFAULT_2
  6
HIDDEN
 62
     7
100
AcDbLine
 10
118.6947992481
 20
18.7978401105
 30
0.0
 11
118.6077311768
 21
18.7936149043
 31
0.0
  0
LWPOLYLINE
  5
48F
330
21A
100
AcDbEntity
  8
DEFAULT_2
  6
HIDDEN
 62
     7
100
AcDbPolyline
 90
       20
 70
     0
 43
0.0
 10
118.3207496522
 20
18.779274904
 10
118.5293814505
 20
18.7893382601
 10
118.7437057649
 20
18.7993419039
 10
118.9630660757
 20
18.8093104601
 10
119.1872573226
 20
18.8192826565
 10
119.4185693532
 20
18.8293965423
 10
119.6591765678
 20
18.8397724473
 10
119.9107392229
 20
18.8505000935
 10
120.1738178482
 20
18.8616173214
 10
120.4476917336
 20
18.8731055151
 10
120.7318892442
 20
18.8849552233
 10
121.0260808082
 20
18.8971614136
 10
121.3300356772
 20
18.9097217547
 10
121.643745414
 20
18.9226418768
 10
121.9673811693
 20
18.9359337087
 10
122.3011695929
 20
18.9496105317
 10
122.6452865472
 20
18.9636828095
 10
122.9998174969
 20
18.9781567428
 10
123.3648722517
 20
18.9930390833
 10
123.7405931004
 20
19.00833754089999
  0
LINE
  5
490
330
21A
100
AcDbEntity
  8
DEFAULT_2
  6
HIDDEN
 62
     7
100
AcDbLine
 10
118.8034289792
 20
18.8030343535
 30
0.0
 11
118.6947992481
 21
18.7978401105
 31
0.0
  0
LINE
  5
491
330
21A
100
AcDbEntity
  8
DEFAULT_2
  6
HIDDEN
 62
     7
100
AcDbLine
 10
118.9051166809
 20
18.8078243464
 30
0.0
 11
118.8034289792
 21
18.8030343535
 31
0.0
  0
LINE
  5
492
330
21A
100
AcDbEntity
  8
DEFAULT_2
  6
HIDDEN
 62
     7
100
AcDbLine
 10
119.0167391245
 20
18.8130106182
 30
0.0
 11
118.9051166809
 21
18.8078243464
 31
0.0
  0
LINE
  5
493
330
21A
100
AcDbEntity
  8
DEFAULT_2
  6
HIDDEN
 62
     7
100
AcDbLine
 10
119.1397977246
 20
18.8186529056
 30
0.0
 11
119.0167391245
 21
18.8130106182
 31
0.0
  0
LINE
  5
494
330
21A
100
AcDbEntity
  8
DEFAULT_2
  6
HIDDEN
 62
     7
100
AcDbLine
 10
119.2540707191
 20
18.823831953
 30
0.0
 11
119.1397977246
 21
18.8186529056
 31
0.0
  0
LWPOLYLINE
  5
495
330
21A
100
AcDbEntity
  8
DEFAULT_2
  6
HIDDEN
 62
     7
100
AcDbPolyline
 90
        3
 70
     0
 43
0.0
 10
119.455585066
 20
18.8328477577
 10
119.4122240843
 20
18.8309187659
 10
119.2540707191
 20
18.823831953
  0
LINE
  5
496
330
21A
100
AcDbEntity
  8
DEFAULT_2
  6
HIDDEN
 62
     7
100
AcDbLine
 10
119.5610960103
 20
18.8375191522
 30
0.0
 11
119.455585066
 21
18.8328477577
 31
0.0
  0
LINE
  5
497
330
21A
100
AcDbEntity
  8
DEFAULT_2
  6
HIDDEN
 62
     7
100
AcDbLine
 10
119.746587087
 20
18.8456657276
 30
0.0
 11
119.5610960103
 21
18.8375191522
 31
0.0
  0
LINE
  5
498
330
21A
100
AcDbEntity
  8
DEFAULT_2
  6
HIDDEN
 62
     7
100
AcDbLine
 10
119.8668581985
 20
18.8509097359
 30
0.0
 11
119.746587087
 21
18.8456657276
 31
0.0
  0
LINE
  5
499
330
21A
100
AcDbEntity
  8
DEFAULT_2
  6
HIDDEN
 62
     7
100
AcDbLine
 10
120.0395920176
 20
18.8583981552
 30
0.0
 11
119.8668581985
 21
18.8509097359
 31
0.0
  0
LINE
  5
49A
330
21A
100
AcDbEntity
  8
DEFAULT_2
  6
HIDDEN
 62
     7
100
AcDbLine
 10
120.2058452461
 20
18.8655652649
 30
0.0
 11
120.0395920176
 21
18.8583981552
 31
0.0
  0
LINE
  5
49B
330
21A
100
AcDbEntity
  8
DEFAULT_2
  6
HIDDEN
 62
     7
100
AcDbLine
 10
120.3681809618
 20
18.8725316547
 30
0.0
 11
120.2058452461
 21
18.8655652649
 31
0.0
  0
LINE
  5
49C
330
21A
100
AcDbEntity
  8
DEFAULT_2
  6
HIDDEN
 62
     7
100
AcDbLine
 10
120.6086429538
 20
18.8828031087
 30
0.0
 11
120.3681809618
 21
18.8725316547
 31
0.0
  0
LWPOLYLINE
  5
49D
330
21A
100
AcDbEntity
  8
DEFAULT_2
  6
HIDDEN
 62
     7
100
AcDbPolyline
 90
       65
 70
     0
 43
0.0
 10
123.7401228519
 20
19.008318147
 10
123.9055802308
 20
19.0153560862
 10
124.0592083379
 20
19.0224748747
 10
124.2021950397
 20
19.0296592044
 10
124.3355949331
 20
19.0368981208
 10
124.4603566092
 20
19.0441868584
 10
124.5773109925
 20
19.0515241525
 10
124.6872259458
 20
19.0589135555
 10
124.7907852326
 20
19.0663625951
 10
124.8886178774
 20
19.0738826036
 10
124.9813019662
 20
19.0814896897
 10
125.0693637215
 20
19.0892033991
 10
125.1531910247
 20
19.0970386326
 10
125.2330386856
 20
19.1050024204
 10
125.3091569342
 20
19.1131046399
 10
125.3818021446
 20
19.1213591842
 10
125.451242336
 20
19.1297852807
 10
125.5177864375
 20
19.1384123932
 10
125.5818080778
 20
19.1472859891
 10
125.6437183073
 20
19.156467564
 10
125.7039465089
 20
19.1660351582
 10
125.7629473735
 20
19.1760879693
 10
125.8212028342
 20
19.1867511599
 10
125.8791964659
 20
19.1981762704
 10
125.9373308062
 20
19.2105280141
 10
125.9959258146
 20
19.2239825147
 10
126.0552973332
 20
19.2387444323
 10
126.1159760958
 20
19.2551124327
 10
126.1788335351
 20
19.2735501123
 10
126.2448635649
 20
19.2946734963
 10
126.3151675508
 20
19.3192939578
 10
126.3905531155
 20
19.3483199079
 10
126.4714254614
 20
19.3827113616
 10
126.5149223908
 20
19.4026916841
 10
126.5580018986
 20
19.4235574273
 10
126.6042791975
 20
19.4472181652
 10
126.6500082322
 20
19.4719226217
 10
126.6983547532
 20
19.4995413763
 10
126.7460045152
 20
19.5283462172
 10
126.7951574879
 20
19.5597969594
 10
126.8434691444
 20
19.5925257719
 10
126.8923303858
 20
19.6275704173
 10
126.9402178888
 20
19.6639347405
 10
126.989069529
 20
19.7032328309
 10
127.0367760174
 20
19.7439141514
 10
127.086223256
 20
19.7886785813
 10
127.1342764844
 20
19.8349372763
 10
127.1842045176
 20
19.8861603417
 10
127.2324160054
 20
19.939003378
 10
127.2816491226
 20
19.9968046842
 10
127.3288215165
 20
20.0563007601
 10
127.3760640954
 20
20.1205137109
 10
127.4208999542
 20
20.1864306247
 10
127.4648989486
 20
20.2566841388
 10
127.5061585745
 20
20.3285814013
 10
127.5457403835
 20
20.4042755251
 10
127.582281231
 20
20.4814845483
 10
127.6164182058
 20
20.5618250017
 10
127.6472585255
 20
20.6434869724
 10
127.6662333619
 20
20.6994382895
 10
127.6836592404
 20
20.7558922288
 10
127.6995229191
 20
20.8128081787
 10
127.7139336272
 20
20.8706645844
 10
127.7267285694
 20
20.928896586
 10
127.7378960834
 20
20.9874507137
  0
LWPOLYLINE
  5
49E
330
21A
100
AcDbEntity
  8
DEFAULT_2
  6
HIDDEN
 62
     7
100
AcDbPolyline
 90
        3
 70
     0
 43
0.0
 10
120.8507425762
 20
18.8930978082
 10
120.7696028339
 20
18.8896521269
 10
120.6086429538
 20
18.8828031087
  0
LINE
  5
4A1
330
21A
100
AcDbEntity
  8
DEFAULT_2
  6
HIDDEN
 62
     7
100
AcDbLine
 10
117.6221891856
 20
18.2745619595
 30
0.0
 11
115.0792959668
 21
18.2745619595
 31
0.0
  0
LWPOLYLINE
  5
4A6
330
21A
100
AcDbEntity
  8
DEFAULT_2
  6
HIDDEN
 62
     7
100
AcDbPolyline
 90
       20
 70
     0
 43
0.0
 10
108.9608939425
 20
19.008337464
 10
109.3366455344
 20
18.9930377538
 10
109.7017289418
 20
18.9781542426
 10
110.0562862807
 20
18.9636792272
 10
110.4004271834
 20
18.9496059627
 10
110.7342368838
 20
18.9359282571
 10
111.0578902906
 20
18.9226356854
 10
111.3716125847
 20
18.9097150265
 10
111.6755732324
 20
18.8971544214
 10
111.9697622764
 20
18.8849483046
 10
112.2539501234
 20
18.8730989628
 10
112.5278098065
 20
18.8616113231
 10
112.7908714082
 20
18.8504947683
 10
113.0424193239
 20
18.8397677001
 10
113.2830204939
 20
18.8293919982
 10
113.5143316759
 20
18.8192780796
 10
113.7385207704
 20
18.8093058915
 10
113.9578685625
 20
18.7993378008
 10
114.1721598792
 20
18.7893355973
 10
114.3807355402
 20
18.779274902
  0
LWPOLYLINE
  5
4A8
330
21A
100
AcDbEntity
  8
DEFAULT_2
  6
HIDDEN
 62
     7
100
AcDbPolyline
 90
        3
 70
     0
 43
0.0
 10
112.1794282711
 20
18.8791104233
 10
112.0158195384
 20
18.8860828933
 10
111.8507425762
 20
18.8930978082
  0
LINE
  5
4A9
330
21A
100
AcDbEntity
  8
DEFAULT_2
  6
HIDDEN
 62
     7
100
AcDbLine
 10
112.4258098882
 20
18.86856546809999
 30
0.0
 11
112.1794282711
 21
18.8791104233
 31
0.0
  0
LINE
  5
4AA
330
21A
100
AcDbEntity
  8
DEFAULT_2
  6
HIDDEN
 62
     7
100
AcDbLine
 10
112.6784543012
 20
18.8576821683
 30
0.0
 11
112.4258098882
 21
18.86856546809999
 31
0.0
  0
LINE
  5
4AB
330
21A
100
AcDbEntity
  8
DEFAULT_2
  6
HIDDEN
 62
     7
100
AcDbLine
 10
112.7941232816
 20
18.8526699808
 30
0.0
 11
112.6784543012
 21
18.8576821683
 31
0.0
  0
LINE
  5
4AC
330
21A
100
AcDbEntity
  8
DEFAULT_2
  6
HIDDEN
 62
     7
100
AcDbLine
 10
112.9129016257
 20
18.8474998883
 30
0.0
 11
112.7941232816
 21
18.8526699808
 31
0.0
  0
LINE
  5
4AD
330
21A
100
AcDbEntity
  8
DEFAULT_2
  6
HIDDEN
 62
     7
100
AcDbLine
 10
113.0798309671
 20
18.8401873766
 30
0.0
 11
112.9129016257
 21
18.8474998883
 31
0.0
  0
LINE
  5
4AE
330
21A
100
AcDbEntity
  8
DEFAULT_2
  6
HIDDEN
 62
     7
100
AcDbLine
 10
113.213692135
 20
18.8342770365
 30
0.0
 11
113.0798309671
 21
18.8401873766
 31
0.0
  0
LINE
  5
4AF
330
21A
100
AcDbEntity
  8
DEFAULT_2
  6
HIDDEN
 62
     7
100
AcDbLine
 10
113.3751003231
 20
18.8270829626
 30
0.0
 11
113.213692135
 21
18.8342770365
 31
0.0
  0
LINE
  5
4B0
330
21A
100
AcDbEntity
  8
DEFAULT_2
  6
HIDDEN
 62
     7
100
AcDbLine
 10
113.5131032176
 20
18.8208613494
 30
0.0
 11
113.3751003231
 21
18.8270829626
 31
0.0
  0
LINE
  5
4B1
330
21A
100
AcDbEntity
  8
DEFAULT_2
  6
HIDDEN
 62
     7
100
AcDbLine
 10
113.6356944735
 20
18.815268472
 30
0.0
 11
113.5131032176
 21
18.8208613494
 31
0.0
  0
LINE
  5
4B2
330
21A
100
AcDbEntity
  8
DEFAULT_2
  6
HIDDEN
 62
     7
100
AcDbLine
 10
113.7485342529
 20
18.8100554843
 30
0.0
 11
113.6356944735
 21
18.815268472
 31
0.0
  0
LINE
  5
4B3
330
21A
100
AcDbEntity
  8
DEFAULT_2
  6
HIDDEN
 62
     7
100
AcDbLine
 10
113.8529538282
 20
18.8051670885
 30
0.0
 11
113.7485342529
 21
18.8100554843
 31
0.0
  0
LINE
  5
4B4
330
21A
100
AcDbEntity
  8
DEFAULT_2
  6
HIDDEN
 62
     7
100
AcDbLine
 10
113.9501747256
 20
18.800552668
 30
0.0
 11
113.8529538282
 21
18.8051670885
 31
0.0
  0
LINE
  5
4B5
330
21A
100
AcDbEntity
  8
DEFAULT_2
  6
HIDDEN
 62
     7
100
AcDbLine
 10
114.0416898977
 20
18.7961481969
 30
0.0
 11
113.9501747256
 21
18.800552668
 31
0.0
  0
LINE
  5
4B6
330
21A
100
AcDbEntity
  8
DEFAULT_2
  6
HIDDEN
 62
     7
100
AcDbLine
 10
114.1290047324
 20
18.7918883618
 30
0.0
 11
114.0416898977
 21
18.7961481969
 31
0.0
  0
LWPOLYLINE
  5
4B7
330
21A
100
AcDbEntity
  8
DEFAULT_2
  6
HIDDEN
 62
     7
100
AcDbPolyline
 90
        4
 70
     0
 43
0.0
 10
114.3796088981
 20
18.7793940687
 10
114.2965761514
 20
18.7835670704
 10
114.2134979176
 20
18.7877142725
 10
114.1290047324
 20
18.7918883618
  0
LWPOLYLINE
  5
671
330
21A
100
AcDbEntity
  8
DEFAULT_2
  6
HIDDEN
 62
     7
100
AcDbPolyline
 90
       37
 70
     0
 43
0.0
 10
114.5438182693
 20
18.7064864245
 10
114.5401587566
 20
18.7100721624
 10
114.536435216
 20
18.7135745047
 10
114.5326470557
 20
18.7169942329
 10
114.528793684
 20
18.7203321283
 10
114.524874509
 20
18.7235889723
 10
114.5208889389
 20
18.7267655463
 10
114.5168368684
 20
18.7298622029
 10
114.5127201382
 20
18.7328775786
 10
114.5085410754
 20
18.7358098815
 10
114.5043020073
 20
18.7386573192
 10
114.500005261
 20
18.7414180997
 10
114.4956531638
 20
18.7440904307
 10
114.4912479535
 20
18.7466726809
 10
114.4867915118
 20
18.7491638621
 10
114.4822856309
 20
18.7515631469
 10
114.4777321031
 20
18.7538697079
 10
114.4731327208
 20
18.7560827177
 10
114.4684892763
 20
18.758201349
 10
114.4638035658
 20
18.760224783
 10
114.4590774011
 20
18.7621522365
 10
114.4543125981
 20
18.7639829351
 10
114.4495109725
 20
18.765716104
 10
114.4446743402
 20
18.7673509689
 10
114.4398045168
 20
18.7688867552
 10
114.4349034972
 20
18.77032273
 10
114.4299739925
 20
18.7716583276
 10
114.4250188929
 20
18.7728930235
 10
114.4200410884
 20
18.7740262937
 10
114.4150434693
 20
18.7750576138
 10
114.4100289256
 20
18.7759864596
 10
114.404999703
 20
18.7768123802
 10
114.3999554696
 20
18.7775352173
 10
114.3948952487
 20
18.7781548859
 10
114.3898180638
 20
18.7786713009
 10
114.3847229385
 20
18.7790843774
 10
114.3796088961
 20
18.7793940303
  0
LINE
  5
6D3
330
21A
100
AcDbEntity
  8
DEFAULT_2
  6
HIDDEN
 62
     7
100
AcDbLine
 10
101.8829150538
 20
38.0377911377
 30
0.0
 11
101.6878730061
 21
38.201450848
 31
0.0
  0
LINE
  5
6D4
330
21A
100
AcDbEntity
  8
DEFAULT_2
  6
HIDDEN
 62
     7
100
AcDbLine
 10
114.9025192715
 20
18.3477852642
 30
0.0
 11
114.5438181903
 21
18.7064863455
 31
0.0
  0
LWPOLYLINE
  5
797
330
21A
100
AcDbEntity
  8
DEFAULT_2
  6
HIDDEN
 62
     7
100
AcDbPolyline
 90
       65
 70
     0
 43
0.0
 10
104.9635890721
 20
20.9874506967
 10
104.9747563668
 20
20.928897641
 10
104.9875510309
 20
20.8706666993
 10
105.0019614025
 20
20.8128113385
 10
105.0178242593
 20
20.7558978757
 10
105.0352491792
 20
20.6994463788
 10
105.0542229221
 20
20.6434974539
 10
105.0850607755
 20
20.5618404289
 10
105.1191948788
 20
20.4815047296
 10
105.1557320826
 20
20.4043010584
 10
105.1953098119
 20
20.3286120196
 10
105.2365648273
 20
20.2567198273
 10
105.2805587984
 20
20.1864710638
 10
105.3253898826
 20
20.120557788
 10
105.3726273873
 20
20.0563481711
 10
105.419799321
 20
19.9968493387
 10
105.4690321316
 20
19.9390453083
 10
105.5172448632
 20
19.8861982641
 10
105.5671743666
 20
19.8349713262
 10
105.6152313554
 20
19.788707101
 10
105.6646826569
 20
19.7439374078
 10
105.7123926111
 20
19.7032519022
 10
105.7612479312
 20
19.6639498459
 10
105.8091436062
 20
19.6275786497
 10
105.8580133763
 20
19.5925275974
 10
105.9063275811
 20
19.559797011
 10
105.9554831913
 20
19.5283446326
 10
106.0031307613
 20
19.4995411674
 10
106.0514750238
 20
19.4719236756
 10
106.097205799
 20
19.4472182455
 10
106.1434848816
 20
19.4235566157
 10
106.1865641905
 20
19.4026910104
 10
106.2300609157
 20
19.382710816
 10
106.3109377224
 20
19.3483176085
 10
106.3863262799
 20
19.3192907769
 10
106.4566339064
 20
19.294669378
 10
106.5226680502
 20
19.2735450847
 10
106.5855306078
 20
19.2551063749
 10
106.6462160008
 20
19.2387371407
 10
106.7055947371
 20
19.223974064
 10
106.7641974522
 20
19.2105184983
 10
106.8223387761
 20
19.198166029
 10
106.8803392796
 20
19.1867403483
 10
106.9386021124
 20
19.1760766094
 10
106.9976082379
 20
19.1660237116
 10
107.0578469043
 20
19.1564552645
 10
107.119766466
 20
19.1472731682
 10
107.1837962532
 20
19.1383993196
 10
107.2503508394
 20
19.1297717175
 10
107.3198021255
 20
19.1213451915
 10
107.3924592403
 20
19.1130902121
 10
107.4685879463
 20
19.1049878544
 10
107.5484489176
 20
19.0970236442
 10
107.6322894128
 20
19.0891882042
 10
107.7203639256
 20
19.0814743176
 10
107.8130652744
 20
19.0738668507
 10
107.9109138947
 20
19.0663466706
 10
108.0144924033
 20
19.0588972415
 10
108.1244321061
 20
19.0515073531
 10
108.2414090544
 20
19.0441698747
 10
108.3661981807
 20
19.0368806094
 10
108.4996332577
 20
19.0296413605
 10
108.6426472043
 20
19.022457032
 10
108.7963124993
 20
19.015337925
 10
108.9618115027
 20
19.008299983
  0
LINE
  5
7F9
330
21A
100
AcDbEntity
  8
DEFAULT_2
  6
HIDDEN
 62
     7
100
AcDbLine
 10
104.9635891892
 20
20.9874500327
 30
0.0
 11
101.9897963486
 21
37.8526673047
 31
0.0
  0
LWPOLYLINE
  5
9BE
330
21A
100
AcDbEntity
  8
DEFAULT_2
  6
HIDDEN
 62
     7
100
AcDbPolyline
 90
        4
 70
     0
 43
0.0
 10
130.3280815557
 20
35.6193978032
 10
130.3122506169
 20
35.5216544642
 10
130.2964433812
 20
35.4249733926
 10
130.2805820222
 20
35.3293476004
  0
LINE
  5
9BF
330
21A
100
AcDbEntity
  8
DEFAULT_2
  6
HIDDEN
 62
     7
100
AcDbLine
 10
130.280582023
 20
35.3293476054
 30
0.0
 11
130.0949034673
 21
34.2197763087
 31
0.0
  0
LWPOLYLINE
  5
9C0
330
21A
100
AcDbEntity
  8
DEFAULT_2
  6
HIDDEN
 62
     7
100
AcDbPolyline
 90
       20
 70
     0
 43
0.0
 10
130.0949034673
 20
34.2197763087
 10
130.091535553
 20
34.2005202652
 10
130.0879055275
 20
34.1813149162
 10
130.0840432176
 20
34.1621544305
 10
130.0799784499
 20
34.143032977
 10
130.0742954173
 20
34.117588524
 10
130.0683762183
 20
34.0921894532
 10
130.0622915822
 20
34.0668221234
 10
130.0529909896
 20
34.0288042825
 10
130.0436070277
 20
33.9908020056
 10
130.0342694211
 20
33.9527901435
 10
130.0251079017
 20
33.9147435914
 10
130.0162340454
 20
33.8766407754
 10
130.0076867951
 20
33.8384742009
 10
129.9994869359
 20
33.8002398927
 10
129.9916552525
 20
33.7619338759
 10
129.9841943663
 20
33.7235556658
 10
129.9770342799
 20
33.68511893199999
 10
129.9700868321
 20
33.6466408345
 10
129.9632638611
 20
33.6081385333
  0
LWPOLYLINE
  5
9C1
330
21A
100
AcDbEntity
  8
DEFAULT_2
  6
HIDDEN
 62
     7
100
AcDbPolyline
 90
       12
 70
     0
 43
0.0
 10
130.5380406262
 20
36.8678595517
 10
130.5188886342
 20
36.7590914779
 10
130.4999707822
 20
36.6511942001
 10
130.4813231046
 20
36.5441416509
 10
130.4629816356
 20
36.4379077633
 10
130.4449824097
 20
36.3324664701
 10
130.4273514188
 20
36.2278066054
 10
130.4100744862
 20
36.1239766087
 10
130.3931273928
 20
36.0210398209
 10
130.3764859198
 20
35.9190595828
 10
130.360125848
 20
35.8180992352
 10
130.3280815557
 20
35.6193978032
  0
LINE
  5
9C2
330
21A
100
AcDbEntity
  8
DEFAULT_2
  6
HIDDEN
 62
     7
100
AcDbLine
 10
130.7116888039
 20
37.8526673047
 30
0.0
 11
130.5380406262
 21
36.8678595517
 31
0.0
  0
LINE
  5
9C3
330
21A
100
AcDbEntity
  8
DEFAULT_2
  6
HIDDEN
 62
     7
100
AcDbLine
 10
129.9632638611
 20
33.6081385333
 30
0.0
 11
127.7378959633
 21
20.9874500327
 31
0.0
  0
LINE
  5
9C4
330
21A
100
AcDbEntity
  8
DEFAULT_2
  6
HIDDEN
 62
     7
100
AcDbLine
 10
131.0136121464
 20
38.201450848
 30
0.0
 11
130.8185700987
 21
38.0377911377
 31
0.0
  0
LINE
  5
AAE
330
21A
100
AcDbEntity
  8
DEFAULT_2
  6
HIDDEN
 62
     7
100
AcDbLine
 10
118.1576669573
 20
18.7064863406
 30
0.0
 11
117.7989658809
 21
18.3477852642
 31
0.0
  0
LINE
  5
15B2
330
21A
100
AcDbEntity
  8
0
  6
Continuous
 62
     7
100
AcDbLine
 10
96.35074257620001
 20
37.7745619595
 30
0.0
 11
96.37452102700002
 21
38.0463508952
 31
0.0
  0
LWPOLYLINE
  5
15B3
330
21A
100
AcDbEntity
  8
0
  6
Continuous
 62
     7
100
AcDbPolyline
 90
       49
 70
     0
 43
0.0
 10
104.8404881115
 20
20.9657446262
 10
104.8769329504
 20
20.7969388862
 10
104.9302282643
 20
20.6193885977
 10
104.9968733329
 20
20.448983984
 10
105.0753519438
 20
20.287605562
 10
105.1636881933
 20
20.1370154761
 10
105.2595628808
 20
19.9986145822
 10
105.360433224
 20
19.8733607246
 10
105.4635561673
 20
19.7618494455
 10
105.566301156
 20
19.6641015001
 10
105.6677129059
 20
19.5785203329
 10
105.7685964472
 20
19.5026065403
 10
105.8695967291
 20
19.4346880024
 10
105.9693033079
 20
19.3747148235
 10
106.0655474311
 20
19.3228506034
 10
106.1567897519
 20
19.2786772012
 10
106.2423896222
 20
19.2413101952
 10
106.3223585934
 20
19.2097063497
 10
106.3969230408
 20
19.1829150031
 10
106.4666930914
 20
19.160025816
 10
106.5327474892
 20
19.1401635902
 10
106.5961580738
 20
19.1226332098
 10
106.6578291256
 20
19.106920254
 10
106.7184465215
 20
19.0926588006
 10
106.7783336888
 20
19.0796241291
 10
106.8378158393
 20
19.0676229443
 10
106.8972514843
 20
19.0564840906
 10
106.9571350649
 20
19.0460395722
 10
107.0179619832
 20
19.0361497702
 10
107.0802032709
 20
19.0267029337
 10
107.1443054603
 20
19.0176101707
 10
107.2106819926
 20
19.0088028519
 10
107.2797437118
 20
19.0002250714
 10
107.3518097367
 20
18.9918420448
 10
107.427166706
 20
18.9836290322
 10
107.50606256
 20
18.9755702267
 10
107.5887640716
 20
18.9676515457
 10
107.6754993115
 20
18.9598661302
 10
107.7665917002
 20
18.9522015528
 10
107.8625386721
 20
18.9446368797
 10
107.9638895987
 20
18.9371540347
 10
108.0712757232
 20
18.9297375706
 10
108.1853319769
 20
18.9223796138
 10
108.3068069318
 20
18.9150726617
 10
108.4365110452
 20
18.9078158078
 10
108.5753156707
 20
18.90061274309999
 10
108.7242594304
 20
18.8934695282
 10
108.884448602
 20
18.8864006683
 10
108.9565833092
 20
18.8834092792
  0
LINE
  5
15B4
330
21A
100
AcDbEntity
  8
0
  6
Continuous
 62
     7
100
AcDbLine
 10
104.84048822
 20
20.9657440105
 30
0.0
 11
101.8766401018
 21
37.7745619595
 31
0.0
  0
LWPOLYLINE
  5
15B5
330
21A
100
AcDbEntity
  8
0
  6
Continuous
 62
     7
100
AcDbPolyline
 90
       21
 70
     0
 43
0.0
 10
107.005632364
 20
19.107433853
 10
107.0084435367
 20
19.0981279504
 10
107.0161505251
 20
19.0892135217
 10
107.0281617338
 20
19.0805956179
 10
107.0441904756
 20
19.0721777565
 10
107.0641953968
 20
19.0638645283
 10
107.0882436218
 20
19.0555964327
 10
107.116028636
 20
19.0474564493
 10
107.1474197649
 20
19.0394517043
 10
107.1839060643
 20
19.0312496864
 10
107.2280002276
 20
19.02246396109999
 10
107.2829383757
 20
19.0127634172
 10
107.351866251
 20
19.0020118249
 10
107.4376628408
 20
18.990234238
 10
107.5441528208
 20
18.9774236862
 10
107.6771319192
 20
18.96348570109999
 10
107.8460115842
 20
18.9482029239
 10
108.0651467193
 20
18.9313250615
 10
108.3424361298
 20
18.9134644786
 10
108.6603564679
 20
18.8965445893
 10
108.9557927063
 20
18.8834415798
  0
LWPOLYLINE
  5
15B6
330
21A
100
AcDbEntity
  8
0
  6
Continuous
 62
     7
100
AcDbPolyline
 90
       15
 70
     0
 43
0.0
 10
116.3819925762
 20
18.131181135
 10
116.3812090735
 20
18.1310171282
 10
116.3788978534
 20
18.1308613453
 10
116.3751748101
 20
18.130721598
 10
116.3702266325
 20
18.1306048938
 10
116.3643014431
 20
18.1305170848
 10
116.3576963554
 20
18.130462574
 10
116.3507425762
 20
18.1304440949
 10
116.343788797
 20
18.130462574
 10
116.3371837094
 20
18.1305170848
 10
116.3312585199
 20
18.1306048938
 10
116.3263103424
 20
18.130721598
 10
116.3225872991
 20
18.1308613453
 10
116.320276079
 20
18.1310171282
 10
116.3194925762
 20
18.131181135
  0
LWPOLYLINE
  5
15B7
330
21A
100
AcDbEntity
  8
0
  6
Continuous
 62
     7
100
AcDbPolyline
 90
       15
 70
     0
 43
0.0
 10
116.3194925762
 20
18.7208132277
 10
116.320276079
 20
18.7209772346
 10
116.3225872991
 20
18.7211330174
 10
116.3263103424
 20
18.7212727647
 10
116.3312585199
 20
18.7213894689
 10
116.3371837094
 20
18.7214772779
 10
116.343788797
 20
18.7215317887
 10
116.3507425762
 20
18.7215502678
 10
116.3576963554
 20
18.7215317887
 10
116.3643014431
 20
18.7214772779
 10
116.3702266325
 20
18.7213894689
 10
116.3751748101
 20
18.7212727647
 10
116.3788978534
 20
18.7211330174
 10
116.3812090735
 20
18.7209772346
 10
116.3819925762
 20
18.7208132277
  0
LINE
  5
15B8
330
21A
100
AcDbEntity
  8
0
  6
Continuous
 62
     7
100
AcDbLine
 10
117.3091769563
 20
18.6078429014
 30
0.0
 11
117.2671878867
 21
18.6003449969
 31
0.0
  0
LWPOLYLINE
  5
15B9
330
21A
100
AcDbEntity
  8
0
  6
Continuous
 62
     7
100
AcDbPolyline
 90
        6
 70
     0
 43
0.0
 10
117.2720548251
 20
18.5999948357
 10
117.2951812567
 20
18.6016343593
 10
117.3201410454
 20
18.6039198903
 10
117.3377986413
 20
18.6061818321
 10
117.3482400393
 20
18.6083926459
 10
117.3517463772
 20
18.610525474
  0
LINE
  5
15BA
330
21A
100
AcDbEntity
  8
0
  6
Continuous
 62
     7
100
AcDbLine
 10
117.3517463766
 20
18.6105255724
 30
0.0
 11
117.3091769563
 21
18.6078429014
 31
0.0
  0
LWPOLYLINE
  5
15BB
330
21A
100
AcDbEntity
  8
0
  6
Continuous
 62
     7
100
AcDbPolyline
 90
        9
 70
     0
 43
0.0
 10
117.4055801073
 20
19.2729378438
 10
117.3593413308
 20
19.2700567994
 10
117.3138111041
 20
19.2614981439
 10
117.2696843534
 20
19.2473925076
 10
117.2276345835
 20
19.2279551842
 10
117.1883035985
 20
19.203482845
 10
117.1522917056
 20
19.1743490103
 10
117.1201485529
 20
19.1409983486
 10
117.0923647402
 20
19.1039398898
  0
LWPOLYLINE
  5
15BC
330
21A
100
AcDbEntity
  8
0
  6
Continuous
 62
     7
100
AcDbPolyline
 90
       11
 70
     0
 43
0.0
 10
116.3819925762
 20
18.7208132277
 10
116.4659599479
 20
18.7249696033
 10
116.5491059148
 20
18.7373980707
 10
116.6306171074
 20
18.7579770492
 10
116.7096961484
 20
18.7865052265
 10
116.7855694525
 20
18.8227035277
 10
116.8574947947
 20
18.8662178456
 10
116.9247685705
 20
18.9166225043
 10
116.9867326789
 20
18.9734244241
 10
117.0427809605
 20
19.0360679441
 10
117.0923648411
 20
19.1039398235
  0
LWPOLYLINE
  5
15BD
330
21A
100
AcDbEntity
  8
0
  6
Continuous
 62
     7
100
AcDbPolyline
 90
        8
 70
     0
 43
0.0
 10
118.3267657963
 20
18.6544195979
 10
118.4637230302
 20
18.6610653371
 10
118.6698875629
 20
18.6707916871
 10
118.875604948
 20
18.6802319974
 10
119.0893749626
 20
18.6898262462
 10
119.3185275189
 20
18.6999223451
 10
119.5635231047
 20
18.7105489137
 10
119.8221000408
 20
18.7216210825
  0
LWPOLYLINE
  5
15BE
330
21A
100
AcDbEntity
  8
0
  6
Continuous
 62
     7
100
AcDbPolyline
 90
        5
 70
     0
 43
0.0
 10
116.3819925762
 20
18.131181135
 10
116.4597897929
 20
18.1347478694
 10
116.536933929
 20
18.145418131
 10
116.6127773865
 20
18.1631023468
 10
116.686683486
 20
18.1876520639
  0
LWPOLYLINE
  5
15BF
330
21A
100
AcDbEntity
  8
0
  6
Continuous
 62
     7
100
AcDbPolyline
 90
       23
 70
     0
 43
0.0
 10
123.745686937
 20
18.8834413556
 10
124.0832386567
 20
18.898602752
 10
124.3869956014
 20
18.9151184311
 10
124.6259927912
 20
18.9305953601
 10
124.8124953576
 20
18.9446591951
 10
124.9620756931
 20
18.9575751013
 10
125.0839451328
 20
18.969489762
 10
125.1836560483
 20
18.980434467
 10
125.2648847988
 20
18.9903712135
 10
125.3309905487
 20
18.9993209873
 10
125.3862120992
 20
19.0075508797
 10
125.434440525
 20
19.0154509292
 10
125.4785581805
 20
19.0234234679
 10
125.5189810311
 20
19.0315472954
 10
125.5548983437
 20
19.0396513367
 10
125.5863517411
 20
19.0477010686
 10
125.6137171909
 20
19.0557471156
 10
125.6371639755
 20
19.0638172171
 10
125.6568110987
 20
19.0719542004
 10
125.6727716042
 20
19.0802636022
 10
125.6849365216
 20
19.0888659057
 10
125.6928943749
 20
19.0978826301
 10
125.6958527884
 20
19.107433853
  0
LINE
  5
15C0
330
21A
100
AcDbEntity
  8
0
  6
Continuous
 62
     7
100
AcDbLine
 10
119.8221000408
 20
18.7216210825
 30
0.0
 11
120.1366968641
 21
18.7349377288
 31
0.0
  0
LWPOLYLINE
  5
15C1
330
21A
100
AcDbEntity
  8
0
  6
Continuous
 62
     7
100
AcDbPolyline
 90
       49
 70
     0
 43
0.0
 10
123.7453266531
 20
18.8834264519
 10
123.817033167
 20
18.8864004079
 10
123.9772197419
 20
18.8934693322
 10
124.1261659595
 20
18.9006124314
 10
124.2649763641
 20
18.9078160208
 10
124.3946708083
 20
18.9150723383
 10
124.5161502748
 20
18.922379397
 10
124.6302053995
 20
18.9297373804
 10
124.7375879934
 20
18.9371535698
 10
124.8389409424
 20
18.9446364413
 10
124.9348886967
 20
18.9522012232
 10
125.0259768689
 20
18.9598653414
 10
125.1127183713
 20
18.9676513304
 10
125.1954136564
 20
18.9755693442
 10
125.2743147622
 20
18.9836286623
 10
125.3496671539
 20
18.9918411151
 10
125.4217340542
 20
19.0002242026
 10
125.4907922987
 20
19.0088014645
 10
125.5571687939
 20
19.0176086831
 10
125.6212666631
 20
19.0267006963
 10
125.6835062732
 20
19.0361471403
 10
125.7443319347
 20
19.0460365154
 10
125.804211107
 20
19.0564800143
 10
125.8636443547
 20
19.0676180958
 10
125.9231231998
 20
19.0796182104
 10
125.9830051215
 20
19.0926512231
 10
126.0436173835
 20
19.1069107973
 10
126.105283771
 20
19.1226217261
 10
126.1686883342
 20
19.1401493834
 10
126.2347389101
 20
19.160009145
 10
126.3045043157
 20
19.1828951924
 10
126.3790652342
 20
19.2096832802
 10
126.4590296443
 20
19.2412828791
 10
126.5446273857
 20
19.2786459844
 10
126.6358695991
 20
19.322815866
 10
126.7321140811
 20
19.3746762871
 10
126.8318290218
 20
19.4346502546
 10
126.9328266452
 20
19.5025624338
 10
127.0336991911
 20
19.5784621798
 10
127.1351068183
 20
19.6640324693
 10
127.2378492113
 20
19.7617687268
 10
127.3409761324
 20
19.8732731233
 10
127.4418550322
 20
19.9985247884
 10
127.5377474315
 20
20.1369379777
 10
127.6260998495
 20
20.2875432887
 10
127.7045919912
 20
20.4489387039
 10
127.7712472227
 20
20.6193605766
 10
127.8245490551
 20
20.7969265892
 10
127.860997044
 20
20.9657446433
  0
LINE
  5
15C2
330
21A
100
AcDbEntity
  8
0
  6
Continuous
 62
     7
100
AcDbLine
 10
122.9691728177
 20
18.8518002414
 30
0.0
 11
123.7456879009
 21
18.8834413948
 31
0.0
  0
LWPOLYLINE
  5
15C3
330
21A
100
AcDbEntity
  8
0
  6
Continuous
 62
     7
100
AcDbPolyline
 90
       11
 70
     0
 43
0.0
 10
118.3268803864
 20
18.6544252277
 10
118.3239045956
 20
18.6543220774
 10
118.3112333297
 20
18.6540995241
 10
118.2902135647
 20
18.6538869065
 10
118.2609495952
 20
18.6536877793
 10
118.2235689322
 20
18.6535043704
 10
118.1782249088
 20
18.6533364691
 10
118.1251162898
 20
18.6531844793
 10
118.0644603102
 20
18.653048146
 10
117.9965037346
 20
18.6529258026
 10
117.921542737
 20
18.6528168466
  0
LINE
  5
15C4
330
21A
100
AcDbEntity
  8
0
  6
Continuous
 62
     7
100
AcDbLine
 10
116.3459987298
 20
19.0050701076
 30
0.0
 11
116.3507425762
 21
19.0052302254
 31
0.0
  0
LWPOLYLINE
  5
15C5
330
21A
100
AcDbEntity
  8
0
  6
Continuous
 62
     7
100
AcDbPolyline
 90
       24
 70
     0
 43
0.0
 10
116.3953519016
 20
18.130720449
 10
116.404908756
 20
18.1310021418
 10
116.414101236
 20
18.1313511954
 10
116.4237653161
 20
18.1318092072
 10
116.4346920515
 20
18.1324470133
 10
116.4470251372
 20
18.1333264974
 10
116.4607455108
 20
18.1345093829
 10
116.4776372584
 20
18.136267269
 10
116.4931217908
 20
18.1381752831
 10
116.5166339582
 20
18.1416223183
 10
116.5309737701
 20
18.1440540824
 10
116.5500400032
 20
18.1476790713
 10
116.5780963395
 20
18.1538390266
 10
116.6203993717
 20
18.1650337583
 10
116.6527098432
 20
18.1751818262
 10
116.685996837
 20
18.1871453439
 10
116.7143212651
 20
18.1985831163
 10
116.7507825752
 20
18.2150977308
 10
116.799409354
 20
18.2404812835
 10
116.8604046187
 20
18.2783496082
 10
116.905971046
 20
18.3116454882
 10
116.9569911132
 20
18.3549346832
 10
117.0035029686
 20
18.4010876077
 10
117.0563313994
 20
18.4634757979
  0
LWPOLYLINE
  5
15C6
330
21A
100
AcDbEntity
  8
0
  6
Continuous
 62
     7
100
AcDbPolyline
 90
       12
 70
     0
 43
0.0
 10
112.5299750843
 20
18.6137222197
 10
112.4870112434
 20
18.6129538016
 10
112.4444174328
 20
18.6072754007
 10
112.4027529347
 20
18.5967615778
 10
112.3625648286
 20
18.5815503857
 10
112.3243808083
 20
18.5618415562
 10
112.2887022527
 20
18.5378938782
 10
112.2559976423
 20
18.5100217988
 10
112.2266964082
 20
18.4785912949
 10
112.201183293
 20
18.4440150679
 10
112.179793299
 20
18.406747124
 10
112.1628072896
 20
18.3672768136
  0
LWPOLYLINE
  5
15C7
330
21A
100
AcDbEntity
  8
0
  6
Continuous
 62
     7
100
AcDbPolyline
 90
        3
 70
     0
 43
0.0
 10
116.3717788501
 20
18.1303120309
 10
116.3844897585
 20
18.1304873703
 10
116.3953519016
 20
18.130720449
  0
LWPOLYLINE
  5
15C8
330
21A
100
AcDbEntity
  8
0
  6
Continuous
 62
     7
100
AcDbPolyline
 90
       29
 70
     0
 43
0.0
 10
120.1955066301
 20
18.6136072983
 10
120.1951173582
 20
18.6136050933
 10
120.1951260579
 20
18.6136047965
 10
120.1958688301
 20
18.6136005984
 10
120.1974936799
 20
18.6135795046
 10
120.2001863326
 20
18.6135193434
 10
120.2041862364
 20
18.6133824344
 10
120.2097487338
 20
18.6131079928
 10
120.2171613095
 20
18.6126002524
 10
120.2269732956
 20
18.6116876965
 10
120.2396768715
 20
18.6101058524
 10
120.2547809473
 20
18.6076374538
 10
120.2712915074
 20
18.6041994532
 10
120.2886874284
 20
18.5997205073
 10
120.3067865114
 20
18.5940941
 10
120.3254100669
 20
18.587227145
 10
120.3443812669
 20
18.5790410733
 10
120.3635931824
 20
18.5694357425
 10
120.3829055095
 20
18.5583263103
 10
120.4021644223
 20
18.5456388461
 10
120.4212124584
 20
18.53130516
 10
120.4398886166
 20
18.5152605805
 10
120.4580172644
 20
18.4974518851
 10
120.4754075586
 20
18.4778402853
 10
120.4918538299
 20
18.4564042677
 10
120.5071370072
 20
18.4331416212
 10
120.521025318
 20
18.4080728344
 10
120.5332757776
 20
18.3812445103
 10
120.5386778608
 20
18.3672768502
  0
LWPOLYLINE
  5
15C9
330
21A
100
AcDbEntity
  8
0
  6
Continuous
 62
     7
100
AcDbPolyline
 90
       22
 70
     0
 43
0.0
 10
121.5366829023
 20
19.2506967568
 10
121.4156369903
 20
19.2500751551
 10
121.2951920162
 20
19.2492309907
 10
121.1763374143
 20
19.2481705214
 10
121.060073874
 20
19.2469039922
 10
120.9473241315
 20
19.2454387848
 10
120.8382147428
 20
19.2437782393
 10
120.7330938597
 20
19.2419281333
 10
120.6326343265
 20
19.2398928952
 10
120.5376271268
 20
19.2376954211
 10
120.448785403
 20
19.2353408866
 10
120.366484787
 20
19.2328492936
 10
120.290903902
 20
19.2302196404
 10
120.2223772813
 20
19.2274598586
 10
120.1614138039
 20
19.2245951187
 10
120.1084678649
 20
19.2216352159
 10
120.0639196255
 20
19.2186115277
 10
120.0280804238
 20
19.2155431072
 10
120.0011116551
 20
19.2124767366
 10
119.9829087679
 20
19.209462938
 10
119.9729981754
 20
19.2065515733
 10
119.9704992848
 20
19.2041887525
  0
LWPOLYLINE
  5
15CA
330
21A
100
AcDbEntity
  8
0
  6
Continuous
 62
     7
100
AcDbPolyline
 90
       21
 70
     0
 43
0.0
 10
121.5365529294
 20
19.2819358566
 10
121.4124201365
 20
19.2812954287
 10
121.2886694186
 20
19.2804187487
 10
121.1664155861
 20
19.279311848
 10
121.0466402023
 20
19.2779821191
 10
120.9303638482
 20
19.2764381429
 10
120.8180233512
 20
19.2746839865
 10
120.7101832028
 20
19.272728846
 10
120.6075770021
 20
19.2705823775
 10
120.5111308804
 20
19.2682675428
 10
120.4212849075
 20
19.2657882144
 10
120.3384995706
 20
19.2631600689
 10
120.2630526039
 20
19.2603901719
 10
120.1953966305
 20
19.2574911687
 10
120.1359501034
 20
19.2544843443
 10
120.0852531567
 20
19.2513829899
 10
120.0435171363
 20
19.2482074077
 10
120.0109651083
 20
19.2449643158
 10
119.9877835301
 20
19.2416694136
 10
119.9742346239
 20
19.23834949099999
 10
119.9704145056
 20
19.2354260772
  0
LWPOLYLINE
  5
15CB
330
21A
100
AcDbEntity
  8
0
  6
Continuous
 62
     7
100
AcDbPolyline
 90
       17
 70
     0
 43
0.0
 10
116.3507425762
 20
19.3008098872
 10
116.258064106
 20
19.3007030598
 10
116.1659977973
 20
19.3003828088
 10
116.0753679335
 20
19.2998517105
 10
115.9868933213
 20
19.2991139277
 10
115.9012239155
 20
19.2981747387
 10
115.8190188699
 20
19.2970409793
 10
115.7409458387
 20
19.2957214944
 10
115.6676289552
 20
19.2942266569
 10
115.5996390497
 20
19.29256806599999
 10
115.5375167085
 20
19.2907591
 10
115.4818269753
 20
19.2888175721
 10
115.4331011329
 20
19.2867664706
 10
115.3916041372
 20
19.284624608
 10
115.3573768855
 20
19.2824009174
 10
115.3305311691
 20
19.2801054036
 10
115.3112431863
 20
19.2777525575
  0
LINE
  5
15CC
330
21A
100
AcDbEntity
  8
0
  6
Continuous
 62
     7
100
AcDbLine
 10
117.921542737
 20
18.6528168466
 30
0.0
 11
117.7518859558
 21
18.652636439
 31
0.0
  0
LINE
  5
15CD
330
21A
100
AcDbEntity
  8
0
  6
Continuous
 62
     7
100
AcDbLine
 10
117.7518859558
 20
18.652636439
 30
0.0
 11
117.558352252
 21
18.6525032394
 31
0.0
  0
LINE
  5
15CE
330
21A
100
AcDbEntity
  8
0
  6
Continuous
 62
     7
100
AcDbLine
 10
117.558352252
 20
18.6525032394
 30
0.0
 11
117.3554439662
 21
18.6524082146
 31
0.0
  0
LINE
  5
15CF
330
21A
100
AcDbEntity
  8
0
  6
Continuous
 62
     7
100
AcDbLine
 10
115.0792959668
 20
18.1495619595
 30
0.0
 11
116.1426403082
 21
18.1495619595
 31
0.0
  0
LINE
  5
15D0
330
21A
100
AcDbEntity
  8
0
  6
Continuous
 62
     7
100
AcDbLine
 10
116.5586158683
 20
18.1495619595
 30
0.0
 11
117.6221891856
 21
18.1495619595
 31
0.0
  0
LINE
  5
15D1
330
21A
100
AcDbEntity
  8
0
  6
Continuous
 62
     7
100
AcDbLine
 10
115.3460411738
 20
18.6524083681
 30
0.0
 11
115.0485658512
 21
18.6525610887
 31
0.0
  0
LWPOLYLINE
  5
15D2
330
21A
100
AcDbEntity
  8
0
  6
Continuous
 62
     7
100
AcDbPolyline
 90
        3
 70
     0
 43
0.0
 10
116.3412627201
 20
18.1302284164
 10
116.356856244
 20
18.1302162602
 10
116.3717788501
 20
18.1303120309
  0
LWPOLYLINE
  5
15D3
330
21A
100
AcDbEntity
  8
0
  6
Continuous
 62
     7
100
AcDbPolyline
 90
       13
 70
     0
 43
0.0
 10
115.0485658512
 20
18.6525610887
 10
114.8660059335
 20
18.6527159907
 10
114.7840264994
 20
18.6528115407
 10
114.7087128013
 20
18.6529198019
 10
114.6403969242
 20
18.653041418
 10
114.5793519112
 20
18.6531769877
 10
114.525836873
 20
18.6533281518
 10
114.4800769708
 20
18.6534952681
 10
114.4422624768
 20
18.6536779551
 10
114.4125569166
 20
18.6538764655
 10
114.3911025608
 20
18.6540886596
 10
114.3780002063
 20
18.6543111387
 10
114.3746040791
 20
18.6544252615
  0
LWPOLYLINE
  5
15D4
330
21A
100
AcDbEntity
  8
0
  6
Continuous
 62
     7
100
AcDbPolyline
 90
       25
 70
     0
 43
0.0
 10
111.1648022503
 20
19.2506967718
 10
111.0372785028
 20
19.2511079706
 10
110.910006523
 20
19.2512690279
 10
110.7845580212
 20
19.2511792089
 10
110.6620603508
 20
19.2508399609
 10
110.543396032
 20
19.2502566715
 10
110.4290405467
 20
19.2494310518
 10
110.3192523905
 20
19.2483651234
 10
110.215050638
 20
19.2470690416
 10
110.1172522689
 20
19.2455508635
 10
110.027159668
 20
19.2438336076
 10
109.9471302669
 20
19.2419800687
 10
109.8784713724
 20
19.2400704158
 10
109.8207838343
 20
19.2381616396
 10
109.773190432
 20
19.2363008489
 10
109.7340960827
 20
19.234501836
 10
109.7017123247
 20
19.2327464663
 10
109.6747757473
 20
19.2310164555
 10
109.6523742154
 20
19.2292931863
 10
109.6339657595
 20
19.2275654525
 10
109.6191807353
 20
19.2258212145
 10
109.6077917354
 20
19.2240463979
 10
109.5997116867
 20
19.2222253782
 10
109.5949959352
 20
19.2203412685
 10
109.5937769375
 20
19.218766367
  0
LWPOLYLINE
  5
15D5
330
21A
100
AcDbEntity
  8
0
  6
Continuous
 62
     7
100
AcDbPolyline
 90
       21
 70
     0
 43
0.0
 10
111.164932223
 20
19.2819358723
 10
111.0404149321
 20
19.2823402442
 10
110.9163636601
 20
19.2825061368
 10
110.7938813499
 20
19.2824333123
 10
110.6738698305
 20
19.2821229763
 10
110.5572684875
 20
19.2815768129
 10
110.4445745368
 20
19.2807967334
 10
110.336302366
 20
19.2797875511
 10
110.2333913093
 20
19.2785556571
 10
110.1369715149
 20
19.2771211034
 10
110.0472629583
 20
19.2754815402
 10
109.9647087133
 20
19.2736523155
 10
109.8892260565
 20
19.2716265022
 10
109.8209661176
 20
19.2694003803
 10
109.7608880154
 20
19.2669963067
 10
109.7097417759
 20
19.2644370268
 10
109.6677584131
 20
19.2617345217
 10
109.6349251735
 20
19.2588829722
 10
109.6114987745
 20
19.2558929961
 10
109.5978240595
 20
19.2527921658
 10
109.5939912849
 20
19.2500076708
  0
LWPOLYLINE
  5
15D6
330
21A
100
AcDbEntity
  8
0
  6
Continuous
 62
     7
100
AcDbPolyline
 90
        4
 70
     0
 43
0.0
 10
112.5031762084
 20
18.6135506958
 10
112.5188605815
 20
18.6133085012
 10
112.5274246945
 20
18.6133908276
 10
112.529975084
 20
18.6137222122
  0
LINE
  5
15D7
330
21A
100
AcDbEntity
  8
0
  6
Continuous
 62
     7
100
AcDbLine
 10
120.2144739091
 20
18.6129538016
 30
0.0
 11
120.1715100682
 21
18.6137222197
 31
0.0
  0
LWPOLYLINE
  5
15D8
330
21A
100
AcDbEntity
  8
0
  6
Continuous
 62
     7
100
AcDbPolyline
 90
        4
 70
     0
 43
0.0
 10
116.3021948678
 20
18.1308271451
 10
116.3132442122
 20
18.1305583422
 10
116.326097071
 20
18.1303523046
 10
116.3412627201
 20
18.1302284164
  0
LINE
  5
15D9
330
21A
100
AcDbEntity
  8
0
  6
Continuous
 62
     7
100
AcDbLine
 10
108.9557927063
 20
18.8834415798
 30
0.0
 11
109.732312899
 21
18.8518002193
 31
0.0
  0
LWPOLYLINE
  5
15DA
330
21A
100
AcDbEntity
  8
0
  6
Continuous
 62
     7
100
AcDbPolyline
 90
        8
 70
     0
 43
0.0
 10
112.5647877841
 20
18.7349377494
 10
112.8793787429
 20
18.7216213537
 10
113.1379362133
 20
18.7105500266
 10
113.382907285
 20
18.6999245453
 10
113.6120307149
 20
18.6898297789
 10
113.8257842677
 20
18.6802363482
 10
114.0315108436
 20
18.6707957188
 10
114.2377089906
 20
18.6610678843
  0
LWPOLYLINE
  5
15DB
330
21A
100
AcDbEntity
  8
0
  6
Continuous
 62
     7
100
AcDbPolyline
 90
        5
 70
     0
 43
0.0
 10
116.3194925762
 20
18.131181135
 10
116.2416953582
 20
18.1347478695
 10
116.1645512207
 20
18.1454181315
 10
116.0887077619
 20
18.163102348
 10
116.0148016612
 20
18.187652066
  0
LWPOLYLINE
  5
15DC
330
21A
100
AcDbEntity
  8
0
  6
Continuous
 62
     7
100
AcDbPolyline
 90
       11
 70
     0
 43
0.0
 10
116.3194925762
 20
18.7208132277
 10
116.2355252617
 20
18.7249695976
 10
116.1523793503
 20
18.7373980481
 10
116.0708682099
 20
18.7579769988
 10
115.9917892162
 20
18.7865051379
 10
115.9159159528
 20
18.8227033913
 10
115.8439906435
 20
18.8662176528
 10
115.7767168915
 20
18.9166222476
 10
115.7147527966
 20
18.9734240971
 10
115.6587045172
 20
19.0360675421
 10
115.6091203113
 20
19.1039398235
  0
LWPOLYLINE
  5
15DD
330
21A
100
AcDbEntity
  8
0
  6
Continuous
 62
     7
100
AcDbPolyline
 90
       16
 70
     0
 43
0.0
 10
114.2377089906
 20
18.6610678843
 10
114.3749448928
 20
18.6544077879
 10
114.3758371059
 20
18.6543552318
 10
114.3772421522
 20
18.6542560546
 10
114.3793995914
 20
18.6540686134
 10
114.3826175442
 20
18.6537142606
 10
114.3871465765
 20
18.6530673758
 10
114.3928753358
 20
18.6520008743
 10
114.3996018726
 20
18.6503877265
 10
114.4072053404
 20
18.6480770424
 10
114.4155233437
 20
18.644922076
 10
114.4242325483
 20
18.640857569
 10
114.4330319588
 20
18.6358704644
 10
114.4416834221
 20
18.629977048
 10
114.4499703461
 20
18.6232394616
 10
114.4554299204
 20
18.6180980859
  0
LWPOLYLINE
  5
15DE
330
21A
100
AcDbEntity
  8
0
  6
Continuous
 62
     7
100
AcDbPolyline
 90
        9
 70
     0
 43
0.0
 10
115.2959050452
 20
19.2729379257
 10
115.3421438141
 20
19.2700568521
 10
115.3876740305
 20
19.26149817
 10
115.431800769
 20
19.24739251
 10
115.4738505252
 20
19.2279551663
 10
115.5131814957
 20
19.20348281
 10
115.5491933739
 20
19.1743489616
 10
115.5813365122
 20
19.1409982895
 10
115.6091203113
 20
19.1039398235
  0
LINE
  5
15DF
330
21A
100
AcDbEntity
  8
0
  6
Continuous
 62
     7
100
AcDbLine
 10
115.3497387754
 20
18.6105255056
 30
0.0
 11
115.3923082012
 21
18.6078428576
 31
0.0
  0
LWPOLYLINE
  5
15E0
330
21A
100
AcDbEntity
  8
0
  6
Continuous
 62
     7
100
AcDbPolyline
 90
       11
 70
     0
 43
0.0
 10
109.5938482436
 20
19.2183755517
 10
109.6392765506
 20
19.2153113634
 10
109.6839971683
 20
19.2067652867
 10
109.7273507373
 20
19.1928633246
 10
109.7686980539
 20
19.1738104473
 10
109.8074294945
 20
19.1498875698
 10
109.8429740039
 20
19.1214474103
 10
109.8748075151
 20
19.0889092896
 10
109.9024606756
 20
19.0527529487
 10
109.9255257682
 20
19.01351147559999
 10
109.9436627219
 20
18.9717634455
  0
LWPOLYLINE
  5
15E1
330
21A
100
AcDbEntity
  8
0
  6
Continuous
 62
     7
100
AcDbPolyline
 90
       18
 70
     0
 43
0.0
 10
115.4182565468
 20
18.60199518
 10
115.4171726007
 20
18.60211816
 10
115.4172002396
 20
18.6021117861
 10
115.4195253471
 20
18.6017735923
 10
115.4243950263
 20
18.6009615902
 10
115.4318919053
 20
18.5995116188
 10
115.4417785431
 20
18.5972835242
 10
115.4537893969
 20
18.5941290219
 10
115.4682238242
 20
18.5897063384
 10
115.4855288105
 20
18.5834904179
 10
115.5052067117
 20
18.5751701448
 10
115.5262198433
 20
18.5647225583
 10
115.547860819
 20
18.5521227207
 10
115.5697852076
 20
18.5372247375
 10
115.5916483933
 20
18.519901731
 10
115.613110773
 20
18.5000366287
 10
115.6338507007
 20
18.4774932239
 10
115.6451537733
 20
18.4634760138
  0
LINE
  5
15E2
330
21A
100
AcDbEntity
  8
0
  6
Continuous
 62
     7
100
AcDbLine
 10
120.2570677196
 20
18.6072754007
 30
0.0
 11
120.2144739091
 21
18.6129538016
 31
0.0
  0
LWPOLYLINE
  5
15E3
330
21A
100
AcDbEntity
  8
0
  6
Continuous
 62
     7
100
AcDbPolyline
 90
        5
 70
     0
 43
0.0
 10
120.1715100842
 20
18.6137222151
 10
120.1738203247
 20
18.6134012458
 10
120.1815371214
 20
18.6133034261
 10
120.1956338561
 20
18.613494789
 10
120.1983028961
 20
18.6135614245
  0
LINE
  5
15E4
330
21A
100
AcDbEntity
  8
0
  6
Continuous
 62
     7
100
AcDbLine
 10
115.3923082012
 20
18.6078428576
 30
0.0
 11
115.4342972781
 21
18.6003449743
 31
0.0
  0
LWPOLYLINE
  5
15E5
330
21A
100
AcDbEntity
  8
0
  6
Continuous
 62
     7
100
AcDbPolyline
 90
        4
 70
     0
 43
0.0
 10
115.4342972781
 20
18.6003449743
 10
115.4751627609
 20
18.5881288615
 10
115.5143759411
 20
18.5713525687
 10
115.5514294874
 20
18.5502331436
  0
LINE
  5
15E6
330
21A
100
AcDbEntity
  8
0
  6
Continuous
 62
     7
100
AcDbLine
 10
116.0148016612
 20
18.187652066
 30
0.0
 11
115.9434533346
 21
18.2188611992
 31
0.0
  0
LINE
  5
15E7
330
21A
100
AcDbEntity
  8
0
  6
Continuous
 62
     7
100
AcDbLine
 10
115.9434533346
 20
18.2188611992
 30
0.0
 11
115.8752617264
 21
18.2564677578
 31
0.0
  0
LWPOLYLINE
  5
15E8
330
21A
100
AcDbEntity
  8
0
  6
Continuous
 62
     7
100
AcDbPolyline
 90
       21
 70
     0
 43
0.0
 10
112.7310703053
 20
19.2354254966
 10
112.727241158
 20
19.2383529992
 10
112.7136984109
 20
19.2416701914
 10
112.6905646297
 20
19.2449590651
 10
112.6580886515
 20
19.248197247
 10
112.6164236432
 20
19.2513697889
 10
112.5657808849
 20
19.2544708707
 10
112.5063794839
 20
19.2574775987
 10
112.4387684939
 20
19.2603769205
 10
112.3633771499
 20
19.2631467431
 10
112.2806603115
 20
19.2657744382
 10
112.190879614
 20
19.2682541178
 10
112.0945109732
 20
19.2705688497
 10
111.9919914391
 20
19.2727154311
 10
111.8841838963
 20
19.2746718204
 10
111.7717498979
 20
19.2764290206
 10
111.655344425
 20
19.2779760893
 10
111.5354384315
 20
19.2793081133
 10
111.4130645938
 20
19.2804167603
 10
111.2891929795
 20
19.2812946337
 10
111.164932223
 20
19.2819358723
  0
LWPOLYLINE
  5
15E9
330
21A
100
AcDbEntity
  8
0
  6
Continuous
 62
     7
100
AcDbPolyline
 90
       21
 70
     0
 43
0.0
 10
112.73098565
 20
19.2041881441
 10
112.7281728811
 20
19.2066956922
 10
112.7171260711
 20
19.2097634365
 10
112.6968736744
 20
19.212937188
 10
112.6669250761
 20
19.2161598719
 10
112.6272189839
 20
19.2193735477
 10
112.5779872528
 20
19.2225335954
 10
112.5196281667
 20
19.225607893
 10
112.4525844617
 20
19.2285777976
 10
112.3774152943
 20
19.2314191647
 10
112.2946761186
 20
19.2341138246
 10
112.2046257064
 20
19.2366540015
 10
112.1075483029
 20
19.2390328387
 10
112.0041164666
 20
19.2412354793
 10
111.8952584219
 20
19.2432431868
 10
111.7817809991
 20
19.2450426906
 10
111.6642751112
 20
19.2466257176
 10
111.5427849803
 20
19.2479935518
 10
111.4182671499
 20
19.2491344721
 10
111.291878789
 20
19.2500382926
 10
111.1648022502
 20
19.2506967551
  0
LWPOLYLINE
  5
15EA
330
21A
100
AcDbEntity
  8
0
  6
Continuous
 62
     7
100
AcDbPolyline
 90
        5
 70
     0
 43
0.0
 10
109.7811213016
 20
18.7346305001
 10
109.7831748648
 20
18.7302326103
 10
109.784718854
 20
18.7270762894
 10
109.7857432339
 20
18.725170407
 10
109.786249205
 20
18.7244988965
  0
LWPOLYLINE
  5
15EB
330
21A
100
AcDbEntity
  8
0
  6
Continuous
 62
     7
100
AcDbPolyline
 90
        5
 70
     0
 43
0.0
 10
109.7682955207
 20
18.7638007981
 10
109.7721344785
 20
18.7548848944
 10
109.7755718363
 20
18.7470108363
 10
109.778578054
 20
18.7402387069
 10
109.7811213016
 20
18.7346305001
  0
LINE
  5
15EC
330
21A
100
AcDbEntity
  8
0
  6
Continuous
 62
     7
100
AcDbLine
 10
109.5940624312
 20
19.24961469
 30
0.0
 11
109.5992423714
 21
19.2356310665
 31
0.0
  0
LWPOLYLINE
  5
15ED
330
21A
100
AcDbEntity
  8
0
  6
Continuous
 62
     7
100
AcDbPolyline
 90
       24
 70
     0
 43
0.0
 10
109.5938482436
 20
19.2183755517
 10
109.6082873655
 20
19.1793726085
 10
109.6213532261
 20
19.1441636331
 10
109.6332863586
 20
19.1120896301
 10
109.6443071409
 20
19.0825496017
 10
109.6545255902
 20
19.0552414802
 10
109.6640108683
 20
19.0299733038
 10
109.6728505188
 20
19.0065050728
 10
109.6811349595
 20
18.9845909088
 10
109.688926661
 20
18.964060637
 10
109.6962799054
 20
18.9447669753
 10
109.7032541255
 20
18.926550503
 10
109.7098970205
 20
18.9092837002
 10
109.7162461744
 20
18.892867386
 10
109.7223347441
 20
18.8772154158
 10
109.7281923046
 20
18.8622524904
 10
109.733844514
 20
18.8479151352
 10
109.7393124226
 20
18.8341535618
 10
109.7446121012
 20
18.820932549
 10
109.7497501227
 20
18.8082428666
 10
109.7547208527
 20
18.7961074536
 10
109.7595106824
 20
18.7845616609
 10
109.764068093
 20
18.7737313317
 10
109.7682955207
 20
18.7638007981
  0
LINE
  5
15EE
330
21A
100
AcDbEntity
  8
0
  6
Continuous
 62
     7
100
AcDbLine
 10
110.2822807442
 20
18.0414180752
 30
0.0
 11
109.9436627304
 21
18.9717634219
 31
0.0
  0
LWPOLYLINE
  5
15EF
330
21A
100
AcDbEntity
  8
0
  6
Continuous
 62
     7
100
AcDbPolyline
 90
        3
 70
     0
 43
0.0
 10
115.3112431863
 20
19.2777525575
 10
115.2996638884
 20
19.2753583866
 10
115.295902992
 20
19.2729935055
  0
LWPOLYLINE
  5
15F0
330
21A
100
AcDbEntity
  8
0
  6
Continuous
 62
     7
100
AcDbPolyline
 90
       11
 70
     0
 43
0.0
 10
112.7309132177
 20
19.2037891481
 10
112.6851014796
 20
19.2011174371
 10
112.6399606584
 20
19.1928714092
 10
112.5961668193
 20
19.1791745635
 10
112.554375854
 20
19.1602320348
 10
112.5152136575
 20
19.1363275218
 10
112.4792667543
 20
19.1078190376
 10
112.447073514
 20
19.0751335481
 10
112.4191160884
 20
19.0387605774
 10
112.3958131904
 20
18.9992448763
 10
112.3775138229
 20
18.9571782637
  0
LWPOLYLINE
  5
15F1
330
21A
100
AcDbEntity
  8
0
  6
Continuous
 62
     7
100
AcDbPolyline
 90
       19
 70
     0
 43
0.0
 10
116.3507425762
 20
19.3164293562
 10
116.2587003734
 20
19.3163239926
 10
116.167310743
 20
19.3160083714
 10
116.0774039876
 20
19.3154855348
 10
115.9894701072
 20
19.3147580875
 10
115.9044014635
 20
19.3138332338
 10
115.8226279604
 20
19.3127153778
 10
115.7449855655
 20
19.3114156036
 10
115.6719237313
 20
19.3099413369
 10
115.6040705019
 20
19.3083047853
 10
115.541938625
 20
19.3065182372
 10
115.4859223095
 20
19.3045923325
 10
115.4365502617
 20
19.3025447919
 10
115.3940967587
 20
19.3003863668
 10
115.3589850112
 20
19.2981380174
 10
115.3313975654
 20
19.2958108588
 10
115.3116157496
 20
19.2934278079
 10
115.2997523642
 20
19.2910030823
 10
115.2959106611
 20
19.2886131105
  0
LWPOLYLINE
  5
15F2
330
21A
100
AcDbEntity
  8
0
  6
Continuous
 62
     7
100
AcDbPolyline
 90
       35
 70
     0
 43
0.0
 10
116.3507425762
 20
19.4896384266
 10
115.8779267676
 20
19.489366146
 10
115.4449120986
 20
19.4886129904
 10
115.0358809863
 20
19.4874218626
 10
114.6485332602
 20
19.4858278924
 10
114.2804837863
 20
19.4838574384
 10
113.9298412729
 20
19.4815313847
 10
113.5943488459
 20
19.4788605058
 10
113.2720877408
 20
19.4758495355
 10
112.9615042217
 20
19.4724991654
 10
112.6604563731
 20
19.468795608
 10
112.3676843524
 20
19.4647267136
 10
112.0814774429
 20
19.4602661763
 10
111.8001564815
 20
19.4553772358
 10
111.5225281106
 20
19.4500203691
 10
111.2471579611
 20
19.4441397937
 10
110.9730348839
 20
19.4376748208
 10
110.6992635615
 20
19.4305532402
 10
110.4254625356
 20
19.4227010903
 10
110.151651316
 20
19.4140419275
 10
109.8777122902
 20
19.4044789694
 10
109.6037667499
 20
19.3939021682
 10
109.3303221124
 20
19.382191324
 10
109.0582991278
 20
19.3692156846
 10
108.7890887802
 20
19.3548347771
 10
108.5246063123
 20
19.3388995197
 10
108.2673496134
 20
19.3212541604
 10
108.0204531831
 20
19.3017388067
 10
107.7877503626
 20
19.2801939034
 10
107.5738231219
 20
19.2564658378
 10
107.3840887256
 20
19.230420486
 10
107.2250419245
 20
19.2020024505
 10
107.105104663
 20
19.17163787279999
 10
107.0306681119
 20
19.1399050606
 10
107.005632364
 20
19.107433853
  0
LWPOLYLINE
  5
15F3
330
21A
100
AcDbEntity
  8
0
  6
Continuous
 62
     7
100
AcDbPolyline
 90
       17
 70
     0
 43
0.0
 10
117.3902545711
 20
19.2777506597
 10
117.3709771074
 20
19.2801030991
 10
117.344137655
 20
19.2823987694
 10
117.3099116515
 20
19.2846228644
 10
117.2684174859
 20
19.2867649365
 10
117.2196839454
 20
19.2888166065
 10
117.1639781914
 20
19.2907588072
 10
117.1018463383
 20
19.292568074
 10
117.0338560017
 20
19.2942266719
 10
116.9605455817
 20
19.2957213847
 10
116.8824766514
 20
19.29704082309999
 10
116.8002699279
 20
19.2981746304
 10
116.7145963372
 20
19.2991138775
 10
116.6261207194
 20
19.2998516809
 10
116.5354944844
 20
19.3003827563
 10
116.4434296786
 20
19.300703043
 10
116.3507425762
 20
19.3008098616
  0
LWPOLYLINE
  5
15F4
330
21A
100
AcDbEntity
  8
0
  6
Continuous
 62
     7
100
AcDbPolyline
 90
        6
 70
     0
 43
0.0
 10
115.3497387754
 20
18.6105255056
 10
115.3532361952
 20
18.6083954585
 10
115.3636604461
 20
18.6061860137
 10
115.3812711189
 20
18.6039277128
 10
115.406142183
 20
18.6016473244
 10
115.4293806191
 20
18.5999973267
  0
LINE
  5
15F5
330
21A
100
AcDbEntity
  8
0
  6
Continuous
 62
     7
100
AcDbLine
 10
115.8752617264
 20
18.2564677578
 30
0.0
 11
115.8107992815
 21
18.3001560479
 31
0.0
  0
LINE
  5
15F6
330
21A
100
AcDbEntity
  8
0
  6
Continuous
 62
     7
100
AcDbLine
 10
115.5514294874
 20
18.5502331436
 30
0.0
 11
115.5858440093
 21
18.5250438248
 31
0.0
  0
LINE
  5
15F7
330
21A
100
AcDbEntity
  8
0
  6
Continuous
 62
     7
100
AcDbLine
 10
115.8107992815
 20
18.3001560479
 30
0.0
 11
115.751306256
 21
18.348985515
 31
0.0
  0
LINE
  5
15F8
330
21A
100
AcDbEntity
  8
0
  6
Continuous
 62
     7
100
AcDbLine
 10
115.751306256
 20
18.348985515
 30
0.0
 11
115.7504409216
 21
18.3497234008
 31
0.0
  0
LWPOLYLINE
  5
15F9
330
21A
100
AcDbEntity
  8
0
  6
Continuous
 62
     7
100
AcDbPolyline
 90
       21
 70
     0
 43
0.0
 10
115.751306256
 20
18.348985515
 10
115.7898432955
 20
18.3161243062
 10
115.827177083
 20
18.2880216033
 10
115.8786917256
 20
18.2541603805
 10
115.9235088442
 20
18.2287999531
 10
115.9602321774
 20
18.2105807104
 10
116.0106753148
 20
18.189005825
 10
116.0458618403
 20
18.1761668889
 10
116.0717051625
 20
18.1678347959
 10
116.1034984343
 20
18.1588128274
 10
116.13777981
 20
18.1505554997
 10
116.1611938546
 20
18.1457694071
 10
116.1781270387
 20
18.1427313139
 10
116.1995944031
 20
18.1393829112
 10
116.2190266075
 20
18.1368307651
 10
116.2368862169
 20
18.1348809146
 10
116.2528592392
 20
18.1334533212
 10
116.2676910318
 20
18.1323896561
 10
116.2806107393
 20
18.1316620109
 10
116.2918300819
 20
18.1311722535
 10
116.3021948678
 20
18.1308271451
  0
LINE
  5
15FA
330
21A
100
AcDbEntity
  8
0
  6
Continuous
 62
     7
100
AcDbLine
 10
115.5858440093
 20
18.5250438248
 30
0.0
 11
115.6171742595
 21
18.496110506
 31
0.0
  0
LINE
  5
15FB
330
21A
100
AcDbEntity
  8
0
  6
Continuous
 62
     7
100
AcDbLine
 10
115.7504409216
 20
18.3497234008
 30
0.0
 11
115.6951905927
 21
18.4042628552
 31
0.0
  0
LINE
  5
15FC
330
21A
100
AcDbEntity
  8
0
  6
Continuous
 62
     7
100
AcDbLine
 10
114.8141309239
 20
18.2593969166
 30
0.0
 11
114.4554300404
 21
18.6180978
 31
0.0
  0
LINE
  5
15FD
330
21A
100
AcDbEntity
  8
0
  6
Continuous
 62
     7
100
AcDbLine
 10
109.5937769375
 20
19.218766367
 30
0.0
 11
109.5938482436
 21
19.2183755517
 31
0.0
  0
LINE
  5
15FE
330
21A
100
AcDbEntity
  8
0
  6
Continuous
 62
     7
100
AcDbLine
 10
109.5939912849
 20
19.2500076708
 30
0.0
 11
109.5940624312
 21
19.24961469
 31
0.0
  0
LINE
  5
15FF
330
21A
100
AcDbEntity
  8
0
  6
Continuous
 62
     7
100
AcDbLine
 10
109.5939912723
 20
19.2500060249
 30
0.0
 11
109.5937772744
 21
19.2187663647
 31
0.0
  0
LINE
  5
1600
330
21A
100
AcDbEntity
  8
0
  6
Continuous
 62
     7
100
AcDbLine
 10
109.5938482436
 20
19.2183755517
 30
0.0
 11
109.5940624312
 21
19.24961469
 31
0.0
  0
LWPOLYLINE
  5
1601
330
21A
100
AcDbEntity
  8
0
  6
Continuous
 62
     7
100
AcDbPolyline
 90
       19
 70
     0
 43
0.0
 10
117.4055744846
 20
19.2886129643
 10
117.4017330638
 20
19.2910030175
 10
117.3898703128
 20
19.2934277101
 10
117.3700886202
 20
19.2958107824
 10
117.3425003899
 20
19.2981380259
 10
117.3073869857
 20
19.300386474
 10
117.2649323532
 20
19.3025449318
 10
117.2155592898
 20
19.3045924909
 10
117.1595432937
 20
19.3065183627
 10
117.0974135528
 20
19.3083048351
 10
117.0295607764
 20
19.3099413695
 10
116.9564994825
 20
19.31141562
 10
116.878857755
 20
19.312715379
 10
116.7970852497
 20
19.3138332203
 10
116.7120179816
 20
19.3147580573
 10
116.6240855789
 20
19.3154855022
 10
116.5341797344
 20
19.316008328
 10
116.4427887767
 20
19.3163239874
 10
116.3507425762
 20
19.3164293562
  0
LWPOLYLINE
  5
1602
330
21A
100
AcDbEntity
  8
0
  6
Continuous
 62
     7
100
AcDbPolyline
 90
        3
 70
     0
 43
0.0
 10
117.405582159
 20
19.2729934837
 10
117.4018248299
 20
19.2753572867
 10
117.3902545711
 20
19.2777506597
  0
LINE
  5
1603
330
21A
100
AcDbEntity
  8
0
  6
Continuous
 62
     7
100
AcDbLine
 10
115.6171742595
 20
18.496110506
 30
0.0
 11
115.6450148942
 21
18.4638075199
 31
0.0
  0
LWPOLYLINE
  5
1604
330
21A
100
AcDbEntity
  8
0
  6
Continuous
 62
     7
100
AcDbPolyline
 90
        4
 70
     0
 43
0.0
 10
115.6451537742
 20
18.4634757703
 10
115.6980905037
 20
18.4009715239
 10
115.746736648
 20
18.3528820998
 10
115.7504409216
 20
18.3497234008
  0
LINE
  5
1605
330
21A
100
AcDbEntity
  8
0
  6
Continuous
 62
     7
100
AcDbLine
 10
115.6951905927
 20
18.4042628552
 30
0.0
 11
115.6450148199
 21
18.463807463
 31
0.0
  0
LINE
  5
1606
330
21A
100
AcDbEntity
  8
0
  6
Continuous
 62
     7
100
AcDbLine
 10
111.1648022502
 20
19.2506967551
 30
0.0
 11
111.164932223
 21
19.2819358723
 31
0.0
  0
LINE
  5
1607
330
21A
100
AcDbEntity
  8
0
  6
Continuous
 62
     7
100
AcDbLine
 10
115.6450148199
 20
18.463807463
 30
0.0
 11
115.6451535156
 21
18.4634761074
 31
0.0
  0
LINE
  5
1608
330
21A
100
AcDbEntity
  8
0
  6
Continuous
 62
     7
100
AcDbLine
 10
112.7309132177
 20
19.2037891395
 30
0.0
 11
112.7309977716
 21
19.2350281854
 31
0.0
  0
LINE
  5
1609
330
21A
100
AcDbEntity
  8
0
  6
Continuous
 62
     7
100
AcDbLine
 10
112.7309858381
 20
19.2041881436
 30
0.0
 11
112.7310703103
 21
19.235426962
 31
0.0
  0
LINE
  5
160A
330
21A
100
AcDbEntity
  8
0
  6
Continuous
 62
     7
100
AcDbLine
 10
130.6611415953
 20
36.8461535295
 30
0.0
 11
130.595829596
 21
36.8227976413
 31
0.0
  0
LWPOLYLINE
  5
160B
330
21A
100
AcDbEntity
  8
0
  6
Continuous
 62
     7
100
AcDbPolyline
 90
        4
 70
     0
 43
0.0
 10
130.5572527942
 20
36.8094651085
 10
130.5712969138
 20
36.8142865023
 10
130.584134595
 20
36.8187259136
 10
130.595829596
 20
36.8227976413
  0
LWPOLYLINE
  5
160C
330
21A
100
AcDbEntity
  8
0
  6
Continuous
 62
     7
100
AcDbPolyline
 90
       21
 70
     0
 43
0.0
 10
123.1074939779
 20
19.2500079384
 10
123.1036693625
 20
19.2527891009
 10
123.0900390768
 20
19.2558843491
 10
123.0667039264
 20
19.2588680805
 10
123.0340106928
 20
19.26171340339999
 10
122.992301846
 20
19.2644054315
 10
122.9417146687
 20
19.2669464112
 10
122.882335894
 20
19.2693346267
 10
122.8144764356
 20
19.2715607301
 10
122.7386550887
 20
19.2736065407
 10
122.6553387868
 20
19.2754586806
 10
122.5649128161
 20
19.2771145833
 10
122.4680779662
 20
19.2785558465
 10
122.3651840852
 20
19.279787563
 10
122.2570831947
 20
19.2807953216
 10
122.1443954687
 20
19.2815756524
 10
122.0276964006
 20
19.2821228443
 10
121.9076001923
 20
19.2824332472
 10
121.7850638455
 20
19.2825061386
 10
121.6610135762
 20
19.2823400928
 10
121.5365529294
 20
19.2819358566
  0
LINE
  5
160D
330
21A
100
AcDbEntity
  8
0
  6
Continuous
 62
     7
100
AcDbLine
 10
115.3466197646
 20
18.6457897967
 30
0.0
 11
115.3497387759
 21
18.6105255725
 31
0.0
  0
LWPOLYLINE
  5
160E
330
21A
100
AcDbEntity
  8
0
  6
Continuous
 62
     7
100
AcDbPolyline
 90
       10
 70
     0
 43
0.0
 10
115.2959050452
 20
19.2729379257
 10
115.3041629258
 20
19.1638235108
 10
115.3116092499
 20
19.0678682169
 10
115.3183032018
 20
18.9835028206
 10
115.3243402884
 20
18.9089107481
 10
115.329807137
 20
18.8425672995
 10
115.3347476303
 20
18.7835926458
 10
115.3391731149
 20
18.7315669059
 10
115.3431014248
 20
18.6860365241
 10
115.3466197646
 20
18.6457897967
  0
LINE
  5
160F
330
21A
100
AcDbEntity
  8
0
  6
Continuous
 62
     7
100
AcDbLine
 10
115.2959127165
 20
19.2885573986
 30
0.0
 11
115.2970723808
 21
19.2730811299
 31
0.0
  0
LINE
  5
1610
330
21A
100
AcDbEntity
  8
0
  6
Continuous
 62
     7
100
AcDbLine
 10
115.295902992
 20
19.2729935055
 30
0.0
 11
115.2959050451
 21
19.272937799
 31
0.0
  0
LINE
  5
1611
330
21A
100
AcDbEntity
  8
0
  6
Continuous
 62
     7
100
AcDbLine
 10
115.2959106611
 20
19.2886131105
 30
0.0
 11
115.2959127165
 21
19.2885573986
 31
0.0
  0
LWPOLYLINE
  5
1612
330
21A
100
AcDbEntity
  8
0
  6
Continuous
 62
     7
100
AcDbPolyline
 90
       10
 70
     0
 43
0.0
 10
112.5299750843
 20
18.6137222197
 10
112.5302421748
 20
18.6158877795
 10
112.5306940354
 20
18.6187028259
 10
112.5313353712
 20
18.622142871
 10
112.5321740961
 20
18.6262027349
 10
112.5332174179
 20
18.6308679481
 10
112.5344763413
 20
18.6360880317
 10
112.5359449745
 20
18.6418193149
 10
112.5376262519
 20
18.6480600507
 10
112.5395199145
 20
18.654812958
  0
LINE
  5
1613
330
21A
100
AcDbEntity
  8
0
  6
Continuous
 62
     7
100
AcDbLine
 10
112.7309132177
 20
19.2037891481
 30
0.0
 11
112.73098565
 21
19.2041881441
 31
0.0
  0
LINE
  5
1614
330
21A
100
AcDbEntity
  8
0
  6
Continuous
 62
     7
100
AcDbLine
 10
112.7309977716
 20
19.2350281854
 30
0.0
 11
112.7310703053
 21
19.2354254966
 31
0.0
  0
LINE
  5
1615
330
21A
100
AcDbEntity
  8
DEFAULT_1
  6
CENTER
 62
     7
100
AcDbLine
 10
116.3507425762
 20
16.2078952929
 30
0.0
 11
116.3507425762
 21
19.1235052685
 31
0.0
  0
LINE
  5
1616
330
21A
100
AcDbEntity
  8
DEFAULT_1
  6
CENTER
 62
     7
100
AcDbLine
 10
116.3507425762
 20
19.3164293562
 30
0.0
 11
116.3507425762
 21
40.3412286262
 31
0.0
  0
LINE
  5
1617
330
21A
100
AcDbEntity
  8
0
  6
Continuous
 62
     7
100
AcDbLine
 10
116.3507425762
 20
19.1235052685
 30
0.0
 11
116.3507425762
 21
19.3164293562
 31
0.0
  0
LINE
  5
1618
330
21A
100
AcDbEntity
  8
0
  6
Continuous
 62
     7
100
AcDbLine
 10
115.295910661
 20
19.2886129833
 30
0.0
 11
115.2959127165
 21
19.2885573986
 31
0.0
  0
LINE
  5
1619
330
21A
100
AcDbEntity
  8
0
  6
Continuous
 62
     7
100
AcDbLine
 10
115.2959050451
 20
19.272937799
 30
0.0
 11
115.2959127165
 21
19.2885573986
 31
0.0
  0
LINE
  5
161A
330
21A
100
AcDbEntity
  8
0
  6
Continuous
 62
     7
100
AcDbLine
 10
112.5395199145
 20
18.654812958
 30
0.0
 11
112.5416306708
 21
18.6620971039
 31
0.0
  0
LWPOLYLINE
  5
161B
330
21A
100
AcDbEntity
  8
0
  6
Continuous
 62
     7
100
AcDbPolyline
 90
       23
 70
     0
 43
0.0
 10
112.5416306708
 20
18.6620971039
 10
112.5439700692
 20
18.6699507846
 10
112.5465551263
 20
18.6784259013
 10
112.5494046114
 20
18.6875797108
 10
112.5525412915
 20
18.6974794492
 10
112.555993995
 20
18.7082084271
 10
112.5597988183
 20
18.7198672998
 10
112.5639959388
 20
18.7325682285
 10
112.5686286547
 20
18.746431186
 10
112.5737537238
 20
18.7616137115
 10
112.5794379484
 20
18.7782996886
 10
112.5857586027
 20
18.7966994588
 10
112.5928054142
 20
18.8170583536
 10
112.6006839593
 20
18.8396648217
 10
112.6095147734
 20
18.8648473688
 10
112.6194420639
 20
18.8929991869
 10
112.6306872424
 20
18.9247283113
 10
112.6434586953
 20
18.960602774
 10
112.6578391069
 20
19.0008381648
 10
112.6738074804
 20
19.0453660313
 10
112.6912196294
 20
19.0937828689
 10
112.7101288681
 20
19.1462401506
 10
112.7309132177
 20
19.2037891395
  0
LINE
  5
161C
330
21A
100
AcDbEntity
  8
0
  6
Continuous
 62
     7
100
AcDbLine
 10
112.7238146666
 20
19.2151381415
 30
0.0
 11
112.7309977716
 21
19.2350281854
 31
0.0
  0
LINE
  5
161D
330
21A
100
AcDbEntity
  8
0
  6
Continuous
 62
     7
100
AcDbLine
 10
112.3775138255
 20
18.9571781729
 30
0.0
 11
112.0442044082
 21
18.0414180752
 31
0.0
  0
LWPOLYLINE
  5
161E
330
21A
100
AcDbEntity
  8
0
  6
Continuous
 62
     7
100
AcDbPolyline
 90
       26
 70
     0
 43
0.0
 10
112.1628072865
 20
18.3672768532
 10
112.1691773469
 20
18.3835834937
 10
112.1821701958
 20
18.411417546
 10
112.1969312837
 20
18.4373479903
 10
112.2131838973
 20
18.4613129636
 10
112.2306613738
 20
18.4832827459
 10
112.2491092238
 20
18.5032557769
 10
112.2682869303
 20
18.5212553391
 10
112.287970058
 20
18.5373269725
 10
112.3079510759
 20
18.5515349899
 10
112.3280278338
 20
18.5639524227
 10
112.3479710483
 20
18.5746465423
 10
112.3675553421
 20
18.5837042994
 10
112.3866086229
 20
18.5912487836
 10
112.4050153596
 20
18.5974243927
 10
112.422683223
 20
18.602375133
 10
112.4393905151
 20
18.606210748
 10
112.4545122335
 20
18.6089934942
 10
112.4676022383
 20
18.610883185
 10
112.4787741136
 20
18.6121173824
 10
112.4880665227
 20
18.6128764624
 10
112.4952338186
 20
18.6132915674
 10
112.5003225655
 20
18.6134908975
 10
112.5036390174
 20
18.6135732714
 10
112.5055692877
 20
18.6136001771
 10
112.5062399274
 20
18.6136044667
  0
LWPOLYLINE
  5
161F
330
21A
100
AcDbEntity
  8
0
  6
Continuous
 62
     7
100
AcDbPolyline
 90
       26
 70
     0
 43
0.0
 10
123.1077081423
 20
19.2187665463
 10
123.1066043864
 20
19.2202650291
 10
123.102272449
 20
19.2220784084
 10
123.0948306224
 20
19.2238319575
 10
123.084341484
 20
19.2255410373
 10
123.0707455698
 20
19.2272196299
 10
123.0538645374
 20
19.2288804476
 10
123.0333962827
 20
19.2305349586
 10
123.0089176561
 20
19.2321922719
 10
122.9797181218
 20
19.2338666233
 10
122.9448104621
 20
19.2355766428
 10
122.9027678269
 20
19.2373366388
 10
122.8519964544
 20
19.2391519279
 10
122.7914443299
 20
19.2409912374
 10
122.7204853695
 20
19.2428074652
 10
122.6393671395
 20
19.2445388965
 10
122.5498486765
 20
19.2461236598
 10
122.4537808109
 20
19.2475071092
 10
122.3520353355
 20
19.2486878716
 10
122.245420488
 20
19.2496502721
 10
122.1347172785
 20
19.250392156
 10
122.0200811113
 20
19.2509116057
 10
121.9020226499
 20
19.2512028215
 10
121.7813500891
 20
19.2512654982
 10
121.6591125577
 20
19.2510962751
 10
121.5366829023
 20
19.2506967602
  0
LWPOLYLINE
  5
1620
330
21A
100
AcDbEntity
  8
0
  6
Continuous
 62
     7
100
AcDbPolyline
 90
       11
 70
     0
 43
0.0
 10
120.3239713186
 20
18.9571782597
 10
120.3056719519
 20
18.9992448716
 10
120.2823690549
 20
19.0387605722
 10
120.2544116305
 20
19.0751335426
 10
120.2222183914
 20
19.107819032
 10
120.1862714894
 20
19.1363275163
 10
120.1471092941
 20
19.1602320296
 10
120.1053183301
 20
19.1791745589
 10
120.0615244921
 20
19.1928714054
 10
120.016383672
 20
19.2011174344
 10
119.9705719348
 20
19.2037891466
  0
LWPOLYLINE
  5
1621
330
21A
100
AcDbEntity
  8
0
  6
Continuous
 62
     7
100
AcDbPolyline
 90
       10
 70
     0
 43
0.0
 10
120.5386778629
 20
18.3672768136
 10
120.5216918535
 20
18.406747124
 10
120.5003018595
 20
18.4440150679
 10
120.4747887443
 20
18.4785912949
 10
120.4454875102
 20
18.5100217987
 10
120.4127828998
 20
18.5378938782
 10
120.3771043442
 20
18.5618415562
 10
120.3389203238
 20
18.5815503857
 10
120.2987322178
 20
18.5967615778
 10
120.2570677196
 20
18.6072754007
  0
LINE
  5
1622
330
21A
100
AcDbEntity
  8
0
  6
Continuous
 62
     7
100
AcDbLine
 10
117.4055801073
 20
19.2729379257
 30
0.0
 11
117.405572434
 21
19.2885573139
 31
0.0
  0
LINE
  5
1623
330
21A
100
AcDbEntity
  8
0
  6
Continuous
 62
     7
100
AcDbLine
 10
117.405572434
 20
19.2885573139
 30
0.0
 11
117.4055744846
 21
19.2886129634
 31
0.0
  0
LINE
  5
1624
330
21A
100
AcDbEntity
  8
0
  6
Continuous
 62
     7
100
AcDbLine
 10
117.405572434
 20
19.2885573139
 30
0.0
 11
117.4055744846
 21
19.2886129643
 31
0.0
  0
LINE
  5
1625
330
21A
100
AcDbEntity
  8
0
  6
Continuous
 62
     7
100
AcDbLine
 10
117.4055801073
 20
19.2729378438
 30
0.0
 11
117.405582159
 21
19.2729934837
 31
0.0
  0
LINE
  5
1626
330
21A
100
AcDbEntity
  8
0
  6
Continuous
 62
     7
100
AcDbLine
 10
117.4044127703
 20
19.2730811084
 30
0.0
 11
117.405572434
 21
19.2885573139
 31
0.0
  0
LINE
  5
1627
330
21A
100
AcDbEntity
  8
0
  6
Continuous
 62
     7
100
AcDbLine
 10
120.3239713252
 20
18.9571781777
 30
0.0
 11
120.6572807442
 21
18.0414180752
 31
0.0
  0
LWPOLYLINE
  5
1628
330
21A
100
AcDbEntity
  8
0
  6
Continuous
 62
     7
100
AcDbPolyline
 90
       24
 70
     0
 43
0.0
 10
119.9705719348
 20
19.2037891395
 10
119.9901858207
 20
19.1494837289
 10
120.0081227072
 20
19.0997332046
 10
120.0247101942
 20
19.0536266135
 10
120.040023907
 20
19.0109507719
 10
120.0539625108
 20
18.9719886128
 10
120.0664668147
 20
18.9369112055
 10
120.0775813566
 20
18.9056065139
 10
120.0874435959
 20
18.8777030028
 10
120.0962493855
 20
18.8526634517
 10
120.1041507897
 20
18.8300714682
 10
120.1112536188
 20
18.8096389777
 10
120.1176545878
 20
18.7911021376
 10
120.1234371144
 20
18.7742328543
 10
120.1286728631
 20
18.7588354451
 10
120.1334244198
 20
18.7447394328
 10
120.1377464575
 20
18.7317939615
 10
120.1416852656
 20
18.7198705534
 10
120.1452765499
 20
18.7088702855
 10
120.1485539186
 20
18.6986992873
 10
120.1515479428
 20
18.6892724975
 10
120.1542835448
 20
18.6805182254
 10
120.1567806019
 20
18.6723780617
 10
120.1590553258
 20
18.6648028181
  0
LINE
  5
1629
330
21A
100
AcDbEntity
  8
0
  6
Continuous
 62
     7
100
AcDbLine
 10
119.9704873814
 20
19.2350281763
 30
0.0
 11
119.9742777927
 21
19.2245339775
 31
0.0
  0
LWPOLYLINE
  5
162A
330
21A
100
AcDbEntity
  8
0
  6
Continuous
 62
     7
100
AcDbPolyline
 90
        5
 70
     0
 43
0.0
 10
120.1590553258
 20
18.6648028181
 10
120.1611225871
 20
18.6577473047
 10
120.1629940766
 20
18.6511743493
 10
120.1646763897
 20
18.6450604531
 10
120.1661702251
 20
18.6393987494
  0
LWPOLYLINE
  5
162B
330
21A
100
AcDbEntity
  8
0
  6
Continuous
 62
     7
100
AcDbPolyline
 90
        8
 70
     0
 43
0.0
 10
120.1661702251
 20
18.6393987494
 10
120.1674773029
 20
18.6341862488
 10
120.168596632
 20
18.6294359462
 10
120.1695263869
 20
18.6251922038
 10
120.1702770492
 20
18.6214910028
 10
120.1708539827
 20
18.6183388511
 10
120.1712637398
 20
18.6157423519
 10
120.1715100682
 20
18.6137222197
  0
LWPOLYLINE
  5
162C
330
21A
100
AcDbEntity
  8
0
  6
Continuous
 62
     7
100
AcDbPolyline
 90
       10
 70
     0
 43
0.0
 10
117.3548660197
 20
18.6457969895
 10
117.3583852036
 20
18.6860535192
 10
117.3623139233
 20
18.7315889147
 10
117.3667401503
 20
18.7836237715
 10
117.3716800591
 20
18.8425918899
 10
117.3771451201
 20
18.9089138828
 10
117.3831817618
 20
18.9835004656
 10
117.3898759365
 20
19.0678686498
 10
117.3973223466
 20
19.1638250743
 10
117.4055801073
 20
19.2729379257
  0
LINE
  5
162D
330
21A
100
AcDbEntity
  8
0
  6
Continuous
 62
     7
100
AcDbLine
 10
117.3517463766
 20
18.6105255724
 30
0.0
 11
117.3548660197
 21
18.6457969895
 31
0.0
  0
LWPOLYLINE
  5
162E
330
21A
100
AcDbEntity
  8
0
  6
Continuous
 62
     7
100
AcDbPolyline
 90
       35
 70
     0
 43
0.0
 10
125.6958527884
 20
19.107433853
 10
125.6704647512
 20
19.1401303003
 10
125.5984298519
 20
19.1709832104
 10
125.4843610781
 20
19.2003279443
 10
125.33475754
 20
19.2276918796
 10
125.1565900356
 20
19.2528638909
 10
124.9555254468
 20
19.2759054682
 10
124.7363466084
 20
19.2969351683
 10
124.5031435177
 20
19.3160861019
 10
124.2594510717
 20
19.3334917113
 10
124.0080966956
 20
19.3492955769
 10
123.7512438983
 20
19.3636432522
 10
123.4906981011
 20
19.3766649694
 10
123.2277744132
 20
19.3884860971
 10
122.9633333208
 20
19.3992255102
 10
122.6979944105
 20
19.4089881994
 10
122.4319767641
 20
19.4178735092
 10
122.165213594
 20
19.4259714389
 10
121.8973713389
 20
19.4333631321
 10
121.6277883653
 20
19.4401230854
 10
121.3557000897
 20
19.446313958
 10
121.0799523074
 20
19.4519940822
 10
120.7992726937
 20
19.4572112331
 10
120.5122908312
 20
19.4620034637
 10
120.2170575554
 20
19.4664068405
 10
119.9121250021
 20
19.470438761
 10
119.5954143589
 20
19.474115763
 10
119.264825634
 20
19.4774439844
 10
118.9183161578
 20
19.4804194611
 10
118.5531164593
 20
19.4830344377
 10
118.1668549934
 20
19.4852672947
 10
117.756453848
 20
19.4870901007
 10
117.3188241446
 20
19.4884627328
 10
116.8510966307
 20
19.4893330176
 10
116.3507425762
 20
19.4896384266
  0
LINE
  5
162F
330
21A
100
AcDbEntity
  8
0
  6
Continuous
 62
     7
100
AcDbLine
 10
119.9704145056
 20
19.2354260772
 30
0.0
 11
119.9704873814
 21
19.2350281763
 31
0.0
  0
LINE
  5
1630
330
21A
100
AcDbEntity
  8
0
  6
Continuous
 62
     7
100
AcDbLine
 10
119.9704992848
 20
19.2041887525
 30
0.0
 11
119.9705719348
 21
19.2037891466
 31
0.0
  0
LINE
  5
1631
330
21A
100
AcDbEntity
  8
0
  6
Continuous
 62
     7
100
AcDbLine
 10
119.9704145003
 20
19.2354276418
 30
0.0
 11
119.9704990018
 21
19.2041887518
 31
0.0
  0
LINE
  5
1632
330
21A
100
AcDbEntity
  8
0
  6
Continuous
 62
     7
100
AcDbLine
 10
119.9705719348
 20
19.2037891466
 30
0.0
 11
119.9704873814
 21
19.2350281763
 31
0.0
  0
LINE
  5
1633
330
21A
100
AcDbEntity
  8
0
  6
Continuous
 62
     7
100
AcDbLine
 10
117.0563315707
 20
18.4634760211
 30
0.0
 11
117.0564703326
 21
18.463807463
 31
0.0
  0
LINE
  5
1634
330
21A
100
AcDbEntity
  8
0
  6
Continuous
 62
     7
100
AcDbLine
 10
121.5366829023
 20
19.2506967602
 30
0.0
 11
121.5365529294
 21
19.2819358566
 31
0.0
  0
LWPOLYLINE
  5
1635
330
21A
100
AcDbEntity
  8
0
  6
Continuous
 62
     7
100
AcDbPolyline
 90
       35
 70
     0
 43
0.0
 10
102.3127073814
 20
37.7745619595
 10
102.4139921407
 20
37.7435271381
 10
102.6657578125
 20
37.6701755658
 10
102.9702246505
 20
37.5864766191
 10
103.3168615053
 20
37.49700127820001
 10
103.6999232489
 20
37.4044242628
 10
104.1126872573
 20
37.3112029628
 10
104.5453983528
 20
37.2199728935
 10
104.99062529
 20
37.1323651681
 10
105.4441790633
 20
37.0490679654
 10
105.9023579585
 20
36.97053195650001
 10
106.3623283851
 20
36.8969537772
 10
106.821930862
 20
36.8283573271
 10
107.2795873592
 20
36.7646468397
 10
107.734126945
 20
36.7056619543
 10
108.1846849754
 20
36.6512096523
 10
108.6308014792
 20
36.6010578477
 10
109.0723663865
 20
36.5549540033
 10
109.5094793475
 20
36.5126482338
 10
109.9424162236
 20
36.4739001174
 10
110.3715894245
 20
36.4384855168
 10
110.797535652
 20
36.4061990543
 10
111.2208931103
 20
36.3768555197
 10
111.6421162075
 20
36.350306857
 10
112.0615676416
 20
36.3264287909
 10
112.4797587233
 20
36.3051044727
 10
112.8975199558
 20
36.2862197809
 10
113.3158160333
 20
36.2696744391
 10
113.735574328
 20
36.2553894733
 10
114.1578683146
 20
36.2433045999
 10
114.5836916886
 20
36.2333856145
 10
115.0141849957
 20
36.2256174694
 10
115.4504059478
 20
36.2200095942
 10
115.8931716586
 20
36.2165935569
 10
116.3507425762
 20
36.2154163972
  0
LINE
  5
1636
330
21A
100
AcDbEntity
  8
0
  6
Continuous
 62
     7
100
AcDbLine
 10
123.1076369089
 20
19.2183755517
 30
0.0
 11
123.1074227176
 21
19.2496146902
 31
0.0
  0
LINE
  5
1637
330
21A
100
AcDbEntity
  8
0
  6
Continuous
 62
     7
100
AcDbLine
 10
123.1077079785
 20
19.2187665452
 30
0.0
 11
123.1074939912
 21
19.2500062121
 31
0.0
  0
LWPOLYLINE
  5
1638
330
21A
100
AcDbEntity
  8
0
  6
Continuous
 62
     7
100
AcDbPolyline
 90
       17
 70
     0
 43
0.0
 10
117.0563312744
 20
18.4634758732
 10
117.0678096866
 20
18.4776999617
 10
117.0887342825
 20
18.5003964464
 10
117.1103835612
 20
18.5203684369
 10
117.1324312542
 20
18.5377594098
 10
117.1545315781
 20
18.55269106359999
 10
117.1763363253
 20
18.5652961198
 10
117.1974953244
 20
18.5757246278
 10
117.2173065809
 20
18.5840118283
 10
117.2347771345
 20
18.5902031136
 10
117.2492906732
 20
18.5945755252
 10
117.2610744441
 20
18.5976120387
 10
117.2704384301
 20
18.5996859204
 10
117.2774158671
 20
18.6010194045
 10
117.2819726606
 20
18.6017755606
 10
117.2842340596
 20
18.6021049475
 10
117.2845559332
 20
18.6021475177
  0
LINE
  5
1639
330
21A
100
AcDbEntity
  8
0
  6
Continuous
 62
     7
100
AcDbLine
 10
117.0062945511
 20
18.4042628458
 30
0.0
 11
117.0564703326
 21
18.463807463
 31
0.0
  0
LINE
  5
163A
330
21A
100
AcDbEntity
  8
0
  6
Continuous
 62
     7
100
AcDbLine
 10
117.0843109567
 20
18.4961104564
 30
0.0
 11
117.0564703326
 21
18.463807463
 31
0.0
  0
LINE
  5
163B
330
21A
100
AcDbEntity
  8
0
  6
Continuous
 62
     7
100
AcDbLine
 10
116.9508780044
 20
18.3495593138
 30
0.0
 11
117.0062945511
 21
18.4042628458
 31
0.0
  0
LINE
  5
163C
330
21A
100
AcDbEntity
  8
0
  6
Continuous
 62
     7
100
AcDbLine
 10
117.1156411959
 20
18.5250437849
 30
0.0
 11
117.0843109567
 21
18.4961104564
 31
0.0
  0
LINE
  5
163D
330
21A
100
AcDbEntity
  8
0
  6
Continuous
 62
     7
100
AcDbLine
 10
130.0859134148
 20
33.5865106338
 30
0.0
 11
130.075284355
 21
33.5883045743
 31
0.0
  0
LWPOLYLINE
  5
163E
330
21A
100
AcDbEntity
  8
0
  6
Continuous
 62
     7
100
AcDbPolyline
 90
       23
 70
     0
 43
0.0
 10
130.075284355
 20
33.5883045743
 10
130.0723191688
 20
33.5888134705
 10
130.0692478363
 20
33.5893233252
 10
130.066122207
 20
33.5898654234
 10
130.0629725174
 20
33.5903550903
 10
130.0598733061
 20
33.5910183588
 10
130.0572877197
 20
33.5944406104
 10
130.0557438376
 20
33.6039498162
 10
130.055178757
 20
33.6196059877
 10
130.055590363
 20
33.6413749852
 10
130.0569837817
 20
33.6691660446
 10
130.0593595465
 20
33.7028184367
 10
130.0627097738
 20
33.7420845251
 10
130.0670031119
 20
33.7864655473
 10
130.0722331797
 20
33.83577669920001
 10
130.0784120805
 20
33.8899987865
 10
130.0855417792
 20
33.9489938695
 10
130.0936169926
 20
34.0125558547
 10
130.1026178812
 20
34.0803725971
 10
130.1124951615
 20
34.1519221278
 10
130.123208427
 20
34.2267765185
 10
130.1346743316
 20
34.3042467771
 10
130.1469781356
 20
34.3847823391
  0
LINE
  5
163F
330
21A
100
AcDbEntity
  8
0
  6
Continuous
 62
     7
100
AcDbLine
 10
130.086364853
 20
33.5864326402
 30
0.0
 11
130.0859134148
 21
33.5865106338
 31
0.0
  0
LINE
  5
1640
330
21A
100
AcDbEntity
  8
0
  6
Continuous
 62
     7
100
AcDbLine
 10
123.1074227176
 20
19.2496146902
 30
0.0
 11
123.1074939779
 21
19.2500079384
 31
0.0
  0
LINE
  5
1641
330
21A
100
AcDbEntity
  8
0
  6
Continuous
 62
     7
100
AcDbLine
 10
123.1076369021
 20
19.2183755517
 30
0.0
 11
123.1077081423
 21
19.2187665463
 31
0.0
  0
LINE
  5
1642
330
21A
100
AcDbEntity
  8
0
  6
Continuous
 62
     7
100
AcDbLine
 10
122.4192044082
 20
18.0414180752
 30
0.0
 11
122.7578224216
 21
18.9717634208
 31
0.0
  0
LINE
  5
1643
330
21A
100
AcDbEntity
  8
0
  6
Continuous
 62
     7
100
AcDbLine
 10
117.8873542286
 20
18.2593969166
 30
0.0
 11
118.2460552832
 21
18.6180979712
 31
0.0
  0
LWPOLYLINE
  5
1644
330
21A
100
AcDbEntity
  8
0
  6
Continuous
 62
     7
100
AcDbPolyline
 90
       17
 70
     0
 43
0.0
 10
118.2460552219
 20
18.6180980767
 10
118.2505191617
 20
18.622347127
 10
118.2581260957
 20
18.6287076916
 10
118.2660618276
 20
18.6343462643
 10
118.2741932154
 20
18.639229665
 10
118.2823812196
 20
18.6433495475
 10
118.2904719133
 20
18.6467168011
 10
118.2981797223
 20
18.649328325
 10
118.3052254042
 20
18.6512386578
 10
118.3112751138
 20
18.6525317614
 10
118.3160929892
 20
18.6533384363
 10
118.3196772614
 20
18.6538116973
 10
118.3222339614
 20
18.6540828152
 10
118.3240320523
 20
18.6542395607
 10
118.3252987058
 20
18.6543323605
 10
118.3261791163
 20
18.654387586
 10
118.3267657963
 20
18.6544195979
  0
LINE
  5
1645
330
21A
100
AcDbEntity
  8
0
  6
Continuous
 62
     7
100
AcDbLine
 10
116.890685863
 20
18.3001560419
 30
0.0
 11
116.9508780044
 21
18.3495593138
 31
0.0
  0
LINE
  5
1646
330
21A
100
AcDbEntity
  8
0
  6
Continuous
 62
     7
100
AcDbLine
 10
117.1500557068
 20
18.5502331158
 30
0.0
 11
117.1156411959
 21
18.5250437849
 31
0.0
  0
LINE
  5
1647
330
21A
100
AcDbEntity
  8
0
  6
Continuous
 62
     7
100
AcDbLine
 10
116.8262234188
 20
18.2564677533
 30
0.0
 11
116.890685863
 21
18.3001560419
 31
0.0
  0
LINE
  5
1648
330
21A
100
AcDbEntity
  8
0
  6
Continuous
 62
     7
100
AcDbLine
 10
116.7580318115
 20
18.218861196
 30
0.0
 11
116.8262234188
 21
18.2564677533
 31
0.0
  0
LINE
  5
1649
330
21A
100
AcDbEntity
  8
0
  6
Continuous
 62
     7
100
AcDbLine
 10
116.686683486
 20
18.1876520639
 30
0.0
 11
116.7580318115
 21
18.218861196
 31
0.0
  0
LWPOLYLINE
  5
164A
330
21A
100
AcDbEntity
  8
0
  6
Continuous
 62
     7
100
AcDbPolyline
 90
       42
 70
     0
 43
0.0
 10
116.3507425762
 20
36.2154163972
 10
116.7677798581
 20
36.216393452
 10
117.1758030407
 20
36.2192683631
 10
117.5749610567
 20
36.2239573173
 10
117.9657939696
 20
36.2303859347
 10
118.3496597747
 20
36.2385075849
 10
118.7284711184
 20
36.2483161049
 10
119.1029700245
 20
36.2598021544
 10
119.4739912486
 20
36.2729740349
 10
119.8422225378
 20
36.2878501693
 10
120.2084005321
 20
36.3044650895
 10
120.5731608102
 20
36.3228601232
 10
120.937076422
 20
36.3430843313
 10
121.3007828506
 20
36.365203666
 10
121.6647957234
 20
36.38929118820001
 10
122.0296917683
 20
36.4154384523
 10
122.3958916167
 20
36.4437409103
 10
122.7637837055
 20
36.4743055593
 10
123.133703378
 20
36.5072496583
 10
123.505908211
 20
36.5426987515
 10
123.8806035015
 20
36.5807884499
 10
124.2580134581
 20
36.6216714972
 10
124.6381595736
 20
36.6654939508
 10
125.0209075774
 20
36.7123961307
 10
125.4059775258
 20
36.7625102055
 10
125.7929230546
 20
36.8159537714
 10
126.1811024898
 20
36.8728245419
 10
126.5697407197
 20
36.9332021452
 10
126.9578066865
 20
36.9971195838
 10
127.3439729851
 20
37.0645444899
 10
127.7265617689
 20
37.1353533519
 10
128.1034974284
 20
37.20930538760001
 10
128.4722661186
 20
37.2860079294
 10
128.8304551382
 20
37.3650011493
 10
129.1661313506
 20
37.4434381915
 10
129.4567803935
 20
37.5151548896
 10
129.6970260992
 20
37.5773763861
 10
129.8929215307
 20
37.6302772352
 10
130.0546351861
 20
37.675545884
 10
130.1898391505
 20
37.7145939513
 10
130.3031118959
 20
37.7482133816
 10
130.3897924226
 20
37.7745619595
  0
LINE
  5
164B
330
21A
100
AcDbEntity
  8
0
  6
Continuous
 62
     7
100
AcDbLine
 10
130.4341266444
 20
34.4481706261
 30
0.0
 11
130.2646088066
 21
34.4765381834
 31
0.0
  0
LINE
  5
164C
330
21A
100
AcDbEntity
  8
0
  6
Continuous
 62
     7
100
AcDbLine
 10
130.5269659227
 20
35.002956277
 30
0.0
 11
130.3574480849
 21
35.0313238342
 31
0.0
  0
LINE
  5
164D
330
21A
100
AcDbEntity
  8
0
  6
Continuous
 62
     7
100
AcDbLine
 10
123.1023216865
 20
19.2358439967
 30
0.0
 11
123.1074227176
 21
19.2496146902
 31
0.0
  0
LWPOLYLINE
  5
164E
330
21A
100
AcDbEntity
  8
0
  6
Continuous
 62
     7
100
AcDbPolyline
 90
       24
 70
     0
 43
0.0
 10
122.9361914021
 20
18.7708410743
 10
122.9405212561
 20
18.7810922632
 10
122.945096163
 20
18.792068473
 10
122.9498513871
 20
18.8036271175
 10
122.9547664894
 20
18.8157132873
 10
122.9598345436
 20
18.8283053538
 10
122.9650562561
 20
18.8413965845
 10
122.9704430625
 20
18.8550104914
 10
122.9760121746
 20
18.8691865091
 10
122.9817847648
 20
18.8839759635
 10
122.9877858734
 20
18.8994416998
 10
122.9940437777
 20
18.9156563956
 10
123.0005897802
 20
18.932701881
 10
123.0074604853
 20
18.9506753187
 10
123.0147038163
 20
18.9697049422
 10
123.0223736734
 20
18.9899357336
 10
123.0305189244
 20
19.0115006324
 10
123.0392017095
 20
19.0345687692
 10
123.0485069398
 20
19.059371244
 10
123.0585112206
 20
19.0861185359
 10
123.0692780111
 20
19.1149867809
 10
123.0809147039
 20
19.1462704938
 10
123.0936292984
 20
19.1805368564
 10
123.1076369089
 20
19.2183755517
  0
LWPOLYLINE
  5
164F
330
21A
100
AcDbEntity
  8
0
  6
Continuous
 62
     7
100
AcDbPolyline
 90
       11
 70
     0
 43
0.0
 10
122.7578224306
 20
18.9717634455
 10
122.7759593842
 20
19.01351147559999
 10
122.7990244768
 20
19.0527529487
 10
122.8266776374
 20
19.0889092896
 10
122.8585111485
 20
19.1214474103
 10
122.894055658
 20
19.1498875699
 10
122.9327870986
 20
19.1738104474
 10
122.9741344152
 20
19.1928633247
 10
123.0174879842
 20
19.2067652867
 10
123.0622086019
 20
19.2153113634
 10
123.1076369089
 20
19.2183755517
  0
LWPOLYLINE
  5
1650
330
21A
100
AcDbEntity
  8
0
  6
Continuous
 62
     7
100
AcDbPolyline
 90
        6
 70
     0
 43
0.0
 10
122.9200799478
 20
18.7340138639
 10
122.9224785399
 20
18.7392845278
 10
122.9253158958
 20
18.7456553188
 10
122.9285638829
 20
18.7530722236
 10
122.932192855
 20
18.7614756286
 10
122.9361914021
 20
18.7708410743
  0
LWPOLYLINE
  5
1651
330
21A
100
AcDbEntity
  8
0
  6
Continuous
 62
     7
100
AcDbPolyline
 90
        4
 70
     0
 43
0.0
 10
117.2671878867
 20
18.6003449969
 10
117.2263224127
 20
18.588128865
 10
117.1871092425
 20
18.5713525553
 10
117.1500557068
 20
18.5502331158
  0
LINE
  5
1652
330
21A
100
AcDbEntity
  8
0
  6
Continuous
 62
     7
100
AcDbLine
 10
96.35074257620001
 20
37.7745619595
 30
0.0
 11
136.3507425762
 21
37.7745619595
 31
0.0
  0
LINE
  5
1653
330
21A
100
AcDbEntity
  8
0
  6
Continuous
 62
     7
100
AcDbLine
 10
136.077915451
 20
38.2745619595
 30
0.0
 11
96.6235697015
 21
38.2745619595
 31
0.0
  0
LWPOLYLINE
  5
1654
330
21A
100
AcDbEntity
  8
0
  6
Continuous
 62
     7
100
AcDbPolyline
 90
        5
 70
     0
 43
0.0
 10
122.9152359475
 20
18.7244988965
 10
122.9157183044
 20
18.7251309217
 10
122.9166870195
 20
18.7269205743
 10
122.9181436902
 20
18.7298837264
 10
122.9200799478
 20
18.7340138639
  0
LWPOLYLINE
  5
1655
330
21A
100
AcDbEntity
  8
0
  6
Continuous
 62
     7
100
AcDbPolyline
 90
        8
 70
     0
 43
0.0
 10
130.3047521916
 20
35.3242929366
 10
130.3137468851
 20
35.3212976737
 10
130.3280844493
 20
35.3170358459
 10
130.3470861595
 20
35.31318332530001
 10
130.3675379325
 20
35.3102783981
 10
130.3859549281
 20
35.3084740171
 10
130.3990661339
 20
35.3079278908
 10
130.4038677241
 20
35.3087166597
  0
LWPOLYLINE
  5
1656
330
21A
100
AcDbEntity
  8
0
  6
Continuous
 62
     7
100
AcDbPolyline
 90
        6
 70
     0
 43
0.0
 10
130.1469781356
 20
34.3847823391
 10
130.1598901281
 20
34.4668507093
 10
130.1731825662
 20
34.5489995251
 10
130.1873593977
 20
34.63423912800001
 10
130.2035434464
 20
34.7294742495
 10
130.2400280736
 20
34.94381727429999
  0
LWPOLYLINE
  5
1657
330
21A
100
AcDbEntity
  8
0
  6
Continuous
 62
     7
100
AcDbPolyline
 90
        6
 70
     0
 43
0.0
 10
130.595810426
 20
36.8227983475
 10
130.5353151743
 20
36.4501609427
 10
130.4928230054
 20
36.1174243329
 10
130.4633929595
 20
35.8200413135
 10
130.4368337254
 20
35.5513747484
 10
130.403867724
 20
35.3087166597
  0
LWPOLYLINE
  5
1658
330
21A
100
AcDbEntity
  8
0
  6
Continuous
 62
     7
100
AcDbPolyline
 90
        4
 70
     0
 43
0.0
 10
130.403867724
 20
35.3087166597
 10
130.483785607
 20
35.7991851783
 10
130.5683312399
 20
36.3117603424
 10
130.6611415954
 20
36.8461535295
  0
LINE
  5
1659
330
21A
100
AcDbEntity
  8
0
  6
Continuous
 62
     7
100
AcDbLine
 10
130.2181891675
 20
34.1991453579
 30
0.0
 11
130.403867724
 21
35.3087166597
 31
0.0
  0
LINE
  5
165A
330
21A
100
AcDbEntity
  8
0
  6
Continuous
 62
     7
100
AcDbLine
 10
130.5269659227
 20
35.002956277
 30
0.0
 11
130.4341266444
 21
34.4481706261
 31
0.0
  0
LWPOLYLINE
  5
165B
330
21A
100
AcDbEntity
  8
0
  6
Continuous
 62
     7
100
AcDbPolyline
 90
        4
 70
     0
 43
0.0
 10
130.5572527942
 20
36.8094651085
 10
130.4721194965
 20
36.3084021306
 10
130.3879572292
 20
35.8133342628
 10
130.3047743258
 20
35.3242928703
  0
LINE
  5
165C
330
21A
100
AcDbEntity
  8
0
  6
Continuous
 62
     7
100
AcDbLine
 10
130.2400280736
 20
34.94381727429999
 30
0.0
 11
130.2602254835
 21
35.0624833915
 31
0.0
  0
LINE
  5
165D
330
21A
100
AcDbEntity
  8
0
  6
Continuous
 62
     7
100
AcDbLine
 10
130.2602254835
 20
35.0624833915
 30
0.0
 11
130.2629932198
 21
35.0787477033
 31
0.0
  0
LINE
  5
165E
330
21A
100
AcDbEntity
  8
0
  6
Continuous
 62
     7
100
AcDbLine
 10
130.2629932198
 20
35.0787477033
 30
0.0
 11
130.3047743258
 21
35.3242928703
 31
0.0
  0
LINE
  5
165F
330
21A
100
AcDbEntity
  8
0
  6
Continuous
 62
     7
100
AcDbLine
 10
127.8609969324
 20
20.9657440105
 30
0.0
 11
130.086364853
 21
33.5864326402
 31
0.0
  0
LINE
  5
1660
330
21A
100
AcDbEntity
  8
0
  6
Continuous
 62
     7
100
AcDbLine
 10
130.6611415953
 20
36.8461535295
 30
0.0
 11
130.8248450507
 21
37.7745619595
 31
0.0
  0
LWPOLYLINE
  5
1661
330
21A
100
AcDbEntity
  8
0
  6
Continuous
 62
     7
100
AcDbPolyline
 90
        5
 70
     0
 43
0.0
 10
130.086364853
 20
33.5864326402
 10
130.1197569416
 20
33.7646522429
 10
130.1552617825
 20
33.9213335568
 10
130.1901886654
 20
34.064125978
 10
130.2181891675
 20
34.1991453579
  0
LINE
  5
1662
330
21A
100
AcDbEntity
  8
0
  6
Continuous
 62
     7
100
AcDbLine
 10
136.3507425762
 20
37.7745619595
 30
0.0
 11
136.3269641255
 21
38.0463508952
 31
0.0
  0
ARC
  5
1749
330
21A
100
AcDbEntity
  8
DEFAULT_2
  6
HIDDEN
 62
     7
100
AcDbCircle
 10
131.2144832744
 20
37.9620619595
 30
0.0
 40
0.3125
100
AcDbArc
 50
90.0000000024
 51
129.9999999929
  0
ARC
  5
174A
330
21A
100
AcDbEntity
  8
DEFAULT_2
  6
HIDDEN
 62
     7
100
AcDbCircle
 10
131.0194412267
 20
37.7984022492
 30
0.0
 40
0.3125
100
AcDbArc
 50
130.0000000036
 51
169.9999999929
  0
ARC
  5
174B
330
21A
100
AcDbEntity
  8
DEFAULT_2
  6
HIDDEN
 62
     7
100
AcDbCircle
 10
101.6820439258
 20
37.7984022492
 30
0.0
 40
0.3125
100
AcDbArc
 50
10.0000000071
 51
49.9999999964
  0
ARC
  5
174C
330
21A
100
AcDbEntity
  8
DEFAULT_2
  6
HIDDEN
 62
     7
100
AcDbCircle
 10
101.487001878
 20
37.9620619595
 30
0.0
 40
0.3125
100
AcDbArc
 50
50.0000000071
 51
89.99999999759999
  0
ARC
  5
1751
330
21A
100
AcDbEntity
  8
DEFAULT_2
  6
HIDDEN
 62
     7
100
AcDbCircle
 10
117.6221891856
 20
18.5245619595
 30
0.0
 40
0.25
100
AcDbArc
 50
270.0
 51
315.0
  0
ARC
  5
1752
330
21A
100
AcDbEntity
  8
DEFAULT_2
  6
HIDDEN
 62
     7
100
AcDbCircle
 10
115.0792959668
 20
18.5245619595
 30
0.0
 40
0.25
100
AcDbArc
 50
225.0
 51
270.0
  0
ARC
  5
1765
330
21A
100
AcDbEntity
  8
0
  6
Continuous
 62
     7
100
AcDbCircle
 10
111.1632425762
 20
18.3620619595
 30
0.0
 40
0.9375
100
AcDbArc
 50
200.0
 51
340.0
  0
ARC
  5
1766
330
21A
100
AcDbEntity
  8
0
  6
Continuous
 62
     7
100
AcDbCircle
 10
121.5382425762
 20
18.3620619595
 30
0.0
 40
0.9375
100
AcDbArc
 50
200.0
 51
340.0
  0
ARC
  5
1767
330
21A
100
AcDbEntity
  8
0
  6
Continuous
 62
     7
100
AcDbCircle
 10
115.0792959668
 20
18.5245619595
 30
0.0
 40
0.375
100
AcDbArc
 50
225.0
 51
270.0
  0
ARC
  5
1768
330
21A
100
AcDbEntity
  8
0
  6
Continuous
 62
     7
100
AcDbCircle
 10
117.6221891856
 20
18.5245619595
 30
0.0
 40
0.375
100
AcDbArc
 50
270.0
 51
315.0
  0
ARC
  5
1769
330
21A
100
AcDbEntity
  8
0
  6
Continuous
 62
     7
100
AcDbCircle
 10
109.7709684943
 20
18.349810361
 30
0.0
 40
0.3749999975
100
AcDbArc
 50
20.0000014793
 51
87.66463278209998
  0
ARC
  5
176A
330
21A
100
AcDbEntity
  8
0
  6
Continuous
 62
     7
100
AcDbCircle
 10
122.9305166539
 20
18.3498103609
 30
0.0
 40
0.3749999971
100
AcDbArc
 50
92.3353709204
 51
159.9999981822
  0
ARC
  5
176B
330
21A
100
AcDbEntity
  8
0
  6
Continuous
 62
     7
100
AcDbCircle
 10
96.6235697015
 20
38.0245619595
 30
0.0
 40
0.25
100
AcDbArc
 50
90.0
 51
175.0
  0
ARC
  5
176C
330
21A
100
AcDbEntity
  8
0
  6
Continuous
 62
     7
100
AcDbCircle
 10
136.077915451
 20
38.0245619595
 30
0.0
 40
0.25
100
AcDbArc
 50
5.0
 51
90.0
  0
ENDSEC
  0
SECTION
  2
OBJECTS
  0
DICTIONARY
  5
C
330
0
100
AcDbDictionary
281
     1
  3
ACAD_COLOR
350
17A7
  3
ACAD_GROUP
350
D
  3
ACAD_LAYOUT
350
1A
  3
ACAD_MATERIAL
350
177A
  3
ACAD_MLEADERSTYLE
350
17CC
  3
ACAD_MLINESTYLE
350
17
  3
ACAD_PLOTSETTINGS
350
19
  3
ACAD_PLOTSTYLENAME
350
E
  3
ACAD_SCALELIST
350
17AA
  3
ACAD_TABLESTYLE
350
17A8
  3
ACAD_VISUALSTYLE
350
1793
  3
ACDB_RECOMPOSE_DATA
350
17D2
  3
AcDbVariableDictionary
350
1804
  0
DICTIONARY
  5
17D3
330
8
100
AcDbDictionary
280
     1
281
     1
  0
DICTIONARY
  5
1813
330
10
100
AcDbDictionary
280
     1
281
     1
  3
ADSK_XREC_LAYER_RECONCILED
360
1814
  0
DICTIONARY
  5
1815
330
1FA
100
AcDbDictionary
280
     1
281
     1
  3
ADSK_XREC_LAYER_RECONCILED
360
1816
  0
DICTIONARY
  5
1817
330
1FB
100
AcDbDictionary
280
     1
281
     1
  3
ADSK_XREC_LAYER_RECONCILED
360
1818
  0
DICTIONARY
  5
1819
330
1FC
100
AcDbDictionary
280
     1
281
     1
  3
ADSK_XREC_LAYER_RECONCILED
360
181A
  0
DICTIONARY
  5
181B
330
1FD
100
AcDbDictionary
280
     1
281
     1
  3
ADSK_XREC_LAYER_RECONCILED
360
181C
  0
DICTIONARY
  5
181D
330
1FE
100
AcDbDictionary
280
     1
281
     1
  3
ADSK_XREC_LAYER_RECONCILED
360
181E
  0
DICTIONARY
  5
181F
330
1FF
100
AcDbDictionary
280
     1
281
     1
  3
ADSK_XREC_LAYER_RECONCILED
360
1820
  0
DICTIONARY
  5
1821
330
200
100
AcDbDictionary
280
     1
281
     1
  3
ADSK_XREC_LAYER_RECONCILED
360
1822
  0
DICTIONARY
  5
1823
330
201
100
AcDbDictionary
280
     1
281
     1
  3
ADSK_XREC_LAYER_RECONCILED
360
1824
  0
DICTIONARY
  5
1825
330
202
100
AcDbDictionary
280
     1
281
     1
  3
ADSK_XREC_LAYER_RECONCILED
360
1826
  0
DICTIONARY
  5
1827
330
203
100
AcDbDictionary
280
     1
281
     1
  3
ADSK_XREC_LAYER_RECONCILED
360
1828
  0
DICTIONARY
  5
1829
330
204
100
AcDbDictionary
280
     1
281
     1
  3
ADSK_XREC_LAYER_RECONCILED
360
182A
  0
DICTIONARY
  5
182B
330
205
100
AcDbDictionary
280
     1
281
     1
  3
ADSK_XREC_LAYER_RECONCILED
360
182C
  0
DICTIONARY
  5
182D
330
206
100
AcDbDictionary
280
     1
281
     1
  3
ADSK_XREC_LAYER_RECONCILED
360
182E
  0
DICTIONARY
  5
182F
330
207
100
AcDbDictionary
280
     1
281
     1
  3
ADSK_XREC_LAYER_RECONCILED
360
1830
  0
DICTIONARY
  5
1831
330
208
100
AcDbDictionary
280
     1
281
     1
  3
ADSK_XREC_LAYER_RECONCILED
360
1832
  0
DICTIONARY
  5
1833
330
209
100
AcDbDictionary
280
     1
281
     1
  3
ADSK_XREC_LAYER_RECONCILED
360
1834
  0
DICTIONARY
  5
1835
330
20A
100
AcDbDictionary
280
     1
281
     1
  3
ADSK_XREC_LAYER_RECONCILED
360
1836
  0
DICTIONARY
  5
1837
330
20B
100
AcDbDictionary
280
     1
281
     1
  3
ADSK_XREC_LAYER_RECONCILED
360
1838
  0
DICTIONARY
  5
1839
330
20C
100
AcDbDictionary
280
     1
281
     1
  3
ADSK_XREC_LAYER_RECONCILED
360
183A
  0
DICTIONARY
  5
183B
330
20D
100
AcDbDictionary
280
     1
281
     1
  3
ADSK_XREC_LAYER_RECONCILED
360
183C
  0
DICTIONARY
  5
183D
330
20E
100
AcDbDictionary
280
     1
281
     1
  3
ADSK_XREC_LAYER_RECONCILED
360
183E
  0
DICTIONARY
  5
183F
330
20F
100
AcDbDictionary
280
     1
281
     1
  3
ADSK_XREC_LAYER_RECONCILED
360
1840
  0
DICTIONARY
  5
1841
330
210
100
AcDbDictionary
280
     1
281
     1
  3
ADSK_XREC_LAYER_RECONCILED
360
1842
  0
DICTIONARY
  5
1843
330
211
100
AcDbDictionary
280
     1
281
     1
  3
ADSK_XREC_LAYER_RECONCILED
360
1844
  0
DICTIONARY
  5
17A7
102
{ACAD_REACTORS
330
C
102
}
330
C
100
AcDbDictionary
281
     1
  0
DICTIONARY
  5
D
102
{ACAD_REACTORS
330
C
102
}
330
C
100
AcDbDictionary
281
     1
  0
DICTIONARY
  5
1A
102
{ACAD_REACTORS
330
C
102
}
330
C
100
AcDbDictionary
281
     1
  3
Layout1
350
1776
  3
Model
350
1775
  0
DICTIONARY
  5
177A
102
{ACAD_REACTORS
330
C
102
}
330
C
100
AcDbDictionary
281
     1
  3
ByBlock
350
1783
  3
ByLayer
350
177B
  3
Global
350
178B
  0
DICTIONARY
  5
17CC
102
{ACAD_REACTORS
330
C
102
}
330
C
100
AcDbDictionary
281
     1
  3
Standard
350
17CD
  0
DICTIONARY
  5
17
102
{ACAD_REACTORS
330
C
102
}
330
C
100
AcDbDictionary
281
     1
  3
Standard
350
18
  0
DICTIONARY
  5
19
102
{ACAD_REACTORS
330
C
102
}
330
C
100
AcDbDictionary
281
     1
  0
ACDBDICTIONARYWDFLT
  5
E
102
{ACAD_REACTORS
330
C
102
}
330
C
100
AcDbDictionary
281
     1
  3
Normal
350
F
100
AcDbDictionaryWithDefault
340
F
  0
DICTIONARY
  5
17AA
102
{ACAD_REACTORS
330
C
102
}
330
C
100
AcDbDictionary
281
     1
  3
A0
350
17AB
  3
A1
350
17AC
  3
A2
350
17AD
  3
A3
350
17AE
  3
A4
350
17AF
  3
A5
350
17B0
  3
A6
350
17B1
  3
A7
350
17B2
  3
A8
350
17B3
  3
A9
350
17B4
  3
B0
350
17B5
  3
B1
350
17B6
  3
B2
350
17B7
  3
B3
350
17B8
  3
B4
350
17B9
  3
B5
350
17BA
  3
B6
350
17BB
  3
B7
350
17BC
  3
B8
350
17BD
  3
B9
350
17BE
  3
C0
350
17BF
  3
C1
350
17C0
  3
C2
350
17C1
  3
C3
350
17C2
  3
C4
350
17C3
  3
C5
350
17C4
  3
C6
350
17C5
  3
C7
350
17C6
  3
C8
350
17C7
  3
C9
350
17C8
  3
D0
350
17C9
  3
D1
350
17CA
  3
D2
350
17CB
  0
DICTIONARY
  5
17A8
102
{ACAD_REACTORS
330
C
102
}
330
C
100
AcDbDictionary
281
     1
  3
Standard
350
17A9
  0
DICTIONARY
  5
1793
102
{ACAD_REACTORS
330
C
102
}
330
C
100
AcDbDictionary
281
     1
  3
2dWireframe
350
1799
  3
3D Hidden
350
179B
  3
3dWireframe
350
179A
  3
Basic
350
1798
  3
Brighten
350
179F
  3
ColorChange
350
17A3
  3
Conceptual
350
179C
  3
Dim
350
179E
  3
EdgeColorOff
350
17A6
  3
Facepattern
350
17A2
  3
Flat
350
1794
  3
FlatWithEdges
350
1795
  3
Gouraud
350
1796
  3
GouraudWithEdges
350
1797
  3
JitterOff
350
17A4
  3
Linepattern
350
17A1
  3
OverhangOff
350
17A5
  3
Realistic
350
179D
  3
Thicken
350
17A0
  0
XRECORD
  5
17D2
102
{ACAD_REACTORS
330
C
102
}
330
C
100
AcDbXrecord
280
     1
 90
        1
330
17A9
  0
DICTIONARY
  5
1804
102
{ACAD_REACTORS
330
C
102
}
330
C
100
AcDbDictionary
281
     1
  3
CANNOSCALE
350
1807
  3
CMLEADERSTYLE
350
1806
  3
CTABLESTYLE
350
1805
  3
DIMASSOC
350
180A
  3
INDEXCTL
350
1809
  3
LAYEREVAL
350
1851
  3
LAYERNOTIFY
350
1852
  3
LIGHTINGUNITS
350
1850
  3
MSLTSCALE
350
184F
  3
SORTENTS
350
1808
  3
XCLIPFRAME
350
180B
  0
XRECORD
  5
1814
102
{ACAD_REACTORS
330
1813
102
}
330
1813
100
AcDbXrecord
280
     1
290
     1
  0
XRECORD
  5
1816
102
{ACAD_REACTORS
330
1815
102
}
330
1815
100
AcDbXrecord
280
     1
290
     1
  0
XRECORD
  5
1818
102
{ACAD_REACTORS
330
1817
102
}
330
1817
100
AcDbXrecord
280
     1
290
     1
  0
XRECORD
  5
181A
102
{ACAD_REACTORS
330
1819
102
}
330
1819
100
AcDbXrecord
280
     1
290
     1
  0
XRECORD
  5
181C
102
{ACAD_REACTORS
330
181B
102
}
330
181B
100
AcDbXrecord
280
     1
290
     1
  0
XRECORD
  5
181E
102
{ACAD_REACTORS
330
181D
102
}
330
181D
100
AcDbXrecord
280
     1
290
     1
  0
XRECORD
  5
1820
102
{ACAD_REACTORS
330
181F
102
}
330
181F
100
AcDbXrecord
280
     1
290
     1
  0
XRECORD
  5
1822
102
{ACAD_REACTORS
330
1821
102
}
330
1821
100
AcDbXrecord
280
     1
290
     1
  0
XRECORD
  5
1824
102
{ACAD_REACTORS
330
1823
102
}
330
1823
100
AcDbXrecord
280
     1
290
     1
  0
XRECORD
  5
1826
102
{ACAD_REACTORS
330
1825
102
}
330
1825
100
AcDbXrecord
280
     1
290
     1
  0
XRECORD
  5
1828
102
{ACAD_REACTORS
330
1827
102
}
330
1827
100
AcDbXrecord
280
     1
290
     1
  0
XRECORD
  5
182A
102
{ACAD_REACTORS
330
1829
102
}
330
1829
100
AcDbXrecord
280
     1
290
     1
  0
XRECORD
  5
182C
102
{ACAD_REACTORS
330
182B
102
}
330
182B
100
AcDbXrecord
280
     1
290
     1
  0
XRECORD
  5
182E
102
{ACAD_REACTORS
330
182D
102
}
330
182D
100
AcDbXrecord
280
     1
290
     1
  0
XRECORD
  5
1830
102
{ACAD_REACTORS
330
182F
102
}
330
182F
100
AcDbXrecord
280
     1
290
     1
  0
XRECORD
  5
1832
102
{ACAD_REACTORS
330
1831
102
}
330
1831
100
AcDbXrecord
280
     1
290
     1
  0
XRECORD
  5
1834
102
{ACAD_REACTORS
330
1833
102
}
330
1833
100
AcDbXrecord
280
     1
290
     1
  0
XRECORD
  5
1836
102
{ACAD_REACTORS
330
1835
102
}
330
1835
100
AcDbXrecord
280
     1
290
     1
  0
XRECORD
  5
1838
102
{ACAD_REACTORS
330
1837
102
}
330
1837
100
AcDbXrecord
280
     1
290
     1
  0
XRECORD
  5
183A
102
{ACAD_REACTORS
330
1839
102
}
330
1839
100
AcDbXrecord
280
     1
290
     1
  0
XRECORD
  5
183C
102
{ACAD_REACTORS
330
183B
102
}
330
183B
100
AcDbXrecord
280
     1
290
     1
  0
XRECORD
  5
183E
102
{ACAD_REACTORS
330
183D
102
}
330
183D
100
AcDbXrecord
280
     1
290
     1
  0
XRECORD
  5
1840
102
{ACAD_REACTORS
330
183F
102
}
330
183F
100
AcDbXrecord
280
     1
290
     1
  0
XRECORD
  5
1842
102
{ACAD_REACTORS
330
1841
102
}
330
1841
100
AcDbXrecord
280
     1
290
     1
  0
XRECORD
  5
1844
102
{ACAD_REACTORS
330
1843
102
}
330
1843
100
AcDbXrecord
280
     1
290
     1
  0
LAYOUT
  5
1776
102
{ACAD_REACTORS
330
1A
102
}
330
1A
100
AcDbPlotSettings
  1

  2
none_device
  4
ANSI_B_(17.00_x_11.00_Inches)
  6

 40
0.0
 41
0.0
 42
0.0
 43
0.0
 44
431.8
 45
279.4
 46
0.0
 47
0.0
 48
0.0
 49
0.0
140
0.0
141
0.0
142
1.0
143
1.0
 70
     0
 72
     0
 73
     0
 74
     0
  7

 75
     0
147
1.0
 76
     0
 77
     2
 78
   300
148
0.0
149
0.0
100
AcDbLayout
  1
Layout1
 70
     1
 71
     1
 10
0.0
 20
0.0
 11
12.0
 21
9.0
 12
0.0
 22
0.0
 32
0.0
 14
1.000000000000000E+20
 24
1.000000000000000E+20
 34
1.000000000000000E+20
 15
-1.000000000000000E+20
 25
-1.000000000000000E+20
 35
-1.000000000000000E+20
146
0.0
 13
0.0
 23
0.0
 33
0.0
 16
1.0
 26
0.0
 36
0.0
 17
0.0
 27
1.0
 37
0.0
 76
     0
330
21B
  0
LAYOUT
  5
1775
102
{ACAD_REACTORS
330
1A
102
}
330
1A
100
AcDbPlotSettings
  1

  2
none_device
  4
ANSI_B_(17.00_x_11.00_Inches)
  6

 40
0.0
 41
0.0
 42
0.0
 43
0.0
 44
431.8
 45
279.4
 46
0.0
 47
0.0
 48
0.0
 49
0.0
140
0.0
141
0.0
142
1.0
143
1.0
 70
  1024
 72
     0
 73
     0
 74
     0
  7

 75
     0
147
1.0
 76
     0
 77
     2
 78
   300
148
0.0
149
0.0
100
AcDbLayout
  1
Model
 70
     0
 71
     0
 10
0.0
 20
0.0
 11
17.0
 21
11.0
 12
0.0
 22
0.0
 32
0.0
 14
0.0
 24
0.0
 34
0.0
 15
0.0
 25
0.0
 35
0.0
146
0.0
 13
0.0
 23
0.0
 33
0.0
 16
1.0
 26
0.0
 36
0.0
 17
0.0
 27
1.0
 37
0.0
 76
     0
330
21A
331
1F4
  0
MATERIAL
  5
1783
102
{ACAD_XDICTIONARY
360
1784
102
}
102
{ACAD_REACTORS
330
177A
102
}
330
177A
100
AcDbMaterial
  1
ByBlock
 72
     0
 43
0.0208333333333333
 43
0.0
 43
0.0
 43
0.0
 43
0.0
 43
0.0208333333333333
 43
0.0
 43
0.0
 43
0.0
 43
0.0
 43
1.0
 43
0.0
 43
0.0
 43
0.0
 43
0.0
 43
1.0
 77
     0
 47
0.0208333333333333
 47
0.0
 47
0.0
 47
0.0
 47
0.0
 47
0.0208333333333333
 47
0.0
 47
0.0
 47
0.0
 47
0.0
 47
1.0
 47
0.0
 47
0.0
 47
0.0
 47
0.0
 47
1.0
171
     0
 49
0.0208333333333333
 49
0.0
 49
0.0
 49
0.0
 49
0.0
 49
0.0208333333333333
 49
0.0
 49
0.0
 49
0.0
 49
0.0
 49
1.0
 49
0.0
 49
0.0
 49
0.0
 49
0.0
 49
1.0
175
     0
142
0.0208333333333333
142
0.0
142
0.0
142
0.0
142
0.0
142
0.0208333333333333
142
0.0
142
0.0
142
0.0
142
0.0
142
1.0
142
0.0
142
0.0
142
0.0
142
0.0
142
1.0
179
     0
144
0.0208333333333333
144
0.0
144
0.0
144
0.0
144
0.0
144
0.0208333333333333
144
0.0
144
0.0
144
0.0
144
0.0
144
1.0
144
0.0
144
0.0
144
0.0
144
0.0
144
1.0
147
0.0208333333333333
147
0.0
147
0.0
147
0.0
147
0.0
147
0.0208333333333333
147
0.0
147
0.0
147
0.0
147
0.0
147
1.0
147
0.0
147
0.0
147
0.0
147
0.0
147
1.0
  0
MATERIAL
  5
177B
102
{ACAD_XDICTIONARY
360
177C
102
}
102
{ACAD_REACTORS
330
177A
102
}
330
177A
100
AcDbMaterial
  1
ByLayer
 72
     0
 43
0.0208333333333333
 43
0.0
 43
0.0
 43
0.0
 43
0.0
 43
0.0208333333333333
 43
0.0
 43
0.0
 43
0.0
 43
0.0
 43
1.0
 43
0.0
 43
0.0
 43
0.0
 43
0.0
 43
1.0
 77
     0
 47
0.0208333333333333
 47
0.0
 47
0.0
 47
0.0
 47
0.0
 47
0.0208333333333333
 47
0.0
 47
0.0
 47
0.0
 47
0.0
 47
1.0
 47
0.0
 47
0.0
 47
0.0
 47
0.0
 47
1.0
171
     0
 49
0.0208333333333333
 49
0.0
 49
0.0
 49
0.0
 49
0.0
 49
0.0208333333333333
 49
0.0
 49
0.0
 49
0.0
 49
0.0
 49
1.0
 49
0.0
 49
0.0
 49
0.0
 49
0.0
 49
1.0
175
     0
142
0.0208333333333333
142
0.0
142
0.0
142
0.0
142
0.0
142
0.0208333333333333
142
0.0
142
0.0
142
0.0
142
0.0
142
1.0
142
0.0
142
0.0
142
0.0
142
0.0
142
1.0
179
     0
144
0.0208333333333333
144
0.0
144
0.0
144
0.0
144
0.0
144
0.0208333333333333
144
0.0
144
0.0
144
0.0
144
0.0
144
1.0
144
0.0
144
0.0
144
0.0
144
0.0
144
1.0
147
0.0208333333333333
147
0.0
147
0.0
147
0.0
147
0.0
147
0.0208333333333333
147
0.0
147
0.0
147
0.0
147
0.0
147
1.0
147
0.0
147
0.0
147
0.0
147
0.0
147
1.0
  0
MATERIAL
  5
178B
102
{ACAD_XDICTIONARY
360
178C
102
}
102
{ACAD_REACTORS
330
177A
102
}
330
177A
100
AcDbMaterial
  1
Global
 72
     0
 43
0.0208333333333333
 43
0.0
 43
0.0
 43
0.0
 43
0.0
 43
0.0208333333333333
 43
0.0
 43
0.0
 43
0.0
 43
0.0
 43
1.0
 43
0.0
 43
0.0
 43
0.0
 43
0.0
 43
1.0
 77
     0
 47
0.0208333333333333
 47
0.0
 47
0.0
 47
0.0
 47
0.0
 47
0.0208333333333333
 47
0.0
 47
0.0
 47
0.0
 47
0.0
 47
1.0
 47
0.0
 47
0.0
 47
0.0
 47
0.0
 47
1.0
171
     0
 49
0.0208333333333333
 49
0.0
 49
0.0
 49
0.0
 49
0.0
 49
0.0208333333333333
 49
0.0
 49
0.0
 49
0.0
 49
0.0
 49
1.0
 49
0.0
 49
0.0
 49
0.0
 49
0.0
 49
1.0
175
     0
142
0.0208333333333333
142
0.0
142
0.0
142
0.0
142
0.0
142
0.0208333333333333
142
0.0
142
0.0
142
0.0
142
0.0
142
1.0
142
0.0
142
0.0
142
0.0
142
0.0
142
1.0
179
     0
144
0.0208333333333333
144
0.0
144
0.0
144
0.0
144
0.0
144
0.0208333333333333
144
0.0
144
0.0
144
0.0
144
0.0
144
1.0
144
0.0
144
0.0
144
0.0
144
0.0
144
1.0
147
0.0208333333333333
147
0.0
147
0.0
147
0.0
147
0.0
147
0.0208333333333333
147
0.0
147
0.0
147
0.0
147
0.0
147
1.0
147
0.0
147
0.0
147
0.0
147
0.0
147
1.0
  0
MLEADERSTYLE
  5
17CD
102
{ACAD_REACTORS
330
17CC
102
}
330
17CC
100
AcDbMLeaderStyle
170
     2
171
     1
172
     0
 90
        2
 40
0.0
 41
0.0
173
     1
 91
-1056964608
340
14
 92
       -2
290
     1
 42
0.09
291
     1
 43
0.36
  3
Standard
 44
0.18
300

342
11
174
     1
178
     6
175
     1
176
     0
 93
-1056964608
 45
0.18
292
     0
297
     0
 46
0.18
 94
-1056964608
 47
1.0
 49
1.0
140
1.0
293
     1
141
0.0
294
     1
177
     0
142
1.0
295
     0
296
     0
143
0.125
1001
ACAD_MLEADERVER
1070
     2
  0
MLINESTYLE
  5
18
102
{ACAD_REACTORS
330
17
102
}
330
17
100
AcDbMlineStyle
  2
STANDARD
 70
     0
  3

 62
   256
 51
90.0
 52
90.0
 71
     2
 49
0.5
 62
   256
  6
BYLAYER
 49
-0.5
 62
   256
  6
BYLAYER
  0
ACDBPLACEHOLDER
  5
F
102
{ACAD_REACTORS
330
E
102
}
330
E
  0
SCALE
  5
17AB
102
{ACAD_REACTORS
330
17AA
102
}
330
17AA
100
AcDbScale
 70
     0
300
1:1
140
1.0
141
1.0
290
     1
  0
SCALE
  5
17AC
102
{ACAD_REACTORS
330
17AA
102
}
330
17AA
100
AcDbScale
 70
     0
300
1:2
140
1.0
141
2.0
290
     0
  0
SCALE
  5
17AD
102
{ACAD_REACTORS
330
17AA
102
}
330
17AA
100
AcDbScale
 70
     0
300
1:4
140
1.0
141
4.0
290
     0
  0
SCALE
  5
17AE
102
{ACAD_REACTORS
330
17AA
102
}
330
17AA
100
AcDbScale
 70
     0
300
1:5
140
1.0
141
5.0
290
     0
  0
SCALE
  5
17AF
102
{ACAD_REACTORS
330
17AA
102
}
330
17AA
100
AcDbScale
 70
     0
300
1:8
140
1.0
141
8.0
290
     0
  0
SCALE
  5
17B0
102
{ACAD_REACTORS
330
17AA
102
}
330
17AA
100
AcDbScale
 70
     0
300
1:10
140
1.0
141
10.0
290
     0
  0
SCALE
  5
17B1
102
{ACAD_REACTORS
330
17AA
102
}
330
17AA
100
AcDbScale
 70
     0
300
1:16
140
1.0
141
16.0
290
     0
  0
SCALE
  5
17B2
102
{ACAD_REACTORS
330
17AA
102
}
330
17AA
100
AcDbScale
 70
     0
300
1:20
140
1.0
141
20.0
290
     0
  0
SCALE
  5
17B3
102
{ACAD_REACTORS
330
17AA
102
}
330
17AA
100
AcDbScale
 70
     0
300
1:30
140
1.0
141
30.0
290
     0
  0
SCALE
  5
17B4
102
{ACAD_REACTORS
330
17AA
102
}
330
17AA
100
AcDbScale
 70
     0
300
1:40
140
1.0
141
40.0
290
     0
  0
SCALE
  5
17B5
102
{ACAD_REACTORS
330
17AA
102
}
330
17AA
100
AcDbScale
 70
     0
300
1:50
140
1.0
141
50.0
290
     0
  0
SCALE
  5
17B6
102
{ACAD_REACTORS
330
17AA
102
}
330
17AA
100
AcDbScale
 70
     0
300
1:100
140
1.0
141
100.0
290
     0
  0
SCALE
  5
17B7
102
{ACAD_REACTORS
330
17AA
102
}
330
17AA
100
AcDbScale
 70
     0
300
2:1
140
2.0
141
1.0
290
     0
  0
SCALE
  5
17B8
102
{ACAD_REACTORS
330
17AA
102
}
330
17AA
100
AcDbScale
 70
     0
300
4:1
140
4.0
141
1.0
290
     0
  0
SCALE
  5
17B9
102
{ACAD_REACTORS
330
17AA
102
}
330
17AA
100
AcDbScale
 70
     0
300
8:1
140
8.0
141
1.0
290
     0
  0
SCALE
  5
17BA
102
{ACAD_REACTORS
330
17AA
102
}
330
17AA
100
AcDbScale
 70
     0
300
10:1
140
10.0
141
1.0
290
     0
  0
SCALE
  5
17BB
102
{ACAD_REACTORS
330
17AA
102
}
330
17AA
100
AcDbScale
 70
     0
300
100:1
140
100.0
141
1.0
290
     0
  0
SCALE
  5
17BC
102
{ACAD_REACTORS
330
17AA
102
}
330
17AA
100
AcDbScale
 70
     0
300
1/128" = 1'-0"
140
0.0078125
141
12.0
290
     0
  0
SCALE
  5
17BD
102
{ACAD_REACTORS
330
17AA
102
}
330
17AA
100
AcDbScale
 70
     0
300
1/64" = 1'-0"
140
0.015625
141
12.0
290
     0
  0
SCALE
  5
17BE
102
{ACAD_REACTORS
330
17AA
102
}
330
17AA
100
AcDbScale
 70
     0
300
1/32" = 1'-0"
140
0.03125
141
12.0
290
     0
  0
SCALE
  5
17BF
102
{ACAD_REACTORS
330
17AA
102
}
330
17AA
100
AcDbScale
 70
     0
300
1/16" = 1'-0"
140
0.0625
141
12.0
290
     0
  0
SCALE
  5
17C0
102
{ACAD_REACTORS
330
17AA
102
}
330
17AA
100
AcDbScale
 70
     0
300
3/32" = 1'-0"
140
0.09375
141
12.0
290
     0
  0
SCALE
  5
17C1
102
{ACAD_REACTORS
330
17AA
102
}
330
17AA
100
AcDbScale
 70
     0
300
1/8" = 1'-0"
140
0.125
141
12.0
290
     0
  0
SCALE
  5
17C2
102
{ACAD_REACTORS
330
17AA
102
}
330
17AA
100
AcDbScale
 70
     0
300
3/16" = 1'-0"
140
0.1875
141
12.0
290
     0
  0
SCALE
  5
17C3
102
{ACAD_REACTORS
330
17AA
102
}
330
17AA
100
AcDbScale
 70
     0
300
1/4" = 1'-0"
140
0.25
141
12.0
290
     0
  0
SCALE
  5
17C4
102
{ACAD_REACTORS
330
17AA
102
}
330
17AA
100
AcDbScale
 70
     0
300
3/8" = 1'-0"
140
0.375
141
12.0
290
     0
  0
SCALE
  5
17C5
102
{ACAD_REACTORS
330
17AA
102
}
330
17AA
100
AcDbScale
 70
     0
300
1/2" = 1'-0"
140
0.5
141
12.0
290
     0
  0
SCALE
  5
17C6
102
{ACAD_REACTORS
330
17AA
102
}
330
17AA
100
AcDbScale
 70
     0
300
3/4" = 1'-0"
140
0.75
141
12.0
290
     0
  0
SCALE
  5
17C7
102
{ACAD_REACTORS
330
17AA
102
}
330
17AA
100
AcDbScale
 70
     0
300
1" = 1'-0"
140
1.0
141
12.0
290
     0
  0
SCALE
  5
17C8
102
{ACAD_REACTORS
330
17AA
102
}
330
17AA
100
AcDbScale
 70
     0
300
1-1/2" = 1'-0"
140
1.5
141
12.0
290
     0
  0
SCALE
  5
17C9
102
{ACAD_REACTORS
330
17AA
102
}
330
17AA
100
AcDbScale
 70
     0
300
3" = 1'-0"
140
3.0
141
12.0
290
     0
  0
SCALE
  5
17CA
102
{ACAD_REACTORS
330
17AA
102
}
330
17AA
100
AcDbScale
 70
     0
300
6" = 1'-0"
140
6.0
141
12.0
290
     0
  0
SCALE
  5
17CB
102
{ACAD_REACTORS
330
17AA
102
}
330
17AA
100
AcDbScale
 70
     0
300
1'-0" = 1'-0"
140
12.0
141
12.0
290
     0
  0
TABLESTYLE
  5
17A9
102
{ACAD_XDICTIONARY
360
17D0
102
}
102
{ACAD_REACTORS
330
17A8
102
}
330
17A8
100
AcDbTableStyle
  3
Standard
 70
     0
 71
     0
 40
0.06
 41
0.06
280
     0
281
     0
  7
STANDARD
140
0.18
170
     2
 62
     0
 63
     7
283
     0
 90
      512
 91
        0
  1

274
    -2
284
     1
 64
     0
275
    -2
285
     1
 65
     0
276
    -2
286
     1
 66
     0
277
    -2
287
     1
 67
     0
278
    -2
288
     1
 68
     0
279
    -2
289
     1
 69
     0
  7
STANDARD
140
0.25
170
     5
 62
     0
 63
     7
283
     0
 90
      512
 91
        0
  1

274
    -2
284
     1
 64
     0
275
    -2
285
     1
 65
     0
276
    -2
286
     1
 66
     0
277
    -2
287
     1
 67
     0
278
    -2
288
     1
 68
     0
279
    -2
289
     1
 69
     0
  7
STANDARD
140
0.18
170
     5
 62
     0
 63
     7
283
     0
 90
      512
 91
        0
  1

274
    -2
284
     1
 64
     0
275
    -2
285
     1
 65
     0
276
    -2
286
     1
 66
     0
277
    -2
287
     1
 67
     0
278
    -2
288
     1
 68
     0
279
    -2
289
     1
 69
     0
  0
VISUALSTYLE
  5
1799
102
{ACAD_XDICTIONARY
360
17E6
102
}
102
{ACAD_REACTORS
330
1793
102
}
330
1793
100
AcDbVisualStyle
  2
2dWireframe
 70
     4
 71
     0
 72
     2
 73
     0
 90
        0
 40
-0.6
 41
-30.0
 62
     5
 63
     7
 74
     1
 91
        4
 64
     7
 65
   257
 75
     1
175
     1
 42
1.0
 92
        0
 66
   257
 43
1.0
 76
     1
 77
     6
 78
     2
 67
     7
 79
     5
170
     0
171
     0
290
     0
174
     0
 93
        1
 44
0.0
173
     0
291
     0
 45
0.0
  0
VISUALSTYLE
  5
179B
102
{ACAD_XDICTIONARY
360
17EA
102
}
102
{ACAD_REACTORS
330
1793
102
}
330
1793
100
AcDbVisualStyle
  2
3D Hidden
 70
     6
 71
     1
 72
     2
 73
     2
 90
        0
 40
-0.6
 41
-30.0
 62
     5
 63
     7
 74
     2
 91
        2
 64
     7
 65
   257
 75
     2
175
     1
 42
179.0
 92
        0
 66
   257
 43
1.0
 76
     1
 77
     6
 78
     2
 67
     7
 79
     3
170
     0
171
     0
290
     0
174
     0
 93
        1
 44
0.0
173
     0
291
     0
 45
0.0
  0
VISUALSTYLE
  5
179A
102
{ACAD_XDICTIONARY
360
17E8
102
}
102
{ACAD_REACTORS
330
1793
102
}
330
1793
100
AcDbVisualStyle
  2
3dWireframe
 70
     5
 71
     0
 72
     2
 73
     0
 90
        0
 40
-0.6
 41
-30.0
 62
     5
 63
     7
 74
     1
 91
        4
 64
     7
 65
   257
 75
     1
175
     1
 42
1.0
 92
        0
 66
   257
 43
1.0
 76
     1
 77
     6
 78
     2
 67
     7
 79
     5
170
     0
171
     0
290
     0
174
     0
 93
        1
 44
0.0
173
     0
291
     0
 45
0.0
  0
VISUALSTYLE
  5
1798
102
{ACAD_XDICTIONARY
360
17E4
102
}
102
{ACAD_REACTORS
330
1793
102
}
330
1793
100
AcDbVisualStyle
  2
Basic
 70
     7
 71
     1
 72
     0
 73
     1
 90
        0
 40
-0.6
 41
-30.0
 62
     5
 63
     7
 74
     0
 91
        4
 64
     7
 65
   257
 75
     1
175
     1
 42
1.0
 92
        8
 66
     7
 43
1.0
 76
     1
 77
     6
 78
     2
 67
     7
 79
     5
170
     0
171
     0
290
     0
174
     0
 93
        1
 44
0.0
173
     0
291
     1
 45
0.0
  0
VISUALSTYLE
  5
179F
102
{ACAD_XDICTIONARY
360
17F2
102
}
102
{ACAD_REACTORS
330
1793
102
}
330
1793
100
AcDbVisualStyle
  2
Brighten
 70
    12
 71
     2
 72
     2
 73
     0
 90
        0
 40
-0.6
 41
-30.0
 62
     5
 63
     7
 74
     1
 91
        4
 64
     7
 65
   257
 75
     1
175
     1
 42
1.0
 92
        8
 66
     7
 43
1.0
 76
     1
 77
     6
 78
     2
 67
     7
 79
     5
170
     0
171
     0
290
     0
174
     0
 93
        1
 44
50.0
173
     0
291
     1
 45
0.0
  0
VISUALSTYLE
  5
17A3
102
{ACAD_XDICTIONARY
360
17FA
102
}
102
{ACAD_REACTORS
330
1793
102
}
330
1793
100
AcDbVisualStyle
  2
ColorChange
 70
    16
 71
     2
 72
     2
 73
     3
 90
        0
 40
-0.6
 41
-30.0
 62
     5
 63
     8
 74
     1
 91
        4
 64
     7
 65
   257
 75
     1
175
     1
 42
1.0
 92
        8
 66
     8
 43
1.0
 76
     1
 77
     6
 78
     2
 67
     7
 79
     5
170
     0
171
     0
290
     0
174
     0
 93
        1
 44
0.0
173
     0
291
     1
 45
0.0
  0
VISUALSTYLE
  5
179C
102
{ACAD_XDICTIONARY
360
17EC
102
}
102
{ACAD_REACTORS
330
1793
102
}
330
1793
100
AcDbVisualStyle
  2
Conceptual
 70
     9
 71
     3
 72
     2
 73
     0
 90
        0
 40
-0.6
 41
-30.0
 62
     5
 63
     7
 74
     2
 91
        2
 64
     7
 65
   257
 75
     1
175
     1
 42
179.0
 92
        8
 66
     7
 43
1.0
 76
     1
 77
     6
 78
     2
 67
     7
 79
     3
170
     0
171
     0
290
     0
174
     0
 93
        1
 44
0.0
173
     0
291
     0
 45
0.0
  0
VISUALSTYLE
  5
179E
102
{ACAD_XDICTIONARY
360
17F0
102
}
102
{ACAD_REACTORS
330
1793
102
}
330
1793
100
AcDbVisualStyle
  2
Dim
 70
    11
 71
     2
 72
     2
 73
     0
 90
        0
 40
-0.6
 41
-30.0
 62
     5
 63
     7
 74
     1
 91
        4
 64
     7
 65
   257
 75
     1
175
     1
 42
1.0
 92
        8
 66
     7
 43
1.0
 76
     1
 77
     6
 78
     2
 67
     7
 79
     5
170
     0
171
     0
290
     0
174
     0
 93
        1
 44
-50.0
173
     0
291
     1
 45
0.0
  0
VISUALSTYLE
  5
17A6
102
{ACAD_XDICTIONARY
360
1800
102
}
102
{ACAD_REACTORS
330
1793
102
}
330
1793
100
AcDbVisualStyle
  2
EdgeColorOff
 70
    22
 71
     2
 72
     2
 73
     0
 90
        0
 40
-0.6
 41
-30.0
 62
     5
 63
     7
 74
     1
 91
        4
 64
     7
 65
   257
 75
     1
175
     1
 42
1.0
 92
        8
 66
     7
 43
1.0
 76
     1
 77
     6
 78
     2
 67
     7
 79
     5
170
     0
171
     0
290
     0
174
     0
 93
        1
 44
0.0
173
     0
291
     1
 45
0.0
  0
VISUALSTYLE
  5
17A2
102
{ACAD_XDICTIONARY
360
17F8
102
}
102
{ACAD_REACTORS
330
1793
102
}
330
1793
100
AcDbVisualStyle
  2
Facepattern
 70
    15
 71
     2
 72
     2
 73
     0
 90
        0
 40
-0.6
 41
-30.0
 62
     5
 63
     7
 74
     1
 91
        4
 64
     7
 65
   257
 75
     1
175
     1
 42
1.0
 92
        8
 66
     7
 43
1.0
 76
     1
 77
     6
 78
     2
 67
     7
 79
     5
170
     0
171
     0
290
     0
174
     0
 93
        1
 44
0.0
173
     0
291
     1
 45
0.0
  0
VISUALSTYLE
  5
1794
102
{ACAD_XDICTIONARY
360
17DC
102
}
102
{ACAD_REACTORS
330
1793
102
}
330
1793
100
AcDbVisualStyle
  2
Flat
 70
     0
 71
     2
 72
     1
 73
     1
 90
        2
 40
-0.6
 41
30.0
 62
     5
 63
     7
 74
     0
 91
        4
 64
     7
 65
   257
 75
     1
175
     1
 42
1.0
 92
        8
 66
     7
 43
1.0
 76
     1
 77
     6
 78
     2
 67
     7
 79
     5
170
     0
171
     0
290
     0
174
     0
 93
       13
 44
0.0
173
     0
291
     1
 45
0.0
  0
VISUALSTYLE
  5
1795
102
{ACAD_XDICTIONARY
360
17DE
102
}
102
{ACAD_REACTORS
330
1793
102
}
330
1793
100
AcDbVisualStyle
  2
FlatWithEdges
 70
     1
 71
     2
 72
     1
 73
     1
 90
        2
 40
-0.6
 41
30.0
 62
     5
 63
     7
 74
     1
 91
        4
 64
     7
 65
   257
 75
     1
175
     1
 42
1.0
 92
        0
 66
   257
 43
1.0
 76
     1
 77
     6
 78
     2
 67
     7
 79
     5
170
     0
171
     0
290
     0
174
     0
 93
       13
 44
0.0
173
     0
291
     1
 45
0.0
  0
VISUALSTYLE
  5
1796
102
{ACAD_XDICTIONARY
360
17E0
102
}
102
{ACAD_REACTORS
330
1793
102
}
330
1793
100
AcDbVisualStyle
  2
Gouraud
 70
     2
 71
     2
 72
     2
 73
     1
 90
        2
 40
-0.6
 41
30.0
 62
     5
 63
     7
 74
     0
 91
        4
 64
     7
 65
   257
 75
     1
175
     1
 42
1.0
 92
        0
 66
     7
 43
1.0
 76
     1
 77
     6
 78
     2
 67
     7
 79
     5
170
     0
171
     0
290
     0
174
     0
 93
       13
 44
0.0
173
     0
291
     1
 45
0.0
  0
VISUALSTYLE
  5
1797
102
{ACAD_XDICTIONARY
360
17E2
102
}
102
{ACAD_REACTORS
330
1793
102
}
330
1793
100
AcDbVisualStyle
  2
GouraudWithEdges
 70
     3
 71
     2
 72
     2
 73
     1
 90
        2
 40
-0.6
 41
30.0
 62
     5
 63
     7
 74
     1
 91
        4
 64
     7
 65
   257
 75
     1
175
     1
 42
1.0
 92
        0
 66
   257
 43
1.0
 76
     1
 77
     6
 78
     2
 67
     7
 79
     5
170
     0
171
     0
290
     0
174
     0
 93
       13
 44
0.0
173
     0
291
     1
 45
0.0
  0
VISUALSTYLE
  5
17A4
102
{ACAD_XDICTIONARY
360
17FC
102
}
102
{ACAD_REACTORS
330
1793
102
}
330
1793
100
AcDbVisualStyle
  2
JitterOff
 70
    20
 71
     2
 72
     2
 73
     0
 90
        0
 40
-0.6
 41
-30.0
 62
     5
 63
     7
 74
     1
 91
        4
 64
     7
 65
   257
 75
     1
175
     1
 42
1.0
 92
       10
 66
     7
 43
1.0
 76
     1
 77
     6
 78
     2
 67
     7
 79
     5
170
     0
171
     0
290
     0
174
     0
 93
        1
 44
0.0
173
     0
291
     1
 45
0.0
  0
VISUALSTYLE
  5
17A1
102
{ACAD_XDICTIONARY
360
17F6
102
}
102
{ACAD_REACTORS
330
1793
102
}
330
1793
100
AcDbVisualStyle
  2
Linepattern
 70
    14
 71
     2
 72
     2
 73
     0
 90
        0
 40
-0.6
 41
-30.0
 62
     5
 63
     7
 74
     1
 91
        4
 64
     7
 65
   257
 75
     7
175
     7
 42
1.0
 92
        8
 66
     7
 43
1.0
 76
     1
 77
     6
 78
     2
 67
     7
 79
     5
170
     0
171
     0
290
     0
174
     0
 93
        1
 44
0.0
173
     0
291
     1
 45
0.0
  0
VISUALSTYLE
  5
17A5
102
{ACAD_XDICTIONARY
360
17FE
102
}
102
{ACAD_REACTORS
330
1793
102
}
330
1793
100
AcDbVisualStyle
  2
OverhangOff
 70
    21
 71
     2
 72
     2
 73
     0
 90
        0
 40
-0.6
 41
-30.0
 62
     5
 63
     7
 74
     1
 91
        4
 64
     7
 65
   257
 75
     1
175
     1
 42
1.0
 92
        9
 66
     7
 43
1.0
 76
     1
 77
     6
 78
     2
 67
     7
 79
     5
170
     0
171
     0
290
     0
174
     0
 93
        1
 44
0.0
173
     0
291
     1
 45
0.0
  0
VISUALSTYLE
  5
179D
102
{ACAD_XDICTIONARY
360
17EE
102
}
102
{ACAD_REACTORS
330
1793
102
}
330
1793
100
AcDbVisualStyle
  2
Realistic
 70
     8
 71
     2
 72
     2
 73
     0
 90
        0
 40
-0.6
 41
-30.0
 62
     5
 63
     7
 74
     1
 91
        0
 64
     7
 65
   257
 75
     1
175
     1
 42
1.0
 92
        8
 66
     8
 43
1.0
 76
     1
 77
     6
 78
     2
 67
     7
 79
     5
170
     0
171
     0
290
     0
174
     0
 93
       13
 44
0.0
173
     0
291
     0
 45
0.0
  0
VISUALSTYLE
  5
17A0
102
{ACAD_XDICTIONARY
360
17F4
102
}
102
{ACAD_REACTORS
330
1793
102
}
330
1793
100
AcDbVisualStyle
  2
Thicken
 70
    13
 71
     2
 72
     2
 73
     0
 90
        0
 40
-0.6
 41
-30.0
 62
     5
 63
     7
 74
     1
 91
        4
 64
     7
 65
   257
 75
     1
175
     1
 42
1.0
 92
       12
 66
     7
 43
1.0
 76
     1
 77
     6
 78
     2
 67
     7
 79
     5
170
     0
171
     0
290
     0
174
     0
 93
        1
 44
0.0
173
     0
291
     1
 45
0.0
  0
DICTIONARYVAR
  5
1807
102
{ACAD_REACTORS
330
1804
102
}
330
1804
100
DictionaryVariables
280
     0
  1
1:1
  0
DICTIONARYVAR
  5
1806
102
{ACAD_REACTORS
330
1804
102
}
330
1804
100
DictionaryVariables
280
     0
  1
STANDARD
  0
DICTIONARYVAR
  5
1805
102
{ACAD_REACTORS
330
1804
102
}
330
1804
100
DictionaryVariables
280
     0
  1
STANDARD
  0
DICTIONARYVAR
  5
180A
102
{ACAD_REACTORS
330
1804
102
}
330
1804
100
DictionaryVariables
280
     0
  1
1
  0
DICTIONARYVAR
  5
1809
102
{ACAD_REACTORS
330
1804
102
}
330
1804
100
DictionaryVariables
280
     0
  1
0
  0
DICTIONARYVAR
  5
1851
102
{ACAD_REACTORS
330
1804
102
}
330
1804
100
DictionaryVariables
280
     0
  1
1
  0
DICTIONARYVAR
  5
1852
102
{ACAD_REACTORS
330
1804
102
}
330
1804
100
DictionaryVariables
280
     0
  1
15
  0
DICTIONARYVAR
  5
1850
102
{ACAD_REACTORS
330
1804
102
}
330
1804
100
DictionaryVariables
280
     0
  1
0
  0
DICTIONARYVAR
  5
184F
102
{ACAD_REACTORS
330
1804
102
}
330
1804
100
DictionaryVariables
280
     0
  1
0
  0
DICTIONARYVAR
  5
1808
102
{ACAD_REACTORS
330
1804
102
}
330
1804
100
DictionaryVariables
280
     0
  1
127
  0
DICTIONARYVAR
  5
180B
102
{ACAD_REACTORS
330
1804
102
}
330
1804
100
DictionaryVariables
280
     0
  1
2
  0
DICTIONARY
  5
1784
330
1783
100
AcDbDictionary
280
     1
281
     1
  3
BUMPTILE
360
1786
  3
DIFFUSETILE
360
1785
  3
OPACITYTILE
360
1789
  3
REFLECTIONTILE
360
1788
  3
REFRACTIONTILE
360
178A
  3
SPECULARTILE
360
1787
  0
DICTIONARY
  5
177C
330
177B
100
AcDbDictionary
280
     1
281
     1
  3
BUMPTILE
360
177E
  3
DIFFUSETILE
360
177D
  3
OPACITYTILE
360
1781
  3
REFLECTIONTILE
360
1780
  3
REFRACTIONTILE
360
1782
  3
SPECULARTILE
360
177F
  0
DICTIONARY
  5
178C
330
178B
100
AcDbDictionary
280
     1
281
     1
  3
BUMPTILE
360
178E
  3
DIFFUSETILE
360
178D
  3
OPACITYTILE
360
1791
  3
REFLECTIONTILE
360
1790
  3
REFRACTIONTILE
360
1792
  3
SPECULARTILE
360
178F
  0
DICTIONARY
  5
17D0
330
17A9
100
AcDbDictionary
280
     1
281
     1
  3
ACAD_ROUNDTRIP_2008_TABLESTYLE_CELLSTYLEMAP
360
1853
  0
DICTIONARY
  5
17E6
330
1799
100
AcDbDictionary
280
     1
281
     1
  3
ACAD_XREC_ROUNDTRIP
360
17E7
  0
DICTIONARY
  5
17EA
330
179B
100
AcDbDictionary
280
     1
281
     1
  3
ACAD_XREC_ROUNDTRIP
360
17EB
  0
DICTIONARY
  5
17E8
330
179A
100
AcDbDictionary
280
     1
281
     1
  3
ACAD_XREC_ROUNDTRIP
360
17E9
  0
DICTIONARY
  5
17E4
330
1798
100
AcDbDictionary
280
     1
281
     1
  3
ACAD_XREC_ROUNDTRIP
360
17E5
  0
DICTIONARY
  5
17F2
330
179F
100
AcDbDictionary
280
     1
281
     1
  3
ACAD_XREC_ROUNDTRIP
360
17F3
  0
DICTIONARY
  5
17FA
330
17A3
100
AcDbDictionary
280
     1
281
     1
  3
ACAD_XREC_ROUNDTRIP
360
17FB
  0
DICTIONARY
  5
17EC
330
179C
100
AcDbDictionary
280
     1
281
     1
  3
ACAD_XREC_ROUNDTRIP
360
17ED
  0
DICTIONARY
  5
17F0
330
179E
100
AcDbDictionary
280
     1
281
     1
  3
ACAD_XREC_ROUNDTRIP
360
17F1
  0
DICTIONARY
  5
1800
330
17A6
100
AcDbDictionary
280
     1
281
     1
  3
ACAD_XREC_ROUNDTRIP
360
1801
  0
DICTIONARY
  5
17F8
330
17A2
100
AcDbDictionary
280
     1
281
     1
  3
ACAD_XREC_ROUNDTRIP
360
17F9
  0
DICTIONARY
  5
17DC
330
1794
100
AcDbDictionary
280
     1
281
     1
  3
ACAD_XREC_ROUNDTRIP
360
17DD
  0
DICTIONARY
  5
17DE
330
1795
100
AcDbDictionary
280
     1
281
     1
  3
ACAD_XREC_ROUNDTRIP
360
17DF
  0
DICTIONARY
  5
17E0
330
1796
100
AcDbDictionary
280
     1
281
     1
  3
ACAD_XREC_ROUNDTRIP
360
17E1
  0
DICTIONARY
  5
17E2
330
1797
100
AcDbDictionary
280
     1
281
     1
  3
ACAD_XREC_ROUNDTRIP
360
17E3
  0
DICTIONARY
  5
17FC
330
17A4
100
AcDbDictionary
280
     1
281
     1
  3
ACAD_XREC_ROUNDTRIP
360
17FD
  0
DICTIONARY
  5
17F6
330
17A1
100
AcDbDictionary
280
     1
281
     1
  3
ACAD_XREC_ROUNDTRIP
360
17F7
  0
DICTIONARY
  5
17FE
330
17A5
100
AcDbDictionary
280
     1
281
     1
  3
ACAD_XREC_ROUNDTRIP
360
17FF
  0
DICTIONARY
  5
17EE
330
179D
100
AcDbDictionary
280
     1
281
     1
  3
ACAD_XREC_ROUNDTRIP
360
17EF
  0
DICTIONARY
  5
17F4
330
17A0
100
AcDbDictionary
280
     1
281
     1
  3
ACAD_XREC_ROUNDTRIP
360
17F5
  0
XRECORD
  5
1786
102
{ACAD_REACTORS
330
1784
102
}
330
1784
100
AcDbXrecord
280
     1
270
     1
271
     1
  0
XRECORD
  5
1785
102
{ACAD_REACTORS
330
1784
102
}
330
1784
100
AcDbXrecord
280
     1
270
     1
271
     1
  0
XRECORD
  5
1789
102
{ACAD_REACTORS
330
1784
102
}
330
1784
100
AcDbXrecord
280
     1
270
     1
271
     1
  0
XRECORD
  5
1788
102
{ACAD_REACTORS
330
1784
102
}
330
1784
100
AcDbXrecord
280
     1
270
     1
271
     1
  0
XRECORD
  5
178A
102
{ACAD_REACTORS
330
1784
102
}
330
1784
100
AcDbXrecord
280
     1
270
     1
271
     1
  0
XRECORD
  5
1787
102
{ACAD_REACTORS
330
1784
102
}
330
1784
100
AcDbXrecord
280
     1
270
     1
271
     1
  0
XRECORD
  5
177E
102
{ACAD_REACTORS
330
177C
102
}
330
177C
100
AcDbXrecord
280
     1
270
     1
271
     1
  0
XRECORD
  5
177D
102
{ACAD_REACTORS
330
177C
102
}
330
177C
100
AcDbXrecord
280
     1
270
     1
271
     1
  0
XRECORD
  5
1781
102
{ACAD_REACTORS
330
177C
102
}
330
177C
100
AcDbXrecord
280
     1
270
     1
271
     1
  0
XRECORD
  5
1780
102
{ACAD_REACTORS
330
177C
102
}
330
177C
100
AcDbXrecord
280
     1
270
     1
271
     1
  0
XRECORD
  5
1782
102
{ACAD_REACTORS
330
177C
102
}
330
177C
100
AcDbXrecord
280
     1
270
     1
271
     1
  0
XRECORD
  5
177F
102
{ACAD_REACTORS
330
177C
102
}
330
177C
100
AcDbXrecord
280
     1
270
     1
271
     1
  0
XRECORD
  5
178E
102
{ACAD_REACTORS
330
178C
102
}
330
178C
100
AcDbXrecord
280
     1
270
     1
271
     1
  0
XRECORD
  5
178D
102
{ACAD_REACTORS
330
178C
102
}
330
178C
100
AcDbXrecord
280
     1
270
     1
271
     1
  0
XRECORD
  5
1791
102
{ACAD_REACTORS
330
178C
102
}
330
178C
100
AcDbXrecord
280
     1
270
     1
271
     1
  0
XRECORD
  5
1790
102
{ACAD_REACTORS
330
178C
102
}
330
178C
100
AcDbXrecord
280
     1
270
     1
271
     1
  0
XRECORD
  5
1792
102
{ACAD_REACTORS
330
178C
102
}
330
178C
100
AcDbXrecord
280
     1
270
     1
271
     1
  0
XRECORD
  5
178F
102
{ACAD_REACTORS
330
178C
102
}
330
178C
100
AcDbXrecord
280
     1
270
     1
271
     1
  0
CELLSTYLEMAP
  5
1853
102
{ACAD_REACTORS
330
17D0
102
}
330
17D0
100
AcDbCellStyleMap
 90
        3
300
CELLSTYLE
  1
TABLEFORMAT_BEGIN
 90
        5
170
     1
 91
        0
 92
    32768
 62
   257
 93
        1
300
CONTENTFORMAT
  1
CONTENTFORMAT_BEGIN
 90
        0
 91
        0
 92
      512
 93
        0
300

 40
0.0
140
1.0
 94
        5
 62
     0
340
11
144
0.25
309
CONTENTFORMAT_END
171
     0
 94
        0
309
TABLEFORMAT_END
  1
CELLSTYLE_BEGIN
 90
        1
 91
        1
300
_TITLE
309
CELLSTYLE_END
300
CELLSTYLE
  1
TABLEFORMAT_BEGIN
 90
        5
170
     1
 91
        0
 92
        0
 62
   257
 93
        1
300
CONTENTFORMAT
  1
CONTENTFORMAT_BEGIN
 90
        0
 91
        0
 92
      512
 93
        0
300

 40
0.0
140
1.0
 94
        5
 62
     0
340
11
144
0.18
309
CONTENTFORMAT_END
171
     0
 94
        0
309
TABLEFORMAT_END
  1
CELLSTYLE_BEGIN
 90
        2
 91
        1
300
_HEADER
309
CELLSTYLE_END
300
CELLSTYLE
  1
TABLEFORMAT_BEGIN
 90
        5
170
     1
 91
        0
 92
        0
 62
   257
 93
        1
300
CONTENTFORMAT
  1
CONTENTFORMAT_BEGIN
 90
        0
 91
        0
 92
      512
 93
        0
300

 40
0.0
140
1.0
 94
        2
 62
     0
340
11
144
0.18
309
CONTENTFORMAT_END
171
     0
 94
        0
309
TABLEFORMAT_END
  1
CELLSTYLE_BEGIN
 90
        3
 91
        2
300
_DATA
309
CELLSTYLE_END
  0
XRECORD
  5
17E7
102
{ACAD_REACTORS
330
17E6
102
}
330
17E6
100
AcDbXrecord
280
     1
102
RTVSPropertyOp0
 70
     1
102
RTVSPropertyOp1
 70
     1
102
RTVSPropertyOp2
 70
     1
102
RTVSPropertyOp3
 70
     1
102
RTVSPropertyOp4
 70
     1
102
RTVSPropertyOp5
 70
     1
102
RTVSPropertyOp6
 70
     1
102
RTVSPropertyOp7
 70
     1
102
RTVSPropertyOp8
 70
     1
102
RTVSPropertyOp9
 70
     1
102
RTVSPropertyOp10
 70
     1
102
RTVSPropertyOp11
 70
     1
102
RTVSPropertyOp12
 70
     1
102
RTVSPropertyOp13
 70
     1
102
RTVSPropertyOp14
 70
     1
102
RTVSPropertyOp15
 70
     1
102
RTVSPropertyOp16
 70
     1
102
RTVSPropertyOp17
 70
     1
102
RTVSPropertyOp18
 70
     1
102
RTVSPropertyOp19
 70
     1
102
RTVSPropertyOp20
 70
     1
102
RTVSPropertyOp21
 70
     1
102
RTVSPropertyOp22
 70
     1
102
RTVSPropertyOp23
 70
     1
102
RTVSPropertyOp24
 70
     1
102
RTVSPropertyOp25
 70
     1
102
RTVSPropertyOp26
 70
     1
102
RTVSPropertyOp27
 70
     1
  0
XRECORD
  5
17EB
102
{ACAD_REACTORS
330
17EA
102
}
330
17EA
100
AcDbXrecord
280
     1
102
RTVSPropertyOp0
 70
     1
102
RTVSPropertyOp1
 70
     1
102
RTVSPropertyOp2
 70
     1
102
RTVSPropertyOp3
 70
     1
102
RTVSPropertyOp4
 70
     1
102
RTVSPropertyOp5
 70
     1
102
RTVSPropertyOp6
 70
     1
102
RTVSPropertyOp7
 70
     1
102
RTVSPropertyOp8
 70
     1
102
RTVSPropertyOp9
 70
     1
102
RTVSPropertyOp10
 70
     1
102
RTVSPropertyOp11
 70
     1
102
RTVSPropertyOp12
 70
     1
102
RTVSPropertyOp13
 70
     1
102
RTVSPropertyOp14
 70
     1
102
RTVSPropertyOp15
 70
     1
102
RTVSPropertyOp16
 70
     1
102
RTVSPropertyOp17
 70
     1
102
RTVSPropertyOp18
 70
     1
102
RTVSPropertyOp19
 70
     1
102
RTVSPropertyOp20
 70
     1
102
RTVSPropertyOp21
 70
     1
102
RTVSPropertyOp22
 70
     1
102
RTVSPropertyOp23
 70
     1
102
RTVSPropertyOp24
 70
     1
102
RTVSPropertyOp25
 70
     1
102
RTVSPropertyOp26
 70
     1
102
RTVSPropertyOp27
 70
     1
  0
XRECORD
  5
17E9
102
{ACAD_REACTORS
330
17E8
102
}
330
17E8
100
AcDbXrecord
280
     1
102
RTVSPropertyOp0
 70
     1
102
RTVSPropertyOp1
 70
     1
102
RTVSPropertyOp2
 70
     1
102
RTVSPropertyOp3
 70
     1
102
RTVSPropertyOp4
 70
     1
102
RTVSPropertyOp5
 70
     1
102
RTVSPropertyOp6
 70
     1
102
RTVSPropertyOp7
 70
     1
102
RTVSPropertyOp8
 70
     1
102
RTVSPropertyOp9
 70
     1
102
RTVSPropertyOp10
 70
     1
102
RTVSPropertyOp11
 70
     1
102
RTVSPropertyOp12
 70
     1
102
RTVSPropertyOp13
 70
     1
102
RTVSPropertyOp14
 70
     1
102
RTVSPropertyOp15
 70
     1
102
RTVSPropertyOp16
 70
     1
102
RTVSPropertyOp17
 70
     1
102
RTVSPropertyOp18
 70
     1
102
RTVSPropertyOp19
 70
     1
102
RTVSPropertyOp20
 70
     1
102
RTVSPropertyOp21
 70
     1
102
RTVSPropertyOp22
 70
     1
102
RTVSPropertyOp23
 70
     1
102
RTVSPropertyOp24
 70
     1
102
RTVSPropertyOp25
 70
     1
102
RTVSPropertyOp26
 70
     1
102
RTVSPropertyOp27
 70
     1
  0
XRECORD
  5
17E5
102
{ACAD_REACTORS
330
17E4
102
}
330
17E4
100
AcDbXrecord
280
     1
102
RTVSPropertyOp0
 70
     1
102
RTVSPropertyOp1
 70
     1
102
RTVSPropertyOp2
 70
     1
102
RTVSPropertyOp3
 70
     1
102
RTVSPropertyOp4
 70
     1
102
RTVSPropertyOp5
 70
     1
102
RTVSPropertyOp6
 70
     1
102
RTVSPropertyOp7
 70
     1
102
RTVSPropertyOp8
 70
     1
102
RTVSPropertyOp9
 70
     1
102
RTVSPropertyOp10
 70
     1
102
RTVSPropertyOp11
 70
     1
102
RTVSPropertyOp12
 70
     1
102
RTVSPropertyOp13
 70
     1
102
RTVSPropertyOp14
 70
     1
102
RTVSPropertyOp15
 70
     1
102
RTVSPropertyOp16
 70
     1
102
RTVSPropertyOp17
 70
     1
102
RTVSPropertyOp18
 70
     1
102
RTVSPropertyOp19
 70
     1
102
RTVSPropertyOp20
 70
     1
102
RTVSPropertyOp21
 70
     1
102
RTVSPropertyOp22
 70
     1
102
RTVSPropertyOp23
 70
     1
102
RTVSPropertyOp24
 70
     1
102
RTVSPropertyOp25
 70
     1
102
RTVSPropertyOp26
 70
     1
102
RTVSPropertyOp27
 70
     1
  0
XRECORD
  5
17F3
102
{ACAD_REACTORS
330
17F2
102
}
330
17F2
100
AcDbXrecord
280
     1
102
RTVSPropertyOp0
 70
     1
102
RTVSPropertyOp1
 70
     1
102
RTVSPropertyOp2
 70
     1
102
RTVSPropertyOp3
 70
     1
102
RTVSPropertyOp4
 70
     1
102
RTVSPropertyOp5
 70
     1
102
RTVSPropertyOp6
 70
     1
102
RTVSPropertyOp7
 70
     1
102
RTVSPropertyOp8
 70
     1
102
RTVSPropertyOp9
 70
     1
102
RTVSPropertyOp10
 70
     1
102
RTVSPropertyOp11
 70
     1
102
RTVSPropertyOp12
 70
     1
102
RTVSPropertyOp13
 70
     1
102
RTVSPropertyOp14
 70
     1
102
RTVSPropertyOp15
 70
     1
102
RTVSPropertyOp16
 70
     1
102
RTVSPropertyOp17
 70
     1
102
RTVSPropertyOp18
 70
     1
102
RTVSPropertyOp19
 70
     1
102
RTVSPropertyOp20
 70
     1
102
RTVSPropertyOp21
 70
     1
102
RTVSPropertyOp22
 70
     1
102
RTVSPropertyOp23
 70
     1
102
RTVSPropertyOp24
 70
     1
102
RTVSPropertyOp25
 70
     1
102
RTVSPropertyOp26
 70
     1
102
RTVSPropertyOp27
 70
     1
  0
XRECORD
  5
17FB
102
{ACAD_REACTORS
330
17FA
102
}
330
17FA
100
AcDbXrecord
280
     1
102
RTVSPropertyOp0
 70
     1
102
RTVSPropertyOp1
 70
     1
102
RTVSPropertyOp2
 70
     1
102
RTVSPropertyOp3
 70
     1
102
RTVSPropertyOp4
 70
     1
102
RTVSPropertyOp5
 70
     1
102
RTVSPropertyOp6
 70
     1
102
RTVSPropertyOp7
 70
     1
102
RTVSPropertyOp8
 70
     1
102
RTVSPropertyOp9
 70
     1
102
RTVSPropertyOp10
 70
     1
102
RTVSPropertyOp11
 70
     1
102
RTVSPropertyOp12
 70
     1
102
RTVSPropertyOp13
 70
     1
102
RTVSPropertyOp14
 70
     1
102
RTVSPropertyOp15
 70
     1
102
RTVSPropertyOp16
 70
     1
102
RTVSPropertyOp17
 70
     1
102
RTVSPropertyOp18
 70
     1
102
RTVSPropertyOp19
 70
     1
102
RTVSPropertyOp20
 70
     1
102
RTVSPropertyOp21
 70
     1
102
RTVSPropertyOp22
 70
     1
102
RTVSPropertyOp23
 70
     1
102
RTVSPropertyOp24
 70
     1
102
RTVSPropertyOp25
 70
     1
102
RTVSPropertyOp26
 70
     1
102
RTVSPropertyOp27
 70
     1
  0
XRECORD
  5
17ED
102
{ACAD_REACTORS
330
17EC
102
}
330
17EC
100
AcDbXrecord
280
     1
102
RTVSPropertyOp0
 70
     1
102
RTVSPropertyOp1
 70
     1
102
RTVSPropertyOp2
 70
     1
102
RTVSPropertyOp3
 70
     1
102
RTVSPropertyOp4
 70
     1
102
RTVSPropertyOp5
 70
     1
102
RTVSPropertyOp6
 70
     1
102
RTVSPropertyOp7
 70
     1
102
RTVSPropertyOp8
 70
     1
102
RTVSPropertyOp9
 70
     1
102
RTVSPropertyOp10
 70
     1
102
RTVSPropertyOp11
 70
     1
102
RTVSPropertyOp12
 70
     1
102
RTVSPropertyOp13
 70
     1
102
RTVSPropertyOp14
 70
     1
102
RTVSPropertyOp15
 70
     1
102
RTVSPropertyOp16
 70
     1
102
RTVSPropertyOp17
 70
     1
102
RTVSPropertyOp18
 70
     1
102
RTVSPropertyOp19
 70
     1
102
RTVSPropertyOp20
 70
     1
102
RTVSPropertyOp21
 70
     1
102
RTVSPropertyOp22
 70
     1
102
RTVSPropertyOp23
 70
     1
102
RTVSPropertyOp24
 70
     1
102
RTVSPropertyOp25
 70
     1
102
RTVSPropertyOp26
 70
     1
102
RTVSPropertyOp27
 70
     1
  0
XRECORD
  5
17F1
102
{ACAD_REACTORS
330
17F0
102
}
330
17F0
100
AcDbXrecord
280
     1
102
RTVSPropertyOp0
 70
     1
102
RTVSPropertyOp1
 70
     1
102
RTVSPropertyOp2
 70
     1
102
RTVSPropertyOp3
 70
     1
102
RTVSPropertyOp4
 70
     1
102
RTVSPropertyOp5
 70
     1
102
RTVSPropertyOp6
 70
     1
102
RTVSPropertyOp7
 70
     1
102
RTVSPropertyOp8
 70
     1
102
RTVSPropertyOp9
 70
     1
102
RTVSPropertyOp10
 70
     1
102
RTVSPropertyOp11
 70
     1
102
RTVSPropertyOp12
 70
     1
102
RTVSPropertyOp13
 70
     1
102
RTVSPropertyOp14
 70
     1
102
RTVSPropertyOp15
 70
     1
102
RTVSPropertyOp16
 70
     1
102
RTVSPropertyOp17
 70
     1
102
RTVSPropertyOp18
 70
     1
102
RTVSPropertyOp19
 70
     1
102
RTVSPropertyOp20
 70
     1
102
RTVSPropertyOp21
 70
     1
102
RTVSPropertyOp22
 70
     1
102
RTVSPropertyOp23
 70
     1
102
RTVSPropertyOp24
 70
     1
102
RTVSPropertyOp25
 70
     1
102
RTVSPropertyOp26
 70
     1
102
RTVSPropertyOp27
 70
     1
  0
XRECORD
  5
1801
102
{ACAD_REACTORS
330
1800
102
}
330
1800
100
AcDbXrecord
280
     1
102
RTVSPropertyOp0
 70
     0
102
RTVSPropertyOp1
 70
     0
102
RTVSPropertyOp2
 70
     0
102
RTVSPropertyOp3
 70
     0
102
RTVSPropertyOp4
 70
     0
102
RTVSPropertyOp5
 70
     0
102
RTVSPropertyOp6
 70
     0
102
RTVSPropertyOp7
 70
     0
102
RTVSPropertyOp8
 70
     0
102
RTVSPropertyOp9
 70
     0
102
RTVSPropertyOp10
 70
     0
102
RTVSPropertyOp11
 70
     0
102
RTVSPropertyOp12
 70
     0
102
RTVSPropertyOp13
 70
     0
102
RTVSPropertyOp14
 70
     2
102
RTVSPropertyOp15
 70
     0
102
RTVSPropertyOp16
 70
     0
102
RTVSPropertyOp17
 70
     0
102
RTVSPropertyOp18
 70
     0
102
RTVSPropertyOp19
 70
     0
102
RTVSPropertyOp20
 70
     0
102
RTVSPropertyOp21
 70
     0
102
RTVSPropertyOp22
 70
     0
102
RTVSPropertyOp23
 70
     0
102
RTVSPropertyOp24
 70
     0
102
RTVSPropertyOp25
 70
     0
102
RTVSPropertyOp26
 70
     0
102
RTVSPropertyOp27
 70
     0
  0
XRECORD
  5
17F9
102
{ACAD_REACTORS
330
17F8
102
}
330
17F8
100
AcDbXrecord
280
     1
102
RTVSPropertyOp0
 70
     1
102
RTVSPropertyOp1
 70
     1
102
RTVSPropertyOp2
 70
     1
102
RTVSPropertyOp3
 70
     1
102
RTVSPropertyOp4
 70
     1
102
RTVSPropertyOp5
 70
     1
102
RTVSPropertyOp6
 70
     1
102
RTVSPropertyOp7
 70
     1
102
RTVSPropertyOp8
 70
     1
102
RTVSPropertyOp9
 70
     1
102
RTVSPropertyOp10
 70
     1
102
RTVSPropertyOp11
 70
     1
102
RTVSPropertyOp12
 70
     1
102
RTVSPropertyOp13
 70
     1
102
RTVSPropertyOp14
 70
     1
102
RTVSPropertyOp15
 70
     1
102
RTVSPropertyOp16
 70
     1
102
RTVSPropertyOp17
 70
     1
102
RTVSPropertyOp18
 70
     1
102
RTVSPropertyOp19
 70
     1
102
RTVSPropertyOp20
 70
     1
102
RTVSPropertyOp21
 70
     1
102
RTVSPropertyOp22
 70
     1
102
RTVSPropertyOp23
 70
     1
102
RTVSPropertyOp24
 70
     1
102
RTVSPropertyOp25
 70
     1
102
RTVSPropertyOp26
 70
     1
102
RTVSPropertyOp27
 70
     1
  0
XRECORD
  5
17DD
102
{ACAD_REACTORS
330
17DC
102
}
330
17DC
100
AcDbXrecord
280
     1
102
RTVSPropertyOp0
 70
     1
102
RTVSPropertyOp1
 70
     1
102
RTVSPropertyOp2
 70
     1
102
RTVSPropertyOp3
 70
     1
102
RTVSPropertyOp4
 70
     1
102
RTVSPropertyOp5
 70
     1
102
RTVSPropertyOp6
 70
     1
102
RTVSPropertyOp7
 70
     1
102
RTVSPropertyOp8
 70
     1
102
RTVSPropertyOp9
 70
     1
102
RTVSPropertyOp10
 70
     1
102
RTVSPropertyOp11
 70
     1
102
RTVSPropertyOp12
 70
     1
102
RTVSPropertyOp13
 70
     1
102
RTVSPropertyOp14
 70
     1
102
RTVSPropertyOp15
 70
     1
102
RTVSPropertyOp16
 70
     1
102
RTVSPropertyOp17
 70
     1
102
RTVSPropertyOp18
 70
     1
102
RTVSPropertyOp19
 70
     1
102
RTVSPropertyOp20
 70
     1
102
RTVSPropertyOp21
 70
     1
102
RTVSPropertyOp22
 70
     1
102
RTVSPropertyOp23
 70
     1
102
RTVSPropertyOp24
 70
     1
102
RTVSPropertyOp25
 70
     1
102
RTVSPropertyOp26
 70
     1
102
RTVSPropertyOp27
 70
     1
  0
XRECORD
  5
17DF
102
{ACAD_REACTORS
330
17DE
102
}
330
17DE
100
AcDbXrecord
280
     1
102
RTVSPropertyOp0
 70
     1
102
RTVSPropertyOp1
 70
     1
102
RTVSPropertyOp2
 70
     1
102
RTVSPropertyOp3
 70
     1
102
RTVSPropertyOp4
 70
     1
102
RTVSPropertyOp5
 70
     1
102
RTVSPropertyOp6
 70
     1
102
RTVSPropertyOp7
 70
     1
102
RTVSPropertyOp8
 70
     1
102
RTVSPropertyOp9
 70
     1
102
RTVSPropertyOp10
 70
     1
102
RTVSPropertyOp11
 70
     1
102
RTVSPropertyOp12
 70
     1
102
RTVSPropertyOp13
 70
     1
102
RTVSPropertyOp14
 70
     1
102
RTVSPropertyOp15
 70
     1
102
RTVSPropertyOp16
 70
     1
102
RTVSPropertyOp17
 70
     1
102
RTVSPropertyOp18
 70
     1
102
RTVSPropertyOp19
 70
     1
102
RTVSPropertyOp20
 70
     1
102
RTVSPropertyOp21
 70
     1
102
RTVSPropertyOp22
 70
     1
102
RTVSPropertyOp23
 70
     1
102
RTVSPropertyOp24
 70
     1
102
RTVSPropertyOp25
 70
     1
102
RTVSPropertyOp26
 70
     1
102
RTVSPropertyOp27
 70
     1
  0
XRECORD
  5
17E1
102
{ACAD_REACTORS
330
17E0
102
}
330
17E0
100
AcDbXrecord
280
     1
102
RTVSPropertyOp0
 70
     1
102
RTVSPropertyOp1
 70
     1
102
RTVSPropertyOp2
 70
     1
102
RTVSPropertyOp3
 70
     1
102
RTVSPropertyOp4
 70
     1
102
RTVSPropertyOp5
 70
     1
102
RTVSPropertyOp6
 70
     1
102
RTVSPropertyOp7
 70
     1
102
RTVSPropertyOp8
 70
     1
102
RTVSPropertyOp9
 70
     1
102
RTVSPropertyOp10
 70
     1
102
RTVSPropertyOp11
 70
     1
102
RTVSPropertyOp12
 70
     1
102
RTVSPropertyOp13
 70
     1
102
RTVSPropertyOp14
 70
     1
102
RTVSPropertyOp15
 70
     1
102
RTVSPropertyOp16
 70
     1
102
RTVSPropertyOp17
 70
     1
102
RTVSPropertyOp18
 70
     1
102
RTVSPropertyOp19
 70
     1
102
RTVSPropertyOp20
 70
     1
102
RTVSPropertyOp21
 70
     1
102
RTVSPropertyOp22
 70
     1
102
RTVSPropertyOp23
 70
     1
102
RTVSPropertyOp24
 70
     1
102
RTVSPropertyOp25
 70
     1
102
RTVSPropertyOp26
 70
     1
102
RTVSPropertyOp27
 70
     1
  0
XRECORD
  5
17E3
102
{ACAD_REACTORS
330
17E2
102
}
330
17E2
100
AcDbXrecord
280
     1
102
RTVSPropertyOp0
 70
     1
102
RTVSPropertyOp1
 70
     1
102
RTVSPropertyOp2
 70
     1
102
RTVSPropertyOp3
 70
     1
102
RTVSPropertyOp4
 70
     1
102
RTVSPropertyOp5
 70
     1
102
RTVSPropertyOp6
 70
     1
102
RTVSPropertyOp7
 70
     1
102
RTVSPropertyOp8
 70
     1
102
RTVSPropertyOp9
 70
     1
102
RTVSPropertyOp10
 70
     1
102
RTVSPropertyOp11
 70
     1
102
RTVSPropertyOp12
 70
     1
102
RTVSPropertyOp13
 70
     1
102
RTVSPropertyOp14
 70
     1
102
RTVSPropertyOp15
 70
     1
102
RTVSPropertyOp16
 70
     1
102
RTVSPropertyOp17
 70
     1
102
RTVSPropertyOp18
 70
     1
102
RTVSPropertyOp19
 70
     1
102
RTVSPropertyOp20
 70
     1
102
RTVSPropertyOp21
 70
     1
102
RTVSPropertyOp22
 70
     1
102
RTVSPropertyOp23
 70
     1
102
RTVSPropertyOp24
 70
     1
102
RTVSPropertyOp25
 70
     1
102
RTVSPropertyOp26
 70
     1
102
RTVSPropertyOp27
 70
     1
  0
XRECORD
  5
17FD
102
{ACAD_REACTORS
330
17FC
102
}
330
17FC
100
AcDbXrecord
280
     1
102
RTVSPropertyOp0
 70
     0
102
RTVSPropertyOp1
 70
     0
102
RTVSPropertyOp2
 70
     0
102
RTVSPropertyOp3
 70
     0
102
RTVSPropertyOp4
 70
     0
102
RTVSPropertyOp5
 70
     0
102
RTVSPropertyOp6
 70
     0
102
RTVSPropertyOp7
 70
     0
102
RTVSPropertyOp8
 70
     0
102
RTVSPropertyOp9
 70
     0
102
RTVSPropertyOp10
 70
     0
102
RTVSPropertyOp11
 70
     0
102
RTVSPropertyOp12
 70
     0
102
RTVSPropertyOp13
 70
     0
102
RTVSPropertyOp14
 70
     2
102
RTVSPropertyOp15
 70
     0
102
RTVSPropertyOp16
 70
     0
102
RTVSPropertyOp17
 70
     0
102
RTVSPropertyOp18
 70
     0
102
RTVSPropertyOp19
 70
     0
102
RTVSPropertyOp20
 70
     0
102
RTVSPropertyOp21
 70
     0
102
RTVSPropertyOp22
 70
     0
102
RTVSPropertyOp23
 70
     0
102
RTVSPropertyOp24
 70
     0
102
RTVSPropertyOp25
 70
     0
102
RTVSPropertyOp26
 70
     0
102
RTVSPropertyOp27
 70
     0
  0
XRECORD
  5
17F7
102
{ACAD_REACTORS
330
17F6
102
}
330
17F6
100
AcDbXrecord
280
     1
102
RTVSPropertyOp0
 70
     1
102
RTVSPropertyOp1
 70
     1
102
RTVSPropertyOp2
 70
     1
102
RTVSPropertyOp3
 70
     1
102
RTVSPropertyOp4
 70
     1
102
RTVSPropertyOp5
 70
     1
102
RTVSPropertyOp6
 70
     1
102
RTVSPropertyOp7
 70
     1
102
RTVSPropertyOp8
 70
     1
102
RTVSPropertyOp9
 70
     1
102
RTVSPropertyOp10
 70
     1
102
RTVSPropertyOp11
 70
     1
102
RTVSPropertyOp12
 70
     1
102
RTVSPropertyOp13
 70
     1
102
RTVSPropertyOp14
 70
     1
102
RTVSPropertyOp15
 70
     1
102
RTVSPropertyOp16
 70
     1
102
RTVSPropertyOp17
 70
     1
102
RTVSPropertyOp18
 70
     1
102
RTVSPropertyOp19
 70
     1
102
RTVSPropertyOp20
 70
     1
102
RTVSPropertyOp21
 70
     1
102
RTVSPropertyOp22
 70
     1
102
RTVSPropertyOp23
 70
     1
102
RTVSPropertyOp24
 70
     1
102
RTVSPropertyOp25
 70
     1
102
RTVSPropertyOp26
 70
     1
102
RTVSPropertyOp27
 70
     1
  0
XRECORD
  5
17FF
102
{ACAD_REACTORS
330
17FE
102
}
330
17FE
100
AcDbXrecord
280
     1
102
RTVSPropertyOp0
 70
     0
102
RTVSPropertyOp1
 70
     0
102
RTVSPropertyOp2
 70
     0
102
RTVSPropertyOp3
 70
     0
102
RTVSPropertyOp4
 70
     0
102
RTVSPropertyOp5
 70
     0
102
RTVSPropertyOp6
 70
     0
102
RTVSPropertyOp7
 70
     0
102
RTVSPropertyOp8
 70
     0
102
RTVSPropertyOp9
 70
     0
102
RTVSPropertyOp10
 70
     0
102
RTVSPropertyOp11
 70
     0
102
RTVSPropertyOp12
 70
     0
102
RTVSPropertyOp13
 70
     0
102
RTVSPropertyOp14
 70
     2
102
RTVSPropertyOp15
 70
     0
102
RTVSPropertyOp16
 70
     0
102
RTVSPropertyOp17
 70
     0
102
RTVSPropertyOp18
 70
     0
102
RTVSPropertyOp19
 70
     0
102
RTVSPropertyOp20
 70
     0
102
RTVSPropertyOp21
 70
     0
102
RTVSPropertyOp22
 70
     0
102
RTVSPropertyOp23
 70
     0
102
RTVSPropertyOp24
 70
     0
102
RTVSPropertyOp25
 70
     0
102
RTVSPropertyOp26
 70
     0
102
RTVSPropertyOp27
 70
     0
  0
XRECORD
  5
17EF
102
{ACAD_REACTORS
330
17EE
102
}
330
17EE
100
AcDbXrecord
280
     1
102
RTVSPropertyOp0
 70
     1
102
RTVSPropertyOp1
 70
     1
102
RTVSPropertyOp2
 70
     1
102
RTVSPropertyOp3
 70
     1
102
RTVSPropertyOp4
 70
     1
102
RTVSPropertyOp5
 70
     1
102
RTVSPropertyOp6
 70
     1
102
RTVSPropertyOp7
 70
     1
102
RTVSPropertyOp8
 70
     1
102
RTVSPropertyOp9
 70
     1
102
RTVSPropertyOp10
 70
     1
102
RTVSPropertyOp11
 70
     1
102
RTVSPropertyOp12
 70
     1
102
RTVSPropertyOp13
 70
     1
102
RTVSPropertyOp14
 70
     1
102
RTVSPropertyOp15
 70
     1
102
RTVSPropertyOp16
 70
     1
102
RTVSPropertyOp17
 70
     1
102
RTVSPropertyOp18
 70
     1
102
RTVSPropertyOp19
 70
     1
102
RTVSPropertyOp20
 70
     1
102
RTVSPropertyOp21
 70
     1
102
RTVSPropertyOp22
 70
     1
102
RTVSPropertyOp23
 70
     1
102
RTVSPropertyOp24
 70
     1
102
RTVSPropertyOp25
 70
     1
102
RTVSPropertyOp26
 70
     1
102
RTVSPropertyOp27
 70
     1
  0
XRECORD
  5
17F5
102
{ACAD_REACTORS
330
17F4
102
}
330
17F4
100
AcDbXrecord
280
     1
102
RTVSPropertyOp0
 70
     1
102
RTVSPropertyOp1
 70
     1
102
RTVSPropertyOp2
 70
     1
102
RTVSPropertyOp3
 70
     1
102
RTVSPropertyOp4
 70
     1
102
RTVSPropertyOp5
 70
     1
102
RTVSPropertyOp6
 70
     1
102
RTVSPropertyOp7
 70
     1
102
RTVSPropertyOp8
 70
     1
102
RTVSPropertyOp9
 70
     1
102
RTVSPropertyOp10
 70
     1
102
RTVSPropertyOp11
 70
     1
102
RTVSPropertyOp12
 70
     1
102
RTVSPropertyOp13
 70
     1
102
RTVSPropertyOp14
 70
     1
102
RTVSPropertyOp15
 70
     1
102
RTVSPropertyOp16
 70
     1
102
RTVSPropertyOp17
 70
     1
102
RTVSPropertyOp18
 70
     1
102
RTVSPropertyOp19
 70
     1
102
RTVSPropertyOp20
 70
     1
102
RTVSPropertyOp21
 70
     1
102
RTVSPropertyOp22
 70
     1
102
RTVSPropertyOp23
 70
     1
102
RTVSPropertyOp24
 70
     1
102
RTVSPropertyOp25
 70
     1
102
RTVSPropertyOp26
 70
     1
102
RTVSPropertyOp27
 70
     1
  0
ENDSEC
  0
EOF
