  0
SECTION
  2
HEADER
  9
$ACADVER
  1
AC1014
  9
$ACADMAINTVER
 70
     9
  9
$DWGCODEPAGE
  3
ANSI_1252
  9
$INSBASE
 10
5.8203125
 20
7.893200125599999
 30
0.0
  9
$EXTMIN
 10
-47.93170913530281
 20
-10.17084086336947
 30
-0.0015258207003583
  9
$EXTMAX
 10
18.32233444380344
 20
25.95835794279576
 30
0.0000000349246037
  9
$LIMMIN
 10
0.0
 20
0.0
  9
$LIMMAX
 10
17.0
 20
11.0
  9
$ORTHOMODE
 70
     1
  9
$REGENMODE
 70
     1
  9
$FILLMODE
 70
     1
  9
$QTEXTMODE
 70
     0
  9
$MIRRTEXT
 70
     1
  9
$DRAGMODE
 70
     2
  9
$LTSCALE
 40
2.0
  9
$OSMODE
 70
    55
  9
$ATTMODE
 70
     1
  9
$TEXTSIZE
 40
0.0
  9
$TRACEWID
 40
0.05
  9
$TEXTSTYLE
  7
STANDARD
  9
$CLAYER
  8
0
  9
$CELTYPE
  6
BYLAYER
  9
$CECOLOR
 62
   256
  9
$CELTSCALE
 40
1.0
  9
$DELOBJ
 70
     1
  9
$DISPSILH
 70
     0
  9
$DIMSCALE
 40
1.0
  9
$DIMASZ
 40
0.18
  9
$DIMEXO
 40
0.0625
  9
$DIMDLI
 40
0.38
  9
$DIMRND
 40
0.0
  9
$DIMDLE
 40
0.0
  9
$DIMEXE
 40
0.18
  9
$DIMTP
 40
0.015625
  9
$DIMTM
 40
0.015625
  9
$DIMTXT
 40
0.125
  9
$DIMCEN
 40
0.09
  9
$DIMTSZ
 40
0.0
  9
$DIMTOL
 70
     0
  9
$DIMLIM
 70
     0
  9
$DIMTIH
 70
     1
  9
$DIMTOH
 70
     1
  9
$DIMSE1
 70
     0
  9
$DIMSE2
 70
     0
  9
$DIMTAD
 70
     0
  9
$DIMZIN
 70
     0
  9
$DIMBLK
  1

  9
$DIMASO
 70
     1
  9
$DIMSHO
 70
     1
  9
$DIMPOST
  1

  9
$DIMAPOST
  1
cm
  9
$DIMALT
 70
     1
  9
$DIMALTD
 70
     2
  9
$DIMALTF
 40
2.54
  9
$DIMLFAC
 40
16.0
  9
$DIMTOFL
 70
     0
  9
$DIMTVP
 40
0.0
  9
$DIMTIX
 70
     0
  9
$DIMSOXD
 70
     0
  9
$DIMSAH
 70
     0
  9
$DIMBLK1
  1

  9
$DIMBLK2
  1

  9
$DIMSTYLE
  2
STANDARD
  9
$DIMCLRD
 70
     0
  9
$DIMCLRE
 70
     0
  9
$DIMCLRT
 70
     0
  9
$DIMTFAC
 40
1.0
  9
$DIMGAP
 40
0.09
  9
$DIMJUST
 70
     0
  9
$DIMSD1
 70
     0
  9
$DIMSD2
 70
     0
  9
$DIMTOLJ
 70
     1
  9
$DIMTZIN
 70
     0
  9
$DIMALTZ
 70
     0
  9
$DIMALTTZ
 70
     0
  9
$DIMFIT
 70
     0
  9
$DIMUPT
 70
     0
  9
$DIMUNIT
 70
     5
  9
$DIMDEC
 70
     4
  9
$DIMTDEC
 70
     4
  9
$DIMALTU
 70
     2
  9
$DIMALTTD
 70
     2
  9
$DIMTXSTY
  7
STANDARD
  9
$DIMAUNIT
 70
     0
  9
$LUNITS
 70
     2
  9
$LUPREC
 70
     4
  9
$SKETCHINC
 40
0.1
  9
$FILLETRAD
 40
0.0
  9
$AUNITS
 70
     0
  9
$AUPREC
 70
     0
  9
$MENU
  1
acad
  9
$ELEVATION
 40
0.0
  9
$PELEVATION
 40
0.0
  9
$THICKNESS
 40
0.0
  9
$LIMCHECK
 70
     0
  9
$BLIPMODE
 70
     0
  9
$CHAMFERA
 40
0.0
  9
$CHAMFERB
 40
0.0
  9
$CHAMFERC
 40
0.0
  9
$CHAMFERD
 40
0.0
  9
$SKPOLY
 70
     0
  9
$TDCREATE
 40
2444971.833333333
  9
$TDUPDATE
 40
2453686.593219571
  9
$TDINDWG
 40
0.1262502894
  9
$TDUSRTIMER
 40
0.1262502894
  9
$USRTIMER
 70
     1
  9
$ANGBASE
 50
0.0
  9
$ANGDIR
 70
     0
  9
$PDMODE
 70
     0
  9
$PDSIZE
 40
0.0
  9
$PLINEWID
 40
0.0
  9
$COORDS
 70
     1
  9
$SPLFRAME
 70
     0
  9
$SPLINETYPE
 70
     6
  9
$SPLINESEGS
 70
     8
  9
$ATTDIA
 70
     0
  9
$ATTREQ
 70
     1
  9
$HANDLING
 70
 22529
  9
$HANDSEED
  5
1AF
  9
$SURFTAB1
 70
     6
  9
$SURFTAB2
 70
     6
  9
$SURFTYPE
 70
     6
  9
$SURFU
 70
     6
  9
$SURFV
 70
     6
  9
$UCSNAME
  2

  9
$UCSORG
 10
0.0
 20
0.0
 30
0.0
  9
$UCSXDIR
 10
1.0
 20
0.0
 30
0.0
  9
$UCSYDIR
 10
0.0
 20
1.0
 30
0.0
  9
$PUCSNAME
  2

  9
$PUCSORG
 10
0.0
 20
0.0
 30
0.0
  9
$PUCSXDIR
 10
1.0
 20
0.0
 30
0.0
  9
$PUCSYDIR
 10
0.0
 20
1.0
 30
0.0
  9
$USERI1
 70
     0
  9
$USERI2
 70
     0
  9
$USERI3
 70
     0
  9
$USERI4
 70
     0
  9
$USERI5
 70
     0
  9
$USERR1
 40
0.0
  9
$USERR2
 40
0.0
  9
$USERR3
 40
0.0
  9
$USERR4
 40
0.0
  9
$USERR5
 40
0.0
  9
$WORLDVIEW
 70
     1
  9
$SHADEDGE
 70
     3
  9
$SHADEDIF
 70
    70
  9
$TILEMODE
 70
     1
  9
$MAXACTVP
 70
    16
  9
$PINSBASE
 10
0.0
 20
0.0
 30
0.0
  9
$PLIMCHECK
 70
     0
  9
$PEXTMIN
 10
1.000000000000000E+20
 20
1.000000000000000E+20
 30
1.000000000000000E+20
  9
$PEXTMAX
 10
-1.000000000000000E+20
 20
-1.000000000000000E+20
 30
-1.000000000000000E+20
  9
$PLIMMIN
 10
0.0
 20
0.0
  9
$PLIMMAX
 10
12.0
 20
9.0
  9
$UNITMODE
 70
     0
  9
$VISRETAIN
 70
     0
  9
$PLINEGEN
 70
     1
  9
$PSLTSCALE
 70
     0
  9
$TREEDEPTH
 70
  3020
  9
$PICKSTYLE
 70
     1
  9
$CMLSTYLE
  2
STANDARD
  9
$CMLJUST
 70
     0
  9
$CMLSCALE
 40
1.0
  9
$PROXYGRAPHICS
 70
     1
  9
$MEASUREMENT
 70
     0
  0
ENDSEC
  0
SECTION
  2
CLASSES
  0
CLASS
  1
LWPOLYLINE
  2
AcDbPolyline
  3
AutoCAD 2000
 90
        0
280
     0
281
     1
  0
CLASS
  1
IMAGE
  2
AcDbRasterImage
  3
ISM
 90
      127
280
     0
281
     1
  0
CLASS
  1
OLE2FRAME
  2
AcDbOle2Frame
  3
AutoCAD 2000
 90
        0
280
     0
281
     1
  0
CLASS
  1
HATCH
  2
AcDbHatch
  3
AutoCAD 2000
 90
        0
280
     0
281
     1
  0
CLASS
  1
DICTIONARYVAR
  2
AcDbDictionaryVar
  3
AutoCAD 2000
 90
        0
280
     0
281
     0
  0
CLASS
  1
RASTERVARIABLES
  2
AcDbRasterVariables
  3
ISM
 90
        0
280
     0
281
     0
  0
CLASS
  1
IMAGEDEF
  2
AcDbRasterImageDef
  3
ISM
 90
        0
280
     0
281
     0
  0
CLASS
  1
IMAGEDEF_REACTOR
  2
AcDbRasterImageDefReactor
  3
ISM
 90
        1
280
     0
281
     0
  0
CLASS
  1
IDBUFFER
  2
AcDbIdBuffer
  3
AutoCAD 2000
 90
        0
280
     0
281
     0
  0
CLASS
  1
SPATIAL_FILTER
  2
AcDbSpatialFilter
  3
AutoCAD 2000
 90
        0
280
     0
281
     0
  0
CLASS
  1
XRECORD
  2
AcDbXrecord
  3
AutoCAD 2000
 90
        0
280
     0
281
     0
  0
CLASS
  1
SORTENTSTABLE
  2
AcDbSortentsTable
  3
AutoCAD 2000
 90
        0
280
     0
281
     0
  0
CLASS
  1
LAYER_INDEX
  2
AcDbLayerIndex
  3
AutoCAD 2000
 90
        0
280
     0
281
     0
  0
CLASS
  1
SPATIAL_INDEX
  2
AcDbSpatialIndex
  3
AutoCAD 2000
 90
        0
280
     0
281
     0
  0
CLASS
  1
OBJECT_PTR
  2
CAseDLPNTableRecord
  3
ASE-LPNTableRecord
 90
        1
280
     0
281
     0
  0
CLASS
  1
LAYOUT
  2
AcDbLayout
  3
AutoCAD 2000
 90
        0
280
     0
281
     0
  0
CLASS
  1
PLOTSETTINGS
  2
AcDbPlotSettings
  3
AutoCAD 2000
 90
        0
280
     0
281
     0
  0
CLASS
  1
ACDBDICTIONARYWDFLT
  2
AcDbDictionaryWithDefault
  3
AutoCAD 2000
 90
        0
280
     0
281
     0
  0
CLASS
  1
ACDBPLACEHOLDER
  2
AcDbPlaceHolder
  3
AutoCAD 2000
 90
        0
280
     0
281
     0
  0
CLASS
  1
VBA_PROJECT
  2
AcDbVbaProject
  3
acadvba
 90
        0
280
     0
281
     0
  0
CLASS
  1
WIPEOUT
  2
AcDbWipeout
  3
WipeOut|AutoCAD Express Tool|expresstools@autodesk.com
 90
        0
280
     1
281
     1
  0
CLASS
  1
WIPEOUTVARIABLES
  2
AcDbWipeoutVariables
  3
WipeOut|AutoCAD Express Tool|expresstools@autodesk.com
 90
        0
280
     1
281
     0
  0
CLASS
  1
RTEXT
  2
RText
  3
RText|AutoCAD Express Tool|expresstools@autodesk.com
 90
        0
280
     1
281
     1
  0
CLASS
  1
ARCALIGNEDTEXT
  2
AcDbArcAlignedText
  3
ATEXT|AutoCAD Express Tool|expresstools@autodesk.com
 90
        0
280
     1
281
     1
  0
CLASS
  1
LONG_TRANSACTION
  2
AcDbLongTransaction
  3
AutoCAD 2000
 90
        0
280
     0
281
     0
  0
CLASS
  1
LWPOLYLINE
  2
AcDbPolyline
  3
AutoCAD 2000
 90
        0
280
     0
281
     1
  0
CLASS
  1
HATCH
  2
AcDbHatch
  3
AutoCAD 2000
 90
        0
280
     0
281
     1
  0
CLASS
  1
XRECORD
  2
AcDbXrecord
  3
AutoCAD 2000
 90
        0
280
     0
281
     0
  0
CLASS
  1
LONG_TRANSACTION
  2
AcDbLongTransaction
  3
AutoCAD 2000
 90
        0
280
     0
281
     0
  0
CLASS
  1
LWPOLYLINE
  2
AcDbPolyline
  3
AutoCAD 2000
 90
        0
280
     0
281
     1
  0
CLASS
  1
HATCH
  2
AcDbHatch
  3
AutoCAD 2000
 90
        0
280
     0
281
     1
  0
CLASS
  1
XRECORD
  2
AcDbXrecord
  3
AutoCAD 2000
 90
        0
280
     0
281
     0
  0
CLASS
  1
LONG_TRANSACTION
  2
AcDbLongTransaction
  3
AutoCAD 2000
 90
        0
280
     0
281
     0
  0
CLASS
  1
LWPOLYLINE
  2
AcDbPolyline
  3
AutoCAD 2000
 90
        0
280
     0
281
     1
  0
CLASS
  1
HATCH
  2
AcDbHatch
  3
AutoCAD 2000
 90
        0
280
     0
281
     1
  0
CLASS
  1
XRECORD
  2
AcDbXrecord
  3
AutoCAD 2000
 90
        0
280
     0
281
     0
  0
ENDSEC
  0
SECTION
  2
TABLES
  0
TABLE
  2
VPORT
  5
1D
330
0
100
AcDbSymbolTable
 70
     4
  0
VPORT
  5
18B
330
1D
100
AcDbSymbolTableRecord
100
AcDbViewportTableRecord
  2
*ACTIVE
 70
     0
 10
0.0
 20
0.0
 11
1.0
 21
1.0
 12
-14.80468750220593
 22
7.893758486392144
 13
0.0
 23
0.0
 14
1.0
 24
1.0
 15
0.0
 25
0.0
 16
0.0
 26
0.0
 36
1.0
 17
0.0
 27
0.0
 37
0.0
 40
47.01609955364221
 41
1.786792452830188
 42
50.0
 43
0.0
 44
0.0
 50
0.0
 51
0.0
 71
     0
 72
   100
 73
     1
 74
     1
 75
     0
 76
     0
 77
     0
 78
     0
  0
ENDTAB
  0
TABLE
  2
LTYPE
  5
18
330
0
100
AcDbSymbolTable
 70
     3
  0
LTYPE
  5
19
330
18
100
AcDbSymbolTableRecord
100
AcDbLinetypeTableRecord
  2
BYBLOCK
 70
     0
  3

 72
    65
 73
     0
 40
0.0
  0
LTYPE
  5
1A
330
18
100
AcDbSymbolTableRecord
100
AcDbLinetypeTableRecord
  2
BYLAYER
 70
     0
  3

 72
    65
 73
     0
 40
0.0
  0
LTYPE
  5
8
330
18
100
AcDbSymbolTableRecord
100
AcDbLinetypeTableRecord
  2
CONTINUOUS
 70
     0
  3
Solid line
 72
    65
 73
     0
 40
0.0
  0
LTYPE
  5
46
330
18
100
AcDbSymbolTableRecord
100
AcDbLinetypeTableRecord
  2
CENTER
 70
     0
  3
____ _ ____ _ ____ _ ____ _ ____ _ ____ _ ____
 72
    65
 73
     4
 40
0.6
 49
0.375
 74
     0
 49
-0.075
 74
     0
 49
0.075
 74
     0
 49
-0.075
 74
     0
  0
LTYPE
  5
4A
330
18
100
AcDbSymbolTableRecord
100
AcDbLinetypeTableRecord
  2
HIDDEN
 70
     0
  3
- - - - - - - - - - - - - - - - - - - -
 72
    65
 73
     2
 40
0.2
 49
0.1
 74
     0
 49
-0.1
 74
     0
  0
ENDTAB
  0
TABLE
  2
LAYER
  5
10
102
{ACAD_XDICTIONARY
360
11
102
}
330
0
100
AcDbSymbolTable
 70
     3
  0
LAYER
  5
4
330
10
100
AcDbSymbolTableRecord
100
AcDbLayerTableRecord
  2
0
 70
     0
 62
     7
  6
CONTINUOUS
  0
LAYER
  5
45
330
10
100
AcDbSymbolTableRecord
100
AcDbLayerTableRecord
  2
CENTER
 70
     0
 62
     1
  6
CENTER
  0
LAYER
  5
106
330
10
100
AcDbSymbolTableRecord
100
AcDbLayerTableRecord
  2
DEFPOINTS
 70
     0
 62
     7
  6
CONTINUOUS
  0
ENDTAB
  0
TABLE
  2
STYLE
  5
15
330
0
100
AcDbSymbolTable
 70
     1
  0
STYLE
  5
16
330
15
100
AcDbSymbolTableRecord
100
AcDbTextStyleTableRecord
  2
STANDARD
 70
     0
 40
0.0
 41
1.0
 50
0.0
 71
     0
 42
0.0
  3
txt
  4

  0
ENDTAB
  0
TABLE
  2
VIEW
  5
1B
330
0
100
AcDbSymbolTable
 70
     0
  0
ENDTAB
  0
TABLE
  2
UCS
  5
1C
330
0
100
AcDbSymbolTable
 70
     0
  0
ENDTAB
  0
TABLE
  2
APPID
  5
1F
330
0
100
AcDbSymbolTable
 70
     1
  0
APPID
  5
20
330
1F
100
AcDbSymbolTableRecord
100
AcDbRegAppTableRecord
  2
ACAD
 70
     0
  0
ENDTAB
  0
TABLE
  2
DIMSTYLE
  5
21
330
0
100
AcDbSymbolTable
 70
     1
  0
DIMSTYLE
105
22
330
21
100
AcDbSymbolTableRecord
100
AcDbDimStyleTableRecord
  2
STANDARD
 70
     0
  3

  4
cm
  5

  6

  7

 40
1.0
 41
0.18
 42
0.0625
 43
0.38
 44
0.18
 45
0.0
 46
0.0
 47
0.015625
 48
0.015625
140
0.125
141
0.09
142
0.0
143
2.54
144
16.0
145
0.0
146
1.0
147
0.09
 71
     0
 72
     0
 73
     1
 74
     1
 75
     0
 76
     0
 77
     0
 78
     0
170
     1
171
     2
172
     0
173
     0
174
     0
175
     0
176
     0
177
     0
178
     0
270
     5
271
     4
272
     4
273
     2
274
     2
340
16
275
     0
280
     0
281
     0
282
     0
283
     1
284
     0
285
     0
286
     0
287
     0
288
     0
  0
ENDTAB
  0
TABLE
  2
BLOCK_RECORD
  5
1
330
0
100
AcDbSymbolTable
 70
     2
  0
BLOCK_RECORD
  5
2
102
{ACAD_XDICTIONARY
360
B8
102
}
330
1
100
AcDbSymbolTableRecord
100
AcDbBlockTableRecord
  2
*MODEL_SPACE
  0
BLOCK_RECORD
  5
C
102
{ACAD_XDICTIONARY
360
BE
102
}
330
1
100
AcDbSymbolTableRecord
100
AcDbBlockTableRecord
  2
*PAPER_SPACE
  0
ENDTAB
  0
ENDSEC
  0
SECTION
  2
BLOCKS
  0
BLOCK
  5
3
330
2
100
AcDbEntity
  8
0
100
AcDbBlockBegin
  2
*MODEL_SPACE
 70
     0
 10
0.0
 20
0.0
 30
0.0
  3
*MODEL_SPACE
  1

  0
ENDBLK
  5
9
330
2
100
AcDbEntity
  8
0
100
AcDbBlockEnd
  0
BLOCK
  5
D
330
C
100
AcDbEntity
 67
     1
  8
0
100
AcDbBlockBegin
  2
*PAPER_SPACE
 70
     0
 10
0.0
 20
0.0
 30
0.0
  3
*PAPER_SPACE
  1

  0
ENDBLK
  5
E
330
C
100
AcDbEntity
 67
     1
  8
0
100
AcDbBlockEnd
  0
ENDSEC
  0
SECTION
  2
ENTITIES
  0
SPLINE
  5
2A
330
2
100
AcDbEntity
  8
0
100
AcDbSpline
210
0.0
220
0.0
230
1.0
 70
     8
 71
     3
 72
    10
 73
     6
 74
     4
 42
0.0000000001
 43
0.0000000001
 44
0.0000000001
 40
0.0
 40
0.0
 40
0.0
 40
0.0
 40
2.402837187029733
 40
5.248289664063367
 40
8.526979761362225
 40
8.526979761362225
 40
8.526979761362225
 40
8.526979761362225
 10
-35.2827783352
 20
-3.125219184800002
 30
0.0
 10
-36.02433415773448
 20
-3.428790359612957
 30
0.0
 10
-37.64404429862205
 20
-4.091852121632664
 30
0.0
 10
-40.36714810421376
 20
-4.919607771792426
 30
0.0
 10
-42.34838526017776
 20
-5.411054655913852
 30
0.0
 10
-43.409082748
 20
-5.6741612072
 30
0.0
 11
-35.2827783352
 21
-3.125219184800002
 31
0.0
 11
-37.5192550616
 21
-4.003739759200001
 31
0.0
 11
-40.2342942888
 21
-4.855304080799996
 31
0.0
 11
-43.409082748
 21
-5.6741612072
 31
0.0
  0
LINE
  5
2B
330
2
100
AcDbEntity
  8
0
100
AcDbLine
 10
-47.742900996
 20
-10.16929987439999
 30
0.0
 11
18.133525996
 21
-10.16929987439999
 31
0.0
  0
LINE
  5
2C
330
2
100
AcDbEntity
  8
0
100
AcDbLine
 10
17.79854575119999
 20
-9.834319631199992
 30
0.0
 11
-47.4079207512
 21
-9.834319631199992
 31
0.0
  0
LINE
  5
2D
330
2
100
AcDbEntity
  8
0
100
AcDbLine
 10
-45.9857120088
 20
-6.253988589600002
 30
0.0
 11
14.4050012152
 21
-6.253988589600002
 31
0.0
  0
SPLINE
  5
2E
330
2
100
AcDbEntity
  8
0
100
AcDbSpline
210
0.0
220
0.0
230
1.0
 70
     8
 71
     3
 72
    10
 73
     6
 74
     4
 42
0.0000000001
 43
0.0000000001
 44
0.0000000001
 40
0.0
 40
0.0
 40
0.0
 40
0.0
 40
2.402837187029733
 40
5.248289664063375
 40
8.52697976136223
 40
8.52697976136223
 40
8.52697976136223
 40
8.52697976136223
 10
-35.2827783352
 20
18.91161943599999
 30
0.0
 10
-36.02433415773449
 20
19.21519061081295
 30
0.0
 10
-37.64404429862204
 20
19.87825237283264
 30
0.0
 10
-40.36714810421375
 20
20.70600802299246
 30
0.0
 10
-42.34838526017776
 20
21.19745490711387
 30
0.0
 10
-43.409082748
 20
21.4605614584
 30
0.0
 11
-35.2827783352
 21
18.91161943599999
 31
0.0
 11
-37.5192550616
 21
19.79014001039999
 31
0.0
 11
-40.2342942888
 21
20.64170433200001
 31
0.0
 11
-43.409082748
 21
21.4605614584
 31
0.0
  0
LINE
  5
2F
330
2
100
AcDbEntity
  8
0
100
AcDbLine
 10
-45.9857120088
 20
22.0403888408
 30
0.0
 11
14.4050012152
 21
22.0403888408
 31
0.0
  0
LINE
  5
30
330
2
100
AcDbEntity
  8
0
100
AcDbLine
 10
17.79854575119999
 20
25.6207198824
 30
0.0
 11
-47.4079207512
 21
25.6207198824
 31
0.0
  0
LINE
  5
31
330
2
100
AcDbEntity
  8
0
100
AcDbLine
 10
18.133525996
 20
25.9557001256
 30
0.0
 11
-47.742900996
 21
25.9557001256
 31
0.0
  0
LINE
  5
32
330
2
100
AcDbEntity
  8
0
100
AcDbLine
 10
-47.9296875
 20
25.7689136312
 30
0.0
 11
-47.9296875
 21
-9.982513378400003
 31
0.0
  0
LINE
  5
33
330
2
100
AcDbEntity
  8
0
100
AcDbLine
 10
-47.59470725679999
 20
-9.647533123999995
 30
0.0
 11
-47.59470725679999
 21
25.43393337680001
 31
0.0
  0
LINE
  5
34
330
2
100
AcDbEntity
  8
0
100
AcDbLine
 10
-45.9857120088
 20
-6.253988589600002
 30
0.0
 11
-45.9857120088
 21
22.0403888408
 31
0.0
  0
SPLINE
  5
35
330
2
100
AcDbEntity
  8
0
100
AcDbSpline
210
0.0
220
0.0
230
1.0
 70
     8
 71
     3
 72
    10
 73
     6
 74
     4
 42
0.0000000001
 43
0.0000000001
 44
0.0000000001
 40
0.0
 40
0.0
 40
0.0
 40
0.0
 40
0.0964178442754442
 40
0.1930163227759344
 40
0.2894341681713561
 40
0.2894341681713561
 40
0.2894341681713561
 40
0.2894341681713561
 10
-47.4079207512
 20
-9.834319631199988
 30
0.0
 10
-47.44017087407253
 20
-9.829060865093909
 30
0.0
 10
-47.50473153888211
 20
-9.818533480834684
 30
0.0
 10
-47.57892110932934
 20
-9.74434391375437
 30
0.0
 10
-47.58944849163781
 20
-9.679783247687877
 30
0.0
 10
-47.59470725679999
 20
-9.647533123999991
 30
0.0
 11
-47.4079207512
 21
-9.834319631199988
 31
0.0
 11
-47.500906796
 21
-9.808824608799994
 31
0.0
 11
-47.569212236
 21
-9.740519170399991
 31
0.0
 11
-47.59470725679999
 21
-9.647533123999991
 31
0.0
  0
SPLINE
  5
36
330
2
100
AcDbEntity
  8
0
100
AcDbSpline
210
0.0
220
0.0
230
1.0
 70
     8
 71
     3
 72
    12
 73
     8
 74
     6
 42
0.0000000001
 43
0.0000000001
 44
0.0000000001
 40
0.0
 40
0.0
 40
0.0
 40
0.0
 40
0.058346147284774
 40
0.1168868469787124
 40
0.1754003675683044
 40
0.2339410651111516
 40
0.2922872142252251
 40
0.2922872142252251
 40
0.2922872142252251
 40
0.2922872142252251
 10
-47.9296875
 20
-9.982513368799999
 30
0.0
 10
-47.92791626861701
 20
-10.00203603978627
 30
0.0
 10
-47.92436789976556
 20
-10.04114647916199
 30
0.0
 10
-47.89641613735958
 20
-10.09422702302672
 30
0.0
 10
-47.85461464941824
 20
-10.13602851169251
 30
0.0
 10
-47.8015341049077
 20
-10.16398027235659
 30
0.0
 10
-47.76242366587892
 20
-10.16752864237439
 30
0.0
 10
-47.7429009944
 20
-10.16929987439999
 30
0.0
 11
-47.9296875
 21
-9.982513368799999
 31
0.0
 11
-47.9206166712
 21
-10.04015010159999
 31
0.0
 11
-47.89410779439999
 21
-10.09234486159999
 31
0.0
 11
-47.8527324872
 21
-10.13372016879999
 31
0.0
 11
-47.8005377288
 21
-10.16022904399999
 31
0.0
 11
-47.7429009944
 21
-10.16929987439999
 31
0.0
  0
SPLINE
  5
37
330
2
100
AcDbEntity
  8
0
100
AcDbSpline
210
0.0
220
0.0
230
1.0
 70
     8
 71
     3
 72
    10
 73
     6
 74
     4
 42
0.0000000001
 43
0.0000000001
 44
0.0000000001
 40
0.0
 40
0.0
 40
0.0
 40
0.0
 40
0.143306302641205
 40
0.3048023631933874
 40
0.4809818686934801
 40
0.4809818686934801
 40
0.4809818686934801
 40
0.4809818686934801
 10
-43.409082748
 20
-5.6741612072
 30
0.0
 10
-43.45572448140379
 20
-5.684496359917593
 30
0.0
 10
-43.55492814727819
 20
-5.706478498275975
 30
0.0
 10
-43.71288607587586
 20
-5.734249380624079
 30
0.0
 10
-43.82427807282225
 20
-5.750418464948769
 30
0.0
 10
-43.8823959496
 20
-5.758854554400002
 30
0.0
 11
-43.409082748
 21
-5.6741612072
 31
0.0
 11
-43.5492059304
 21
-5.704197687199993
 31
0.0
 11
-43.7081775816
 21
-5.732640466399999
 31
0.0
 11
-43.8823959496
 21
-5.758854554400002
 31
0.0
  0
SPLINE
  5
38
330
2
100
AcDbEntity
  8
0
100
AcDbSpline
210
0.0
220
0.0
230
1.0
 70
     8
 71
     3
 72
    19
 73
    15
 74
    13
 42
0.0000000001
 43
0.0000000001
 44
0.0000000001
 40
0.0
 40
0.0
 40
0.0
 40
0.0
 40
0.0999436074207538
 40
0.2124923618862421
 40
0.336600308797788
 40
0.4720567853124745
 40
0.6202816514740293
 40
0.7833879543722178
 40
0.963478308535469
 40
1.162356755657897
 40
1.381270033040109
 40
1.620831972887383
 40
1.881559700729622
 40
2.164027604871891
 40
2.164027604871891
 40
2.164027604871891
 40
2.164027604871891
 10
-43.8823959496
 20
-5.758854554400002
 30
0.0
 10
-43.91560383652747
 20
-5.76156438439335
 30
0.0
 10
-43.98620787523069
 20
-5.767325815168735
 30
0.0
 10
-44.09752269364104
 20
-5.781677056272001
 30
0.0
 10
-44.22007219983565
 20
-5.800891577877543
 30
0.0
 10
-44.35376159602498
 20
-5.825556666065212
 30
0.0
 10
-44.49960280772097
 20
-5.855772095095447
 30
0.0
 10
-44.65935572455157
 20
-5.892029451067874
 30
0.0
 10
-44.83491160226971
 20
-5.934830164783738
 30
0.0
 10
-45.02788907263223
 20
-5.984627398410978
 30
0.0
 10
-45.2394492930359
 20
-6.041692351621954
 30
0.0
 10
-45.47037593535505
 20
-6.106084964821299
 30
0.0
 10
-45.72128830714222
 20
-6.177654910425072
 30
0.0
 10
-45.89524996761165
 20
-6.227874060583546
 30
0.0
 10
-45.9857120088
 20
-6.253988589599998
 30
0.0
 11
-43.8823959496
 21
-5.758854554400002
 31
0.0
 11
-43.9819461384
 21
-5.767713706400002
 31
0.0
 11
-44.09362673839999
 21
-5.781665971999998
 31
0.0
 11
-44.2162460552
 21
-5.800830669599989
 31
0.0
 11
-44.34948392239999
 21
-5.825246397599997
 31
0.0
 11
-44.4946507256
 21
-5.855199864799999
 31
0.0
 11
-44.65373958799999
 21
-5.891177634399994
 31
0.0
 11
-44.8287335832
 21
-5.933717466399997
 31
0.0
 11
-45.02133420719999
 21
-5.983292019999993
 31
0.0
 11
-45.2327254808
 21
-6.040184483999993
 31
0.0
 11
-45.4635182056
 21
-6.104407853599994
 31
0.0
 11
-45.7142828072
 21
-6.1757945656
 31
0.0
 11
-45.9857120088
 21
-6.253988589599998
 31
0.0
  0
SPLINE
  5
3A
330
2
100
AcDbEntity
  8
0
100
AcDbSpline
210
0.0
220
0.0
230
1.0
 70
     8
 71
     3
 72
    10
 73
     6
 74
     4
 42
0.0000000001
 43
0.0000000001
 44
0.0000000001
 40
0.0
 40
0.0
 40
0.0
 40
0.0
 40
0.1433063026412079
 40
0.3048023631933878
 40
0.4809818689315456
 40
0.4809818689315456
 40
0.4809818689315456
 40
0.4809818689315456
 10
-43.409082748
 20
21.4605614584
 30
0.0
 10
-43.45572448139995
 20
21.47089661114311
 30
0.0
 10
-43.55492814726618
 20
21.49287874955574
 30
0.0
 10
-43.71288607601133
 20
21.52064963145704
 30
0.0
 10
-43.82427807284402
 20
21.53681871707076
 30
0.0
 10
-43.8823959496
 20
21.54525480719999
 30
0.0
 11
-43.409082748
 21
21.4605614584
 31
0.0
 11
-43.5492059304
 21
21.49059793840001
 31
0.0
 11
-43.7081775816
 21
21.5190407176
 31
0.0
 11
-43.8823959496
 21
21.54525480719999
 31
0.0
  0
SPLINE
  5
3B
330
2
100
AcDbEntity
  8
0
100
AcDbSpline
210
0.0
220
0.0
230
1.0
 70
     8
 71
     3
 72
    19
 73
    15
 74
    13
 42
0.0000000001
 43
0.0000000001
 44
0.0000000001
 40
0.0
 40
0.0
 40
0.0
 40
0.0
 40
0.0999436072789286
 40
0.2124923619427615
 40
0.3366003088543118
 40
0.4720567850806019
 40
0.6202816515654838
 40
0.7833879541107497
 40
0.9634783082739975
 40
1.162356755795258
 40
1.381270033177474
 40
1.620831972595809
 40
1.881559700438045
 40
2.164027604580313
 40
2.164027604580313
 40
2.164027604580313
 40
2.164027604580313
 10
-43.8823959496
 20
21.54525480719999
 30
0.0
 10
-43.91560383655582
 20
21.54796463638982
 30
0.0
 10
-43.98620787543821
 20
21.55372606546654
 30
0.0
 10
-44.09752269351119
 20
21.5680773096993
 30
0.0
 10
-44.22007219964556
 20
21.58729183107488
 30
0.0
 10
-44.35376159646062
 20
21.6119569161338
 30
0.0
 10
-44.49960280723197
 20
21.64217234912021
 30
0.0
 10
-44.65935572483075
 20
21.67842970152741
 30
0.0
 10
-44.83491160245757
 20
21.72123041582495
 30
0.0
 10
-45.02788907239531
 20
21.771027651595
 30
0.0
 10
-45.23944929280505
 20
21.82809260470946
 30
0.0
 10
-45.47037593564613
 20
21.89248521551124
 30
0.0
 10
-45.72128830709859
 20
21.96405516178106
 30
0.0
 10
-45.89524996759673
 20
22.01427431183691
 30
0.0
 10
-45.9857120088
 20
22.0403888408
 30
0.0
 11
-43.8823959496
 21
21.54525480719999
 31
0.0
 11
-43.9819461384
 21
21.55411395760001
 31
0.0
 11
-44.09362673839999
 21
21.56806622479999
 31
0.0
 11
-44.2162460552
 21
21.58723092240001
 31
0.0
 11
-44.34948392239999
 21
21.61164664880002
 31
0.0
 11
-44.4946507256
 21
21.6416001176
 31
0.0
 11
-44.65373958799999
 21
21.67757788560001
 31
0.0
 11
-44.8287335832
 21
21.7201177176
 31
0.0
 11
-45.02133420719999
 21
21.7696922728
 31
0.0
 11
-45.2327254808
 21
21.82658473680001
 31
0.0
 11
-45.4635182056
 21
21.89080810480001
 31
0.0
 11
-45.7142828072
 21
21.9621948168
 31
0.0
 11
-45.9857120088
 21
22.0403888408
 31
0.0
  0
SPLINE
  5
3C
330
2
100
AcDbEntity
  8
0
100
AcDbSpline
210
0.0
220
0.0
230
1.0
 70
     8
 71
     3
 72
    10
 73
     6
 74
     4
 42
0.0000000001
 43
0.0000000001
 44
0.0000000001
 40
0.0
 40
0.0
 40
0.0
 40
0.0
 40
0.0964178438523723
 40
0.1930163234842234
 40
0.2894341673365938
 40
0.2894341673365938
 40
0.2894341673365938
 40
0.2894341673365938
 10
-47.4079207512
 20
25.62071988240001
 30
0.0
 10
-47.44017087417959
 20
25.61546111700736
 30
0.0
 10
-47.50473153972367
 20
25.60493373409152
 30
0.0
 10
-47.57892110849153
 20
25.53074416532371
 30
0.0
 10
-47.58944849140736
 20
25.46618349977961
 30
0.0
 10
-47.59470725679999
 20
25.43393337680001
 30
0.0
 11
-47.4079207512
 21
25.62071988240001
 31
0.0
 11
-47.500906796
 21
25.5952248616
 31
0.0
 11
-47.569212236
 21
25.52691942160001
 31
0.0
 11
-47.59470725679999
 21
25.43393337680001
 31
0.0
  0
SPLINE
  5
3D
330
2
100
AcDbEntity
  8
0
100
AcDbSpline
210
0.0
220
0.0
230
1.0
 70
     8
 71
     3
 72
    12
 73
     8
 74
     6
 42
0.0000000001
 43
0.0000000001
 44
0.0000000001
 40
0.0
 40
0.0
 40
0.0
 40
0.0
 40
0.0583461488653261
 40
0.1168868471326983
 40
0.1754003677223004
 40
0.2339410659896695
 40
0.2922872148550037
 40
0.2922872148550037
 40
0.2922872148550037
 40
0.2922872148550037
 10
-47.7429009944
 20
25.9557001256
 30
0.0
 10
-47.76242366596465
 20
25.9539288943721
 30
0.0
 10
-47.80153410549115
 20
25.9503805259228
 30
0.0
 10
-47.85461464903387
 20
25.92242876249684
 30
0.0
 10
-47.8964161368968
 20
25.88062727463387
 30
0.0
 10
-47.9243679003228
 20
25.82754673109115
 30
0.0
 10
-47.9279162687721
 20
25.78843629156467
 30
0.0
 10
-47.9296875
 20
25.76891362
 30
0.0
 11
-47.7429009944
 21
25.9557001256
 31
0.0
 11
-47.8005377288
 21
25.94662929680001
 31
0.0
 11
-47.8527324872
 21
25.92012042000002
 31
0.0
 11
-47.89410779439999
 21
25.8787451128
 31
0.0
 11
-47.9206166712
 21
25.82655035440001
 31
0.0
 11
-47.9296875
 21
25.76891362
 31
0.0
  0
LINE
  5
3E
330
2
100
AcDbEntity
  8
0
100
AcDbLine
 10
17.9853322568
 20
-9.647533123999995
 30
0.0
 11
17.9853322568
 21
25.43393337680001
 31
0.0
  0
LINE
  5
3F
330
2
100
AcDbEntity
  8
0
100
AcDbLine
 10
18.3203125
 20
-9.982513378400003
 30
0.0
 11
18.3203125
 21
25.7689136312
 31
0.0
  0
LINE
  5
40
330
2
100
AcDbEntity
  8
0
100
AcDbLine
 10
18.1335259944
 20
25.9557001256
 30
0.0
 11
18.1335259944
 21
-10.16929987439999
 31
0.0
  0
LINE
  5
41
330
2
100
AcDbEntity
  8
0
100
AcDbLine
 10
10.584356948
 20
-2.928478356000002
 30
0.0
 11
-33.37493650319999
 21
-2.928478356000002
 31
0.0
  0
LINE
  5
42
330
2
100
AcDbEntity
  8
0
100
AcDbLine
 10
10.584356948
 20
18.7148786088
 30
0.0
 11
-33.37493650319999
 21
18.7148786088
 31
0.0
  0
CIRCLE
  5
43
330
2
100
AcDbEntity
  8
0
100
AcDbCircle
 10
5.9453125
 20
7.893200125599999
 30
0.0
 40
1.3232195168
  0
LINE
  5
44
330
2
100
AcDbEntity
  8
CENTER
 48
4.0
100
AcDbLine
 10
1.600974541089819
 20
7.893200125599999
 30
0.0
 11
10.28965045891018
 21
7.893200125599999
 31
0.0
  0
CIRCLE
  5
47
330
2
100
AcDbEntity
  8
0
100
AcDbCircle
 10
5.9453125
 20
7.893200125599999
 30
0.0
 40
1.978545935999999
  0
SPLINE
  5
48
330
2
100
AcDbEntity
  8
0
100
AcDbSpline
210
0.0
220
0.0
230
1.0
 70
     8
 71
     3
 72
    11
 73
     7
 74
     5
 42
0.0000000001
 43
0.0000000001
 44
0.0000000001
 40
0.0
 40
0.0
 40
0.0
 40
0.0
 40
0.1895339978300911
 40
0.3791993025191914
 40
0.5663379128924879
 40
0.7496322479462784
 40
0.7496322479462784
 40
0.7496322479462784
 40
0.7496322479462784
 10
-35.75973898
 20
-2.630085149599992
 30
0.0
 10
-35.75037601167343
 20
-2.693338662511594
 30
0.0
 10
-35.73164358846922
 20
-2.819889509602735
 30
0.0
 10
-35.62133706138654
 20
-2.979559502172321
 30
0.0
 10
-35.46746201718194
 20
-3.095445610618244
 30
0.0
 10
-35.34391217107453
 20
-3.115363560439624
 30
0.0
 10
-35.2827783352
 20
-3.125219183200002
 30
0.0
 11
-35.75973898
 21
-2.630085149599992
 31
0.0
 11
-35.71787841199999
 21
-2.814938683999997
 31
0.0
 11
-35.6132115448
 21
-2.973108765599988
 31
0.0
 11
-35.46084695279999
 21
-3.081763680799994
 31
0.0
 11
-35.2827783352
 21
-3.125219183200002
 31
0.0
  0
SPLINE
  5
49
330
2
100
AcDbEntity
  8
0
  6
CONTINUOUS
100
AcDbSpline
210
0.0
220
0.0
230
1.0
 70
     8
 71
     3
 72
    13
 73
     9
 74
     7
 42
0.0000000001
 43
0.0000000001
 44
0.0000000001
 40
0.0
 40
0.0
 40
0.0
 40
0.0
 40
0.4585773441856413
 40
0.9173194805255334
 40
1.376148110494415
 40
1.83497823531534
 40
2.293725069965614
 40
2.75230633428251
 40
2.75230633428251
 40
2.75230633428251
 40
2.75230633428251
 10
-16.1625437208
 20
-4.190307083999996
 30
0.0
 10
-16.01468579769705
 20
-4.151062140216481
 30
0.0
 10
-15.71891681797731
 20
-4.07255814977474
 30
0.0
 10
-15.26352860676814
 20
-4.009303849018222
 30
0.0
 10
-14.80469207166543
 20
-3.986526757194932
 30
0.0
 10
-14.34585392480535
 20
-4.009303034219622
 30
0.0
 10
-13.89046225819218
 20
-4.072557179997735
 30
0.0
 10
-13.59469047738933
 20
-4.151061839152134
 30
0.0
 10
-13.44683127919999
 20
-4.190307083999996
 30
0.0
 11
-16.1625437208
 21
-4.190307083999996
 31
0.0
 11
-15.71702417519999
 21
-4.081653896799991
 31
0.0
 11
-15.2629965736
 21
-4.016054471199993
 31
0.0
 11
-14.8046925624
 21
-3.994119453599992
 31
0.0
 11
-14.34638701519999
 21
-4.016053647199996
 31
0.0
 11
-13.89235467759999
 21
-4.081653149600001
 31
0.0
 11
-13.44683127919999
 21
-4.190307083999996
 31
0.0
  0
SPLINE
  5
4B
330
2
100
AcDbEntity
  8
0
  6
CONTINUOUS
100
AcDbSpline
210
0.0
220
0.0
230
1.0
 70
     8
 71
     3
 72
    21
 73
    17
 74
    15
 42
0.0000000001
 43
0.0000000001
 44
0.0000000001
 40
0.0
 40
0.0
 40
0.0
 40
0.0
 40
0.5746029436786458
 40
1.151361515421761
 40
1.728647488068296
 40
2.306354198500913
 40
2.884392220804915
 40
3.462661899756958
 40
4.041043006340971
 40
4.619416075031629
 40
5.197662972407414
 40
5.775664087730325
 40
6.353317982847273
 40
6.930543205474091
 40
7.507250992589701
 40
8.081831417799122
 40
8.081831417799122
 40
8.081831417799122
 40
8.081831417799122
 10
-18.48962281519999
 20
-4.679201603999999
 30
0.0
 10
-18.34416358556295
 20
-4.554319255925399
 30
0.0
 10
-18.05269943469246
 20
-4.304086062534357
 30
0.0
 10
-17.56780687002132
 20
-3.989765158033356
 30
0.0
 10
-17.0541634895551
 20
-3.724522097940544
 30
0.0
 10
-16.51426969131458
 20
-3.51577472895726
 30
0.0
 10
-15.95525353555697
 20
-3.364782357125707
 30
0.0
 10
-15.38316984684934
 20
-3.273548575164486
 30
0.0
 10
-14.80456246761877
 20
-3.24302264160732
 30
0.0
 10
-14.22596411188457
 20
-3.273574632544743
 30
0.0
 10
-13.65390676119557
 20
-3.364829405626277
 30
0.0
 10
-13.09493267018867
 20
-3.51583293169013
 30
0.0
 10
-12.55509208614663
 20
-3.724577981404455
 30
0.0
 10
-12.04150264411012
 20
-3.98980550049474
 30
0.0
 10
-11.55665078654082
 20
-4.304106338327679
 30
0.0
 10
-11.26520554023049
 20
-4.554323966990537
 30
0.0
 10
-11.1197521848
 20
-4.679201603999999
 30
0.0
 11
-18.48962281519999
 21
-4.679201603999999
 31
0.0
 11
-18.0454002392
 21
-4.314736453599991
 31
0.0
 11
-17.5633141896
 21
-3.998123928799998
 31
0.0
 11
-17.04998094799999
 21
-3.734025316
 31
0.0
 11
-16.51123943759999
 21
-3.525452479199998
 31
0.0
 11
-15.9531876696
 21
-3.374766781600001
 31
0.0
 11
-15.38213796399999
 21
-3.283673119199988
 31
0.0
 11
-14.80456002479999
 21
-3.253202992799998
 31
0.0
 11
-14.22699150639999
 21
-3.283699109599993
 31
0.0
 11
-13.6559682104
 21
-3.37481370639999
 31
0.0
 11
-13.09795773039999
 21
-3.525510732
 31
0.0
 11
-12.5592716024
 21
-3.73408033199999
 31
0.0
 11
-12.0459974056
 21
-3.998160919199989
 31
0.0
 11
-11.56395659439999
 21
-4.314749813600002
 31
0.0
 11
-11.1197521848
 21
-4.679201603999999
 31
0.0
  0
LWPOLYLINE
  5
4C
330
2
100
AcDbEntity
  8
0
  6
CONTINUOUS
100
AcDbPolyline
 90
       14
 70
     0
 43
0.0
 10
-11.11722417839999
 20
-4.684199423199999
 10
-11.5627427272
 20
-4.318577480800001
 10
-12.0449726792
 20
-4.001907083999995
 10
-12.55845332559999
 20
-3.737774167200001
 10
-13.097370068
 20
-3.52916974
 10
-13.65562027599999
 20
-3.378456016800001
 10
-14.226882388
 20
-3.2873396616
 10
-14.8046875
 20
-3.25685246479999
 10
-15.38249261199999
 20
-3.2873396616
 10
-15.953754724
 20
-3.378456016800001
 10
-16.51200493199999
 20
-3.52916974
 10
-17.0509216744
 20
-3.737774167200001
 10
-17.5644023208
 20
-4.001907083999995
 10
-18.04663227279999
 20
-4.318577480800001
  0
SPLINE
  5
4D
330
2
100
AcDbEntity
  8
0
100
AcDbSpline
210
0.0
220
0.0
230
1.0
 70
     8
 71
     3
 72
    13
 73
     9
 74
     7
 42
0.0000000001
 43
0.0000000001
 44
0.0000000001
 40
0.0
 40
0.0
 40
0.0
 40
0.0
 40
0.4161122856534606
 40
0.8161531530552361
 40
1.182847885665693
 40
1.498568245002816
 40
1.748948093254613
 40
1.925303378787506
 40
1.925303378787506
 40
1.925303378787506
 40
1.925303378787506
 10
-33.37493650319999
 20
-2.928478355999999
 30
0.0
 10
-33.51364972116398
 20
-2.929621853723522
 30
0.0
 10
-33.78571866532881
 20
-2.931864684095854
 30
0.0
 10
-34.17962130116044
 20
-2.950273030404221
 30
0.0
 10
-34.53957298275053
 20
-2.978146789325427
 30
0.0
 10
-34.84778258203476
 20
-3.017668646250378
 30
0.0
 10
-35.09271799762201
 20
-3.058858594632986
 30
0.0
 10
-35.22720102203364
 20
-3.1058140666748
 30
0.0
 10
-35.2827783352
 20
-3.125219184800002
 30
0.0
 11
-33.37493650319999
 21
-2.928478355999999
 31
0.0
 11
-33.79100335119999
 21
-2.934627523999992
 31
0.0
 11
-34.1906258488
 21
-2.952918368799998
 31
0.0
 11
-34.55610642799999
 21
-2.982734021599995
 31
0.0
 11
-34.869281212
 21
-3.022745269599994
 31
0.0
 11
-35.11497101839999
 21
-3.07097998159999
 31
0.0
 11
-35.2827783352
 21
-3.125219184800002
 31
0.0
  0
SPLINE
  5
4E
330
2
100
AcDbEntity
  8
0
  6
CONTINUOUS
100
AcDbSpline
210
0.0
220
0.0
230
1.0
 70
     8
 71
     3
 72
    14
 73
    10
 74
     8
 42
0.0000000001
 43
0.0000000001
 44
0.0000000001
 40
0.0
 40
0.0
 40
0.0
 40
0.0
 40
0.2171564731143494
 40
0.4791552445090148
 40
0.7414680336036892
 40
1.004134306859208
 40
1.267162902055697
 40
1.53052996010331
 40
1.794181350490247
 40
1.794181350490247
 40
1.794181350490247
 40
1.794181350490247
 10
-17.36735716719999
 20
-5.416462543199997
 30
0.0
 10
-17.34588055900101
 20
-5.347242204053234
 30
0.0
 10
-17.29849247378658
 20
-5.194507689381873
 30
0.0
 10
-17.18548333077909
 20
-4.973173981609103
 30
0.0
 10
-17.03416456259826
 20
-4.75795802245376
 30
0.0
 10
-16.8516282326668
 20
-4.567511392724614
 30
0.0
 10
-16.64254674536636
 20
-4.406726634473302
 30
0.0
 10
-16.41235181049069
 20
-4.275810865041265
 30
0.0
 10
-16.24584302847946
 20
-4.218818593669407
 30
0.0
 10
-16.1625437208
 20
-4.190307083999996
 30
0.0
 11
-17.36735716719999
 21
-5.416462543199997
 31
0.0
 11
-17.29766071759999
 21
-5.210794512799992
 31
0.0
 11
-17.18031194799999
 21
-4.976545451999996
 31
0.0
 11
-17.0290730968
 21
-4.762221376799999
 31
0.0
 11
-16.8473375944
 21
-4.572574920799993
 31
0.0
 11
-16.63916748719999
 21
-4.411797906399996
 31
0.0
 11
-16.40920011599999
 21
-4.283434299999996
 31
0.0
 11
-16.1625437208
 21
-4.190307083999996
 31
0.0
  0
SPLINE
  5
4F
330
2
100
AcDbEntity
  8
0
  6
CONTINUOUS
100
AcDbSpline
210
0.0
220
0.0
230
1.0
 70
     8
 71
     3
 72
     9
 73
     5
 74
     3
 42
0.0000000001
 43
0.0000000001
 44
0.0000000001
 40
0.0
 40
0.0
 40
0.0
 40
0.0
 40
0.0003567050781386
 40
0.0006976789554496
 40
0.0006976789554496
 40
0.0006976789554496
 40
0.0006976789554496
 10
-18.4921875
 20
-4.71975617839999
 30
0.0
 10
-18.49218611433963
 20
-4.719875129836509
 30
0.0
 10
-18.49218340412849
 20
-4.720107786782164
 30
0.0
 10
-18.49216151794697
 20
-4.720339421889738
 30
0.0
 10
-18.4921508216
 20
-4.720452627999989
 30
0.0
 11
-18.4921875
 21
-4.71975617839999
 31
0.0
 11
-18.49217833039999
 21
-4.720112765599992
 31
0.0
 11
-18.4921508216
 21
-4.720452627999989
 31
0.0
  0
SPLINE
  5
50
330
2
100
AcDbEntity
  8
0
  6
CONTINUOUS
100
AcDbSpline
210
0.0
220
0.0
230
1.0
 70
     8
 71
     3
 72
    15
 73
    11
 74
     9
 42
0.0000000001
 43
0.0000000001
 44
0.0000000001
 40
0.0
 40
0.0
 40
0.0
 40
0.0
 40
0.0056249147465732
 40
0.0176299455572874
 40
0.0357106874911674
 40
0.0595630832158646
 40
0.0885510874275087
 40
0.1219506487904753
 40
0.158994621312505
 40
0.1988030895972898
 40
0.1988030895972898
 40
0.1988030895972898
 40
0.1988030895972898
 10
-17.36736660879999
 20
-5.416461139999995
 30
0.0
 10
-17.36840900899276
 20
-5.418054363051844
 30
0.0
 10
-17.37167616226982
 20
-5.42304793840902
 30
0.0
 10
-17.38345276751238
 20
-5.427424271267766
 30
0.0
 10
-17.40034132302772
 20
-5.432658233155811
 30
0.0
 10
-17.42372713765311
 20
-5.437110772700465
 30
0.0
 10
-17.4521336331828
 20
-5.441203224508721
 30
0.0
 10
-17.48513076533559
 20
-5.444573744000708
 30
0.0
 10
-17.5217824442136
 20
-5.447274352134609
 30
0.0
 10
-17.54738016335433
 20
-5.448335568340294
 30
0.0
 10
-17.5606394168
 20
-5.448885263199997
 30
0.0
 11
-17.36736660879999
 21
-5.416461139999995
 31
0.0
 11
-17.37075306479999
 21
-5.420952418399991
 31
0.0
 11
-17.3813692824
 21
-5.426557477599999
 31
0.0
 11
-17.39866384559999
 21
-5.431831120799998
 31
0.0
 11
-17.42202988079999
 21
-5.436623320799995
 31
0.0
 11
-17.4507137672
 21
-5.440811285599991
 31
0.0
 11
-17.48393048719999
 21
-5.444301301599992
 31
0.0
 11
-17.520874868
 21
-5.44701582319999
 31
0.0
 11
-17.5606394168
 21
-5.448885263199997
 31
0.0
  0
SPLINE
  5
51
330
2
100
AcDbEntity
  8
0
  6
CONTINUOUS
100
AcDbSpline
210
0.0
220
0.0
230
1.0
 70
    24
 71
     3
 72
     8
 73
     4
 74
     2
 42
0.0000000001
 43
0.0000000001
 44
0.0000000001
 40
0.0
 40
0.0
 40
0.0
 40
0.0
 40
0.0003733957288124
 40
0.0003733957288124
 40
0.0003733957288124
 40
0.0003733957288124
 10
-18.49217833359999
 20
-4.684589619999997
 30
0.0
 10
-18.49218138906666
 20
-4.684714047733331
 30
0.0
 10
-18.49218444453333
 20
-4.684838475466666
 30
0.0
 10
-18.4921875
 20
-4.684962903200002
 30
0.0
 11
-18.49217833359999
 21
-4.684589619999997
 31
0.0
 11
-18.4921875
 21
-4.684962903200002
 31
0.0
  0
SPLINE
  5
52
330
2
100
AcDbEntity
  8
0
  6
CONTINUOUS
100
AcDbSpline
210
0.0
220
0.0
230
1.0
 70
    24
 71
     3
 72
     8
 73
     4
 74
     2
 42
0.0000000001
 43
0.0000000001
 44
0.0000000001
 40
0.0
 40
0.0
 40
0.0
 40
0.0
 40
0.0003911655057287
 40
0.0003911655057287
 40
0.0003911655057287
 40
0.0003911655057287
 10
-18.4921508216
 20
-4.684199423199999
 30
0.0
 10
-18.49215999226666
 20
-4.684329488799997
 30
0.0
 10
-18.49216916293332
 20
-4.684459554399997
 30
0.0
 10
-18.49217833359999
 20
-4.684589619999997
 30
0.0
 11
-18.4921508216
 21
-4.684199423199999
 31
0.0
 11
-18.49217833359999
 21
-4.684589619999997
 31
0.0
  0
LWPOLYLINE
  5
53
330
2
100
AcDbEntity
  8
0
  6
CONTINUOUS
100
AcDbPolyline
 90
        8
 70
     0
 43
0.0
 10
-18.1171875
 20
-5.448885263199997
 10
-18.20063285039999
 20
-5.447576754399989
 10
-18.2798939016
 20
-5.443716837599993
 10
-18.35099617519999
 20
-5.437499067999993
 10
-18.4103743064
 20
-5.429235229599996
 10
-18.45505082479999
 20
-5.419339704799995
 10
-18.4827854664
 20
-5.408308698399991
 10
-18.4921875
 20
-5.396695351199994
  0
LINE
  5
54
330
2
100
AcDbEntity
  8
0
  6
CONTINUOUS
100
AcDbLine
 10
-18.1171875
 20
-5.448885263200001
 30
0.0
 11
-17.5606394168
 21
-5.448885263200001
 31
0.0
  0
LINE
  5
55
330
2
100
AcDbEntity
  8
0
  6
CONTINUOUS
100
AcDbLine
 10
-18.4921875
 20
-5.396695351199998
 30
0.0
 11
-18.4921875
 21
-4.684962903200005
 31
0.0
  0
LINE
  5
56
330
2
100
AcDbEntity
  8
0
  6
CONTINUOUS
100
AcDbLine
 10
-18.48962280879999
 20
-4.679199658399998
 30
0.0
 11
-18.4921508168
 21
-4.684199408800001
 31
0.0
  0
LINE
  5
57
330
2
100
AcDbEntity
  8
0
  6
CONTINUOUS
100
AcDbLine
 10
-18.04663227279999
 20
-4.318577480800005
 30
0.0
 11
-18.4921508216
 21
-4.684199423200002
 31
0.0
  0
LINE
  5
58
330
2
100
AcDbEntity
  8
0
  6
CONTINUOUS
100
AcDbLine
 10
-11.49218749999999
 20
-5.448885263200001
 30
0.0
 11
-12.0487355832
 21
-5.448885263200001
 31
0.0
  0
SPLINE
  5
59
330
2
100
AcDbEntity
  8
0
  6
CONTINUOUS
100
AcDbSpline
210
0.0
220
0.0
230
1.0
 70
     8
 71
     3
 72
    14
 73
    10
 74
     8
 42
0.0000000001
 43
0.0000000001
 44
0.0000000001
 40
0.0
 40
0.0
 40
0.0
 40
0.0
 40
0.2171564731143494
 40
0.4791552445090148
 40
0.7414680336036892
 40
1.004134306859208
 40
1.267162902055697
 40
1.53052996010331
 40
1.794181350490247
 40
1.794181350490247
 40
1.794181350490247
 40
1.794181350490247
 10
-12.2420178328
 20
-5.416462543199997
 30
0.0
 10
-12.26349444099898
 20
-5.347242204053234
 30
0.0
 10
-12.31088252621341
 20
-5.194507689381873
 30
0.0
 10
-12.4238916692209
 20
-4.973173981609103
 30
0.0
 10
-12.57521043740173
 20
-4.75795802245376
 30
0.0
 10
-12.7577467673332
 20
-4.567511392724614
 30
0.0
 10
-12.96682825463363
 20
-4.406726634473302
 30
0.0
 10
-13.19702318950929
 20
-4.275810865041265
 30
0.0
 10
-13.36353197152054
 20
-4.218818593669407
 30
0.0
 10
-13.44683127919999
 20
-4.190307083999996
 30
0.0
 11
-12.2420178328
 21
-5.416462543199997
 31
0.0
 11
-12.3117142824
 21
-5.210794512799992
 31
0.0
 11
-12.429063052
 21
-4.976545451999996
 31
0.0
 11
-12.58030190319999
 21
-4.762221376799999
 31
0.0
 11
-12.76203740559999
 21
-4.572574920799993
 31
0.0
 11
-12.9702075128
 21
-4.411797906399996
 31
0.0
 11
-13.200174884
 21
-4.283434299999996
 31
0.0
 11
-13.44683127919999
 21
-4.190307083999996
 31
0.0
  0
SPLINE
  5
5A
330
2
100
AcDbEntity
  8
0
  6
CONTINUOUS
100
AcDbSpline
210
0.0
220
0.0
230
1.0
 70
     8
 71
     3
 72
    15
 73
    11
 74
     9
 42
0.0000000001
 43
0.0000000001
 44
0.0000000001
 40
0.0
 40
0.0
 40
0.0
 40
0.0
 40
0.0399436954777634
 40
0.0771378241036318
 40
0.1106334310592609
 40
0.1396050234801939
 40
0.1633416260953028
 40
0.1812866858202515
 40
0.1932060470832837
 40
0.1988037001776237
 40
0.1988037001776237
 40
0.1988037001776237
 40
0.1988037001776237
 10
-12.0487355832
 20
-5.448885263199997
 30
0.0
 10
-12.06203987129766
 20
-5.448333406263968
 30
0.0
 10
-12.0877326326415
 20
-5.447267680052295
 30
0.0
 10
-12.12451073908633
 20
-5.44455203562051
 30
0.0
 10
-12.15758314353659
 20
-5.441162960516491
 30
0.0
 10
-12.18597554877234
 20
-5.437056325701678
 30
0.0
 10
-12.20926893858793
 20
-5.432600088566358
 30
0.0
 10
-12.22604758830606
 20
-5.427380784017598
 30
0.0
 10
-12.23773282417152
 20
-5.423013923440635
 30
0.0
 10
-12.24097280974841
 20
-5.41804828697361
 30
0.0
 10
-12.24200816399999
 20
-5.416461491999996
 30
0.0
 11
-12.0487355832
 21
-5.448885263199997
 31
0.0
 11
-12.08863512879999
 21
-5.447007746399989
 31
0.0
 11
-12.1257288136
 21
-5.444276125599998
 31
0.0
 11
-12.1590398104
 21
-5.440764263199994
 31
0.0
 11
-12.1877048968
 21
-5.436561170399997
 31
0.0
 11
-12.210953164
 21
-5.431771141599995
 31
0.0
 11
-12.2281115608
 21
-5.426516183199993
 31
0.0
 11
-12.23864353359999
 21
-5.420935079199992
 31
0.0
 11
-12.24200816399999
 21
-5.416461491999996
 31
0.0
  0
SPLINE
  5
5B
330
2
100
AcDbEntity
  8
0
  6
CONTINUOUS
100
AcDbSpline
210
0.0
220
0.0
230
1.0
 70
     8
 71
     3
 72
     9
 73
     5
 74
     3
 42
0.0000000001
 43
0.0000000001
 44
0.0000000001
 40
0.0
 40
0.0
 40
0.0
 40
0.0
 40
0.000341025168572
 40
0.0006976789813848
 40
0.0006976789813848
 40
0.0006976789813848
 40
0.0006976789813848
 10
-11.11722417839999
 20
-4.720452627999989
 30
0.0
 10
-11.11721348045686
 20
-4.720339404845134
 30
0.0
 10
-11.1171915943008
 20
-4.720107769697267
 30
0.0
 10
-11.11718888499722
 20
-4.719875112741608
 30
0.0
 10
-11.1171875
 20
-4.71975617839999
 30
0.0
 11
-11.11722417839999
 21
-4.720452627999989
 31
0.0
 11
-11.1171966664
 21
-4.720112714400002
 31
0.0
 11
-11.1171875
 21
-4.71975617839999
 31
0.0
  0
SPLINE
  5
5C
330
2
100
AcDbEntity
  8
0
  6
CONTINUOUS
100
AcDbSpline
210
0.0
220
0.0
230
1.0
 70
     8
 71
     3
 72
     9
 73
     5
 74
     3
 42
0.0000000001
 43
0.0000000001
 44
0.0000000001
 40
0.0
 40
0.0
 40
0.0
 40
0.0
 40
0.000373451790501
 40
0.0007645612098407
 40
0.0007645612098407
 40
0.0007645612098407
 40
0.0007645612098407
 10
-11.1171875
 20
-4.684962903200002
 30
0.0
 10
-11.11718916466813
 20
-4.684838390671835
 30
0.0
 10
-11.11719257271359
 20
-4.684583478387045
 30
0.0
 10
-11.11721348220218
 20
-4.684329397603957
 30
0.0
 10
-11.11722417839999
 20
-4.684199423199999
 30
0.0
 11
-11.1171875
 21
-4.684962903200002
 31
0.0
 11
-11.1171966696
 21
-4.684589563999992
 31
0.0
 11
-11.11722417839999
 21
-4.684199423199999
 31
0.0
  0
LWPOLYLINE
  5
5D
330
2
100
AcDbEntity
  8
0
  6
CONTINUOUS
100
AcDbPolyline
 90
        8
 70
     0
 43
0.0
 10
-11.1171875
 20
-5.396695351199994
 10
-11.12658953359999
 20
-5.408308698399991
 10
-11.1543241752
 20
-5.419339704799995
 10
-11.19900069359999
 20
-5.429235229599996
 10
-11.2583788248
 20
-5.437499067999993
 10
-11.32948109839999
 20
-5.443716837599993
 10
-11.4087421496
 20
-5.447576754399989
 10
-11.49218749999999
 20
-5.448885263199997
  0
LINE
  5
5E
330
2
100
AcDbEntity
  8
0
  6
CONTINUOUS
100
AcDbLine
 10
-11.11722418319999
 20
-4.684199410400001
 30
0.0
 11
-11.1197521656
 21
-4.679206570400001
 31
0.0
  0
LINE
  5
5F
330
2
100
AcDbEntity
  8
0
  6
CONTINUOUS
100
AcDbLine
 10
-11.1171875
 20
-5.396695351199998
 30
0.0
 11
-11.1171875
 21
-4.684962903200005
 31
0.0
  0
SPLINE
  5
60
330
2
100
AcDbEntity
  8
0
  6
CONTINUOUS
100
AcDbSpline
210
0.0
220
0.0
230
1.0
 70
     8
 71
     3
 72
    13
 73
     9
 74
     7
 42
0.0000000001
 43
0.0000000001
 44
0.0000000001
 40
0.0
 40
0.0
 40
0.0
 40
0.0
 40
0.4585773441856447
 40
0.9173194805255368
 40
1.376148110494418
 40
1.834978235315342
 40
2.293725069965613
 40
2.752306334282516
 40
2.752306334282516
 40
2.752306334282516
 40
2.752306334282516
 10
-13.44683127919999
 20
19.97670733680001
 30
0.0
 10
-13.59468920230294
 20
19.93746239301649
 30
0.0
 10
-13.89045818202269
 20
19.85895840257474
 30
0.0
 10
-14.34584639323185
 20
19.79570410181823
 30
0.0
 10
-14.80468292833456
 20
19.77292700999495
 30
0.0
 10
-15.26352107519464
 20
19.79570328701965
 30
0.0
 10
-15.71891274180782
 20
19.85895743279771
 30
0.0
 10
-16.01468452261066
 20
19.93746209195213
 30
0.0
 10
-16.1625437208
 20
19.97670733680001
 30
0.0
 11
-13.44683127919999
 21
19.97670733680001
 31
0.0
 11
-13.8923508248
 21
19.8680541496
 31
0.0
 11
-14.34637842639999
 21
19.802454724
 31
0.0
 11
-14.80468243759999
 21
19.78051970640001
 31
0.0
 11
-15.2629879848
 21
19.80245390000001
 31
0.0
 11
-15.7170203224
 21
19.86805340239999
 31
0.0
 11
-16.1625437208
 21
19.97670733680001
 31
0.0
  0
SPLINE
  5
61
330
2
100
AcDbEntity
  8
0
  6
CONTINUOUS
100
AcDbSpline
210
0.0
220
0.0
230
1.0
 70
     8
 71
     3
 72
    21
 73
    17
 74
    15
 42
0.0000000001
 43
0.0000000001
 44
0.0000000001
 40
0.0
 40
0.0
 40
0.0
 40
0.0
 40
0.5746029446934924
 40
1.151361515558293
 40
1.728647488204835
 40
2.306354198637447
 40
2.884392221358548
 40
3.462661900310588
 40
4.041043006894601
 40
4.619416075669625
 40
5.19766297304541
 40
5.775664088368313
 40
6.353317982907565
 40
6.930543206266383
 40
7.507250993381994
 40
8.081831418591406
 40
8.081831418591406
 40
8.081831418591406
 40
8.081831418591406
 10
-11.1197521848
 20
20.46560185679999
 30
0.0
 10
-11.26521141427463
 20
20.3407195079659
 30
0.0
 10
-11.55667556433948
 20
20.09048631346532
 30
0.0
 10
-12.04156813056308
 20
19.77616541119866
 30
0.0
 10
-12.55521151032124
 20
19.51092235046696
 30
0.0
 10
-13.09510530898584
 20
19.30217498230147
 30
0.0
 10
-13.65412146415561
 20
19.15118260775447
 30
0.0
 10
-14.22620515318193
 20
19.05994882667149
 30
0.0
 10
-14.80481253243419
 20
19.02942289217114
 30
0.0
 10
-15.38341088804108
 20
19.05997488598072
 30
0.0
 10
-15.95546823888111
 20
19.15122965809907
 30
0.0
 10
-16.51444232936499
 20
19.30223318510817
 30
0.0
 10
-17.05428291468741
 20
19.51097823179957
 30
0.0
 10
-17.56787235539081
 20
19.77620575376882
 30
0.0
 10
-18.05272421353226
 20
20.0905065909766
 30
0.0
 10
-18.34416945979383
 20
20.34072421974023
 30
0.0
 10
-18.48962281519999
 20
20.46560185679999
 30
0.0
 11
-11.1197521848
 21
20.46560185679999
 31
0.0
 11
-11.56397476079999
 21
20.10113670480001
 31
0.0
 11
-12.04606081039999
 21
19.7845241816
 31
0.0
 11
-12.559394052
 21
19.52042556879999
 31
0.0
 11
-13.0981355624
 21
19.311852732
 31
0.0
 11
-13.6561873304
 21
19.16116703279999
 31
0.0
 11
-14.227237036
 21
19.07007337039999
 31
0.0
 11
-14.8048149752
 21
19.039603244
 31
0.0
 11
-15.3823834936
 21
19.07009936240001
 31
0.0
 11
-15.95340678959999
 21
19.16121395920001
 31
0.0
 11
-16.5114172696
 21
19.31191098479999
 31
0.0
 11
-17.05010339759999
 21
19.52048058319999
 31
0.0
 11
-17.56337759439999
 21
19.78456117199999
 31
0.0
 11
-18.0454184056
 21
20.1011500664
 31
0.0
 11
-18.48962281519999
 21
20.46560185679999
 31
0.0
  0
LWPOLYLINE
  5
62
330
2
100
AcDbEntity
  8
0
  6
CONTINUOUS
100
AcDbPolyline
 90
       14
 70
     0
 43
0.0
 10
-18.4921508216
 20
20.4705996744
 10
-18.04663227279999
 20
20.1049777336
 10
-17.5644023208
 20
19.78830733520001
 10
-17.0509216744
 20
19.5241744184
 10
-16.51200493199999
 20
19.31556999119999
 10
-15.953754724
 20
19.16485626799999
 10
-15.38249261199999
 20
19.07373991279999
 10
-14.8046875
 20
19.04325271760001
 10
-14.226882388
 20
19.07373991279999
 10
-13.65562027599999
 20
19.16485626799999
 10
-13.097370068
 20
19.31556999119999
 10
-12.55845332559999
 20
19.5241744184
 10
-12.0449726792
 20
19.78830733520001
 10
-11.5627427272
 20
20.1049777336
  0
LINE
  5
63
330
2
100
AcDbEntity
  8
0
100
AcDbLine
 10
-35.7597387944
 20
-2.630085149599995
 30
0.0
 11
-35.7597387944
 21
18.41648540240001
 31
0.0
  0
SPLINE
  5
64
330
2
100
AcDbEntity
  8
0
100
AcDbSpline
210
0.0
220
0.0
230
1.0
 70
     8
 71
     3
 72
    13
 73
     9
 74
     7
 42
0.0000000001
 43
0.0000000001
 44
0.0000000001
 40
0.0
 40
0.0
 40
0.0
 40
0.0
 40
0.4161122856298165
 40
0.8161531530315915
 40
1.182847885642049
 40
1.498568245181939
 40
1.748948093125505
 40
1.925303378658389
 40
1.925303378658389
 40
1.925303378658389
 40
1.925303378658389
 10
-33.37493650319999
 20
18.7148786088
 30
0.0
 10
-33.5136497211701
 20
18.71602210581722
 30
0.0
 10
-33.7857186653545
 20
18.71826493480429
 30
0.0
 10
-34.17962130111571
 20
18.73667328199925
 30
0.0
 10
-34.53957298295712
 20
18.76454703955904
 30
0.0
 10
-34.84778258166461
 20
18.80406890021078
 30
0.0
 10
-35.09271799779522
 20
18.84525884545684
 30
0.0
 10
-35.22720102205588
 20
18.89221431775488
 30
0.0
 10
-35.2827783352
 20
18.91161943599999
 30
0.0
 11
-33.37493650319999
 21
18.7148786088
 31
0.0
 11
-33.79100335119999
 21
18.72102777520001
 31
0.0
 11
-34.1906258488
 21
18.73931862
 31
0.0
 11
-34.55610642799999
 21
18.76913427280001
 31
0.0
 11
-34.869281212
 21
18.8091455224
 31
0.0
 11
-35.11497101839999
 21
18.85738023280001
 31
0.0
 11
-35.2827783352
 21
18.91161943599999
 31
0.0
  0
SPLINE
  5
65
330
2
100
AcDbEntity
  8
0
100
AcDbSpline
210
0.0
220
0.0
230
1.0
 70
     8
 71
     3
 72
    11
 73
     7
 74
     5
 42
0.0000000001
 43
0.0000000001
 44
0.0000000001
 40
0.0
 40
0.0
 40
0.0
 40
0.0
 40
0.1895339962695885
 40
0.3791993022929978
 40
0.5663379117373234
 40
0.7496322471704359
 40
0.7496322471704359
 40
0.7496322471704359
 40
0.7496322471704359
 10
-35.75973898
 20
18.41648540240001
 30
0.0
 10
-35.75037601145941
 20
18.47973891464459
 30
0.0
 10
-35.73164358768392
 20
18.60628976136767
 30
0.0
 10
-35.62133706248836
 20
18.76595975510666
 30
0.0
 10
-35.46746201637249
 20
18.88184586116878
 30
0.0
 10
-35.3439121709519
 20
18.90176381247158
 30
0.0
 10
-35.2827783352
 20
18.91161943599999
 30
0.0
 11
-35.75973898
 21
18.41648540240001
 31
0.0
 11
-35.71787841199999
 21
18.6013389352
 31
0.0
 11
-35.6132115448
 21
18.75950901839999
 31
0.0
 11
-35.46084695279999
 21
18.86816393200001
 31
0.0
 11
-35.2827783352
 21
18.91161943599999
 31
0.0
  0
SPLINE
  5
66
330
2
100
AcDbEntity
  8
0
  6
CONTINUOUS
100
AcDbSpline
210
0.0
220
0.0
230
1.0
 70
     8
 71
     3
 72
    14
 73
    10
 74
     8
 42
0.0000000001
 43
0.0000000001
 44
0.0000000001
 40
0.0
 40
0.0
 40
0.0
 40
0.0
 40
0.2171564731143494
 40
0.4791552430784667
 40
0.7414680334804414
 40
1.00413430673595
 40
1.267162901932439
 40
1.530529959980052
 40
1.794181349801835
 40
1.794181349801835
 40
1.794181349801835
 40
1.794181349801835
 10
-17.36735716719999
 20
21.2028627944
 30
0.0
 10
-17.34588055907993
 20
21.13364245521058
 30
0.0
 10
-17.2984924741811
 20
20.98090794090111
 30
0.0
 10
-17.18548332979666
 20
20.75957423393868
 30
0.0
 10
-17.03416456321649
 20
20.54435827376577
 30
0.0
 10
-16.85162823259178
 20
20.35391164395391
 30
0.0
 10
-16.64254674535034
 20
20.19312688576074
 30
0.0
 10
-16.41235181079488
 20
20.06221111595522
 30
0.0
 10
-16.24584302852141
 20
20.00521884582015
 30
0.0
 10
-16.1625437208
 20
19.97670733680001
 30
0.0
 11
-17.36735716719999
 21
21.2028627944
 31
0.0
 11
-17.29766071759999
 21
20.997194764
 31
0.0
 11
-17.18031194799999
 21
20.76294570480001
 31
0.0
 11
-17.0290730968
 21
20.548621628
 31
0.0
 11
-16.8473375944
 21
20.35897517200001
 31
0.0
 11
-16.63916748719999
 21
20.19819815760001
 31
0.0
 11
-16.40920011599999
 21
20.06983455120001
 31
0.0
 11
-16.1625437208
 21
19.97670733680001
 31
0.0
  0
LINE
  5
67
330
2
100
AcDbEntity
  8
0
  6
CONTINUOUS
100
AcDbLine
 10
-18.4921875
 20
20.47136315599999
 30
0.0
 11
-18.4921875
 21
21.18309560240001
 31
0.0
  0
SPLINE
  5
68
330
2
100
AcDbEntity
  8
0
  6
CONTINUOUS
100
AcDbSpline
210
0.0
220
0.0
230
1.0
 70
     8
 71
     3
 72
     9
 73
     5
 74
     3
 42
0.0000000001
 43
0.0000000001
 44
0.0000000001
 40
0.0
 40
0.0
 40
0.0
 40
0.0
 40
0.0003410235738154
 40
0.000697677386614
 40
0.000697677386614
 40
0.000697677386614
 40
0.000697677386614
 10
-18.4921508216
 20
20.50685287920001
 30
0.0
 10
-18.49216151954282
 20
20.50673965657875
 30
0.0
 10
-18.49218340575056
 20
20.5065080219688
 30
0.0
 10
-18.49218611501805
 20
20.50627536554274
 30
0.0
 10
-18.4921875
 20
20.50615643119999
 30
0.0
 11
-18.4921508216
 21
20.50685287920001
 31
0.0
 11
-18.49217833359999
 21
20.50651296719999
 31
0.0
 11
-18.4921875
 21
20.50615643119999
 31
0.0
  0
SPLINE
  5
69
330
2
100
AcDbEntity
  8
0
  6
CONTINUOUS
100
AcDbSpline
210
0.0
220
0.0
230
1.0
 70
     8
 71
     3
 72
     9
 73
     5
 74
     3
 42
0.0000000001
 43
0.0000000001
 44
0.0000000001
 40
0.0
 40
0.0
 40
0.0
 40
0.0
 40
0.0003734517904868
 40
0.0007645628058641
 40
0.0007645628058641
 40
0.0007645628058641
 40
0.0007645628058641
 10
-18.4921875
 20
20.47136315599999
 30
0.0
 10
-18.49218583532024
 20
20.47123864347259
 30
0.0
 10
-18.49218242724384
 20
20.47098373065721
 30
0.0
 10
-18.49216151779751
 20
20.47072964933753
 30
0.0
 10
-18.4921508216
 20
20.4705996744
 30
0.0
 11
-18.4921875
 21
20.47136315599999
 31
0.0
 11
-18.49217833039999
 21
20.4709898168
 31
0.0
 11
-18.4921508216
 21
20.4705996744
 31
0.0
  0
LINE
  5
6A
330
2
100
AcDbEntity
  8
0
  6
CONTINUOUS
100
AcDbLine
 10
-18.4921508168
 20
20.4705996616
 30
0.0
 11
-18.48962283439999
 21
20.4656068232
 31
0.0
  0
SPLINE
  5
6B
330
2
100
AcDbEntity
  8
0
  6
CONTINUOUS
100
AcDbSpline
210
0.0
220
0.0
230
1.0
 70
     8
 71
     3
 72
    15
 73
    11
 74
     9
 42
0.0000000001
 43
0.0000000001
 44
0.0000000001
 40
0.0
 40
0.0
 40
0.0
 40
0.0
 40
0.0399436955529693
 40
0.0771378241788387
 40
0.1106334309667136
 40
0.139605023619773
 40
0.163341626234879
 40
0.1812866854912903
 40
0.1932060475034975
 40
0.1988037005978489
 40
0.1988037005978489
 40
0.1988037005978489
 40
0.1988037005978489
 10
-17.5606394168
 20
21.235285516
 30
0.0
 10
-17.54733512870104
 20
21.2347336584634
 30
0.0
 10
-17.52164236737801
 20
21.23366793109287
 30
0.0
 10
-17.48486426105039
 20
21.23095228608522
 30
0.0
 10
-17.45179185622951
 20
21.22756321432434
 30
0.0
 10
-17.42339945123459
 20
21.2234565767558
 30
0.0
 10
-17.4001060619498
 20
21.21900033883095
 30
0.0
 10
-17.38332741081036
 20
21.21378103775314
 30
0.0
 10
-17.37164217607942
 20
21.20941417463972
 30
0.0
 10
-17.3684021902788
 20
21.20444853812196
 30
0.0
 10
-17.367366836
 20
21.2028617432
 30
0.0
 11
-17.5606394168
 21
21.235285516
 31
0.0
 11
-17.5207398712
 21
21.23340799760001
 31
0.0
 11
-17.48364618639999
 21
21.2306763768
 31
0.0
 11
-17.45033518959999
 21
21.22716451600001
 31
0.0
 11
-17.4216701032
 21
21.22296142159999
 31
0.0
 11
-17.39842183599999
 21
21.2181713928
 31
0.0
 11
-17.38126343919999
 21
21.212916436
 31
0.0
 11
-17.3707314664
 21
21.20733533040001
 31
0.0
 11
-17.367366836
 21
21.2028617432
 31
0.0
  0
LWPOLYLINE
  5
6C
330
2
100
AcDbEntity
  8
0
  6
CONTINUOUS
100
AcDbPolyline
 90
        8
 70
     0
 43
0.0
 10
-18.4921875
 20
21.18309560240001
 10
-18.4827854664
 20
21.1947089512
 10
-18.45505082479999
 20
21.2057399576
 10
-18.4103743064
 20
21.21563548080001
 10
-18.35099617519999
 20
21.2238993192
 10
-18.2798939016
 20
21.2301170904
 10
-18.20063285039999
 20
21.23397700559999
 10
-18.1171875
 20
21.235285516
  0
LINE
  5
6D
330
2
100
AcDbEntity
  8
0
  6
CONTINUOUS
100
AcDbLine
 10
-18.1171875
 20
21.235285516
 30
0.0
 11
-17.5606394168
 21
21.235285516
 31
0.0
  0
LINE
  5
6E
330
2
100
AcDbEntity
  8
CENTER
 48
4.0
100
AcDbLine
 10
5.9453125
 20
11.85293350278506
 30
0.0
 11
5.9453125
 21
3.933466748414933
 31
0.0
  0
SPLINE
  5
6F
330
2
100
AcDbEntity
  8
0
  6
CONTINUOUS
100
AcDbSpline
210
0.0
220
0.0
230
1.0
 70
     8
 71
     3
 72
    14
 73
    10
 74
     8
 42
0.0000000001
 43
0.0000000001
 44
0.0000000001
 40
0.0
 40
0.0
 40
0.0
 40
0.0
 40
0.2171564731143494
 40
0.4791552430784667
 40
0.7414680334804414
 40
1.00413430673595
 40
1.267162901932439
 40
1.530529959980052
 40
1.794181349801835
 40
1.794181349801835
 40
1.794181349801835
 40
1.794181349801835
 10
-12.2420178328
 20
21.2028627944
 30
0.0
 10
-12.26349444092007
 20
21.13364245521058
 30
0.0
 10
-12.31088252581889
 20
20.98090794090111
 30
0.0
 10
-12.42389167020333
 20
20.75957423393868
 30
0.0
 10
-12.57521043678351
 20
20.54435827376577
 30
0.0
 10
-12.75774676740821
 20
20.35391164395391
 30
0.0
 10
-12.96682825464965
 20
20.19312688576074
 30
0.0
 10
-13.19702318920512
 20
20.06221111595522
 30
0.0
 10
-13.36353197147858
 20
20.00521884582015
 30
0.0
 10
-13.44683127919999
 20
19.97670733680001
 30
0.0
 11
-12.2420178328
 21
21.2028627944
 31
0.0
 11
-12.3117142824
 21
20.997194764
 31
0.0
 11
-12.429063052
 21
20.76294570480001
 31
0.0
 11
-12.58030190319999
 21
20.548621628
 31
0.0
 11
-12.76203740559999
 21
20.35897517200001
 31
0.0
 11
-12.9702075128
 21
20.19819815760001
 31
0.0
 11
-13.200174884
 21
20.06983455120001
 31
0.0
 11
-13.44683127919999
 21
19.97670733680001
 31
0.0
  0
LINE
  5
70
330
2
100
AcDbEntity
  8
0
  6
CONTINUOUS
100
AcDbLine
 10
-11.1171875
 20
20.47136315599999
 30
0.0
 11
-11.1171875
 21
21.18309560240001
 31
0.0
  0
SPLINE
  5
71
330
2
100
AcDbEntity
  8
0
  6
CONTINUOUS
100
AcDbSpline
210
0.0
220
0.0
230
1.0
 70
     8
 71
     3
 72
     9
 73
     5
 74
     3
 42
0.0000000001
 43
0.0000000001
 44
0.0000000001
 40
0.0
 40
0.0
 40
0.0
 40
0.0
 40
0.0003567034786672
 40
0.0006976773559924
 40
0.0006976773559924
 40
0.0006976773559924
 40
0.0006976773559924
 10
-11.1171875
 20
20.50615643119999
 30
0.0
 10
-11.11718888567502
 20
20.50627538210249
 30
0.0
 10
-11.11719159592077
 20
20.50650803851353
 30
0.0
 10
-11.11721348205273
 20
20.50673967308985
 30
0.0
 10
-11.11722417839999
 20
20.50685287920001
 30
0.0
 11
-11.1171875
 21
20.50615643119999
 31
0.0
 11
-11.1171966696
 21
20.50651301679999
 31
0.0
 11
-11.11722417839999
 21
20.50685287920001
 31
0.0
  0
SPLINE
  5
72
330
2
100
AcDbEntity
  8
0
  6
CONTINUOUS
100
AcDbSpline
210
0.0
220
0.0
230
1.0
 70
    24
 71
     3
 72
     8
 73
     4
 74
     2
 42
0.0000000001
 43
0.0000000001
 44
0.0000000001
 40
0.0
 40
0.0
 40
0.0
 40
0.0
 40
0.0003733973283161
 40
0.0003733973283161
 40
0.0003733973283161
 40
0.0003733973283161
 10
-11.1171966664
 20
20.4709898712
 30
0.0
 10
-11.11719361093333
 20
20.47111429946667
 30
0.0
 10
-11.11719055546666
 20
20.47123872773333
 30
0.0
 10
-11.1171875
 20
20.47136315599999
 30
0.0
 11
-11.1171966664
 21
20.4709898712
 31
0.0
 11
-11.1171875
 21
20.47136315599999
 31
0.0
  0
SPLINE
  5
73
330
2
100
AcDbEntity
  8
0
  6
CONTINUOUS
100
AcDbSpline
210
0.0
220
0.0
230
1.0
 70
    24
 71
     3
 72
     8
 73
     4
 74
     2
 42
0.0000000001
 43
0.0000000001
 44
0.0000000001
 40
0.0
 40
0.0
 40
0.0
 40
0.0
 40
0.0003911655057287
 40
0.0003911655057287
 40
0.0003911655057287
 40
0.0003911655057287
 10
-11.11722417839999
 20
20.4705996744
 30
0.0
 10
-11.11721500773332
 20
20.47072974
 30
0.0
 10
-11.11720583706666
 20
20.4708598056
 30
0.0
 10
-11.1171966664
 20
20.4709898712
 30
0.0
 11
-11.11722417839999
 21
20.4705996744
 31
0.0
 11
-11.1171966664
 21
20.4709898712
 31
0.0
  0
LINE
  5
74
330
2
100
AcDbEntity
  8
0
  6
CONTINUOUS
100
AcDbLine
 10
-11.5627427272
 20
20.1049777336
 30
0.0
 11
-11.11722417839999
 21
20.4705996744
 31
0.0
  0
LINE
  5
75
330
2
100
AcDbEntity
  8
0
  6
CONTINUOUS
100
AcDbLine
 10
-11.1197521912
 20
20.4655999096
 30
0.0
 11
-11.11722418319999
 21
20.47059966
 31
0.0
  0
LINE
  5
76
330
2
100
AcDbEntity
  8
0
  6
CONTINUOUS
100
AcDbLine
 10
-11.49218749999999
 20
21.235285516
 30
0.0
 11
-12.0487355832
 21
21.235285516
 31
0.0
  0
SPLINE
  5
77
330
2
100
AcDbEntity
  8
0
  6
CONTINUOUS
100
AcDbSpline
210
0.0
220
0.0
230
1.0
 70
     8
 71
     3
 72
    15
 73
    11
 74
     9
 42
0.0000000001
 43
0.0000000001
 44
0.0000000001
 40
0.0
 40
0.0
 40
0.0
 40
0.0
 40
0.0056249147465732
 40
0.0176299463043156
 40
0.0357106882381915
 40
0.0595630836414373
 40
0.0885510878530815
 40
0.1219506493832367
 40
0.15899462178802
 40
0.1988030901479422
 40
0.1988030901479422
 40
0.1988030901479422
 40
0.1988030901479422
 10
-12.2420083912
 20
21.2028613912
 30
0.0
 10
-12.24096599098247
 20
21.20445461420818
 30
0.0
 10
-12.23769883748939
 20
21.2094481896401
 30
0.0
 10
-12.22592223310243
 20
21.21382452467658
 30
0.0
 10
-12.20903367699083
 20
21.21905848600469
 30
0.0
 10
-12.18564786216774
 20
21.22351102344351
 30
0.0
 10
-12.15724136672994
 20
21.22760347529286
 30
0.0
 10
-12.12424423486038
 20
21.23097399798568
 30
0.0
 10
-12.08759255564306
 20
21.23367460217893
 30
0.0
 10
-12.06199483661803
 20
21.23473582019909
 30
0.0
 10
-12.0487355832
 20
21.235285516
 30
0.0
 11
-12.2420083912
 21
21.2028613912
 31
0.0
 11
-12.2386219352
 21
21.2073526696
 31
0.0
 11
-12.22800571759999
 21
21.2129577304
 31
0.0
 11
-12.2107111544
 21
21.21823137359999
 31
0.0
 11
-12.1873451192
 21
21.22302357200001
 31
0.0
 11
-12.1586612328
 21
21.22721153680001
 31
0.0
 11
-12.1254445128
 21
21.23070155440001
 31
0.0
 11
-12.08850013199999
 21
21.2334160744
 31
0.0
 11
-12.0487355832
 21
21.235285516
 31
0.0
  0
LWPOLYLINE
  5
78
330
2
100
AcDbEntity
  8
0
  6
CONTINUOUS
100
AcDbPolyline
 90
        8
 70
     0
 43
0.0
 10
-11.49218749999999
 20
21.235285516
 10
-11.4087421496
 20
21.23397700559999
 10
-11.32948109839999
 20
21.2301170904
 10
-11.2583788248
 20
21.2238993192
 10
-11.19900069359999
 20
21.21563548080001
 10
-11.1543241752
 20
21.2057399576
 10
-11.12658953359999
 20
21.1947089512
 10
-11.1171875
 20
21.18309560240001
  0
LWPOLYLINE
  5
79
330
2
100
AcDbEntity
  8
0
100
AcDbPolyline
 90
        6
 70
     0
 43
0.0
 10
11.0794909832
 20
-2.433344322399989
 10
11.0528180024
 20
-2.584845487199999
 10
10.981223228
 20
-2.721822781599996
 10
10.8716575848
 20
-2.831074759199992
 10
10.73457402159999
 20
-2.902240858399991
 10
10.584356948
 20
-2.928478355999999
  0
LINE
  5
7A
330
2
100
AcDbEntity
  8
0
100
AcDbLine
 10
13.90986718
 20
-5.263720520799996
 30
0.0
 11
11.0794909832
 21
-2.433344322399992
 31
0.0
  0
LINE
  5
7B
330
2
100
AcDbEntity
  8
0
100
AcDbLine
 10
14.4050012152
 20
22.0403888408
 30
0.0
 11
14.4050012152
 21
-6.253988589600002
 31
0.0
  0
LINE
  5
7C
330
2
100
AcDbEntity
  8
0
100
AcDbLine
 10
13.41473314639999
 20
-5.758854554400006
 30
0.0
 11
10.584356948
 21
-2.928478356000002
 31
0.0
  0
SPLINE
  5
7D
330
2
100
AcDbEntity
  8
0
100
AcDbSpline
210
0.0
220
0.0
230
1.0
 70
     8
 71
     3
 72
    18
 73
    14
 74
    12
 42
0.0000000001
 43
0.0000000001
 44
0.0000000001
 40
0.0
 40
0.0
 40
0.0
 40
0.0
 40
0.1737404912187761
 40
0.3320334076962422
 40
0.4755622671247767
 40
0.6050867537301508
 40
0.7199271114412223
 40
0.82018802759221
 40
0.906673641602577
 40
0.9802260244828385
 40
1.039372986304755
 40
1.081877924509266
 40
1.107153183345725
 40
1.107153183345725
 40
1.107153183345725
 40
1.107153183345725
 10
14.4050012152
 20
-6.253988392799996
 30
0.0
 10
14.37910097563077
 20
-6.202189254452004
 30
0.0
 10
14.32960333265765
 20
-6.103196530874656
 30
0.0
 10
14.25871199949663
 20
-5.961410604645833
 30
0.0
 10
14.19440840553745
 20
-5.832809140836386
 30
0.0
 10
14.13658506720167
 20
-5.717161361730989
 30
0.0
 10
14.08521050318169
 20
-5.614414205877248
 30
0.0
 10
14.04025271357736
 20
-5.524498303608952
 30
0.0
 10
14.00144997719766
 20
-5.446891994467572
 30
0.0
 10
13.96877670241795
 20
-5.381543220622789
 30
0.0
 10
13.94266121197478
 20
-5.329306184849805
 30
0.0
 10
13.92374113517264
 20
-5.291463263970284
 30
0.0
 10
13.91363555451139
 20
-5.271255866340464
 30
0.0
 10
13.90986718
 20
-5.263720520799992
 30
0.0
 11
14.4050012152
 21
-6.253988392799996
 31
0.0
 11
14.32730102639999
 21
-6.098590712799989
 31
0.0
 11
14.256510476
 21
-5.957009127199995
 31
0.0
 11
14.1923211688
 21
-5.828633637599992
 31
0.0
 11
14.134395868
 21
-5.712783509600001
 31
0.0
 11
14.08303726159999
 21
-5.61006738959999
 31
0.0
 11
14.03819926479999
 21
-5.520391275999998
 31
0.0
 11
13.99952215119999
 21
-5.44303597679999
 31
0.0
 11
13.9666297256
 21
-5.37724812559999
 31
0.0
 11
13.94018042
 21
-5.324344464799992
 31
0.0
 11
13.921172012
 21
-5.286326703199989
 31
0.0
 11
13.90986718
 21
-5.263720520799992
 31
0.0
  0
SPLINE
  5
7E
330
2
100
AcDbEntity
  8
0
100
AcDbSpline
210
0.0
220
0.0
230
1.0
 70
     8
 71
     3
 72
    18
 73
    14
 74
    12
 42
0.0000000001
 43
0.0000000001
 44
0.0000000001
 40
0.0
 40
0.0
 40
0.0
 40
0.0
 40
0.1737404869249746
 40
0.3320334162830592
 40
0.4755623966315337
 40
0.6050873140065509
 40
0.719928813037297
 40
0.8201919331186855
 40
0.9066808114833101
 40
0.980235884077088
 40
1.039376215368112
 40
1.081865589749655
 40
1.107153186079877
 40
1.107153186079877
 40
1.107153186079877
 40
1.107153186079877
 10
14.4050010184
 20
-6.253988589599998
 30
0.0
 10
14.35320187288809
 20
-6.228088367557393
 30
0.0
 10
14.2542091306133
 20
-6.178590755575855
 30
0.0
 10
14.11242308769065
 20
-6.107699559288396
 30
0.0
 10
13.98382093980976
 20
-6.043396912629595
 30
0.0
 10
13.8681718003325
 20
-5.985575033181743
 30
0.0
 10
13.76542204942204
 20
-5.934202844844223
 30
0.0
 10
13.67550256512034
 20
-5.889247292951592
 30
0.0
 10
13.59789246349552
 20
-5.850446061071203
 30
0.0
 10
13.53254371524208
 20
-5.817773239321017
 30
0.0
 10
13.48031480722314
 20
-5.791656031094746
 30
0.0
 10
13.44248481615852
 20
-5.772717445214323
 30
0.0
 10
13.42227385759276
 20
-5.762621392822238
 30
0.0
 10
13.41473314639999
 20
-5.758854554400002
 30
0.0
 11
14.4050010184
 21
-6.253988589599998
 31
0.0
 11
14.2496033064
 21
-6.176288474399996
 31
0.0
 11
14.10802155439999
 21
-6.105498228000001
 31
0.0
 11
13.97964543599999
 21
-6.041309908000002
 31
0.0
 11
13.86379398639999
 21
-5.983386287199991
 31
0.0
 11
13.76107542159999
 21
-5.932030018399998
 31
0.0
 11
13.67139578639999
 21
-5.88719413679999
 31
0.0
 11
13.59403641359999
 21
-5.848517871200002
 31
0.0
 11
13.5282464008
 21
-5.815623754399993
 31
0.0
 11
13.4753528984
 21
-5.789168959199997
 31
0.0
 11
13.4373540536
 21
-5.770157522399998
 31
0.0
 11
13.41473314639999
 21
-5.758854554400002
 31
0.0
  0
SPLINE
  5
7F
330
2
100
AcDbEntity
  8
0
100
AcDbSpline
210
0.0
220
0.0
230
1.0
 70
     8
 71
     3
 72
    10
 73
     6
 74
     4
 42
0.0000000001
 43
0.0000000001
 44
0.0000000001
 40
0.0
 40
0.0
 40
0.0
 40
0.0
 40
0.0964178453954237
 40
0.1930163238959189
 40
0.289434168171363
 40
0.289434168171363
 40
0.289434168171363
 40
0.289434168171363
 10
17.9853322568
 20
-9.647533123999991
 30
0.0
 10
17.98007349163782
 20
-9.679783247687879
 30
0.0
 10
17.96954610932933
 20
-9.74434391375437
 30
0.0
 10
17.89535653888211
 20
-9.818533480834684
 30
0.0
 10
17.83079587407253
 20
-9.829060865093911
 30
0.0
 10
17.79854575119999
 20
-9.834319631199988
 30
0.0
 11
17.9853322568
 21
-9.647533123999991
 31
0.0
 11
17.959837236
 21
-9.740519170399991
 31
0.0
 11
17.89153179599999
 21
-9.808824608799994
 31
0.0
 11
17.79854575119999
 21
-9.834319631199988
 31
0.0
  0
SPLINE
  5
80
330
2
100
AcDbEntity
  8
0
100
AcDbSpline
210
0.0
220
0.0
230
1.0
 70
     8
 71
     3
 72
    12
 73
     8
 74
     6
 42
0.0000000001
 43
0.0000000001
 44
0.0000000001
 40
0.0
 40
0.0
 40
0.0
 40
0.0
 40
0.0583461491140666
 40
0.11688684665692
 40
0.175400367246512
 40
0.2339410669404472
 40
0.2922872142252223
 40
0.2922872142252223
 40
0.2922872142252223
 40
0.2922872142252223
 10
18.1335259944
 20
-10.16929987439999
 30
0.0
 10
18.15304866587892
 20
-10.16752864237439
 30
0.0
 10
18.19215910490769
 20
-10.16398027235658
 30
0.0
 10
18.24523964941823
 20
-10.13602851169251
 30
0.0
 10
18.28704113735958
 20
-10.09422702302672
 30
0.0
 10
18.31499289976555
 20
-10.04114647916198
 30
0.0
 10
18.31854126861701
 20
-10.00203603978627
 30
0.0
 10
18.3203125
 20
-9.982513368799999
 30
0.0
 11
18.1335259944
 21
-10.16929987439999
 31
0.0
 11
18.19116272879999
 21
-10.16022904399999
 31
0.0
 11
18.2433574872
 21
-10.13372016879999
 31
0.0
 11
18.28473279439999
 21
-10.09234486159999
 31
0.0
 11
18.31124167119999
 21
-10.04015010159999
 31
0.0
 11
18.3203125
 21
-9.982513368799999
 31
0.0
  0
LINE
  5
81
330
2
100
AcDbEntity
  8
0
100
AcDbLine
 10
11.0794909832
 20
18.21974457359999
 30
0.0
 11
11.0794909832
 21
-2.433344322399992
 31
0.0
  0
LWPOLYLINE
  5
82
330
2
100
AcDbEntity
  8
0
100
AcDbPolyline
 90
       12
 70
     0
 43
0.0
 10
13.39557610479999
 20
9.200587155999997
 10
13.3491096152
 20
9.152624540000005
 10
13.30166620399999
 20
8.996849116000007
 10
13.2625619816
 20
8.753377408800005
 10
13.23429643119999
 20
8.437242867999998
 10
13.21974919599999
 20
8.081235656800004
 10
13.21974919599999
 20
7.705164596000003
 10
13.23429643119999
 20
7.349157384800008
 10
13.2625619816
 20
7.033022842400001
 10
13.30166620399999
 20
6.7895511368
 10
13.3491096152
 20
6.633775712800002
 10
13.39557610479999
 20
6.585813096800009
  0
LWPOLYLINE
  5
83
330
2
100
AcDbEntity
  8
0
100
AcDbPolyline
 90
       11
 70
     0
 43
0.0
 10
13.3906269032
 20
6.580700125600003
 10
13.44208949359999
 20
6.633865597600006
 10
13.48938289199999
 20
6.789054864800007
 10
13.528675668
 20
7.033695412
 10
13.55678455439999
 20
7.347967920800002
 10
13.5714323352
 20
7.706411900000006
 10
13.5714323352
 20
8.0799883512
 10
13.55678455439999
 20
8.438432330400004
 10
13.528675668
 20
8.752704839200006
 10
13.48938289199999
 20
8.997345387999999
 10
13.44208949359999
 20
9.1525346536
  0
LWPOLYLINE
  5
84
330
2
100
AcDbEntity
  8
0
100
AcDbPolyline
 90
       12
 70
     0
 43
0.0
 10
13.3906269032
 20
9.205700125600003
 10
13.33916431119999
 20
9.1525346536
 10
13.29187091279999
 20
8.997345387999999
 10
13.25257813679999
 20
8.752704839200006
 10
13.224469252
 20
8.438432330400004
 10
13.2098214712
 20
8.0799883512
 10
13.2098214712
 20
7.706411900000006
 10
13.224469252
 20
7.347967920800002
 10
13.25257813679999
 20
7.033695412
 10
13.29187091279999
 20
6.789054864800007
 10
13.33916431119999
 20
6.633865597600006
 10
13.3906269032
 20
6.580700125600003
  0
LINE
  5
85
330
2
100
AcDbEntity
  8
0
100
AcDbLine
 10
13.44208949359999
 20
9.152534653599996
 30
0.0
 11
13.3906269032
 21
9.205700125599999
 31
0.0
  0
LINE
  5
87
330
2
100
AcDbEntity
  8
0
100
AcDbLine
 10
13.90986718
 20
21.050120772
 30
0.0
 11
11.0794909832
 21
18.21974457359999
 31
0.0
  0
LINE
  5
88
330
2
100
AcDbEntity
  8
0
100
AcDbLine
 10
13.41473314639999
 20
21.54525480719999
 30
0.0
 11
10.584356948
 21
18.7148786088
 31
0.0
  0
LWPOLYLINE
  5
89
330
2
100
AcDbEntity
  8
0
100
AcDbPolyline
 90
        6
 70
     0
 43
0.0
 10
11.0794909832
 20
18.21974457359999
 10
11.0528180024
 20
18.37124574
 10
10.981223228
 20
18.5082230328
 10
10.8716575848
 20
18.61747501039999
 10
10.73457402159999
 20
18.68864110960001
 10
10.584356948
 20
18.7148786088
  0
SPLINE
  5
8A
330
2
100
AcDbEntity
  8
0
100
AcDbSpline
210
0.0
220
0.0
230
1.0
 70
     8
 71
     3
 72
    18
 73
    14
 74
    12
 42
0.0000000001
 43
0.0000000001
 44
0.0000000001
 40
0.0
 40
0.0
 40
0.0
 40
0.0
 40
0.1737404897877102
 40
0.3320334076962608
 40
0.4755622671247826
 40
0.6050867537301694
 40
0.7199271114412281
 40
0.8201880261611446
 40
0.9066736416025992
 40
0.9802260244828481
 40
1.039372986304777
 40
1.081877923078197
 40
1.107153183345683
 40
1.107153183345683
 40
1.107153183345683
 40
1.107153183345683
 10
14.4050012152
 20
22.04038864400001
 30
0.0
 10
14.379100975488
 20
21.98858950625674
 30
0.0
 10
14.32960333183434
 20
21.88959678301965
 30
0.0
 10
14.25871199993908
 20
21.74781085615795
 30
0.0
 10
14.19440840552003
 20
21.6192093920451
 30
0.0
 10
14.13658506709325
 20
21.50356161298521
 30
0.0
 10
14.08521050376728
 20
21.4008144573178
 30
0.0
 10
14.04025271265247
 20
21.31089855580474
 30
0.0
 10
14.00144997771201
 20
21.23329224594375
 30
0.0
 10
13.96877670218384
 20
21.16794347193986
 30
0.0
 10
13.94266121268345
 20
21.1157064362288
 30
0.0
 10
13.9237411343273
 20
21.07786351612633
 30
0.0
 10
13.91363555443719
 20
21.05765611811091
 30
0.0
 10
13.90986718
 20
21.05012077200001
 30
0.0
 11
14.4050012152
 21
22.04038864400001
 31
0.0
 11
14.32730102639999
 21
21.88499096559999
 31
0.0
 11
14.256510476
 21
21.7434093784
 31
0.0
 11
14.1923211688
 21
21.61503388880001
 31
0.0
 11
14.134395868
 21
21.4991837608
 31
0.0
 11
14.08303726159999
 21
21.39646764080001
 31
0.0
 11
14.03819926479999
 21
21.3067915288
 31
0.0
 11
13.99952215119999
 21
21.22943622799999
 31
0.0
 11
13.9666297256
 21
21.16364837680001
 31
0.0
 11
13.94018042
 21
21.11074471599999
 31
0.0
 11
13.921172012
 21
21.07272695599999
 31
0.0
 11
13.90986718
 21
21.05012077200001
 31
0.0
  0
SPLINE
  5
8B
330
2
100
AcDbEntity
  8
0
100
AcDbSpline
210
0.0
220
0.0
230
1.0
 70
     8
 71
     3
 72
    18
 73
    14
 74
    12
 42
0.0000000001
 43
0.0000000001
 44
0.0000000001
 40
0.0
 40
0.0
 40
0.0
 40
0.0
 40
0.1737404862094234
 40
0.3320334162830511
 40
0.4755623959159815
 40
0.6050873132909861
 40
0.719928813037253
 40
0.8201919324031436
 40
0.9066808107677745
 40
0.9802358833615398
 40
1.039376215368286
 40
1.081865589749836
 40
1.107153185364895
 40
1.107153185364895
 40
1.107153185364895
 40
1.107153185364895
 10
14.4050010184
 20
22.0403888408
 30
0.0
 10
14.35320187272157
 20
22.01448861962377
 30
0.0
 10
14.25420912972086
 20
21.96499100909408
 30
0.0
 10
14.11242308858497
 20
21.8940998097664
 30
0.0
 10
13.98382093944755
 20
21.82979716562067
 30
0.0
 10
13.86817179981552
 20
21.77197528648244
 30
0.0
 10
13.76542205032121
 20
21.72060309531244
 30
0.0
 10
13.67550256463985
 20
21.67564754617927
 30
0.0
 10
13.59789246363422
 20
21.63684631359389
 30
0.0
 10
13.53254371476415
 20
21.60417349254316
 30
0.0
 10
13.4803148074601
 20
21.57805628235456
 30
0.0
 10
13.44248481665533
 20
21.55911769595335
 30
0.0
 10
13.42227385763039
 20
21.54902164501358
 30
0.0
 10
13.41473314639999
 20
21.54525480719999
 30
0.0
 11
14.4050010184
 21
22.0403888408
 31
0.0
 11
14.2496033064
 21
21.9626887272
 31
0.0
 11
14.10802155439999
 21
21.89189847919999
 31
0.0
 11
13.97964543599999
 21
21.82771016079999
 31
0.0
 11
13.86379398639999
 21
21.76978654000001
 31
0.0
 11
13.76107542159999
 21
21.71843026959999
 31
0.0
 11
13.67139578639999
 21
21.67359438959999
 31
0.0
 11
13.59403641359999
 21
21.63491812399999
 31
0.0
 11
13.5282464008
 21
21.60202400720001
 31
0.0
 11
13.4753528984
 21
21.5755692104
 31
0.0
 11
13.4373540536
 21
21.55655777359999
 31
0.0
 11
13.41473314639999
 21
21.54525480719999
 31
0.0
  0
SPLINE
  5
8C
330
2
100
AcDbEntity
  8
0
100
AcDbSpline
210
0.0
220
0.0
230
1.0
 70
     8
 71
     3
 72
    10
 73
     6
 74
     4
 42
0.0000000001
 43
0.0000000001
 44
0.0000000001
 40
0.0
 40
0.0
 40
0.0
 40
0.0
 40
0.0964178438523723
 40
0.1930163234842284
 40
0.2894341673366007
 40
0.2894341673366007
 40
0.2894341673366007
 40
0.2894341673366007
 10
17.9853322568
 20
25.43393337680001
 30
0.0
 10
17.98007349140737
 20
25.46618349977961
 30
0.0
 10
17.96954610849153
 20
25.53074416532371
 30
0.0
 10
17.89535653972368
 20
25.60493373409152
 30
0.0
 10
17.83079587417959
 20
25.61546111700737
 30
0.0
 10
17.79854575119999
 20
25.62071988240001
 30
0.0
 11
17.9853322568
 21
25.43393337680001
 31
0.0
 11
17.959837236
 21
25.52691942160001
 31
0.0
 11
17.89153179599999
 21
25.5952248616
 31
0.0
 11
17.79854575119999
 21
25.62071988240001
 31
0.0
  0
SPLINE
  5
8D
330
2
100
AcDbEntity
  8
0
100
AcDbSpline
210
0.0
220
0.0
230
1.0
 70
     8
 71
     3
 72
    12
 73
     8
 74
     6
 42
0.0000000001
 43
0.0000000001
 44
0.0000000001
 40
0.0
 40
0.0
 40
0.0
 40
0.0
 40
0.0583461488653353
 40
0.1168868471327012
 40
0.1754003677223033
 40
0.2339410659896818
 40
0.2922872148550009
 40
0.2922872148550009
 40
0.2922872148550009
 40
0.2922872148550009
 10
18.3203125
 20
25.76891362
 30
0.0
 10
18.31854126877209
 20
25.78843629156466
 30
0.0
 10
18.31499290032278
 20
25.82754673109114
 30
0.0
 10
18.28704113689681
 20
25.88062727463388
 30
0.0
 10
18.24523964903387
 20
25.92242876249684
 30
0.0
 10
18.19215910549114
 20
25.95038052592279
 30
0.0
 10
18.15304866596465
 20
25.9539288943721
 30
0.0
 10
18.1335259944
 20
25.9557001256
 30
0.0
 11
18.3203125
 21
25.76891362
 31
0.0
 11
18.31124167119999
 21
25.82655035440001
 31
0.0
 11
18.28473279439999
 21
25.8787451128
 31
0.0
 11
18.2433574872
 21
25.92012042000002
 31
0.0
 11
18.19116272879999
 21
25.94662929680001
 31
0.0
 11
18.1335259944
 21
25.9557001256
 31
0.0
  0
ENDSEC
  0
SECTION
  2
OBJECTS
  0
DICTIONARY
  5
7
330
0
100
AcDbDictionary
  3
ACAD_GROUP
350
26
  3
ACAD_LAYOUT
350
B
  3
ACAD_MLINESTYLE
350
27
  3
ACAD_PLOTSETTINGS
350
28
  3
ACAD_PLOTSTYLENAME
350
6
  3
ACDBHEADERROUNDTRIPXREC
350
18C
  3
ACDBVARIABLEDICTIONARY
350
8E
  0
DICTIONARY
  5
11
330
10
100
AcDbDictionary
280
     1
  3
ACAD_LAYERFILTERS
360
12
  0
DICTIONARY
  5
B8
330
2
100
AcDbDictionary
280
     1
  3
ACAD_LAYOUTSELFREF
360
1AD
  0
DICTIONARY
  5
BE
330
C
100
AcDbDictionary
280
     1
  3
ACAD_LAYOUTSELFREF
360
1AE
  0
DICTIONARY
  5
26
102
{ACAD_REACTORS
330
7
102
}
330
7
100
AcDbDictionary
  0
DICTIONARY
  5
B
102
{ACAD_REACTORS
330
7
102
}
330
7
100
AcDbDictionary
  0
DICTIONARY
  5
27
102
{ACAD_REACTORS
330
7
102
}
330
7
100
AcDbDictionary
  3
STANDARD
350
29
  0
DICTIONARY
  5
28
102
{ACAD_REACTORS
330
7
102
}
330
7
100
AcDbDictionary
  0
ACDBDICTIONARYWDFLT
  5
6
102
{ACAD_REACTORS
330
7
102
}
330
7
100
AcDbDictionary
281
     1
  3
Normal
350
5
100
AcDbDictionaryWithDefault
340
5
  0
DICTIONARY
  5
18C
102
{ACAD_REACTORS
330
7
102
}
330
7
100
AcDbDictionary
  3
CEPSNTYPE
350
196
  3
DIMSTYLEDATA
350
19A
  3
FINGERPRINTGUID
350
197
  3
HYPERLINKBASE
350
18F
  3
INSUNITS
350
195
  3
LAYOUTDICT
350
191
  3
LWETCUNION
350
194
  3
PLOTSETDICT
350
192
  3
PLOTSTYLNAMDICT
350
193
  3
PSVPSCALE
350
199
  3
PUCSBASE
350
19D
  3
PUCSORGBACK
350
1A3
  3
PUCSORGBOTTOM
350
19F
  3
PUCSORGFRONT
350
1A2
  3
PUCSORGLEFT
350
1A0
  3
PUCSORGRIGHT
350
1A1
  3
PUCSORGTOP
350
19E
  3
PUCSORTHOREF
350
19B
  3
PUCSORTHOVIEW
350
19C
  3
STYLESHEET
350
190
  3
TSTACKALIGN
350
18D
  3
TSTACKSIZE
350
18E
  3
UCSBASE
350
1A6
  3
UCSORGBACK
350
1AC
  3
UCSORGBOTTOM
350
1A8
  3
UCSORGFRONT
350
1AB
  3
UCSORGLEFT
350
1A9
  3
UCSORGRIGHT
350
1AA
  3
UCSORGTOP
350
1A7
  3
UCSORTHOREF
350
1A4
  3
UCSORTHOVIEW
350
1A5
  3
VERSIONGUID
350
198
  0
DICTIONARY
  5
8E
102
{ACAD_REACTORS
330
7
102
}
330
7
100
AcDbDictionary
  3
DIMASSOC
350
90
  3
HIDETEXT
350
8F
  0
DICTIONARY
  5
12
102
{ACAD_REACTORS
330
11
102
}
330
11
100
AcDbDictionary
280
     1
  3
DIM-1_12
360
13
  3
DIM-1_16
360
14
  0
XRECORD
  5
1AD
102
{ACAD_REACTORS
330
B8
102
}
330
B8
100
AcDbXrecord
340
2
  0
XRECORD
  5
1AE
102
{ACAD_REACTORS
330
BE
102
}
330
BE
100
AcDbXrecord
340
C
  0
MLINESTYLE
  5
29
102
{ACAD_REACTORS
330
27
102
}
330
27
100
AcDbMlineStyle
  2
STANDARD
 70
     0
  3

 62
     0
 51
90.00000000000019
 52
90.00000000000019
 71
     2
 49
0.5
 62
   256
  6
BYLAYER
 49
-0.5
 62
   256
  6
BYLAYER
  0
ACDBPLACEHOLDER
  5
5
102
{ACAD_REACTORS
330
6
102
}
330
6
100
AcDbPlaceHolder
280
     0
  0
XRECORD
  5
196
102
{ACAD_REACTORS
330
18C
102
}
330
18C
100
AcDbXrecord
 90
        0
  0
XRECORD
  5
19A
102
{ACAD_REACTORS
330
18C
102
}
330
18C
100
AcDbXrecord
1000
DSTYLE
1002
{
1070
   276
 70
     1
1070
   277
 70
     5
1070
   289
 70
     0
1002
}
  0
XRECORD
  5
197
102
{ACAD_REACTORS
330
18C
102
}
330
18C
100
AcDbXrecord
  1
{BB49E4DB-24F6-493D-A73D-E510C8469835}
  0
XRECORD
  5
18F
102
{ACAD_REACTORS
330
18C
102
}
330
18C
100
AcDbXrecord
  1

  0
XRECORD
  5
195
102
{ACAD_REACTORS
330
18C
102
}
330
18C
100
AcDbXrecord
 90
        0
  0
XRECORD
  5
191
102
{ACAD_REACTORS
330
18C
102
}
330
18C
100
AcDbXrecord
340
B
  0
XRECORD
  5
194
102
{ACAD_REACTORS
330
18C
102
}
330
18C
100
AcDbXrecord
 90
    10781
  0
XRECORD
  5
192
102
{ACAD_REACTORS
330
18C
102
}
330
18C
100
AcDbXrecord
340
28
  0
XRECORD
  5
193
102
{ACAD_REACTORS
330
18C
102
}
330
18C
100
AcDbXrecord
340
6
  0
XRECORD
  5
199
102
{ACAD_REACTORS
330
18C
102
}
330
18C
100
AcDbXrecord
 40
0.0
  0
XRECORD
  5
19D
102
{ACAD_REACTORS
330
18C
102
}
330
18C
100
AcDbXrecord
340
0
  0
XRECORD
  5
1A3
102
{ACAD_REACTORS
330
18C
102
}
330
18C
100
AcDbXrecord
 10
0.0
 20
0.0
 30
0.0
  0
XRECORD
  5
19F
102
{ACAD_REACTORS
330
18C
102
}
330
18C
100
AcDbXrecord
 10
0.0
 20
0.0
 30
0.0
  0
XRECORD
  5
1A2
102
{ACAD_REACTORS
330
18C
102
}
330
18C
100
AcDbXrecord
 10
0.0
 20
0.0
 30
0.0
  0
XRECORD
  5
1A0
102
{ACAD_REACTORS
330
18C
102
}
330
18C
100
AcDbXrecord
 10
0.0
 20
0.0
 30
0.0
  0
XRECORD
  5
1A1
102
{ACAD_REACTORS
330
18C
102
}
330
18C
100
AcDbXrecord
 10
0.0
 20
0.0
 30
0.0
  0
XRECORD
  5
19E
102
{ACAD_REACTORS
330
18C
102
}
330
18C
100
AcDbXrecord
 10
0.0
 20
0.0
 30
0.0
  0
XRECORD
  5
19B
102
{ACAD_REACTORS
330
18C
102
}
330
18C
100
AcDbXrecord
340
0
  0
XRECORD
  5
19C
102
{ACAD_REACTORS
330
18C
102
}
330
18C
100
AcDbXrecord
 70
     0
  0
XRECORD
  5
190
102
{ACAD_REACTORS
330
18C
102
}
330
18C
100
AcDbXrecord
  1

  0
XRECORD
  5
18D
102
{ACAD_REACTORS
330
18C
102
}
330
18C
100
AcDbXrecord
 90
        1
  0
XRECORD
  5
18E
102
{ACAD_REACTORS
330
18C
102
}
330
18C
100
AcDbXrecord
 90
       70
  0
XRECORD
  5
1A6
102
{ACAD_REACTORS
330
18C
102
}
330
18C
100
AcDbXrecord
340
0
  0
XRECORD
  5
1AC
102
{ACAD_REACTORS
330
18C
102
}
330
18C
100
AcDbXrecord
 10
0.0
 20
0.0
 30
0.0
  0
XRECORD
  5
1A8
102
{ACAD_REACTORS
330
18C
102
}
330
18C
100
AcDbXrecord
 10
0.0
 20
0.0
 30
0.0
  0
XRECORD
  5
1AB
102
{ACAD_REACTORS
330
18C
102
}
330
18C
100
AcDbXrecord
 10
0.0
 20
0.0
 30
0.0
  0
XRECORD
  5
1A9
102
{ACAD_REACTORS
330
18C
102
}
330
18C
100
AcDbXrecord
 10
0.0
 20
0.0
 30
0.0
  0
XRECORD
  5
1AA
102
{ACAD_REACTORS
330
18C
102
}
330
18C
100
AcDbXrecord
 10
0.0
 20
0.0
 30
0.0
  0
XRECORD
  5
1A7
102
{ACAD_REACTORS
330
18C
102
}
330
18C
100
AcDbXrecord
 10
0.0
 20
0.0
 30
0.0
  0
XRECORD
  5
1A4
102
{ACAD_REACTORS
330
18C
102
}
330
18C
100
AcDbXrecord
340
0
  0
XRECORD
  5
1A5
102
{ACAD_REACTORS
330
18C
102
}
330
18C
100
AcDbXrecord
 70
     0
  0
XRECORD
  5
198
102
{ACAD_REACTORS
330
18C
102
}
330
18C
100
AcDbXrecord
  1
{1622C8FC-E444-468D-8463-560AF92AE384}
  0
DICTIONARYVAR
  5
90
102
{ACAD_REACTORS
330
8E
102
}
330
8E
100
DictionaryVariables
280
     0
  1
1
  0
DICTIONARYVAR
  5
8F
102
{ACAD_REACTORS
330
8E
102
}
330
8E
100
DictionaryVariables
280
     0
  1
1
  0
XRECORD
  5
13
102
{ACAD_REACTORS
330
12
102
}
330
12
100
AcDbXrecord
  1
DIM-1_12
  1
DIM-1_12
  1
*
  1
*
 70
     0
  1
*
  1
*
  0
XRECORD
  5
14
102
{ACAD_REACTORS
330
12
102
}
330
12
100
AcDbXrecord
  1
dim-1_16
  1
*
  1
*
  1
*
 70
     0
  1
*
  1
*
  0
ENDSEC
  0
EOF
