  0
SECTION
  2
HEADER
  9
$ACADVER
  1
AC1021
  9
$DWGCODEPAGE
  3
ANSI_1252
  9
$EXTMAX
 10
22.0
 20
17.0
 30
0.0
  9
$EXTMIN
 10
0.0
 20
0.0
 30
0.0
  9
$LIMMIN
 10
0.0
 20
0.0
  9
$LIMMAX
 10
22.0
 20
17.0
  9
$VIEWCTR
 10
11.0
 20
8.5
  9
$VIEWSIZE
 40
17.0
  9
$CLAYER
  8
0
  9
$LTSCALE
 40
1.21
  9
$CELTYPE
  6
BYLAYER
  9
$DIMSCALE
 40
1.0
  9
$DIMASZ
 40
0.1875
  9
$DIMEXO
 40
0.1375
  9
$DIMDLI
 40
0.836
  9
$DIMEXE
 40
0.396
  9
$DIMCEN
 40
0.198
  9
$DIMLFAC
 40
1.0
  9
$DIMBLK
  1
_FILLED
  9
$DIMTXT
 40
0.125
  9
$DIMTOL
 70
1
  9
$DIMLIM
 70
0
  9
$DIMTFAC
 40
1.0
  9
$DIMTP
 40
0.001
  9
$DIMTM
 40
0.001
  9
$PDMODE
 70
3
  9
$PDSIZE
 40
0.03125
  9
$HANDSEED
  5
A76
  9
$TILEMODE
 70
1
  9
$MEASUREMENT
 70
0
  9
$INSUNITS
 70
1
  0
ENDSEC
  0
SECTION
  2
CLASSES
  0
CLASS
  1
ACDBDICTIONARYWDFLT
  2
AcDbDictionaryWithDefault
  3
AutoCAD 2000
 90
0
 91
1
280
0
281
0
  0
CLASS
  1
ACDBPLACEHOLDER
  2
AcDbPlaceHolder
  3
AutoCAD 2000
 90
0
 91
1
280
0
281
0
  0
CLASS
  1
LAYOUT
  2
AcDbLayout
  3
AutoCAD 2000
 90
0
 91
0
280
0
281
0
  0
ENDSEC
  0
SECTION
  2
TABLES
  0
TABLE
  2
VPORT
  5
8
100
AcDbSymbolTable
 70
2
  0
VPORT
  5
1F4
100
AcDbSymbolTableRecord
100
AcDbViewportTableRecord
  2
*ACTIVE
 70
0
 10
0.0
 20
0.0
 11
1.0
 21
1.0
 12
11.0
 22
8.5
 13
0.0
 23
0.0
 14
1.0
 24
1.0
 15
0.0
 25
0.0
 16
0.0
 26
0.0
 36
1.0
 17
0.0
 27
0.0
 37
0.0
 40
17.0
 41
1.2941176471
 42
50.0
 43
0.0
 44
0.0
 50
0.0
 51
0.0
 71
0
 72
100
 73
1
 74
1
 75
0
 76
0
 77
0
 78
0
  0
ENDTAB
  0
TABLE
  2
LTYPE
  5
5
100
AcDbSymbolTable
 70
6
  0
LTYPE
  5
14
100
AcDbSymbolTableRecord
100
AcDbLinetypeTableRecord
  2
BYBLOCK
 70
0
  3

 72
65
 73
0
 40
0.0
  0
LTYPE
  5
15
100
AcDbSymbolTableRecord
100
AcDbLinetypeTableRecord
  2
BYLAYER
 70
0
  3

 72
65
 73
0
 40
0.0
  0
LTYPE
  5
16
100
AcDbSymbolTableRecord
100
AcDbLinetypeTableRecord
  2
CONTINUOUS
 70
64
  3
Solid line
 72
65
 73
0
 40
0.0
  0
LTYPE
  5
1F5
100
AcDbSymbolTableRecord
100
AcDbLinetypeTableRecord
  2
CENTER
 70
64
  3
____ _ ____ _ ____ _ ____ _ ____ _ ____ _ ____
 72
65
 73
4
 40
0.6
 49
0.375
 74
0
 49
-0.075
 74
0
 49
0.075
 74
0
 49
-0.075
 74
0
  0
LTYPE
  5
1F6
100
AcDbSymbolTableRecord
100
AcDbLinetypeTableRecord
  2
HIDDEN
 70
64
  3
- - - - - - - - - - - - - - - - - - - -
 72
65
 73
2
 40
0.2
 49
0.1
 74
0
 49
-0.1
 74
0
  0
LTYPE
  5
1F7
100
AcDbSymbolTableRecord
100
AcDbLinetypeTableRecord
  2
PHANTOM
 70
64
  3
_____ _ _ _____ _ _ _____ _ _ _____
 72
65
 73
6
 40
0.8
 49
0.45
 74
0
 49
-0.05
 74
0
 49
0.1
 74
0
 49
-0.05
 74
0
 49
0.1
 74
0
 49
-0.05
 74
0
  0
LTYPE
  5
1F8
100
AcDbSymbolTableRecord
100
AcDbLinetypeTableRecord
  2
DOT
 70
64
  3
. . . . . . . . . . . . . . . . . . . .
 72
65
 73
2
 40
0.2
 49
0.1
 74
0
 49
-0.1
 74
0
  0
LTYPE
  5
1F9
100
AcDbSymbolTableRecord
100
AcDbLinetypeTableRecord
  2
DASHED
 70
64
  3
- - - - - - - - - - - - - - - - - - - -
 72
65
 73
2
 40
0.2
 49
0.1
 74
0
 49
-0.1
 74
0
  0
ENDTAB
  0
TABLE
  2
LAYER
  5
2
100
AcDbSymbolTable
 70
36
  0
LAYER
  5
10
100
AcDbSymbolTableRecord
100
AcDbLayerTableRecord
  2
0
 70
0
 62
7
  6
CONTINUOUS
370
-3
390
F
  0
LAYER
  5
1FA
100
AcDbSymbolTableRecord
100
AcDbLayerTableRecord
  2
DEFAULT_1
 70
0
 62
7
  6
CENTER
370
-3
390
F
  0
LAYER
  5
1FB
100
AcDbSymbolTableRecord
100
AcDbLayerTableRecord
  2
DEFAULT_2
 70
0
 62
8
  6
HIDDEN
370
-3
390
F
  0
LAYER
  5
1FC
100
AcDbSymbolTableRecord
100
AcDbLayerTableRecord
  2
DEFAULT_3
 70
0
 62
7
  6
PHANTOM
370
-3
390
F
  0
LAYER
  5
1FD
100
AcDbSymbolTableRecord
100
AcDbLayerTableRecord
  2
1_CURVES
 70
0
 62
7
  6
CONTINUOUS
370
-3
390
F
  0
LAYER
  5
1FE
100
AcDbSymbolTableRecord
100
AcDbLayerTableRecord
  2
1_CURVES-JETS
 70
0
 62
7
  6
CONTINUOUS
370
-3
390
F
  0
LAYER
  5
1FF
100
AcDbSymbolTableRecord
100
AcDbLayerTableRecord
  2
1_CURVES_TOLERANCES
 70
0
 62
7
  6
CONTINUOUS
370
-3
390
F
  0
LAYER
  5
200
100
AcDbSymbolTableRecord
100
AcDbLayerTableRecord
  2
2_PLANES
 70
0
 62
7
  6
CONTINUOUS
370
-3
390
F
  0
LAYER
  5
201
100
AcDbSymbolTableRecord
100
AcDbLayerTableRecord
  2
3_POINTS
 70
0
 62
7
  6
CONTINUOUS
370
-3
390
F
  0
LAYER
  5
202
100
AcDbSymbolTableRecord
100
AcDbLayerTableRecord
  2
3_POINTS-JETS
 70
0
 62
7
  6
CONTINUOUS
370
-3
390
F
  0
LAYER
  5
203
100
AcDbSymbolTableRecord
100
AcDbLayerTableRecord
  2
4_CSYS
 70
0
 62
7
  6
CONTINUOUS
370
-3
390
F
  0
LAYER
  5
204
100
AcDbSymbolTableRecord
100
AcDbLayerTableRecord
  2
5_AXIS
 70
0
 62
7
  6
CONTINUOUS
370
-3
390
F
  0
LAYER
  5
205
100
AcDbSymbolTableRecord
100
AcDbLayerTableRecord
  2
5_AXIS-JETS
 70
0
 62
7
  6
CONTINUOUS
370
-3
390
F
  0
LAYER
  5
206
100
AcDbSymbolTableRecord
100
AcDbLayerTableRecord
  2
6_SURFACES
 70
0
 62
7
  6
CONTINUOUS
370
-3
390
F
  0
LAYER
  5
207
100
AcDbSymbolTableRecord
100
AcDbLayerTableRecord
  2
6_SURFACES-OFFSET-FIBRE
 70
0
 62
7
  6
CONTINUOUS
370
-3
390
F
  0
LAYER
  5
208
100
AcDbSymbolTableRecord
100
AcDbLayerTableRecord
  2
6_SURFACES-TOOLING
 70
0
 62
7
  6
CONTINUOUS
370
-3
390
F
  0
LAYER
  5
209
100
AcDbSymbolTableRecord
100
AcDbLayerTableRecord
  2
6_SURFACES_POUR_DECOUPE
 70
0
 62
7
  6
CONTINUOUS
370
-3
390
F
  0
LAYER
  5
20A
100
AcDbSymbolTableRecord
100
AcDbLayerTableRecord
  2
6_SURFACES_TOOLING
 70
0
 62
7
  6
CONTINUOUS
370
-3
390
F
  0
LAYER
  5
20B
100
AcDbSymbolTableRecord
100
AcDbLayerTableRecord
  2
7_NOTES
 70
0
 62
7
  6
CONTINUOUS
370
-3
390
F
  0
LAYER
  5
20C
100
AcDbSymbolTableRecord
100
AcDbLayerTableRecord
  2
8_ZONE-ROBINETERIE
 70
0
 62
7
  6
CONTINUOUS
370
-3
390
F
  0
LAYER
  5
20D
100
AcDbSymbolTableRecord
100
AcDbLayerTableRecord
  2
MIA_PLUS_TROU
 70
0
 62
7
  6
CONTINUOUS
370
-3
390
F
  0
LAYER
  5
20E
100
AcDbSymbolTableRecord
100
AcDbLayerTableRecord
  2
MIA_TROU
 70
0
 62
7
  6
CONTINUOUS
370
-3
390
F
  0
LAYER
  5
20F
100
AcDbSymbolTableRecord
100
AcDbLayerTableRecord
  2
XSEC_DATUMS
 70
0
 62
7
  6
CONTINUOUS
370
-3
390
F
  0
ENDTAB
  0
TABLE
  2
STYLE
  5
3
100
AcDbSymbolTable
 70
1
  0
STYLE
  5
11
100
AcDbSymbolTableRecord
100
AcDbTextStyleTableRecord
  2
STANDARD
 70
0
 40
0.0
 41
0.8
 50
0.0
 71
0
 42
0.2
  3
txt
  4

  0
STYLE
  5
210
100
AcDbSymbolTableRecord
100
AcDbTextStyleTableRecord
  2
TEXTSTYLE_1
 70
0
 40
0.0
 41
0.8
 50
0.0
 71
0
 42
0.2
  3
gdt
  4

  0
ENDTAB
  0
TABLE
  2
VIEW
  5
6
100
AcDbSymbolTable
 70
0
  0
ENDTAB
  0
TABLE
  2
UCS
  5
7
100
AcDbSymbolTable
 70
0
  0
ENDTAB
  0
TABLE
  2
APPID
  5
9
100
AcDbSymbolTable
 70
1
  0
APPID
  5
211
100
AcDbSymbolTableRecord
100
AcDbRegAppTableRecord
  2
ACAD
 70
0
  0
ENDTAB
  0
TABLE
  2
BLOCK_RECORD
  5
1
100
AcDbSymbolTable
 70
0
  0
BLOCK_RECORD
  5
212
100
AcDbSymbolTableRecord
100
AcDbBlockTableRecord
  2
*Model_Space
  0
BLOCK_RECORD
  5
213
100
AcDbSymbolTableRecord
100
AcDbBlockTableRecord
  2
*Paper_Space
  0
ENDTAB
  0
TABLE
  2
DIMSTYLE
  5
A
100
AcDbSymbolTable
 70
1
100
AcDbDimStyleTable
 71
0
  0
DIMSTYLE
105
214
100
AcDbSymbolTableRecord
100
AcDbDimStyleTableRecord
  2
STANDARD
 70
0
  3

  4

 40
1.0
 41
0.1875
 42
0.0625
 43
0.38
 44
0.18
 45
0.0
 46
0.0
 47
0.001
 48
0.001
140
0.125
141
0.09
142
0.0
143
25.4
144
1.0
145
0.0
146
1.0
147
0.09
 71
1.0
 72
0.0
 73
1
 74
1
 75
0
 76
0
 77
0
 78
4
170
0
171
2
172
0
173
0
174
0
175
0
176
0
177
0
178
0
270
2
271
3
272
3
273
2
274
2
275
0
280
0
281
0
282
0
283
1
284
4
285
0
286
0
287
3
288
0
340
11
  0
ENDTAB
  0
ENDSEC
  0
SECTION
  2
BLOCKS
  0
BLOCK
  5
20
100
AcDbEntity
  8
0
100
AcDbBlockBegin
  2
*Model_Space
 70
0
 10
0.0
 20
0.0
 30
0.0
  3
*Model_Space
  1

  0
ENDBLK
  5
21
100
AcDbEntity
  8
0
100
AcDbBlockEnd
  0
BLOCK
  5
1C
100
AcDbEntity
  8
0
100
AcDbBlockBegin
  2
*Paper_Space
 70
0
 10
0.0
 20
0.0
 30
0.0
  3
*Paper_Space
  1

  0
ENDBLK
  5
1D
100
AcDbEntity
  8
0
100
AcDbBlockEnd
  0
ENDSEC
  0
SECTION
  2
ENTITIES
  0
LINE
  5
215
100
AcDbEntity
  8
0
100
AcDbLine
 62
7
  6
CONTINUOUS
 10
31.0210877451
 20
55.0975195621
 11
31.0108646045
 21
55.0836843475
  0
LINE
  5
216
100
AcDbEntity
  8
0
100
AcDbLine
 62
9
  6
CONTINUOUS
 10
31.0000933127
 20
55.0661374389
 11
31.0446903606
 21
55.1261083852
  0
LINE
  5
217
100
AcDbEntity
  8
0
100
AcDbLine
 62
7
  6
CONTINUOUS
 10
31.0313357675
 20
55.1112103082
 11
31.0210877451
 21
55.0975195621
  0
LINE
  5
218
100
AcDbEntity
  8
0
100
AcDbLine
 62
7
  6
CONTINUOUS
 10
31.0416069231
 20
55.1247571705
 11
31.0313357675
 21
55.1112103082
  0
LINE
  5
219
100
AcDbEntity
  8
0
100
AcDbLine
 62
9
  6
CONTINUOUS
 10
32.3310764307
 20
55.3361729081
 11
32.3746130706
 21
55.3932137262
  0
LINE
  5
21A
100
AcDbEntity
  8
0
100
AcDbLine
 62
7
  6
CONTINUOUS
 10
31.0518996694
 20
55.1381609982
 11
31.0416069231
 21
55.1247571705
  0
LINE
  5
21B
100
AcDbEntity
  8
0
100
AcDbLine
 62
7
  6
CONTINUOUS
 10
31.0622127231
 20
55.1514229552
 11
31.0518996694
 21
55.1381609982
  0
LINE
  5
21C
100
AcDbEntity
  8
0
100
AcDbLine
 62
9
  6
CONTINUOUS
 10
31.0446903606
 20
55.1261083852
 11
31.0913983085
 21
55.1854774028
  0
LINE
  5
21D
100
AcDbEntity
  8
0
100
AcDbLine
 62
7
  6
CONTINUOUS
 10
31.0725451017
 20
55.1645445549
 11
31.0622127231
 21
55.1514229552
  0
LINE
  5
21E
100
AcDbEntity
  8
0
100
AcDbLine
 62
7
  6
CONTINUOUS
 10
31.0828961535
 20
55.1775276753
 11
31.0725451017
 21
55.1645445549
  0
LINE
  5
21F
100
AcDbEntity
  8
0
100
AcDbLine
 62
7
  6
CONTINUOUS
 10
31.093265573
 20
55.1903745565
 11
31.0828961535
 21
55.1775276753
  0
LINE
  5
220
100
AcDbEntity
  8
0
100
AcDbLine
 62
9
  6
CONTINUOUS
 10
32.3746130706
 20
55.3932137262
 11
32.4198528622
 21
55.4492133353
  0
LINE
  5
221
100
AcDbEntity
  8
0
100
AcDbLine
 62
7
  6
CONTINUOUS
 10
31.1036533985
 20
55.2030877745
 11
31.093265573
 21
55.1903745565
  0
LINE
  5
222
100
AcDbEntity
  8
0
100
AcDbLine
 62
7
  6
CONTINUOUS
 10
31.1140599899
 20
55.215670195
 11
31.1036533985
 21
55.2030877745
  0
LINE
  5
223
100
AcDbEntity
  8
0
100
AcDbLine
 62
9
  6
CONTINUOUS
 10
31.0913983085
 20
55.1854774028
 11
31.1402541703
 21
55.2441703491
  0
LINE
  5
224
100
AcDbEntity
  8
0
100
AcDbLine
 62
7
  6
CONTINUOUS
 10
31.1244859844
 20
55.2281249018
 11
31.1140599899
 21
55.215670195
  0
LINE
  5
225
100
AcDbEntity
  8
0
100
AcDbLine
 62
7
  6
CONTINUOUS
 10
31.1349322263
 20
55.2404551005
 11
31.1244859844
 21
55.2281249018
  0
LINE
  5
226
100
AcDbEntity
  8
0
100
AcDbLine
 62
9
  6
CONTINUOUS
 10
32.4198528622
 20
55.4492133353
 11
32.4667714041
 21
55.5040229328
  0
LINE
  5
227
100
AcDbEntity
  8
0
100
AcDbLine
 62
7
  6
CONTINUOUS
 10
31.1453996683
 20
55.2526639961
 11
31.1349322263
 21
55.2404551005
  0
LINE
  5
228
100
AcDbEntity
  8
0
100
AcDbLine
 62
7
  6
CONTINUOUS
 10
31.1558892404
 20
55.2647546409
 11
31.1453996683
 21
55.2526639961
  0
LINE
  5
229
100
AcDbEntity
  8
0
100
AcDbLine
 62
7
  6
CONTINUOUS
 10
31.1664016825
 20
55.2767297521
 11
31.1558892404
 21
55.2647546409
  0
LINE
  5
22A
100
AcDbEntity
  8
0
100
AcDbLine
 62
9
  6
CONTINUOUS
 10
31.1402541703
 20
55.2441703491
 11
31.191318547
 21
55.3021386831
  0
LINE
  5
22B
100
AcDbEntity
  8
0
100
AcDbLine
 62
7
  6
CONTINUOUS
 10
31.1769373501
 20
55.2885915131
 11
31.1664016825
 21
55.2767297521
  0
LINE
  5
22C
100
AcDbEntity
  8
0
100
AcDbLine
 62
7
  6
CONTINUOUS
 10
31.1874952677
 20
55.300340549
 11
31.1769373501
 21
55.2885915131
  0
LINE
  5
22D
100
AcDbEntity
  8
0
100
AcDbLine
 62
9
  6
CONTINUOUS
 10
32.4667714041
 20
55.5040229328
 11
32.5153969393
 21
55.5575586695
  0
LINE
  5
22E
100
AcDbEntity
  8
0
100
AcDbLine
 62
7
  6
CONTINUOUS
 10
31.1980727723
 20
55.3119756092
 11
31.1874952677
 21
55.300340549
  0
LINE
  5
22F
100
AcDbEntity
  8
0
100
AcDbLine
 62
7
  6
CONTINUOUS
 10
31.2086679601
 20
55.3234963294
 11
31.1980727723
 21
55.3119756092
  0
LINE
  5
230
100
AcDbEntity
  8
0
100
AcDbLine
 62
7
  6
CONTINUOUS
 10
31.219267946
 20
55.3348906378
 11
31.2086679601
 21
55.3234963294
  0
LINE
  5
231
100
AcDbEntity
  8
0
100
AcDbLine
 62
9
  6
CONTINUOUS
 10
31.191318547
 20
55.3021386831
 11
31.2445762991
 21
55.3592421813
  0
LINE
  5
232
100
AcDbEntity
  8
0
100
AcDbLine
 62
7
  6
CONTINUOUS
 10
31.229863099
 20
55.3461504625
 11
31.219267946
 21
55.3348906378
  0
LINE
  5
233
100
AcDbEntity
  8
0
100
AcDbLine
 62
7
  6
CONTINUOUS
 10
31.2404527685
 20
55.3572774969
 11
31.229863099
 21
55.3461504625
  0
LINE
  5
234
100
AcDbEntity
  8
0
100
AcDbLine
 62
7
  6
CONTINUOUS
 10
31.2510366473
 20
55.3682737372
 11
31.2404527685
 21
55.3572774969
  0
LINE
  5
235
100
AcDbEntity
  8
0
100
AcDbLine
 62
9
  6
CONTINUOUS
 10
32.5153969393
 20
55.5575586695
 11
32.5657447545
 21
55.6097162027
  0
LINE
  5
236
100
AcDbEntity
  8
0
100
AcDbLine
 62
7
  6
CONTINUOUS
 10
31.2563263892
 20
55.3737234873
 11
31.2510366473
 21
55.3682737372
  0
LINE
  5
237
100
AcDbEntity
  8
0
100
AcDbLine
 62
7
  6
CONTINUOUS
 10
31.2669015404
 20
55.3845276791
 11
31.2563263892
 21
55.3737234873
  0
LINE
  5
238
100
AcDbEntity
  8
0
100
AcDbLine
 62
9
  6
CONTINUOUS
 10
31.2445762991
 20
55.3592421813
 11
31.3000108139
 21
55.4153431547
  0
LINE
  5
239
100
AcDbEntity
  8
0
100
AcDbLine
 62
7
  6
CONTINUOUS
 10
31.2774710734
 20
55.3952067217
 11
31.2669015404
 21
55.3845276791
  0
LINE
  5
23A
100
AcDbEntity
  8
0
100
AcDbLine
 62
7
  6
CONTINUOUS
 10
31.2880352501
 20
55.4057629315
 11
31.2774710734
 21
55.3952067217
  0
LINE
  5
23B
100
AcDbEntity
  8
0
100
AcDbLine
 62
7
  6
CONTINUOUS
 10
31.2985943607
 20
55.416198575
 11
31.2880352501
 21
55.4057629315
  0
LINE
  5
23C
100
AcDbEntity
  8
0
100
AcDbLine
 62
7
  6
CONTINUOUS
 10
31.3091486823
 20
55.4265158298
 11
31.2985943607
 21
55.416198575
  0
LINE
  5
23D
100
AcDbEntity
  8
0
100
AcDbLine
 62
9
  6
CONTINUOUS
 10
32.5657447545
 20
55.6097162027
 11
32.6178234628
 21
55.6603878507
  0
LINE
  5
23E
100
AcDbEntity
  8
0
100
AcDbLine
 62
7
  6
CONTINUOUS
 10
31.3196984471
 20
55.4367167592
 11
31.3091486823
 21
55.4265158298
  0
LINE
  5
23F
100
AcDbEntity
  8
0
100
AcDbLine
 62
7
  6
CONTINUOUS
 10
31.330243819
 20
55.4468032943
 11
31.3196984471
 21
55.4367167592
  0
LINE
  5
240
100
AcDbEntity
  8
0
100
AcDbLine
 62
9
  6
CONTINUOUS
 10
31.3000108139
 20
55.4153431547
 11
31.3576115113
 21
55.4703158891
  0
LINE
  5
241
100
AcDbEntity
  8
0
100
AcDbLine
 62
7
  6
CONTINUOUS
 10
31.3407848772
 20
55.4567772257
 11
31.330243819
 21
55.4468032943
  0
LINE
  5
242
100
AcDbEntity
  8
0
100
AcDbLine
 62
7
  6
CONTINUOUS
 10
31.3513216075
 20
55.4666402022
 11
31.3407848772
 21
55.4567772257
  0
LINE
  5
243
100
AcDbEntity
  8
0
100
AcDbLine
 62
7
  6
CONTINUOUS
 10
31.3618538997
 20
55.4763937355
 11
31.3513216075
 21
55.4666402022
  0
LINE
  5
244
100
AcDbEntity
  8
0
100
AcDbLine
 62
7
  6
CONTINUOUS
 10
31.3723815508
 20
55.4860392096
 11
31.3618538997
 21
55.4763937355
  0
LINE
  5
245
100
AcDbEntity
  8
0
100
AcDbLine
 62
9
  6
CONTINUOUS
 10
32.6178234628
 20
55.6603878507
 11
32.6716488514
 21
55.709470511
  0
LINE
  5
246
100
AcDbEntity
  8
0
100
AcDbLine
 62
7
  6
CONTINUOUS
 10
31.3829042736
 20
55.4955778952
 11
31.3723815508
 21
55.4860392096
  0
LINE
  5
247
100
AcDbEntity
  8
0
100
AcDbLine
 62
9
  6
CONTINUOUS
 10
31.3576115113
 20
55.4703158891
 11
31.4173442504
 21
55.5240185707
  0
LINE
  5
248
100
AcDbEntity
  8
0
100
AcDbLine
 62
7
  6
CONTINUOUS
 10
31.3934217096
 20
55.5050109668
 11
31.3829042736
 21
55.4955778952
  0
LINE
  5
249
100
AcDbEntity
  8
0
100
AcDbLine
 62
7
  6
CONTINUOUS
 10
31.4039334464
 20
55.5143395229
 11
31.3934217096
 21
55.5050109668
  0
LINE
  5
24A
100
AcDbEntity
  8
0
100
AcDbLine
 62
7
  6
CONTINUOUS
 10
31.4144390385
 20
55.5235646078
 11
31.4039334464
 21
55.5143395229
  0
LINE
  5
24B
100
AcDbEntity
  8
0
100
AcDbLine
 62
7
  6
CONTINUOUS
 10
31.4249380306
 20
55.5326872345
 11
31.4144390385
 21
55.5235646078
  0
LINE
  5
24C
100
AcDbEntity
  8
0
100
AcDbLine
 62
7
  6
CONTINUOUS
 10
31.4354299839
 20
55.5417084088
 11
31.4249380306
 21
55.5326872345
  0
LINE
  5
24D
100
AcDbEntity
  8
0
100
AcDbLine
 62
9
  6
CONTINUOUS
 10
32.6716488514
 20
55.709470511
 11
32.7271367121
 21
55.7567666089
  0
LINE
  5
24E
100
AcDbEntity
  8
0
100
AcDbLine
 62
7
  6
CONTINUOUS
 10
31.4459145039
 20
55.5506291529
 11
31.4354299839
 21
55.5417084088
  0
LINE
  5
24F
100
AcDbEntity
  8
0
100
AcDbLine
 62
9
  6
CONTINUOUS
 10
31.4173442504
 20
55.5240185707
 11
31.4792405147
 21
55.5763721456
  0
LINE
  5
250
100
AcDbEntity
  8
0
100
AcDbLine
 62
7
  6
CONTINUOUS
 10
31.4563912693
 20
55.5594505287
 11
31.4459145039
 21
55.5506291529
  0
LINE
  5
251
100
AcDbEntity
  8
0
100
AcDbLine
 62
7
  6
CONTINUOUS
 10
31.4668600613
 20
55.5681736596
 11
31.4563912693
 21
55.5594505287
  0
LINE
  5
252
100
AcDbEntity
  8
0
100
AcDbLine
 62
7
  6
CONTINUOUS
 10
31.4773207935
 20
55.5767997523
 11
31.4668600613
 21
55.5681736596
  0
LINE
  5
253
100
AcDbEntity
  8
0
100
AcDbLine
 62
7
  6
CONTINUOUS
 10
31.4877735407
 20
55.5853301146
 11
31.4773207935
 21
55.5767997523
  0
LINE
  5
254
100
AcDbEntity
  8
0
100
AcDbLine
 62
7
  6
CONTINUOUS
 10
31.4982185667
 20
55.593766173
 11
31.4877735407
 21
55.5853301146
  0
LINE
  5
255
100
AcDbEntity
  8
0
100
AcDbLine
 62
7
  6
CONTINUOUS
 10
31.5086563504
 20
55.6021094864
 11
31.4982185667
 21
55.593766173
  0
LINE
  5
256
100
AcDbEntity
  8
0
100
AcDbLine
 62
9
  6
CONTINUOUS
 10
31.4792405147
 20
55.5763721456
 11
31.5433114887
 21
55.6272768672
  0
LINE
  5
257
100
AcDbEntity
  8
0
100
AcDbLine
 62
9
  6
CONTINUOUS
 10
32.7271367121
 20
55.7567666089
 11
32.7842000296
 21
55.8020949555
  0
LINE
  5
258
100
AcDbEntity
  8
0
100
AcDbLine
 62
7
  6
CONTINUOUS
 10
31.5190876093
 20
55.6103617571
 11
31.5086563504
 21
55.6021094864
  0
LINE
  5
259
100
AcDbEntity
  8
0
100
AcDbLine
 62
7
  6
CONTINUOUS
 10
31.524301092
 20
55.6144543291
 11
31.5190876093
 21
55.6103617571
  0
LINE
  5
25A
100
AcDbEntity
  8
0
100
AcDbLine
 62
7
  6
CONTINUOUS
 10
31.534724481
 20
55.6225735609
 11
31.524301092
 21
55.6144543291
  0
LINE
  5
25B
100
AcDbEntity
  8
0
100
AcDbLine
 62
7
  6
CONTINUOUS
 10
31.5451443092
 20
55.6306066773
 11
31.534724481
 21
55.6225735609
  0
LINE
  5
25C
100
AcDbEntity
  8
0
100
AcDbLine
 62
7
  6
CONTINUOUS
 10
31.5555560935
 20
55.6385512395
 11
31.5451443092
 21
55.6306066773
  0
LINE
  5
25D
100
AcDbEntity
  8
0
100
AcDbLine
 62
7
  6
CONTINUOUS
 10
31.5659811814
 20
55.646424375
 11
31.5555560935
 21
55.6385512395
  0
LINE
  5
25E
100
AcDbEntity
  8
0
100
AcDbLine
 62
7
  6
CONTINUOUS
 10
31.5764251687
 20
55.6542308394
 11
31.5659811814
 21
55.646424375
  0
LINE
  5
25F
100
AcDbEntity
  8
0
100
AcDbLine
 62
9
  6
CONTINUOUS
 10
31.5433114887
 20
55.6272768672
 11
31.6095754097
 21
55.6766415577
  0
LINE
  5
260
100
AcDbEntity
  8
0
100
AcDbLine
 62
7
  6
CONTINUOUS
 10
31.586886223
 20
55.6619697306
 11
31.5764251687
 21
55.6542308394
  0
LINE
  5
261
100
AcDbEntity
  8
0
100
AcDbLine
 62
9
  6
CONTINUOUS
 10
32.7842000296
 20
55.8020949555
 11
32.8427982005
 21
55.8453262978
  0
LINE
  5
262
100
AcDbEntity
  8
0
100
AcDbLine
 62
7
  6
CONTINUOUS
 10
31.597362812
 20
55.6696404041
 11
31.586886223
 21
55.6619697306
  0
LINE
  5
263
100
AcDbEntity
  8
0
100
AcDbLine
 62
7
  6
CONTINUOUS
 10
31.6078536936
 20
55.677242453
 11
31.597362812
 21
55.6696404041
  0
LINE
  5
264
100
AcDbEntity
  8
0
100
AcDbLine
 62
7
  6
CONTINUOUS
 10
31.6183579015
 20
55.6847756875
 11
31.6078536936
 21
55.677242453
  0
LINE
  5
265
100
AcDbEntity
  8
0
100
AcDbLine
 62
7
  6
CONTINUOUS
 10
31.6288747284
 20
55.6922401119
 11
31.6183579015
 21
55.6847756875
  0
LINE
  5
266
100
AcDbEntity
  8
0
100
AcDbLine
 62
7
  6
CONTINUOUS
 10
31.6394037057
 20
55.6996359011
 11
31.6288747284
 21
55.6922401119
  0
LINE
  5
267
100
AcDbEntity
  8
0
100
AcDbLine
 62
9
  6
CONTINUOUS
 10
31.6095754097
 20
55.6766415577
 11
31.6780433973
 21
55.7243724649
  0
LINE
  5
268
100
AcDbEntity
  8
0
100
AcDbLine
 62
7
  6
CONTINUOUS
 10
31.6499445802
 20
55.7069633764
 11
31.6394037057
 21
55.6996359011
  0
LINE
  5
269
100
AcDbEntity
  8
0
100
AcDbLine
 62
7
  6
CONTINUOUS
 10
31.6604972908
 20
55.7142229815
 11
31.6499445802
 21
55.7069633764
  0
LINE
  5
26A
100
AcDbEntity
  8
0
100
AcDbLine
 62
9
  6
CONTINUOUS
 10
32.8427982005
 20
55.8453262978
 11
32.9028726583
 21
55.886318441
  0
LINE
  5
26B
100
AcDbEntity
  8
0
100
AcDbLine
 62
7
  6
CONTINUOUS
 10
31.6710619417
 20
55.7214152584
 11
31.6604972908
 21
55.7142229815
  0
LINE
  5
26C
100
AcDbEntity
  8
0
100
AcDbLine
 62
7
  6
CONTINUOUS
 10
31.6816387769
 20
55.7285408244
 11
31.6710619417
 21
55.7214152584
  0
LINE
  5
26D
100
AcDbEntity
  8
0
100
AcDbLine
 62
7
  6
CONTINUOUS
 10
31.692228152
 20
55.7356003497
 11
31.6816387769
 21
55.7285408244
  0
LINE
  5
26E
100
AcDbEntity
  8
0
100
AcDbLine
 62
7
  6
CONTINUOUS
 10
31.702825039
 20
55.7425909479
 11
31.692228152
 21
55.7356003497
  0
LINE
  5
26F
100
AcDbEntity
  8
0
100
AcDbLine
 62
7
  6
CONTINUOUS
 10
31.7134171628
 20
55.7495051517
 11
31.702825039
 21
55.7425909479
  0
LINE
  5
270
100
AcDbEntity
  8
0
100
AcDbLine
 62
9
  6
CONTINUOUS
 10
31.6780433973
 20
55.7243724649
 11
31.7486229321
 21
55.7703027086
  0
LINE
  5
271
100
AcDbEntity
  8
0
100
AcDbLine
 62
7
  6
CONTINUOUS
 10
31.7240033242
 20
55.7563429309
 11
31.7134171628
 21
55.7495051517
  0
LINE
  5
272
100
AcDbEntity
  8
0
100
AcDbLine
 62
7
  6
CONTINUOUS
 10
31.734582847
 20
55.763104602
 11
31.7240033242
 21
55.7563429309
  0
LINE
  5
273
100
AcDbEntity
  8
0
100
AcDbLine
 62
7
  6
CONTINUOUS
 10
31.745155137
 20
55.7697905327
 11
31.734582847
 21
55.763104602
  0
LINE
  5
274
100
AcDbEntity
  8
0
100
AcDbLine
 62
9
  6
CONTINUOUS
 10
32.9028726583
 20
55.886318441
 11
32.9643621025
 21
55.9249336966
  0
LINE
  5
275
100
AcDbEntity
  8
0
100
AcDbLine
 62
7
  6
CONTINUOUS
 10
31.755719662
 20
55.7764011274
 11
31.745155137
 21
55.7697905327
  0
LINE
  5
276
100
AcDbEntity
  8
0
100
AcDbLine
 62
7
  6
CONTINUOUS
 10
31.7662759327
 20
55.782936814
 11
31.755719662
 21
55.7764011274
  0
LINE
  5
277
100
AcDbEntity
  8
0
100
AcDbLine
 62
7
  6
CONTINUOUS
 10
31.7715508277
 20
55.7861767039
 11
31.7662759327
 21
55.782936814
  0
LINE
  5
278
100
AcDbEntity
  8
0
100
AcDbLine
 62
7
  6
CONTINUOUS
 10
31.7820938527
 20
55.7926008526
 11
31.7715508277
 21
55.7861767039
  0
LINE
  5
279
100
AcDbEntity
  8
0
100
AcDbLine
 62
9
  6
CONTINUOUS
 10
31.7486229321
 20
55.7703027086
 11
31.8212337217
 21
55.8142821746
  0
LINE
  5
27A
100
AcDbEntity
  8
0
100
AcDbLine
 62
7
  6
CONTINUOUS
 10
31.792627479
 20
55.7989511908
 11
31.7820938527
 21
55.7926008526
  0
LINE
  5
27B
100
AcDbEntity
  8
0
100
AcDbLine
 62
7
  6
CONTINUOUS
 10
31.8031512403
 20
55.8052281447
 11
31.792627479
 21
55.7989511908
  0
LINE
  5
27C
100
AcDbEntity
  8
DEFAULT_2
100
AcDbLine
 62
8
  6
CONTINUOUS
 10
63.8454549783
 20
53.2522303524
 11
63.8743267956
 21
53.2692809564
  0
LINE
  5
27D
100
AcDbEntity
  8
0
100
AcDbLine
 62
7
  6
CONTINUOUS
 10
31.8136646465
 20
55.811432123
 11
31.8031512403
 21
55.8052281447
  0
LINE
  5
27E
100
AcDbEntity
  8
0
100
AcDbLine
 62
7
  6
CONTINUOUS
 10
31.8241671728
 20
55.8175635112
 11
31.8136646465
 21
55.811432123
  0
LINE
  5
27F
100
AcDbEntity
  8
0
100
AcDbLine
 62
7
  6
CONTINUOUS
 10
31.8346582508
 20
55.8236226682
 11
31.8241671728
 21
55.8175635112
  0
LINE
  5
280
100
AcDbEntity
  8
0
100
AcDbLine
 62
9
  6
CONTINUOUS
 10
32.9643621025
 20
55.9249336966
 11
33.0271816642
 21
55.9610379782
  0
LINE
  5
281
100
AcDbEntity
  8
0
100
AcDbLine
 62
7
  6
CONTINUOUS
 10
31.8451372615
 20
55.8296099233
 11
31.8346582508
 21
55.8236226682
  0
LINE
  5
282
100
AcDbEntity
  8
0
100
AcDbLine
 62
7
  6
CONTINUOUS
 10
31.8556035304
 20
55.835525576
 11
31.8451372615
 21
55.8296099233
  0
LINE
  5
283
100
AcDbEntity
  8
0
100
AcDbLine
 62
9
  6
CONTINUOUS
 10
31.8212337217
 20
55.8142821746
 11
31.8958238625
 21
55.856182892
  0
LINE
  5
284
100
AcDbEntity
  8
0
100
AcDbLine
 62
7
  6
CONTINUOUS
 10
31.8660563238
 20
55.841369895
 11
31.8556035304
 21
55.835525576
  0
LINE
  5
285
100
AcDbEntity
  8
DEFAULT_2
100
AcDbLine
 62
8
  6
CONTINUOUS
 10
63.8743267956
 20
53.2692809564
 11
63.9036673098
 21
53.2855117849
  0
LINE
  5
286
100
AcDbEntity
  8
0
100
AcDbLine
 62
7
  6
CONTINUOUS
 10
31.8764948475
 20
55.8471431198
 11
31.8660563238
 21
55.841369895
  0
LINE
  5
287
100
AcDbEntity
  8
0
100
AcDbLine
 62
7
  6
CONTINUOUS
 10
31.8869182472
 20
55.8528454628
 11
31.8764948475
 21
55.8471431198
  0
LINE
  5
288
100
AcDbEntity
  8
0
100
AcDbLine
 62
7
  6
CONTINUOUS
 10
31.8973256111
 20
55.8584771123
 11
31.8869182472
 21
55.8528454628
  0
LINE
  5
289
100
AcDbEntity
  8
0
100
AcDbLine
 62
7
  6
CONTINUOUS
 10
31.9077159736
 20
55.8640382366
 11
31.8973256111
 21
55.8584771123
  0
LINE
  5
28A
100
AcDbEntity
  8
0
100
AcDbLine
 62
7
  6
CONTINUOUS
 10
31.9180883221
 20
55.8695289884
 11
31.9077159736
 21
55.8640382366
  0
LINE
  5
28B
100
AcDbEntity
  8
0
100
AcDbLine
 62
7
  6
CONTINUOUS
 10
31.9284416042
 20
55.8749495108
 11
31.9180883221
 21
55.8695289884
  0
LINE
  5
28C
100
AcDbEntity
  8
0
100
AcDbLine
 62
9
  6
CONTINUOUS
 10
33.0271816642
 20
55.9610379782
 11
33.0912527559
 21
55.994506105
  0
LINE
  5
28D
100
AcDbEntity
  8
0
100
AcDbLine
 62
9
  6
CONTINUOUS
 10
31.8958238625
 20
55.856182892
 11
31.9723317587
 21
55.8958736943
  0
LINE
  5
28E
100
AcDbEntity
  8
0
100
AcDbLine
 62
7
  6
CONTINUOUS
 10
31.9387747378
 20
55.8802999428
 11
31.9284416042
 21
55.8749495108
  0
LINE
  5
28F
100
AcDbEntity
  8
DEFAULT_2
100
AcDbLine
 62
8
  6
CONTINUOUS
 10
63.9036673098
 20
53.2855117849
 11
63.9334529306
 21
53.3009105497
  0
LINE
  5
290
100
AcDbEntity
  8
DEFAULT_2
100
AcDbLine
 62
8
  6
CONTINUOUS
 10
65.0324724452
 20
51.2162488975
 11
65.0026868245
 21
51.2008501326
  0
LINE
  5
291
100
AcDbEntity
  8
0
100
AcDbLine
 62
7
  6
CONTINUOUS
 10
31.9490866222
 20
55.8855804262
 11
31.9387747378
 21
55.8802999428
  0
LINE
  5
292
100
AcDbEntity
  8
0
100
AcDbLine
 62
7
  6
CONTINUOUS
 10
31.9593761512
 20
55.8907911122
 11
31.9490866222
 21
55.8855804262
  0
LINE
  5
293
100
AcDbEntity
  8
0
100
AcDbLine
 62
7
  6
CONTINUOUS
 10
31.9696422273
 20
55.895932169
 11
31.9593761512
 21
55.8907911122
  0
LINE
  5
294
100
AcDbEntity
  8
0
100
AcDbLine
 62
7
  6
CONTINUOUS
 10
31.9798837775
 20
55.9010037889
 11
31.9696422273
 21
55.895932169
  0
LINE
  5
295
100
AcDbEntity
  8
0
100
AcDbLine
 62
7
  6
CONTINUOUS
 10
31.990098889
 20
55.9060057666
 11
31.9798837775
 21
55.9010037889
  0
LINE
  5
296
100
AcDbEntity
  8
0
100
AcDbLine
 62
7
  6
CONTINUOUS
 10
32.0002920408
 20
55.9109410039
 11
31.990098889
 21
55.9060057666
  0
LINE
  5
297
100
AcDbEntity
  8
DEFAULT_2
100
AcDbLine
 62
8
  6
CONTINUOUS
 10
63.9334529306
 20
53.3009105497
 11
63.9636800969
 21
53.3154746661
  0
LINE
  5
298
100
AcDbEntity
  8
DEFAULT_2
100
AcDbLine
 62
8
  6
CONTINUOUS
 10
65.0026868245
 20
51.2008501326
 11
64.9724596581
 21
51.1862860163
  0
LINE
  5
299
100
AcDbEntity
  8
0
100
AcDbLine
 62
7
  6
CONTINUOUS
 10
32.0053879022
 20
55.9133874021
 11
32.0002920408
 21
55.9109410039
  0
LINE
  5
29A
100
AcDbEntity
  8
0
100
AcDbLine
 62
9
  6
CONTINUOUS
 10
31.9723317587
 20
55.8958736943
 11
32.0506901831
 21
55.9332268466
  0
LINE
  5
29B
100
AcDbEntity
  8
0
100
AcDbLine
 62
7
  6
CONTINUOUS
 10
32.0156044957
 20
55.9182504299
 11
32.0053879022
 21
55.9133874021
  0
LINE
  5
29C
100
AcDbEntity
  8
0
100
AcDbLine
 62
7
  6
CONTINUOUS
 10
32.0258231713
 20
55.9230590719
 11
32.0156044957
 21
55.9182504299
  0
LINE
  5
29D
100
AcDbEntity
  8
0
100
AcDbLine
 62
9
  6
CONTINUOUS
 10
33.0912527559
 20
55.994506105
 11
33.1564914504
 21
56.0252106123
  0
LINE
  5
29E
100
AcDbEntity
  8
0
100
AcDbLine
 62
7
  6
CONTINUOUS
 10
32.0360398981
 20
55.9278117775
 11
32.0258231713
 21
55.9230590719
  0
LINE
  5
29F
100
AcDbEntity
  8
0
100
AcDbLine
 62
7
  6
CONTINUOUS
 10
32.0462510198
 20
55.9325072449
 11
32.0360398981
 21
55.9278117775
  0
LINE
  5
2A0
100
AcDbEntity
  8
0
100
AcDbLine
 62
7
  6
CONTINUOUS
 10
32.0564532746
 20
55.9371444186
 11
32.0462510198
 21
55.9325072449
  0
LINE
  5
2A1
100
AcDbEntity
  8
0
100
AcDbLine
 62
7
  6
CONTINUOUS
 10
32.0666438072
 20
55.9417224837
 11
32.0564532746
 21
55.9371444186
  0
LINE
  5
2A2
100
AcDbEntity
  8
DEFAULT_2
100
AcDbLine
 62
8
  6
CONTINUOUS
 10
63.9636800969
 20
53.3154746661
 11
63.9943048772
 21
53.3291830036
  0
LINE
  5
2A3
100
AcDbEntity
  8
DEFAULT_2
100
AcDbLine
 62
8
  6
CONTINUOUS
 10
64.9724596581
 20
51.1862860163
 11
64.9418348778
 21
51.1725776788
  0
LINE
  5
2A4
100
AcDbEntity
  8
0
100
AcDbLine
 62
7
  6
CONTINUOUS
 10
32.0819023767
 20
55.9484775279
 11
32.0666438072
 21
55.9417224837
  0
LINE
  5
2A5
100
AcDbEntity
  8
0
100
AcDbLine
 62
9
  6
CONTINUOUS
 10
32.0506901831
 20
55.9332268466
 11
32.1307861743
 21
55.9681144732
  0
LINE
  5
2A6
100
AcDbEntity
  8
0
100
AcDbLine
 62
7
  6
CONTINUOUS
 10
32.0971226134
 20
55.9550972411
 11
32.0819023767
 21
55.9484775279
  0
LINE
  5
2A7
100
AcDbEntity
  8
0
100
AcDbLine
 62
7
  6
CONTINUOUS
 10
32.1122998458
 20
55.9615814941
 11
32.0971226134
 21
55.9550972411
  0
LINE
  5
2A8
100
AcDbEntity
  8
0
100
AcDbLine
 62
7
  6
CONTINUOUS
 10
32.127431207
 20
55.9679309962
 11
32.1122998458
 21
55.9615814941
  0
LINE
  5
2A9
100
AcDbEntity
  8
0
100
AcDbLine
 62
9
  6
CONTINUOUS
 10
33.1564914504
 20
56.0252106123
 11
33.2228037789
 21
56.0530389662
  0
LINE
  5
2AA
100
AcDbEntity
  8
DEFAULT_2
100
AcDbLine
 62
8
  6
CONTINUOUS
 10
63.9943048772
 20
53.3291830036
 11
64.0253028102
 21
53.3420252553
  0
LINE
  5
2AB
100
AcDbEntity
  8
DEFAULT_2
100
AcDbLine
 62
8
  6
CONTINUOUS
 10
64.9418348778
 20
51.1725776788
 11
64.9108369449
 21
51.159735427
  0
LINE
  5
2AC
100
AcDbEntity
  8
0
100
AcDbLine
 62
7
  6
CONTINUOUS
 10
32.1425152597
 20
55.974147073
 11
32.127431207
 21
55.9679309962
  0
LINE
  5
2AD
100
AcDbEntity
  8
0
100
AcDbLine
 62
7
  6
CONTINUOUS
 10
32.1575517683
 20
55.9802315219
 11
32.1425152597
 21
55.974147073
  0
LINE
  5
2AE
100
AcDbEntity
  8
DEFAULT_2
100
AcDbLine
 62
8
  6
CONTINUOUS
 10
93.7241284238
 20
55.5569486707
 11
93.7679407483
 21
55.5744422534
  0
LINE
  5
2AF
100
AcDbEntity
  8
0
100
AcDbLine
 62
7
  6
CONTINUOUS
 10
32.1725412484
 20
55.9861863925
 11
32.1575517683
 21
55.9802315219
  0
LINE
  5
2B0
100
AcDbEntity
  8
0
100
AcDbLine
 62
9
  6
CONTINUOUS
 10
32.1307861743
 20
55.9681144732
 11
32.2125285023
 21
56.0004269729
  0
LINE
  5
2B1
100
AcDbEntity
  8
DEFAULT_2
100
AcDbLine
 62
8
  6
CONTINUOUS
 10
95.5496428692
 20
55.8066925887
 11
95.5574438953
 21
55.8097442007
  0
LINE
  5
2B2
100
AcDbEntity
  8
0
100
AcDbLine
 62
7
  6
CONTINUOUS
 10
32.1874845596
 20
55.9920138037
 11
32.1725412484
 21
55.9861863925
  0
LINE
  5
2B3
100
AcDbEntity
  8
0
100
AcDbLine
 62
7
  6
CONTINUOUS
 10
32.2023823994
 20
55.997715742
 11
32.1874845596
 21
55.9920138037
  0
LINE
  5
2B4
100
AcDbEntity
  8
DEFAULT_2
100
AcDbLine
 62
8
  6
CONTINUOUS
 10
64.0253028102
 20
53.3420252553
 11
64.0566672864
 21
53.3539980229
  0
LINE
  5
2B5
100
AcDbEntity
  8
DEFAULT_2
100
AcDbLine
 62
8
  6
CONTINUOUS
 10
64.9108369449
 20
51.159735427
 11
64.8794724687
 21
51.1477626594
  0
LINE
  5
2B6
100
AcDbEntity
  8
DEFAULT_2
100
AcDbLine
 62
8
  6
CONTINUOUS
 10
93.7679407483
 20
55.5744422534
 11
93.8140953581
 21
55.5918098048
  0
LINE
  5
2B7
100
AcDbEntity
  8
0
100
AcDbLine
 62
7
  6
CONTINUOUS
 10
32.2172346925
 20
56.0032938429
 11
32.2023823994
 21
55.997715742
  0
LINE
  5
2B8
100
AcDbEntity
  8
0
100
AcDbLine
 62
7
  6
CONTINUOUS
 10
32.2221751555
 20
56.0051259057
 11
32.2172346925
 21
56.0032938429
  0
LINE
  5
2B9
100
AcDbEntity
  8
0
100
AcDbLine
 62
9
  6
CONTINUOUS
 10
33.2228037789
 20
56.0530389662
 11
33.2900998237
 21
56.0778887461
  0
LINE
  5
2BA
100
AcDbEntity
  8
0
100
AcDbLine
 62
7
  6
CONTINUOUS
 10
32.2369641475
 20
56.0105404767
 11
32.2221751555
 21
56.0051259057
  0
LINE
  5
2BB
100
AcDbEntity
  8
DEFAULT_2
100
AcDbLine
 62
8
  6
CONTINUOUS
 10
95.5417729749
 20
55.8038150223
 11
95.5496428692
 21
55.8066925887
  0
LINE
  5
2BC
100
AcDbEntity
  8
0
100
AcDbLine
 62
7
  6
CONTINUOUS
 10
32.2517004814
 20
56.015832443
 11
32.2369641475
 21
56.0105404767
  0
LINE
  5
2BD
100
AcDbEntity
  8
0
100
AcDbLine
 62
9
  6
CONTINUOUS
 10
32.2125285023
 20
56.0004269729
 11
32.2958132262
 21
56.0300504639
  0
LINE
  5
2BE
100
AcDbEntity
  8
DEFAULT_2
100
AcDbLine
 62
8
  6
CONTINUOUS
 10
93.8140953581
 20
55.5918098048
 11
93.8605951038
 21
55.6082315608
  0
LINE
  5
2BF
100
AcDbEntity
  8
0
100
AcDbLine
 62
7
  6
CONTINUOUS
 10
32.2663838252
 20
56.0210033736
 11
32.2517004814
 21
56.015832443
  0
LINE
  5
2C0
100
AcDbEntity
  8
DEFAULT_2
100
AcDbLine
 62
8
  6
CONTINUOUS
 10
64.0566672864
 20
53.3539980229
 11
64.0883556843
 21
53.3650851122
  0
LINE
  5
2C1
100
AcDbEntity
  8
DEFAULT_2
100
AcDbLine
 62
8
  6
CONTINUOUS
 10
64.8794724687
 20
51.1477626594
 11
64.8477840707
 21
51.1366755701
  0
LINE
  5
2C2
100
AcDbEntity
  8
0
100
AcDbLine
 62
9
  6
CONTINUOUS
 10
43.8569764781
 20
34.0809904307
 11
43.8737264508
 21
34.0868262989
  0
LINE
  5
2C3
100
AcDbEntity
  8
0
100
AcDbLine
 62
7
  6
CONTINUOUS
 10
32.2810200357
 20
56.0260569762
 11
32.2663838252
 21
56.0210033736
  0
LINE
  5
2C4
100
AcDbEntity
  8
0
100
AcDbLine
 62
7
  6
CONTINUOUS
 10
96.9378071151
 20
53.5789799242
 11
96.9578957115
 21
53.5858453298
  0
LINE
  5
2C5
100
AcDbEntity
  8
DEFAULT_2
100
AcDbLine
 62
8
  6
CONTINUOUS
 10
95.5338409061
 20
55.8011137216
 11
95.5417729749
 21
55.8038150223
  0
LINE
  5
2C6
100
AcDbEntity
  8
0
100
AcDbLine
 62
7
  6
CONTINUOUS
 10
32.2956086486
 20
56.0309946736
 11
32.2810200357
 21
56.0260569762
  0
LINE
  5
2C7
100
AcDbEntity
  8
0
100
AcDbLine
 62
9
  6
CONTINUOUS
 10
96.935722854
 20
53.5783425958
 11
96.9213733428
 21
53.5735234323
  0
LINE
  5
2C8
100
AcDbEntity
  8
0
100
AcDbLine
 62
7
  6
CONTINUOUS
 10
96.9357228939
 20
53.5783426154
 11
96.9550665012
 21
53.5847982018
  0
LINE
  5
2C9
100
AcDbEntity
  8
0
100
AcDbLine
 62
7
  6
CONTINUOUS
 10
32.310148927
 20
56.0358177733
 11
32.2956086486
 21
56.0309946736
  0
LINE
  5
2CA
100
AcDbEntity
  8
DEFAULT_2
100
AcDbLine
 62
8
  6
CONTINUOUS
 10
93.8605951038
 20
55.6082315608
 11
93.907420431
 21
55.623701092
  0
LINE
  5
2CB
100
AcDbEntity
  8
0
100
AcDbLine
 62
7
  6
CONTINUOUS
 10
43.8495989402
 20
34.0785559626
 11
43.8675188421
 21
34.0843980992
  0
LINE
  5
2CC
100
AcDbEntity
  8
0
100
AcDbLine
 62
7
  6
CONTINUOUS
 10
32.3246400877
 20
56.0405275502
 11
32.310148927
 21
56.0358177733
  0
LINE
  5
2CD
100
AcDbEntity
  8
0
100
AcDbLine
 62
9
  6
CONTINUOUS
 10
33.2900998237
 20
56.0778887461
 11
33.3582326984
 21
56.0996367864
  0
LINE
  5
2CE
100
AcDbEntity
  8
DEFAULT_2
100
AcDbLine
 62
8
  6
CONTINUOUS
 10
64.0883556843
 20
53.3650851122
 11
64.1203428366
 21
53.3752782368
  0
LINE
  5
2CF
100
AcDbEntity
  8
DEFAULT_2
100
AcDbLine
 62
8
  6
CONTINUOUS
 10
64.8477840707
 20
51.1366755701
 11
64.8157969184
 21
51.1264824455
  0
LINE
  5
2D0
100
AcDbEntity
  8
0
100
AcDbLine
 62
7
  6
CONTINUOUS
 10
32.3390813063
 20
56.0451252508
 11
32.3246400877
 21
56.0405275502
  0
LINE
  5
2D1
100
AcDbEntity
  8
0
100
AcDbLine
 62
9
  6
CONTINUOUS
 10
32.2958132262
 20
56.0300504639
 11
32.3805439505
 21
56.0568854458
  0
LINE
  5
2D2
100
AcDbEntity
  8
DEFAULT_2
100
AcDbLine
 62
8
  6
CONTINUOUS
 10
95.5258506865
 20
55.7985898759
 11
95.5338409061
 21
55.8011137216
  0
LINE
  5
2D3
100
AcDbEntity
  8
0
100
AcDbLine
 62
7
  6
CONTINUOUS
 10
32.3534713742
 20
56.0496119896
 11
32.3390813063
 21
56.0451252508
  0
LINE
  5
2D4
100
AcDbEntity
  8
DEFAULT_2
100
AcDbLine
 62
8
  6
CONTINUOUS
 10
93.907420431
 20
55.623701092
 11
93.9563458606
 21
55.6387437839
  0
LINE
  5
2D5
100
AcDbEntity
  8
0
100
AcDbLine
 62
7
  6
CONTINUOUS
 10
96.9357194907
 20
53.5783415822
 11
96.9378071151
 21
53.5789799242
  0
LINE
  5
2D6
100
AcDbEntity
  8
0
100
AcDbLine
 62
7
  6
CONTINUOUS
 10
32.367790192
 20
56.0539831735
 11
32.3534713742
 21
56.0496119896
  0
LINE
  5
2D7
100
AcDbEntity
  8
0
100
AcDbLine
 62
7
  6
CONTINUOUS
 10
32.3820282679
 20
56.0582378285
 11
32.367790192
 21
56.0539831735
  0
LINE
  5
2D8
100
AcDbEntity
  8
0
100
AcDbLine
 62
7
  6
CONTINUOUS
 10
32.396189504
 20
56.0623790587
 11
32.3820282679
 21
56.0582378285
  0
LINE
  5
2D9
100
AcDbEntity
  8
DEFAULT_2
100
AcDbLine
 62
8
  6
CONTINUOUS
 10
95.5178063401
 20
55.7962446743
 11
95.5258506865
 21
55.7985898759
  0
LINE
  5
2DA
100
AcDbEntity
  8
DEFAULT_2
100
AcDbLine
 62
8
  6
CONTINUOUS
 10
64.1203428366
 20
53.3752782368
 11
64.1526184159
 21
53.3845735257
  0
LINE
  5
2DB
100
AcDbEntity
  8
DEFAULT_2
100
AcDbLine
 62
8
  6
CONTINUOUS
 10
64.8157969184
 20
51.1264824455
 11
64.7835213391
 21
51.1171871567
  0
LINE
  5
2DC
100
AcDbEntity
  8
0
100
AcDbLine
 62
7
  6
CONTINUOUS
 10
32.4055893954
 20
56.0650782861
 11
32.396189504
 21
56.0623790587
  0
LINE
  5
2DD
100
AcDbEntity
  8
DEFAULT_2
100
AcDbLine
 62
8
  6
CONTINUOUS
 10
66.3807883016
 20
36.3710063113
 11
66.3858145019
 21
36.3724459286
  0
LINE
  5
2DE
100
AcDbEntity
  8
0
100
AcDbLine
 62
7
  6
CONTINUOUS
 10
30.9905006391
 20
55.0555790959
 11
30.9803637966
 21
55.0413085777
  0
LINE
  5
2DF
100
AcDbEntity
  8
0
100
AcDbLine
 62
7
  6
CONTINUOUS
 10
31.0006682422
 20
55.0697042791
 11
30.9905006391
 21
55.0555790959
  0
LINE
  5
2E0
100
AcDbEntity
  8
0
100
AcDbLine
 62
7
  6
CONTINUOUS
 10
31.0108646045
 20
55.0836843475
 11
31.0006682422
 21
55.0697042791
  0
LINE
  5
2E1
100
AcDbEntity
  8
DEFAULT_2
100
AcDbLine
 62
8
  6
CONTINUOUS
 10
65.0618129595
 20
51.2324797259
 11
65.0324724452
 21
51.2162488975
  0
LINE
  5
2E2
100
AcDbEntity
  8
DEFAULT_2
100
AcDbLine
 62
8
  6
CONTINUOUS
 10
93.6806666996
 20
55.5386019132
 11
93.7241284238
 21
55.5569486707
  0
LINE
  5
2E3
100
AcDbEntity
  8
DEFAULT_2
100
AcDbLine
 62
8
  6
CONTINUOUS
 10
95.5574438953
 20
55.8097442007
 11
95.5651745631
 21
55.8129697969
  0
LINE
  5
2E4
100
AcDbEntity
  8
DEFAULT_2
100
AcDbLine
 62
8
  6
CONTINUOUS
 10
66.4161446755
 20
36.2511099274
 11
66.4185129684
 21
36.2517965818
  0
LINE
  5
2E5
100
AcDbEntity
  8
0
100
AcDbLine
 62
7
  6
CONTINUOUS
 10
30.9702596751
 20
55.0268924591
 11
30.9601901384
 21
55.0123303436
  0
LINE
  5
2E6
100
AcDbEntity
  8
0
100
AcDbLine
 62
7
  6
CONTINUOUS
 10
30.9803637966
 20
55.0413085777
 11
30.9702596751
 21
55.0268924591
  0
LINE
  5
2E7
100
AcDbEntity
  8
0
100
AcDbLine
 62
9
  6
CONTINUOUS
 10
30.9575411599
 20
55.0055963254
 11
31.0000933127
 21
55.0661374389
  0
LINE
  5
2E8
100
AcDbEntity
  8
0
100
AcDbLine
 62
9
  6
CONTINUOUS
 10
32.2892485669
 20
55.278220545
 11
32.3310764307
 21
55.3361729081
  0
LINE
  5
2E9
100
AcDbEntity
  8
0
100
AcDbLine
 62
7
  6
CONTINUOUS
 10
96.9550665012
 20
53.5847982018
 11
96.9741596593
 21
53.5923866917
  0
LINE
  5
2EA
100
AcDbEntity
  8
DEFAULT_2
100
AcDbLine
 62
8
  6
CONTINUOUS
 10
66.4136322215
 20
36.2503255302
 11
66.4161446755
 21
36.2511099274
  0
LINE
  5
2EB
100
AcDbEntity
  8
DEFAULT_2
100
AcDbLine
 62
8
  6
CONTINUOUS
 10
66.375793311
 20
36.3694618434
 11
66.3807883016
 21
36.3710063113
  0
LINE
  5
2EC
100
AcDbEntity
  8
0
100
AcDbLine
 62
7
  6
CONTINUOUS
 10
30.9401615298
 20
54.9827654316
 11
30.935178472
 21
54.9752816779
  0
LINE
  5
2ED
100
AcDbEntity
  8
0
100
AcDbLine
 62
7
  6
CONTINUOUS
 10
30.9501569079
 20
54.9976216268
 11
30.9401615298
 21
54.9827654316
  0
LINE
  5
2EE
100
AcDbEntity
  8
0
100
AcDbLine
 62
7
  6
CONTINUOUS
 10
30.9601901384
 20
55.0123303436
 11
30.9501569079
 21
54.9976216268
  0
LINE
  5
2EF
100
AcDbEntity
  8
DEFAULT_2
100
AcDbLine
 62
8
  6
CONTINUOUS
 10
63.8170960139
 20
53.2343860435
 11
63.8454549783
 21
53.2522303524
  0
LINE
  5
2F0
100
AcDbEntity
  8
DEFAULT_2
100
AcDbLine
 62
8
  6
CONTINUOUS
 10
65.0906847768
 20
51.24953033
 11
65.0618129595
 21
51.2324797259
  0
LINE
  5
2F1
100
AcDbEntity
  8
DEFAULT_2
100
AcDbLine
 62
8
  6
CONTINUOUS
 10
93.6375724266
 20
55.5194084755
 11
93.6806666996
 21
55.5386019132
  0
LINE
  5
2F2
100
AcDbEntity
  8
0
100
AcDbLine
 62
7
  6
CONTINUOUS
 10
96.9578957115
 20
53.5858453298
 11
96.9779213765
 21
53.59402821
  0
LINE
  5
2F3
100
AcDbEntity
  8
0
100
AcDbLine
 62
9
  6
CONTINUOUS
 10
96.9213733428
 20
53.5735234323
 11
96.9073420607
 21
53.5678438706
  0
LINE
  5
2F4
100
AcDbEntity
  8
0
100
AcDbLine
 62
7
  6
CONTINUOUS
 10
30.9252423558
 20
54.960201924
 11
30.9153471442
 21
54.9449710964
  0
LINE
  5
2F5
100
AcDbEntity
  8
0
100
AcDbLine
 62
7
  6
CONTINUOUS
 10
30.935178472
 20
54.9752816779
 11
30.9252423558
 21
54.960201924
  0
LINE
  5
2F6
100
AcDbEntity
  8
0
100
AcDbLine
 62
9
  6
CONTINUOUS
 10
30.9169627269
 20
54.9444989962
 11
30.9575411599
 21
55.0055963254
  0
LINE
  5
2F7
100
AcDbEntity
  8
0
100
AcDbLine
 62
9
  6
CONTINUOUS
 10
32.2491458594
 20
55.2195059951
 11
32.2892485669
 21
55.278220545
  0
LINE
  5
2F8
100
AcDbEntity
  8
DEFAULT_2
100
AcDbLine
 62
8
  6
CONTINUOUS
 10
95.5651745631
 20
55.8129697969
 11
95.5728306674
 21
55.8163684036
  0
LINE
  5
2F9
100
AcDbEntity
  8
DEFAULT_2
100
AcDbLine
 62
8
  6
CONTINUOUS
 10
66.4111368381
 20
36.2494883577
 11
66.4136322215
 21
36.2503255302
  0
LINE
  5
2FA
100
AcDbEntity
  8
DEFAULT_2
100
AcDbLine
 62
8
  6
CONTINUOUS
 10
66.3706848983
 20
36.3677626543
 11
66.375793311
 21
36.3694618434
  0
LINE
  5
2FB
100
AcDbEntity
  8
0
100
AcDbLine
 62
7
  6
CONTINUOUS
 10
30.8956831555
 20
54.9140480939
 11
30.8859169547
 21
54.8983527669
  0
LINE
  5
2FC
100
AcDbEntity
  8
0
100
AcDbLine
 62
9
  6
CONTINUOUS
 10
30.878358282
 20
54.8829633249
 11
30.9169627269
 21
54.9444989962
  0
LINE
  5
2FD
100
AcDbEntity
  8
0
100
AcDbLine
 62
7
  6
CONTINUOUS
 10
30.9054938004
 20
54.9295872395
 11
30.8956831555
 21
54.9140480939
  0
LINE
  5
2FE
100
AcDbEntity
  8
0
100
AcDbLine
 62
7
  6
CONTINUOUS
 10
30.9153471442
 20
54.9449710964
 11
30.9054938004
 21
54.9295872395
  0
LINE
  5
2FF
100
AcDbEntity
  8
DEFAULT_2
100
AcDbLine
 62
8
  6
CONTINUOUS
 10
63.7892511639
 20
53.2157496551
 11
63.8170960139
 21
53.2343860435
  0
LINE
  5
300
100
AcDbEntity
  8
DEFAULT_2
100
AcDbLine
 62
8
  6
CONTINUOUS
 10
66.365614262
 20
36.3659538164
 11
66.3706848983
 21
36.3677626543
  0
LINE
  5
301
100
AcDbEntity
  8
0
100
AcDbLine
 62
7
  6
CONTINUOUS
 10
30.8761967924
 20
54.8825000213
 11
30.8665241303
 21
54.8664881591
  0
LINE
  5
302
100
AcDbEntity
  8
0
100
AcDbLine
 62
7
  6
CONTINUOUS
 10
30.8859169547
 20
54.8983527669
 11
30.8761967924
 21
54.8825000213
  0
LINE
  5
303
100
AcDbEntity
  8
0
100
AcDbLine
 62
9
  6
CONTINUOUS
 10
32.2107837041
 20
55.1601839601
 11
32.2491458594
 21
55.2195059951
  0
LINE
  5
304
100
AcDbEntity
  8
DEFAULT_2
100
AcDbLine
 62
8
  6
CONTINUOUS
 10
65.1190437412
 20
51.2673746388
 11
65.0906847768
 21
51.24953033
  0
LINE
  5
305
100
AcDbEntity
  8
DEFAULT_2
100
AcDbLine
 62
8
  6
CONTINUOUS
 10
93.5969364307
 20
55.5003715069
 11
93.6375724266
 21
55.5194084755
  0
LINE
  5
306
100
AcDbEntity
  8
DEFAULT_2
100
AcDbLine
 62
8
  6
CONTINUOUS
 10
66.4086596332
 20
36.2485987873
 11
66.4111368381
 21
36.2494883577
  0
LINE
  5
307
100
AcDbEntity
  8
DEFAULT_2
100
AcDbLine
 62
8
  6
CONTINUOUS
 10
83.6353195716
 20
36.9784914841
 11
83.5655837589
 21
36.9585358793
  0
LINE
  5
308
100
AcDbEntity
  8
0
100
AcDbLine
 62
7
  6
CONTINUOUS
 10
30.8569013811
 20
54.8503169828
 11
30.8473303966
 21
54.8339853493
  0
LINE
  5
309
100
AcDbEntity
  8
0
100
AcDbLine
 62
9
  6
CONTINUOUS
 10
30.8417013833
 20
54.8210695804
 11
30.878358282
 21
54.8829633249
  0
LINE
  5
30A
100
AcDbEntity
  8
0
100
AcDbLine
 62
7
  6
CONTINUOUS
 10
30.8665241303
 20
54.8664881591
 11
30.8569013811
 21
54.8503169828
  0
LINE
  5
30B
100
AcDbEntity
  8
0
100
AcDbLine
 62
9
  6
CONTINUOUS
 10
32.174112578
 20
55.1003088093
 11
32.2107837041
 21
55.1601839601
  0
LINE
  5
30C
100
AcDbEntity
  8
DEFAULT_2
100
AcDbLine
 62
8
  6
CONTINUOUS
 10
95.5728306674
 20
55.8163684036
 11
95.5804080033
 21
55.8199390473
  0
LINE
  5
30D
100
AcDbEntity
  8
DEFAULT_2
100
AcDbLine
 62
8
  6
CONTINUOUS
 10
66.4060760511
 20
36.2476074674
 11
66.4086596332
 21
36.2485987873
  0
LINE
  5
30E
100
AcDbEntity
  8
DEFAULT_2
100
AcDbLine
 62
8
  6
CONTINUOUS
 10
66.3604507386
 20
36.3639837675
 11
66.365614262
 21
36.3659538164
  0
LINE
  5
30F
100
AcDbEntity
  8
0
100
AcDbLine
 62
7
  6
CONTINUOUS
 10
30.8283478346
 20
54.8008300842
 11
30.8189377951
 21
54.7839998535
  0
LINE
  5
310
100
AcDbEntity
  8
0
100
AcDbLine
 62
7
  6
CONTINUOUS
 10
30.8378122851
 20
54.8174907758
 11
30.8283478346
 21
54.8008300842
  0
LINE
  5
311
100
AcDbEntity
  8
0
100
AcDbLine
 62
7
  6
CONTINUOUS
 10
30.8473303966
 20
54.8339853493
 11
30.8378122851
 21
54.8174907758
  0
LINE
  5
312
100
AcDbEntity
  8
DEFAULT_2
100
AcDbLine
 62
8
  6
CONTINUOUS
 10
63.7619429807
 20
53.1963354053
 11
63.7892511639
 21
53.2157496551
  0
LINE
  5
313
100
AcDbEntity
  8
DEFAULT_2
100
AcDbLine
 62
8
  6
CONTINUOUS
 10
65.1468885912
 20
51.2860110272
 11
65.1190437412
 21
51.2673746388
  0
LINE
  5
314
100
AcDbEntity
  8
DEFAULT_2
100
AcDbLine
 62
8
  6
CONTINUOUS
 10
93.5566624474
 20
55.4805806293
 11
93.5969364307
 21
55.5003715069
  0
LINE
  5
315
100
AcDbEntity
  8
DEFAULT_2
100
AcDbLine
 62
8
  6
CONTINUOUS
 10
83.5860279361
 20
36.8556086961
 11
83.6494031231
 21
36.875336742
  0
LINE
  5
316
100
AcDbEntity
  8
0
100
AcDbLine
 62
7
  6
CONTINUOUS
 10
30.8095833556
 20
54.7669972752
 11
30.8002815327
 21
54.7498116129
  0
LINE
  5
317
100
AcDbEntity
  8
0
100
AcDbLine
 62
7
  6
CONTINUOUS
 10
30.8189377951
 20
54.7839998535
 11
30.8095833556
 21
54.7669972752
  0
LINE
  5
318
100
AcDbEntity
  8
0
100
AcDbLine
 62
9
  6
CONTINUOUS
 10
30.8069792084
 20
54.758909775
 11
30.8417013833
 21
54.8210695804
  0
LINE
  5
319
100
AcDbEntity
  8
0
100
AcDbLine
 62
9
  6
CONTINUOUS
 10
32.1390997708
 20
55.0399584087
 11
32.174112578
 21
55.1003088093
  0
LINE
  5
31A
100
AcDbEntity
  8
0
100
AcDbLine
 62
9
  6
CONTINUOUS
 10
43.7440275863
 20
34.066495461
 11
43.7518937921
 21
34.0711872252
  0
LINE
  5
31B
100
AcDbEntity
  8
DEFAULT_2
100
AcDbLine
 62
8
  6
CONTINUOUS
 10
95.5804080033
 20
55.8199390473
 11
95.5879023659
 21
55.8236807546
  0
LINE
  5
31C
100
AcDbEntity
  8
0
100
AcDbLine
 62
7
  6
CONTINUOUS
 10
96.9741596593
 20
53.5923866917
 11
96.9929634327
 21
53.6010880686
  0
LINE
  5
31D
100
AcDbEntity
  8
DEFAULT_2
100
AcDbLine
 62
8
  6
CONTINUOUS
 10
66.4035150434
 20
36.2465591654
 11
66.4060760511
 21
36.2476074674
  0
LINE
  5
31E
100
AcDbEntity
  8
DEFAULT_2
100
AcDbLine
 62
8
  6
CONTINUOUS
 10
66.355332026
 20
36.3619000279
 11
66.3604507386
 21
36.3639837675
  0
LINE
  5
31F
100
AcDbEntity
  8
DEFAULT_2
100
AcDbLine
 62
8
  6
CONTINUOUS
 10
83.7044765322
 20
37.000369527
 11
83.6353195716
 21
36.9784914841
  0
LINE
  5
320
100
AcDbEntity
  8
0
100
AcDbLine
 62
7
  6
CONTINUOUS
 10
30.7910279372
 20
54.7324287763
 11
30.7818232536
 21
54.7148435173
  0
LINE
  5
321
100
AcDbEntity
  8
0
100
AcDbLine
 62
9
  6
CONTINUOUS
 10
30.7741899693
 20
54.6966041369
 11
30.8069792084
 21
54.758909775
  0
LINE
  5
322
100
AcDbEntity
  8
0
100
AcDbLine
 62
7
  6
CONTINUOUS
 10
30.8002815327
 20
54.7498116129
 11
30.7910279372
 21
54.7324287763
  0
LINE
  5
323
100
AcDbEntity
  8
0
100
AcDbLine
 62
9
  6
CONTINUOUS
 10
32.1056863778
 20
54.9791613999
 11
32.1390997708
 21
55.0399584087
  0
LINE
  5
324
100
AcDbEntity
  8
DEFAULT_2
100
AcDbLine
 62
8
  6
CONTINUOUS
 10
63.7352147402
 20
53.1761740751
 11
63.7619429807
 21
53.1963354053
  0
LINE
  5
325
100
AcDbEntity
  8
DEFAULT_2
100
AcDbLine
 62
8
  6
CONTINUOUS
 10
93.5167647619
 20
55.460042158
 11
93.5566624474
 21
55.4805806293
  0
LINE
  5
326
100
AcDbEntity
  8
0
100
AcDbLine
 62
7
  6
CONTINUOUS
 10
30.7726700956
 20
54.6970540398
 11
30.7635711417
 21
54.6790585846
  0
LINE
  5
327
100
AcDbEntity
  8
0
100
AcDbLine
 62
7
  6
CONTINUOUS
 10
30.7818232536
 20
54.7148435173
 11
30.7726700956
 21
54.6970540398
  0
LINE
  5
328
100
AcDbEntity
  8
DEFAULT_2
100
AcDbLine
 62
8
  6
CONTINUOUS
 10
65.1741967744
 20
51.3054252771
 11
65.1468885912
 21
51.2860110272
  0
LINE
  5
329
100
AcDbEntity
  8
0
100
AcDbLine
 62
7
  6
CONTINUOUS
 10
96.9779213765
 20
53.59402821
 11
96.9978463178
 21
53.6035538246
  0
LINE
  5
32A
100
AcDbEntity
  8
0
100
AcDbLine
 62
9
  6
CONTINUOUS
 10
96.9073420607
 20
53.5678438706
 11
96.8936804948
 21
53.5613247516
  0
LINE
  5
32B
100
AcDbEntity
  8
DEFAULT_2
100
AcDbLine
 62
8
  6
CONTINUOUS
 10
66.4009778667
 20
36.2454543985
 11
66.4035150434
 21
36.2465591654
  0
LINE
  5
32C
100
AcDbEntity
  8
DEFAULT_2
100
AcDbLine
 62
8
  6
CONTINUOUS
 10
66.3501405846
 20
36.359649998
 11
66.355332026
 21
36.3619000279
  0
LINE
  5
32D
100
AcDbEntity
  8
DEFAULT_2
100
AcDbLine
 62
8
  6
CONTINUOUS
 10
83.7742663839
 20
37.0246113572
 11
83.7044765322
 21
37.000369527
  0
LINE
  5
32E
100
AcDbEntity
  8
DEFAULT_2
100
AcDbLine
 62
8
  6
CONTINUOUS
 10
83.6494031231
 20
36.875336742
 11
83.7122566728
 21
36.8966640988
  0
LINE
  5
32F
100
AcDbEntity
  8
0
100
AcDbLine
 62
7
  6
CONTINUOUS
 10
30.754529298
 20
54.6608557637
 11
30.7455476272
 21
54.6424444458
  0
LINE
  5
330
100
AcDbEntity
  8
0
100
AcDbLine
 62
9
  6
CONTINUOUS
 10
30.7432424182
 20
54.6341066636
 11
30.7741899693
 21
54.6966041369
  0
LINE
  5
331
100
AcDbEntity
  8
0
100
AcDbLine
 62
7
  6
CONTINUOUS
 10
30.7635711417
 20
54.6790585846
 11
30.754529298
 21
54.6608557637
  0
LINE
  5
332
100
AcDbEntity
  8
0
100
AcDbLine
 62
9
  6
CONTINUOUS
 10
32.0738075966
 20
54.9179243825
 11
32.1056863778
 21
54.9791613999
  0
LINE
  5
333
100
AcDbEntity
  8
DEFAULT_2
100
AcDbLine
 62
8
  6
CONTINUOUS
 10
93.4793365547
 20
55.4399061478
 11
93.5167647619
 21
55.460042158
  0
LINE
  5
334
100
AcDbEntity
  8
DEFAULT_2
100
AcDbLine
 62
8
  6
CONTINUOUS
 10
95.5879023659
 20
55.8236807546
 11
95.5953073533
 21
55.827591139
  0
LINE
  5
335
100
AcDbEntity
  8
0
100
AcDbLine
 62
9
  6
CONTINUOUS
 10
91.228414602
 20
34.060389498
 11
91.2490477358
 21
34.0663196472
  0
LINE
  5
336
100
AcDbEntity
  8
0
100
AcDbLine
 62
9
  6
CONTINUOUS
 10
30.7140643784
 20
54.5713897723
 11
30.7432424182
 21
54.6341066636
  0
LINE
  5
337
100
AcDbEntity
  8
0
100
AcDbLine
 62
7
  6
CONTINUOUS
 10
30.7366292609
 20
54.623823596
 11
30.7277773071
 21
54.6049920846
  0
LINE
  5
338
100
AcDbEntity
  8
0
100
AcDbLine
 62
7
  6
CONTINUOUS
 10
30.7455476272
 20
54.6424444458
 11
30.7366292609
 21
54.623823596
  0
LINE
  5
339
100
AcDbEntity
  8
0
100
AcDbLine
 62
9
  6
CONTINUOUS
 10
32.0434701042
 20
54.8563852461
 11
32.0738075966
 21
54.9179243825
  0
LINE
  5
33A
100
AcDbEntity
  8
DEFAULT_2
100
AcDbLine
 62
8
  6
CONTINUOUS
 10
63.7090661796
 20
53.1552663902
 11
63.7352147402
 21
53.1761740751
  0
LINE
  5
33B
100
AcDbEntity
  8
DEFAULT_2
100
AcDbLine
 62
8
  6
CONTINUOUS
 10
65.2009250148
 20
51.3255866073
 11
65.1741967744
 21
51.3054252771
  0
LINE
  5
33C
100
AcDbEntity
  8
DEFAULT_2
100
AcDbLine
 62
8
  6
CONTINUOUS
 10
66.3983711923
 20
36.2442486719
 11
66.4009778667
 21
36.2454543985
  0
LINE
  5
33D
100
AcDbEntity
  8
DEFAULT_2
100
AcDbLine
 62
8
  6
CONTINUOUS
 10
66.3450013923
 20
36.3572830324
 11
66.3501405846
 21
36.359649998
  0
LINE
  5
33E
100
AcDbEntity
  8
DEFAULT_2
100
AcDbLine
 62
8
  6
CONTINUOUS
 10
83.7122566728
 20
36.8966640988
 11
83.7745542364
 21
36.9195806706
  0
LINE
  5
33F
100
AcDbEntity
  8
0
100
AcDbLine
 62
7
  6
CONTINUOUS
 10
30.7189947639
 20
54.5859484877
 11
30.7102844526
 21
54.5666909082
  0
LINE
  5
340
100
AcDbEntity
  8
0
100
AcDbLine
 62
7
  6
CONTINUOUS
 10
30.7277773071
 20
54.6049920846
 11
30.7189947639
 21
54.5859484877
  0
LINE
  5
341
100
AcDbEntity
  8
DEFAULT_2
100
AcDbLine
 62
8
  6
CONTINUOUS
 10
66.3398050936
 20
36.354744036
 11
66.3450013923
 21
36.3572830324
  0
LINE
  5
342
100
AcDbEntity
  8
DEFAULT_2
100
AcDbLine
 62
8
  6
CONTINUOUS
 10
83.8433461176
 20
37.0508088057
 11
83.7742663839
 21
37.0246113572
  0
LINE
  5
343
100
AcDbEntity
  8
0
100
AcDbLine
 62
7
  6
CONTINUOUS
 10
91.2325831494
 20
34.0613969981
 11
91.2414666492
 21
34.0641137867
  0
LINE
  5
344
100
AcDbEntity
  8
0
100
AcDbLine
 62
7
  6
CONTINUOUS
 10
30.6930907873
 20
54.5275232197
 11
30.6846125708
 21
54.5076073606
  0
LINE
  5
345
100
AcDbEntity
  8
0
100
AcDbLine
 62
7
  6
CONTINUOUS
 10
30.701648986
 20
54.5472168543
 11
30.6930907873
 21
54.5275232197
  0
LINE
  5
346
100
AcDbEntity
  8
0
100
AcDbLine
 62
9
  6
CONTINUOUS
 10
30.6866269619
 20
54.5085101251
 11
30.7140643784
 21
54.5713897723
  0
LINE
  5
347
100
AcDbEntity
  8
0
100
AcDbLine
 62
7
  6
CONTINUOUS
 10
30.7102844526
 20
54.5666909082
 11
30.701648986
 21
54.5472168543
  0
LINE
  5
348
100
AcDbEntity
  8
0
100
AcDbLine
 62
9
  6
CONTINUOUS
 10
32.0146582804
 20
54.7946477198
 11
32.0434701042
 21
54.8563852461
  0
LINE
  5
349
100
AcDbEntity
  8
DEFAULT_2
100
AcDbLine
 62
8
  6
CONTINUOUS
 10
63.6835186435
 20
53.1336284328
 11
63.7090661796
 21
53.1552663902
  0
LINE
  5
34A
100
AcDbEntity
  8
DEFAULT_2
100
AcDbLine
 62
8
  6
CONTINUOUS
 10
93.4422706125
 20
55.4191111963
 11
93.4793365547
 21
55.4399061478
  0
LINE
  5
34B
100
AcDbEntity
  8
DEFAULT_2
100
AcDbLine
 62
8
  6
CONTINUOUS
 10
95.5953073533
 20
55.827591139
 11
95.6026213333
 21
55.8316693866
  0
LINE
  5
34C
100
AcDbEntity
  8
DEFAULT_2
100
AcDbLine
 62
8
  6
CONTINUOUS
 10
66.3957929041
 20
36.2429833534
 11
66.3983711923
 21
36.2442486719
  0
LINE
  5
34D
100
AcDbEntity
  8
0
100
AcDbLine
 62
7
  6
CONTINUOUS
 10
30.6762127984
 20
54.487456125
 11
30.6678943861
 21
54.4670660875
  0
LINE
  5
34E
100
AcDbEntity
  8
0
100
AcDbLine
 62
9
  6
CONTINUOUS
 10
30.6608795366
 20
54.4454743323
 11
30.6866269619
 21
54.5085101251
  0
LINE
  5
34F
100
AcDbEntity
  8
0
100
AcDbLine
 62
7
  6
CONTINUOUS
 10
30.6846125708
 20
54.5076073606
 11
30.6762127984
 21
54.487456125
  0
LINE
  5
350
100
AcDbEntity
  8
0
100
AcDbLine
 62
9
  6
CONTINUOUS
 10
31.9873527767
 20
54.732798578
 11
32.0146582804
 21
54.7946477198
  0
LINE
  5
351
100
AcDbEntity
  8
DEFAULT_2
100
AcDbLine
 62
8
  6
CONTINUOUS
 10
65.2270735754
 20
51.3464942921
 11
65.2009250148
 21
51.3255866073
  0
LINE
  5
352
100
AcDbEntity
  8
0
100
AcDbLine
 62
7
  6
CONTINUOUS
 10
96.9929634327
 20
53.6010880686
 11
97.0114395966
 21
53.6108819179
  0
LINE
  5
353
100
AcDbEntity
  8
DEFAULT_2
100
AcDbLine
 62
8
  6
CONTINUOUS
 10
66.3346689161
 20
36.3520854973
 11
66.3398050936
 21
36.354744036
  0
LINE
  5
354
100
AcDbEntity
  8
DEFAULT_2
100
AcDbLine
 62
8
  6
CONTINUOUS
 10
83.7745542364
 20
36.9195806706
 11
83.8362476401
 21
36.9440661828
  0
LINE
  5
355
100
AcDbEntity
  8
0
100
AcDbLine
 62
7
  6
CONTINUOUS
 10
91.2406733218
 20
34.0636768824
 11
91.2497073698
 21
34.0666569917
  0
LINE
  5
356
100
AcDbEntity
  8
0
100
AcDbLine
 62
7
  6
CONTINUOUS
 10
30.659670661
 20
54.4464591734
 11
30.6515500059
 21
54.4256463498
  0
LINE
  5
357
100
AcDbEntity
  8
0
100
AcDbLine
 62
7
  6
CONTINUOUS
 10
30.6678943861
 20
54.4670660875
 11
30.659670661
 21
54.4464591734
  0
LINE
  5
358
100
AcDbEntity
  8
0
100
AcDbLine
 62
9
  6
CONTINUOUS
 10
31.9615489617
 20
54.6709547968
 11
31.9873527767
 21
54.732798578
  0
LINE
  5
359
100
AcDbEntity
  8
DEFAULT_2
100
AcDbLine
 62
8
  6
CONTINUOUS
 10
93.4055788299
 20
55.3976633227
 11
93.4422706125
 21
55.4191111963
  0
LINE
  5
35A
100
AcDbEntity
  8
DEFAULT_2
100
AcDbLine
 62
8
  6
CONTINUOUS
 10
66.3932443655
 20
36.2416591143
 11
66.3957929041
 21
36.2429833534
  0
LINE
  5
35B
100
AcDbEntity
  8
DEFAULT_2
100
AcDbLine
 62
8
  6
CONTINUOUS
 10
83.9128414303
 20
37.0794461759
 11
83.8433461176
 21
37.0508088057
  0
LINE
  5
35C
100
AcDbEntity
  8
0
100
AcDbLine
 62
7
  6
CONTINUOUS
 10
30.6435343681
 20
54.4046225729
 11
30.6356253491
 21
54.3833814002
  0
LINE
  5
35D
100
AcDbEntity
  8
0
100
AcDbLine
 62
7
  6
CONTINUOUS
 10
30.6515500059
 20
54.4256463498
 11
30.6435343681
 21
54.4046225729
  0
LINE
  5
35E
100
AcDbEntity
  8
0
100
AcDbLine
 62
9
  6
CONTINUOUS
 10
30.6368199211
 20
54.3823913869
 11
30.6608795366
 21
54.4454743323
  0
LINE
  5
35F
100
AcDbEntity
  8
DEFAULT_2
100
AcDbLine
 62
8
  6
CONTINUOUS
 10
63.6586134646
 20
53.1112952343
 11
63.6835186435
 21
53.1336284328
  0
LINE
  5
360
100
AcDbEntity
  8
DEFAULT_2
100
AcDbLine
 62
8
  6
CONTINUOUS
 10
65.2526211116
 20
51.3681322496
 11
65.2270735754
 21
51.3464942921
  0
LINE
  5
361
100
AcDbEntity
  8
DEFAULT_2
100
AcDbLine
 62
8
  6
CONTINUOUS
 10
95.6026213333
 20
55.8316693866
 11
95.6098404233
 21
55.8359133746
  0
LINE
  5
362
100
AcDbEntity
  8
0
100
AcDbLine
 62
9
  6
CONTINUOUS
 10
96.8936804948
 20
53.5613247516
 11
96.8804387757
 21
53.5539899969
  0
LINE
  5
363
100
AcDbEntity
  8
0
100
AcDbLine
 62
7
  6
CONTINUOUS
 10
96.9978463178
 20
53.6035538246
 11
97.0176233727
 21
53.6144472298
  0
LINE
  5
364
100
AcDbEntity
  8
DEFAULT_2
100
AcDbLine
 62
8
  6
CONTINUOUS
 10
66.3906473177
 20
36.2402316832
 11
66.3932443655
 21
36.2416591143
  0
LINE
  5
365
100
AcDbEntity
  8
DEFAULT_2
100
AcDbLine
 62
8
  6
CONTINUOUS
 10
66.3294909934
 20
36.3492499545
 11
66.3346689161
 21
36.3520854973
  0
LINE
  5
366
100
AcDbEntity
  8
0
100
AcDbLine
 62
9
  6
CONTINUOUS
 10
30.6144462419
 20
54.3193706813
 11
30.6368199211
 21
54.3823913869
  0
LINE
  5
367
100
AcDbEntity
  8
0
100
AcDbLine
 62
7
  6
CONTINUOUS
 10
30.6356253491
 20
54.3833814002
 11
30.627824373
 21
54.3619152858
  0
LINE
  5
368
100
AcDbEntity
  8
0
100
AcDbLine
 62
9
  6
CONTINUOUS
 10
31.9371607859
 20
54.6090446635
 11
31.9615489617
 21
54.6709547968
  0
LINE
  5
369
100
AcDbEntity
  8
DEFAULT_2
100
AcDbLine
 62
8
  6
CONTINUOUS
 10
93.3712690887
 20
55.3768064121
 11
93.4055788299
 21
55.3976633227
  0
LINE
  5
36A
100
AcDbEntity
  8
DEFAULT_2
100
AcDbLine
 62
8
  6
CONTINUOUS
 10
83.8362476401
 20
36.9440661828
 11
83.8972996105
 21
36.9701026201
  0
LINE
  5
36B
100
AcDbEntity
  8
0
100
AcDbLine
 62
7
  6
CONTINUOUS
 10
91.2573533685
 20
34.0690031919
 11
91.2659082109
 21
34.0720721154
  0
LINE
  5
36C
100
AcDbEntity
  8
0
100
AcDbLine
 62
7
  6
CONTINUOUS
 10
91.2489350274
 20
34.0662081629
 11
91.2580752121
 21
34.0694534919
  0
LINE
  5
36D
100
AcDbEntity
  8
0
100
AcDbLine
 62
9
  6
CONTINUOUS
 10
91.2490477358
 20
34.0663196472
 11
91.2693076796
 21
34.0734207943
  0
LINE
  5
36E
100
AcDbEntity
  8
0
100
AcDbLine
 62
7
  6
CONTINUOUS
 10
30.6201331477
 20
54.3402167536
 11
30.6125539574
 21
54.3182792619
  0
LINE
  5
36F
100
AcDbEntity
  8
0
100
AcDbLine
 62
7
  6
CONTINUOUS
 10
30.627824373
 20
54.3619152858
 11
30.6201331477
 21
54.3402167536
  0
LINE
  5
370
100
AcDbEntity
  8
0
100
AcDbLine
 62
9
  6
CONTINUOUS
 10
31.9141156459
 20
54.5470046856
 11
31.9371607859
 21
54.6090446635
  0
LINE
  5
371
100
AcDbEntity
  8
DEFAULT_2
100
AcDbLine
 62
8
  6
CONTINUOUS
 10
63.6343495997
 20
53.088266882
 11
63.6586134646
 21
53.1112952343
  0
LINE
  5
372
100
AcDbEntity
  8
DEFAULT_2
100
AcDbLine
 62
8
  6
CONTINUOUS
 10
66.3880848322
 20
36.2387430685
 11
66.3906473177
 21
36.2402316832
  0
LINE
  5
373
100
AcDbEntity
  8
DEFAULT_2
100
AcDbLine
 62
8
  6
CONTINUOUS
 10
66.3243814646
 20
36.3462929229
 11
66.3294909934
 21
36.3492499545
  0
LINE
  5
374
100
AcDbEntity
  8
DEFAULT_2
100
AcDbLine
 62
8
  6
CONTINUOUS
 10
83.9814889274
 20
37.1100606071
 11
83.9128414303
 21
37.0794461759
  0
LINE
  5
375
100
AcDbEntity
  8
0
100
AcDbLine
 62
7
  6
CONTINUOUS
 10
91.2580752121
 20
34.0694534919
 11
91.2665616231
 21
34.0725153097
  0
LINE
  5
376
100
AcDbEntity
  8
0
100
AcDbLine
 62
7
  6
CONTINUOUS
 10
30.6050898056
 20
54.2960977572
 11
30.597744429
 21
54.2736689221
  0
LINE
  5
377
100
AcDbEntity
  8
0
100
AcDbLine
 62
9
  6
CONTINUOUS
 10
30.593695532
 20
54.2563577448
 11
30.6144462419
 21
54.3193706813
  0
LINE
  5
378
100
AcDbEntity
  8
0
100
AcDbLine
 62
7
  6
CONTINUOUS
 10
30.6125539574
 20
54.3182792619
 11
30.6050898056
 21
54.2960977572
  0
LINE
  5
379
100
AcDbEntity
  8
0
100
AcDbLine
 62
9
  6
CONTINUOUS
 10
31.8924021456
 20
54.4849235893
 11
31.9141156459
 21
54.5470046856
  0
LINE
  5
37A
100
AcDbEntity
  8
DEFAULT_2
100
AcDbLine
 62
8
  6
CONTINUOUS
 10
65.2775262905
 20
51.3904654481
 11
65.2526211116
 21
51.3681322496
  0
LINE
  5
37B
100
AcDbEntity
  8
DEFAULT_2
100
AcDbLine
 62
8
  6
CONTINUOUS
 10
93.3373136981
 20
55.3553777465
 11
93.3712690887
 21
55.3768064121
  0
LINE
  5
37C
100
AcDbEntity
  8
DEFAULT_2
100
AcDbLine
 62
8
  6
CONTINUOUS
 10
95.6098404233
 20
55.8359133746
 11
95.6169607412
 21
55.84032098
  0
LINE
  5
37D
100
AcDbEntity
  8
DEFAULT_2
100
AcDbLine
 62
8
  6
CONTINUOUS
 10
83.8972996105
 20
36.9701026201
 11
83.9576728747
 21
36.997671967
  0
LINE
  5
37E
100
AcDbEntity
  8
0
100
AcDbLine
 62
9
  6
CONTINUOUS
 10
91.2693076796
 20
34.0734207943
 11
91.2745887048
 21
34.0754279731
  0
LINE
  5
37F
100
AcDbEntity
  8
0
100
AcDbLine
 62
7
  6
CONTINUOUS
 10
91.2254780065
 20
34.0597593941
 11
91.2333836378
 21
34.0618180625
  0
LINE
  5
380
100
AcDbEntity
  8
0
100
AcDbLine
 62
7
  6
CONTINUOUS
 10
91.2246861579
 20
34.0593575508
 11
91.2325831494
 21
34.0613969981
  0
LINE
  5
381
100
AcDbEntity
  8
0
100
AcDbLine
 62
9
  6
CONTINUOUS
 10
30.5745257915
 20
54.1933458308
 11
30.593695532
 21
54.2563577448
  0
LINE
  5
382
100
AcDbEntity
  8
0
100
AcDbLine
 62
7
  6
CONTINUOUS
 10
30.590522208
 20
54.2509911373
 11
30.5834280006
 21
54.2280641879
  0
LINE
  5
383
100
AcDbEntity
  8
0
100
AcDbLine
 62
7
  6
CONTINUOUS
 10
30.597744429
 20
54.2736689221
 11
30.590522208
 21
54.2509911373
  0
LINE
  5
384
100
AcDbEntity
  8
DEFAULT_2
100
AcDbLine
 62
8
  6
CONTINUOUS
 10
66.3855583461
 20
36.2371941036
 11
66.3880848322
 21
36.2387430685
  0
LINE
  5
385
100
AcDbEntity
  8
DEFAULT_2
100
AcDbLine
 62
8
  6
CONTINUOUS
 10
66.3192464612
 20
36.3431553611
 11
66.3243814646
 21
36.3462929229
  0
LINE
  5
386
100
AcDbEntity
  8
0
100
AcDbLine
 62
7
  6
CONTINUOUS
 10
30.5764664691
 20
54.2048872013
 11
30.569642387
 21
54.181459616
  0
LINE
  5
387
100
AcDbEntity
  8
0
100
AcDbLine
 62
7
  6
CONTINUOUS
 10
30.5834280006
 20
54.2280641879
 11
30.5764664691
 21
54.2048872013
  0
LINE
  5
388
100
AcDbEntity
  8
0
100
AcDbLine
 62
9
  6
CONTINUOUS
 10
31.8719842389
 20
54.4228301154
 11
31.8924021456
 21
54.4849235893
  0
LINE
  5
389
100
AcDbEntity
  8
DEFAULT_2
100
AcDbLine
 62
8
  6
CONTINUOUS
 10
63.610747016
 20
53.06456124
 11
63.6343495997
 21
53.088266882
  0
LINE
  5
38A
100
AcDbEntity
  8
DEFAULT_2
100
AcDbLine
 62
8
  6
CONTINUOUS
 10
93.3037224433
 20
55.3333829517
 11
93.3373136981
 21
55.3553777465
  0
LINE
  5
38B
100
AcDbEntity
  8
0
100
AcDbLine
 62
7
  6
CONTINUOUS
 10
97.0114395966
 20
53.6108819179
 11
97.0295500013
 21
53.6217479919
  0
LINE
  5
38C
100
AcDbEntity
  8
DEFAULT_2
100
AcDbLine
 62
8
  6
CONTINUOUS
 10
84.0502374141
 20
37.1431273239
 11
83.9814889274
 21
37.1100606071
  0
LINE
  5
38D
100
AcDbEntity
  8
0
100
AcDbLine
 62
7
  6
CONTINUOUS
 10
30.5629609865
 20
54.1577824807
 11
30.5564272557
 21
54.1338561121
  0
LINE
  5
38E
100
AcDbEntity
  8
0
100
AcDbLine
 62
9
  6
CONTINUOUS
 10
30.55688885
 20
54.1302976625
 11
30.5745257915
 21
54.1933458308
  0
LINE
  5
38F
100
AcDbEntity
  8
0
100
AcDbLine
 62
7
  6
CONTINUOUS
 10
30.569642387
 20
54.181459616
 11
30.5629609865
 21
54.1577824807
  0
LINE
  5
390
100
AcDbEntity
  8
0
100
AcDbLine
 62
9
  6
CONTINUOUS
 10
31.8528565527
 20
54.3608351158
 11
31.8719842389
 21
54.4228301154
  0
LINE
  5
391
100
AcDbEntity
  8
DEFAULT_2
100
AcDbLine
 62
8
  6
CONTINUOUS
 10
65.3017901553
 20
51.4134938004
 11
65.2775262905
 21
51.3904654481
  0
LINE
  5
392
100
AcDbEntity
  8
DEFAULT_2
100
AcDbLine
 62
8
  6
CONTINUOUS
 10
95.6169607412
 20
55.84032098
 11
95.6239784045
 21
55.8448900799
  0
LINE
  5
393
100
AcDbEntity
  8
DEFAULT_2
100
AcDbLine
 62
8
  6
CONTINUOUS
 10
66.3830036807
 20
36.2355421041
 11
66.3855583461
 21
36.2371941036
  0
LINE
  5
394
100
AcDbEntity
  8
DEFAULT_2
100
AcDbLine
 62
8
  6
CONTINUOUS
 10
66.3141884606
 20
36.339895102
 11
66.3192464612
 21
36.3431553611
  0
LINE
  5
395
100
AcDbEntity
  8
DEFAULT_2
100
AcDbLine
 62
8
  6
CONTINUOUS
 10
83.9576728747
 20
36.997671967
 11
84.0173301595
 21
37.0267562082
  0
LINE
  5
396
100
AcDbEntity
  8
0
100
AcDbLine
 62
7
  6
CONTINUOUS
 10
91.2659082109
 20
34.0720721154
 11
91.2751505739
 21
34.0758517454
  0
LINE
  5
397
100
AcDbEntity
  8
0
100
AcDbLine
 62
7
  6
CONTINUOUS
 10
91.217787525
 20
34.0579306833
 11
91.2254780065
 21
34.0597593941
  0
LINE
  5
398
100
AcDbEntity
  8
0
100
AcDbLine
 62
7
  6
CONTINUOUS
 10
91.2169875106
 20
34.0575429985
 11
91.2246861579
 21
34.0593575508
  0
LINE
  5
399
100
AcDbEntity
  8
0
100
AcDbLine
 62
7
  6
CONTINUOUS
 10
30.5500457697
 20
54.1096793149
 11
30.543820918
 21
54.0852500135
  0
LINE
  5
39A
100
AcDbEntity
  8
0
100
AcDbLine
 62
9
  6
CONTINUOUS
 10
30.5407313284
 20
54.0671350337
 11
30.55688885
 21
54.1302976625
  0
LINE
  5
39B
100
AcDbEntity
  8
0
100
AcDbLine
 62
7
  6
CONTINUOUS
 10
30.5564272557
 20
54.1338561121
 11
30.5500457697
 21
54.1096793149
  0
LINE
  5
39C
100
AcDbEntity
  8
0
100
AcDbLine
 62
9
  6
CONTINUOUS
 10
31.8350209047
 20
54.2990634002
 11
31.8528565527
 21
54.3608351158
  0
LINE
  5
39D
100
AcDbEntity
  8
0
100
AcDbLine
 62
7
  6
CONTINUOUS
 10
97.0176233727
 20
53.6144472298
 11
97.0358389831
 21
53.6258803412
  0
LINE
  5
39E
100
AcDbEntity
  8
0
100
AcDbLine
 62
9
  6
CONTINUOUS
 10
91.283829775
 20
34.0794732084
 11
91.2891280315
 21
34.0816696655
  0
LINE
  5
39F
100
AcDbEntity
  8
DEFAULT_2
100
AcDbLine
 62
8
  6
CONTINUOUS
 10
83.5221761892
 20
36.8374927988
 11
83.5860279361
 21
36.8556086961
  0
LINE
  5
3A0
100
AcDbEntity
  8
0
100
AcDbLine
 62
9
  6
CONTINUOUS
 10
91.2074759029
 20
34.0556497827
 11
91.228414602
 21
34.060389498
  0
LINE
  5
3A1
100
AcDbEntity
  8
0
100
AcDbLine
 62
7
  6
CONTINUOUS
 10
30.5377563885
 20
54.0605629433
 11
30.5318586102
 21
54.0356231764
  0
LINE
  5
3A2
100
AcDbEntity
  8
0
100
AcDbLine
 62
7
  6
CONTINUOUS
 10
30.543820918
 20
54.0852500135
 11
30.5377563885
 21
54.0605629433
  0
LINE
  5
3A3
100
AcDbEntity
  8
0
100
AcDbLine
 62
9
  6
CONTINUOUS
 10
31.8184115696
 20
54.2374180359
 11
31.8350209047
 21
54.2990634002
  0
LINE
  5
3A4
100
AcDbEntity
  8
DEFAULT_2
100
AcDbLine
 62
8
  6
CONTINUOUS
 10
63.5878441358
 20
53.0402169172
 11
63.610747016
 21
53.06456124
  0
LINE
  5
3A5
100
AcDbEntity
  8
DEFAULT_2
100
AcDbLine
 62
8
  6
CONTINUOUS
 10
65.3253927391
 20
51.4371994423
 11
65.3017901553
 21
51.4134938004
  0
LINE
  5
3A6
100
AcDbEntity
  8
DEFAULT_2
100
AcDbLine
 62
8
  6
CONTINUOUS
 10
93.2568492319
 20
55.301316391
 11
93.3037224433
 21
55.3333829517
  0
LINE
  5
3A7
100
AcDbEntity
  8
DEFAULT_2
100
AcDbLine
 62
8
  6
CONTINUOUS
 10
66.3804899761
 20
36.2338284173
 11
66.3830036807
 21
36.2355421041
  0
LINE
  5
3A8
100
AcDbEntity
  8
DEFAULT_2
100
AcDbLine
 62
8
  6
CONTINUOUS
 10
66.3091214141
 20
36.336451977
 11
66.3141884606
 21
36.339895102
  0
LINE
  5
3A9
100
AcDbEntity
  8
0
100
AcDbLine
 62
9
  6
CONTINUOUS
 10
96.8804387757
 20
53.5539899969
 11
96.8676654933
 21
53.5458665211
  0
LINE
  5
3AA
100
AcDbEntity
  8
DEFAULT_2
100
AcDbLine
 62
8
  6
CONTINUOUS
 10
84.0173301595
 20
37.0267562082
 11
84.0762341917
 21
37.0573373283
  0
LINE
  5
3AB
100
AcDbEntity
  8
DEFAULT_2
100
AcDbLine
 62
8
  6
CONTINUOUS
 10
84.1179976898
 20
37.1781748572
 11
84.0502374141
 21
37.1431273239
  0
LINE
  5
3AC
100
AcDbEntity
  8
0
100
AcDbLine
 62
7
  6
CONTINUOUS
 10
91.2103373664
 20
34.0563199789
 11
91.217787525
 21
34.0579306833
  0
LINE
  5
3AD
100
AcDbEntity
  8
0
100
AcDbLine
 62
7
  6
CONTINUOUS
 10
91.2095455096
 20
34.0559491936
 11
91.2169875106
 21
34.0575429985
  0
LINE
  5
3AE
100
AcDbEntity
  8
0
100
AcDbLine
 62
7
  6
CONTINUOUS
 10
30.5261365951
 20
54.0104456152
 11
30.5233435172
 21
53.9977691477
  0
LINE
  5
3AF
100
AcDbEntity
  8
0
100
AcDbLine
 62
7
  6
CONTINUOUS
 10
30.5289750805
 20
54.023063183
 11
30.5261365951
 21
54.0104456152
  0
LINE
  5
3B0
100
AcDbEntity
  8
0
100
AcDbLine
 62
7
  6
CONTINUOUS
 10
30.5318586102
 20
54.0356231764
 11
30.5289750805
 21
54.023063183
  0
LINE
  5
3B1
100
AcDbEntity
  8
0
100
AcDbLine
 62
9
  6
CONTINUOUS
 10
30.5260516034
 20
54.0039695058
 11
30.5407313284
 21
54.0671350337
  0
LINE
  5
3B2
100
AcDbEntity
  8
0
100
AcDbLine
 62
9
  6
CONTINUOUS
 10
31.8029828673
 20
54.1758475735
 11
31.8184115696
 21
54.2374180359
  0
LINE
  5
3B3
100
AcDbEntity
  8
DEFAULT_2
100
AcDbLine
 62
8
  6
CONTINUOUS
 10
95.6239784045
 20
55.8448900799
 11
95.6308912843
 21
55.8496194674
  0
LINE
  5
3B4
100
AcDbEntity
  8
0
100
AcDbLine
 62
7
  6
CONTINUOUS
 10
91.2745887048
 20
34.0754279731
 11
91.283829775
 21
34.0794732084
  0
LINE
  5
3B5
100
AcDbEntity
  8
0
100
AcDbLine
 62
7
  6
CONTINUOUS
 10
30.5178958831
 20
53.9722376632
 11
30.5152422825
 21
53.959380659
  0
LINE
  5
3B6
100
AcDbEntity
  8
0
100
AcDbLine
 62
9
  6
CONTINUOUS
 10
30.5128435599
 20
53.9408786253
 11
30.5260516034
 21
54.0039695058
  0
LINE
  5
3B7
100
AcDbEntity
  8
0
100
AcDbLine
 62
7
  6
CONTINUOUS
 10
30.5205964644
 20
53.9850335288
 11
30.5178958831
 21
53.9722376632
  0
LINE
  5
3B8
100
AcDbEntity
  8
0
100
AcDbLine
 62
7
  6
CONTINUOUS
 10
30.5233435172
 20
53.9977691477
 11
30.5205964644
 21
53.9850335288
  0
LINE
  5
3B9
100
AcDbEntity
  8
0
100
AcDbLine
 62
9
  6
CONTINUOUS
 10
31.7887017424
 20
54.1143374971
 11
31.8029828673
 21
54.1758475735
  0
LINE
  5
3BA
100
AcDbEntity
  8
DEFAULT_2
100
AcDbLine
 62
8
  6
CONTINUOUS
 10
63.5656397965
 20
53.0152338076
 11
63.5878441358
 21
53.0402169172
  0
LINE
  5
3BB
100
AcDbEntity
  8
DEFAULT_2
100
AcDbLine
 62
8
  6
CONTINUOUS
 10
93.2107510572
 20
55.2681458785
 11
93.2568492319
 21
55.301316391
  0
LINE
  5
3BC
100
AcDbEntity
  8
DEFAULT_2
100
AcDbLine
 62
8
  6
CONTINUOUS
 10
66.3780187408
 20
36.2320540776
 11
66.3804899761
 21
36.2338284173
  0
LINE
  5
3BD
100
AcDbEntity
  8
DEFAULT_2
100
AcDbLine
 62
8
  6
CONTINUOUS
 10
66.3041402448
 20
36.3328857115
 11
66.3091214141
 21
36.336451977
  0
LINE
  5
3BE
100
AcDbEntity
  8
DEFAULT_2
100
AcDbLine
 62
8
  6
CONTINUOUS
 10
83.4578929597
 20
36.8210018875
 11
83.5221761892
 21
36.8374927988
  0
LINE
  5
3BF
100
AcDbEntity
  8
DEFAULT_2
100
AcDbLine
 62
8
  6
CONTINUOUS
 10
83.5655837589
 20
36.9585358793
 11
83.4966568487
 21
36.9408422864
  0
LINE
  5
3C0
100
AcDbEntity
  8
0
100
AcDbLine
 62
7
  6
CONTINUOUS
 10
91.2031801851
 20
34.0549194163
 11
91.2103373664
 21
34.0563199789
  0
LINE
  5
3C1
100
AcDbEntity
  8
0
100
AcDbLine
 62
7
  6
CONTINUOUS
 10
91.2023865067
 20
34.0545623417
 11
91.2095455096
 21
34.0559491936
  0
LINE
  5
3C2
100
AcDbEntity
  8
0
100
AcDbLine
 62
7
  6
CONTINUOUS
 10
98.4645480272
 20
53.6749785765
 11
98.4630466442
 21
53.6891122456
  0
LINE
  5
3C3
100
AcDbEntity
  8
0
100
AcDbLine
 62
7
  6
CONTINUOUS
 10
98.4659867296
 20
53.6607854051
 11
98.4645480272
 21
53.6749785765
  0
LINE
  5
3C4
100
AcDbEntity
  8
DEFAULT_2
100
AcDbLine
 62
8
  6
CONTINUOUS
 10
63.288172019
 20
52.1180317522
 11
63.2848478599
 21
52.1511533798
  0
LINE
  5
3C5
100
AcDbEntity
  8
DEFAULT_2
100
AcDbLine
 62
8
  6
CONTINUOUS
 10
65.6479677361
 20
52.3837289302
 11
65.6512918952
 21
52.3506073025
  0
LINE
  5
3C6
100
AcDbEntity
  8
0
100
AcDbLine
 62
9
  6
CONTINUOUS
 10
98.4680698773
 20
53.6258803412
 11
98.4618667916
 21
53.6890108756
  0
LINE
  5
3C7
100
AcDbEntity
  8
0
100
AcDbLine
 62
7
  6
CONTINUOUS
 10
98.4673620919
 20
53.64653241
 11
98.4659867296
 21
53.6607854051
  0
LINE
  5
3C8
100
AcDbEntity
  8
0
100
AcDbLine
 62
9
  6
CONTINUOUS
 10
97.2228264975
 20
53.6258803755
 11
97.2170056817
 21
53.6867646308
  0
LINE
  5
3C9
100
AcDbEntity
  8
0
100
AcDbLine
 62
7
  6
CONTINUOUS
 10
98.4692319098
 20
53.6258803412
 11
98.4673620919
 21
53.64653241
  0
LINE
  5
3CA
100
AcDbEntity
  8
DEFAULT_2
100
AcDbLine
 62
8
  6
CONTINUOUS
 10
63.2848478599
 20
52.1511533798
 11
63.2824720253
 21
52.1843538939
  0
LINE
  5
3CB
100
AcDbEntity
  8
DEFAULT_2
100
AcDbLine
 62
8
  6
CONTINUOUS
 10
65.6512918952
 20
52.3506073025
 11
65.6536677297
 21
52.3174067884
  0
LINE
  5
3CC
100
AcDbEntity
  8
0
100
AcDbLine
 62
9
  6
CONTINUOUS
 10
32.1552703781
 20
53.442754192
 11
32.1552847542
 21
53.4424436874
  0
LINE
  5
3CD
100
AcDbEntity
  8
DEFAULT_2
100
AcDbLine
 62
8
  6
CONTINUOUS
 10
63.2824720253
 20
52.1843538939
 11
63.2810456201
 21
52.2176069271
  0
LINE
  5
3CE
100
AcDbEntity
  8
DEFAULT_2
100
AcDbLine
 62
8
  6
CONTINUOUS
 10
65.6536677297
 20
52.3174067884
 11
65.655094135
 21
52.2841537553
  0
LINE
  5
3CF
100
AcDbEntity
  8
DEFAULT_2
100
AcDbLine
 62
8
  6
CONTINUOUS
 10
63.2810456201
 20
52.2176069271
 11
63.2805698775
 21
52.2508803412
  0
LINE
  5
3D0
100
AcDbEntity
  8
DEFAULT_2
100
AcDbLine
 62
8
  6
CONTINUOUS
 10
65.655094135
 20
52.2841537553
 11
65.6555698775
 21
52.2508803412
  0
LINE
  5
3D1
100
AcDbEntity
  8
0
100
AcDbLine
 62
9
  6
CONTINUOUS
 10
39.541202239
 20
34.0664954896
 11
39.5412022383
 21
34.0652748877
  0
LINE
  5
3D2
100
AcDbEntity
  8
DEFAULT_1
100
AcDbLine
 62
7
  6
CENTER
 10
64.4680924019
 20
58.2751524774
 11
64.4680924019
 21
32.3295632756
  0
LINE
  5
3D3
100
AcDbEntity
  8
0
100
AcDbLine
 62
9
  6
CONTINUOUS
 10
89.3949229669
 20
34.06649545
 11
89.3949229669
 21
34.0652748848
  0
LINE
  5
3D4
100
AcDbEntity
  8
DEFAULT_2
100
AcDbLine
 62
8
  6
CONTINUOUS
 10
63.2805698775
 20
52.2508803412
 11
63.2810456201
 21
52.2841537553
  0
LINE
  5
3D5
100
AcDbEntity
  8
DEFAULT_2
100
AcDbLine
 62
8
  6
CONTINUOUS
 10
65.6555698775
 20
52.2508803412
 11
65.655094135
 21
52.2176069271
  0
LINE
  5
3D6
100
AcDbEntity
  8
DEFAULT_2
100
AcDbLine
 62
8
  6
CONTINUOUS
 10
63.2810456201
 20
52.2841537553
 11
63.2824720253
 21
52.3174067884
  0
LINE
  5
3D7
100
AcDbEntity
  8
DEFAULT_2
100
AcDbLine
 62
8
  6
CONTINUOUS
 10
65.655094135
 20
52.2176069271
 11
65.6536677297
 21
52.1843538939
  0
LINE
  5
3D8
100
AcDbEntity
  8
DEFAULT_2
100
AcDbLine
 62
8
  6
CONTINUOUS
 10
63.2824720253
 20
52.3174067884
 11
63.2848478599
 21
52.3506073025
  0
LINE
  5
3D9
100
AcDbEntity
  8
DEFAULT_2
100
AcDbLine
 62
8
  6
CONTINUOUS
 10
65.6536677297
 20
52.1843538939
 11
65.6512918952
 21
52.1511533798
  0
LINE
  5
3DA
100
AcDbEntity
  8
0
100
AcDbLine
 62
7
  6
CONTINUOUS
 10
30.4687781782
 20
53.6465378862
 11
30.4669078453
 21
53.6258803412
  0
LINE
  5
3DB
100
AcDbEntity
  8
0
100
AcDbLine
 62
9
  6
CONTINUOUS
 10
31.7133132576
 20
53.6258803755
 11
31.7191340734
 21
53.6867646308
  0
LINE
  5
3DC
100
AcDbEntity
  8
0
100
AcDbLine
 62
7
  6
CONTINUOUS
 10
30.4701538332
 20
53.66079357
 11
30.4687781782
 21
53.6465378862
  0
LINE
  5
3DD
100
AcDbEntity
  8
0
100
AcDbLine
 62
9
  6
CONTINUOUS
 10
30.4680698778
 20
53.6258803412
 11
30.4742729634
 21
53.6890108756
  0
LINE
  5
3DE
100
AcDbEntity
  8
DEFAULT_2
100
AcDbLine
 62
8
  6
CONTINUOUS
 10
63.2848478599
 20
52.3506073025
 11
63.288172019
 21
52.3837289302
  0
LINE
  5
3DF
100
AcDbEntity
  8
DEFAULT_2
100
AcDbLine
 62
8
  6
CONTINUOUS
 10
65.6512918952
 20
52.1511533798
 11
65.6479677361
 21
52.1180317522
  0
LINE
  5
3E0
100
AcDbEntity
  8
0
100
AcDbLine
 62
7
  6
CONTINUOUS
 10
30.4715928522
 20
53.6749894076
 11
30.4701538332
 21
53.66079357
  0
LINE
  5
3E1
100
AcDbEntity
  8
0
100
AcDbLine
 62
7
  6
CONTINUOUS
 10
30.4730945751
 20
53.6891257211
 11
30.4715928522
 21
53.6749894076
  0
LINE
  5
3E2
100
AcDbEntity
  8
0
100
AcDbLine
 62
7
  6
CONTINUOUS
 10
30.4746584183
 20
53.7032034457
 11
30.4730945751
 21
53.6891257211
  0
LINE
  5
3E3
100
AcDbEntity
  8
0
100
AcDbLine
 62
9
  6
CONTINUOUS
 10
31.7191340734
 20
53.6867646308
 11
31.7259468529
 21
53.7476042131
  0
LINE
  5
3E4
100
AcDbEntity
  8
0
100
AcDbLine
 62
7
  6
CONTINUOUS
 10
30.4762838216
 20
53.7172235615
 11
30.4746584183
 21
53.7032034457
  0
LINE
  5
3E5
100
AcDbEntity
  8
0
100
AcDbLine
 62
9
  6
CONTINUOUS
 10
30.4742729634
 20
53.6890108756
 11
30.4818351017
 21
53.7520462228
  0
LINE
  5
3E6
100
AcDbEntity
  8
0
100
AcDbLine
 62
9
  6
CONTINUOUS
 10
91.5073919299
 20
34.3779353818
 11
91.5076130241
 21
34.379774914
  0
LINE
  5
3E7
100
AcDbEntity
  8
0
100
AcDbLine
 62
7
  6
CONTINUOUS
 10
30.4779701508
 20
53.7311862913
 11
30.4762838216
 21
53.7172235615
  0
LINE
  5
3E8
100
AcDbEntity
  8
0
100
AcDbLine
 62
7
  6
CONTINUOUS
 10
30.479716839
 20
53.7450923496
 11
30.4779701508
 21
53.7311862913
  0
LINE
  5
3E9
100
AcDbEntity
  8
0
100
AcDbLine
 62
9
  6
CONTINUOUS
 10
31.7259468529
 20
53.7476042131
 11
31.7337541073
 21
53.808356508
  0
LINE
  5
3EA
100
AcDbEntity
  8
DEFAULT_2
100
AcDbLine
 62
8
  6
CONTINUOUS
 10
63.288172019
 20
52.3837289302
 11
63.2924409559
 21
52.4167402733
  0
LINE
  5
3EB
100
AcDbEntity
  8
DEFAULT_2
100
AcDbLine
 62
8
  6
CONTINUOUS
 10
65.6479677361
 20
52.1180317522
 11
65.6436987992
 21
52.085020409
  0
LINE
  5
3EC
100
AcDbEntity
  8
0
100
AcDbLine
 62
7
  6
CONTINUOUS
 10
30.4815231766
 20
53.7589412705
 11
30.479716839
 21
53.7450923496
  0
LINE
  5
3ED
100
AcDbEntity
  8
0
100
AcDbLine
 62
7
  6
CONTINUOUS
 10
30.4833885221
 20
53.7727331475
 11
30.4815231766
 21
53.7589412705
  0
LINE
  5
3EE
100
AcDbEntity
  8
0
100
AcDbLine
 62
7
  6
CONTINUOUS
 10
91.5054821856
 20
34.3644657879
 11
91.5076366308
 21
34.3799755107
  0
LINE
  5
3EF
100
AcDbEntity
  8
0
100
AcDbLine
 62
7
  6
CONTINUOUS
 10
30.4853120894
 20
53.7864670449
 11
30.4833885221
 21
53.7727331475
  0
LINE
  5
3F0
100
AcDbEntity
  8
0
100
AcDbLine
 62
9
  6
CONTINUOUS
 10
30.4818351017
 20
53.7520462228
 11
30.4907622027
 21
53.8149524304
  0
LINE
  5
3F1
100
AcDbEntity
  8
0
100
AcDbLine
 62
7
  6
CONTINUOUS
 10
91.5052128436
 20
34.3627513303
 11
91.5073919299
 21
34.3779353818
  0
LINE
  5
3F2
100
AcDbEntity
  8
0
100
AcDbLine
 62
7
  6
CONTINUOUS
 10
30.4872931346
 20
53.800142435
 11
30.4853120894
 21
53.7864670449
  0
LINE
  5
3F3
100
AcDbEntity
  8
0
100
AcDbLine
 62
9
  6
CONTINUOUS
 10
31.7337541073
 20
53.808356508
 11
31.7425855353
 21
53.8691720111
  0
LINE
  5
3F4
100
AcDbEntity
  8
0
100
AcDbLine
 62
7
  6
CONTINUOUS
 10
30.4893308163
 20
53.8137582122
 11
30.4872931346
 21
53.800142435
  0
LINE
  5
3F5
100
AcDbEntity
  8
0
100
AcDbLine
 62
7
  6
CONTINUOUS
 10
30.4914242965
 20
53.8273134276
 11
30.4893308163
 21
53.8137582122
  0
LINE
  5
3F6
100
AcDbEntity
  8
DEFAULT_2
100
AcDbLine
 62
8
  6
CONTINUOUS
 10
63.2924409559
 20
52.4167402733
 11
63.297650984
 21
52.4496157289
  0
LINE
  5
3F7
100
AcDbEntity
  8
DEFAULT_2
100
AcDbLine
 62
8
  6
CONTINUOUS
 10
65.6436987992
 20
52.085020409
 11
65.6384887711
 21
52.0521449535
  0
LINE
  5
3F8
100
AcDbEntity
  8
0
100
AcDbLine
 62
7
  6
CONTINUOUS
 10
30.493572715
 20
53.8408071046
 11
30.4914242965
 21
53.8273134276
  0
LINE
  5
3F9
100
AcDbEntity
  8
0
100
AcDbLine
 62
9
  6
CONTINUOUS
 10
31.7425855353
 20
53.8691720111
 11
31.7524807612
 21
53.9302021858
  0
LINE
  5
3FA
100
AcDbEntity
  8
0
100
AcDbLine
 62
9
  6
CONTINUOUS
 10
32.1553170031
 20
53.4430405965
 11
32.1552703781
 21
53.442754192
  0
LINE
  5
3FB
100
AcDbEntity
  8
0
100
AcDbLine
 62
7
  6
CONTINUOUS
 10
30.4957751755
 20
53.8542381577
 11
30.493572715
 21
53.8408071046
  0
LINE
  5
3FC
100
AcDbEntity
  8
0
100
AcDbLine
 62
9
  6
CONTINUOUS
 10
30.4907622027
 20
53.8149524304
 11
30.5010843379
 21
53.8778531263
  0
LINE
  5
3FD
100
AcDbEntity
  8
0
100
AcDbLine
 62
7
  6
CONTINUOUS
 10
30.4980308429
 20
53.8676059784
 11
30.4957751755
 21
53.8542381577
  0
LINE
  5
3FE
100
AcDbEntity
  8
0
100
AcDbLine
 62
9
  6
CONTINUOUS
 10
91.5044946036
 20
34.3585347805
 11
91.5052128436
 21
34.3627513303
  0
LINE
  5
3FF
100
AcDbEntity
  8
0
100
AcDbLine
 62
7
  6
CONTINUOUS
 10
30.5003388137
 20
53.8809096306
 11
30.4980308429
 21
53.8676059784
  0
LINE
  5
400
100
AcDbEntity
  8
0
100
AcDbLine
 62
7
  6
CONTINUOUS
 10
30.5026983182
 20
53.8941490154
 11
30.5003388137
 21
53.8809096306
  0
LINE
  5
401
100
AcDbEntity
  8
0
100
AcDbLine
 62
9
  6
CONTINUOUS
 10
31.7524807612
 20
53.9302021858
 11
31.7634515777
 21
53.991403891
  0
LINE
  5
402
100
AcDbEntity
  8
0
100
AcDbLine
 62
7
  6
CONTINUOUS
 10
91.5028777448
 20
34.3500274227
 11
91.5054821856
 21
34.3644657879
  0
LINE
  5
403
100
AcDbEntity
  8
0
100
AcDbLine
 62
7
  6
CONTINUOUS
 10
30.5051085008
 20
53.9073235742
 11
30.5026983182
 21
53.8941490154
  0
LINE
  5
404
100
AcDbEntity
  8
0
100
AcDbLine
 62
7
  6
CONTINUOUS
 10
91.5024508818
 20
34.3478443935
 11
91.5052128436
 21
34.3627513303
  0
LINE
  5
405
100
AcDbEntity
  8
0
100
AcDbLine
 62
9
  6
CONTINUOUS
 10
30.5010843379
 20
53.8778531263
 11
30.5128435599
 21
53.9408786253
  0
LINE
  5
406
100
AcDbEntity
  8
0
100
AcDbLine
 62
7
  6
CONTINUOUS
 10
30.5075686841
 20
53.92043374
 11
30.5051085008
 21
53.9073235742
  0
LINE
  5
407
100
AcDbEntity
  8
DEFAULT_2
100
AcDbLine
 62
8
  6
CONTINUOUS
 10
63.297650984
 20
52.4496157289
 11
63.3037998603
 21
52.4823385916
  0
LINE
  5
408
100
AcDbEntity
  8
DEFAULT_2
100
AcDbLine
 62
8
  6
CONTINUOUS
 10
65.6384887711
 20
52.0521449535
 11
65.6323398948
 21
52.0194220908
  0
LINE
  5
409
100
AcDbEntity
  8
0
100
AcDbLine
 62
7
  6
CONTINUOUS
 10
30.5100781062
 20
53.9334794657
 11
30.5075686841
 21
53.92043374
  0
LINE
  5
40A
100
AcDbEntity
  8
0
100
AcDbLine
 62
9
  6
CONTINUOUS
 10
31.7634515777
 20
53.991403891
 11
31.7755241184
 21
54.052815398
  0
LINE
  5
40B
100
AcDbEntity
  8
0
100
AcDbLine
 62
7
  6
CONTINUOUS
 10
30.5126361861
 20
53.9464616113
 11
30.5100781062
 21
53.9334794657
  0
LINE
  5
40C
100
AcDbEntity
  8
0
100
AcDbLine
 62
7
  6
CONTINUOUS
 10
30.5152422825
 20
53.959380659
 11
30.5126361861
 21
53.9464616113
  0
LINE
  5
40D
100
AcDbEntity
  8
0
100
AcDbLine
 62
9
  6
CONTINUOUS
 10
91.500165768
 20
34.3375079122
 11
91.5044946036
 21
34.3585347805
  0
LINE
  5
40E
100
AcDbEntity
  8
0
100
AcDbLine
 62
9
  6
CONTINUOUS
 10
31.7755241184
 20
54.052815398
 11
31.7887017424
 21
54.1143374971
  0
LINE
  5
40F
100
AcDbEntity
  8
DEFAULT_2
100
AcDbLine
 62
8
  6
CONTINUOUS
 10
63.3037998603
 20
52.4823385916
 11
63.3108805661
 21
52.5148730454
  0
LINE
  5
410
100
AcDbEntity
  8
DEFAULT_2
100
AcDbLine
 62
8
  6
CONTINUOUS
 10
65.6323398948
 20
52.0194220908
 11
65.625259189
 21
51.986887637
  0
LINE
  5
411
100
AcDbEntity
  8
0
100
AcDbLine
 62
7
  6
CONTINUOUS
 10
91.4997503634
 20
34.3358666967
 11
91.5028777448
 21
34.3500274227
  0
LINE
  5
412
100
AcDbEntity
  8
0
100
AcDbLine
 62
7
  6
CONTINUOUS
 10
91.4991319236
 20
34.3332351043
 11
91.5024508818
 21
34.3478443935
  0
LINE
  5
413
100
AcDbEntity
  8
0
100
AcDbLine
 62
9
  6
CONTINUOUS
 10
91.4991319236
 20
34.3332351043
 11
91.500165768
 21
34.3375079122
  0
LINE
  5
414
100
AcDbEntity
  8
DEFAULT_2
100
AcDbLine
 62
8
  6
CONTINUOUS
 10
63.3108805661
 20
52.5148730454
 11
63.318887003
 21
52.5471922622
  0
LINE
  5
415
100
AcDbEntity
  8
DEFAULT_2
100
AcDbLine
 62
8
  6
CONTINUOUS
 10
65.625259189
 20
51.986887637
 11
65.617252752
 21
51.9545684202
  0
LINE
  5
416
100
AcDbEntity
  8
0
100
AcDbLine
 62
7
  6
CONTINUOUS
 10
91.4961238431
 20
34.3220003287
 11
91.4997503634
 21
34.3358666967
  0
LINE
  5
417
100
AcDbEntity
  8
0
100
AcDbLine
 62
7
  6
CONTINUOUS
 10
91.495282225
 20
34.3189421449
 11
91.4991319236
 21
34.3332351043
  0
LINE
  5
418
100
AcDbEntity
  8
DEFAULT_2
100
AcDbLine
 62
8
  6
CONTINUOUS
 10
63.318887003
 20
52.5471922622
 11
63.3278165124
 21
52.5792826443
  0
LINE
  5
419
100
AcDbEntity
  8
DEFAULT_2
100
AcDbLine
 62
8
  6
CONTINUOUS
 10
65.617252752
 20
51.9545684202
 11
65.6083232427
 21
51.9224780381
  0
LINE
  5
41A
100
AcDbEntity
  8
0
100
AcDbLine
 62
9
  6
CONTINUOUS
 10
91.4946407049
 20
34.3167632244
 11
91.495282225
 21
34.3189421449
  0
LINE
  5
41B
100
AcDbEntity
  8
0
100
AcDbLine
 62
7
  6
CONTINUOUS
 10
91.4920221745
 20
34.3084434486
 11
91.4961238431
 21
34.3220003287
  0
LINE
  5
41C
100
AcDbEntity
  8
DEFAULT_2
100
AcDbLine
 62
8
  6
CONTINUOUS
 10
63.3278165124
 20
52.5792826443
 11
63.3376579626
 21
52.6111050739
  0
LINE
  5
41D
100
AcDbEntity
  8
DEFAULT_2
100
AcDbLine
 62
8
  6
CONTINUOUS
 10
65.6083232427
 20
51.9224780381
 11
65.5984817924
 21
51.8906556084
  0
LINE
  5
41E
100
AcDbEntity
  8
0
100
AcDbLine
 62
7
  6
CONTINUOUS
 10
91.490928309
 20
34.3049823843
 11
91.495282225
 21
34.3189421449
  0
LINE
  5
41F
100
AcDbEntity
  8
0
100
AcDbLine
 62
9
  6
CONTINUOUS
 10
91.4879375227
 20
34.2963687077
 11
91.4946407049
 21
34.3167632244
  0
LINE
  5
420
100
AcDbEntity
  8
DEFAULT_2
100
AcDbLine
 62
8
  6
CONTINUOUS
 10
63.3376579626
 20
52.6111050739
 11
63.348402911
 21
52.6426338613
  0
LINE
  5
421
100
AcDbEntity
  8
DEFAULT_2
100
AcDbLine
 62
8
  6
CONTINUOUS
 10
65.5984817924
 20
51.8906556084
 11
65.587736844
 21
51.8591268211
  0
LINE
  5
422
100
AcDbEntity
  8
DEFAULT_2
100
AcDbLine
 62
8
  6
CONTINUOUS
 10
85.3188417822
 20
38.5041022456
 11
85.3351897661
 21
38.5517536907
  0
LINE
  5
423
100
AcDbEntity
  8
0
100
AcDbLine
 62
7
  6
CONTINUOUS
 10
91.4874694504
 20
34.2952096378
 11
91.4920221745
 21
34.3084434486
  0
LINE
  5
424
100
AcDbEntity
  8
DEFAULT_2
100
AcDbLine
 62
8
  6
CONTINUOUS
 10
85.3736205205
 20
38.6670925073
 11
85.3499401911
 21
38.5992854936
  0
LINE
  5
425
100
AcDbEntity
  8
0
100
AcDbLine
 62
7
  6
CONTINUOUS
 10
91.4860968628
 20
34.2913709206
 11
91.490928309
 21
34.3049823843
  0
LINE
  5
426
100
AcDbEntity
  8
DEFAULT_2
100
AcDbLine
 62
8
  6
CONTINUOUS
 10
85.3015841873
 20
38.4567706572
 11
85.3188417822
 21
38.5041022456
  0
LINE
  5
427
100
AcDbEntity
  8
DEFAULT_2
100
AcDbLine
 62
8
  6
CONTINUOUS
 10
63.348402911
 20
52.6426338613
 11
63.3600488878
 21
52.6738597527
  0
LINE
  5
428
100
AcDbEntity
  8
DEFAULT_2
100
AcDbLine
 62
8
  6
CONTINUOUS
 10
65.587736844
 20
51.8591268211
 11
65.5760908673
 21
51.8279009296
  0
LINE
  5
429
100
AcDbEntity
  8
0
100
AcDbLine
 62
9
  6
CONTINUOUS
 10
96.7806432081
 20
53.4417499934
 11
96.7807796139
 21
53.4421089869
  0
LINE
  5
42A
100
AcDbEntity
  8
DEFAULT_2
100
AcDbLine
 62
8
  6
CONTINUOUS
 10
85.3499401911
 20
38.5992854936
 11
85.3244174612
 21
38.5321441427
  0
LINE
  5
42B
100
AcDbEntity
  8
0
100
AcDbLine
 62
7
  6
CONTINUOUS
 10
91.4824897861
 20
34.2823109738
 11
91.4874694504
 21
34.2952096378
  0
LINE
  5
42C
100
AcDbEntity
  8
DEFAULT_2
100
AcDbLine
 62
8
  6
CONTINUOUS
 10
85.2834434674
 20
38.4098247318
 11
85.3015841873
 21
38.4567706572
  0
LINE
  5
42D
100
AcDbEntity
  8
0
100
AcDbLine
 62
9
  6
CONTINUOUS
 10
91.4800781911
 20
34.276391205
 11
91.4879375227
 21
34.2963687077
  0
LINE
  5
42E
100
AcDbEntity
  8
0
100
AcDbLine
 62
7
  6
CONTINUOUS
 10
91.4808146409
 20
34.2781211299
 11
91.4860968628
 21
34.2913709206
  0
LINE
  5
42F
100
AcDbEntity
  8
DEFAULT_2
100
AcDbLine
 62
8
  6
CONTINUOUS
 10
63.3600488878
 20
52.6738597527
 11
63.3725801645
 21
52.7047410602
  0
LINE
  5
430
100
AcDbEntity
  8
DEFAULT_2
100
AcDbLine
 62
8
  6
CONTINUOUS
 10
65.5760908673
 20
51.8279009296
 11
65.5635595906
 21
51.7970196222
  0
LINE
  5
431
100
AcDbEntity
  8
DEFAULT_2
100
AcDbLine
 62
8
  6
CONTINUOUS
 10
85.2644102086
 20
38.3632335688
 11
85.2834434674
 21
38.4098247318
  0
LINE
  5
432
100
AcDbEntity
  8
DEFAULT_2
100
AcDbLine
 62
8
  6
CONTINUOUS
 10
85.3244174612
 20
38.5321441427
 11
85.2965453947
 21
38.464489976
  0
LINE
  5
433
100
AcDbEntity
  8
0
100
AcDbLine
 62
7
  6
CONTINUOUS
 10
91.4771072373
 20
34.2697580611
 11
91.4824897861
 21
34.2823109738
  0
LINE
  5
434
100
AcDbEntity
  8
DEFAULT_2
100
AcDbLine
 62
8
  6
CONTINUOUS
 10
85.2376961023
 20
38.301779589
 11
85.2644102086
 21
38.3632335688
  0
LINE
  5
435
100
AcDbEntity
  8
DEFAULT_2
100
AcDbLine
 62
8
  6
CONTINUOUS
 10
63.3725801645
 20
52.7047410602
 11
63.3859860452
 21
52.7352528673
  0
LINE
  5
436
100
AcDbEntity
  8
DEFAULT_2
100
AcDbLine
 62
8
  6
CONTINUOUS
 10
65.5635595906
 20
51.7970196222
 11
65.5501537099
 21
51.766507815
  0
LINE
  5
437
100
AcDbEntity
  8
0
100
AcDbLine
 62
7
  6
CONTINUOUS
 10
91.4751083637
 20
34.2652446914
 11
91.4808146409
 21
34.2781211299
  0
LINE
  5
438
100
AcDbEntity
  8
DEFAULT_2
100
AcDbLine
 62
8
  6
CONTINUOUS
 10
85.2965453947
 20
38.464489976
 11
85.2668062076
 21
38.397636998
  0
LINE
  5
439
100
AcDbEntity
  8
0
100
AcDbLine
 62
9
  6
CONTINUOUS
 10
91.4710884688
 20
34.2568961924
 11
91.4800781911
 21
34.276391205
  0
LINE
  5
43A
100
AcDbEntity
  8
DEFAULT_2
100
AcDbLine
 62
8
  6
CONTINUOUS
 10
85.2094265312
 20
38.2410170569
 11
85.2376961023
 21
38.301779589
  0
LINE
  5
43B
100
AcDbEntity
  8
0
100
AcDbLine
 62
7
  6
CONTINUOUS
 10
91.4713457309
 20
34.257560088
 11
91.4771072373
 21
34.2697580611
  0
LINE
  5
43C
100
AcDbEntity
  8
DEFAULT_2
100
AcDbLine
 62
8
  6
CONTINUOUS
 10
63.3859860452
 20
52.7352528673
 11
63.4002646935
 21
52.7653892012
  0
LINE
  5
43D
100
AcDbEntity
  8
DEFAULT_2
100
AcDbLine
 62
8
  6
CONTINUOUS
 10
65.5501537099
 20
51.766507815
 11
65.5358750615
 21
51.7363714811
  0
LINE
  5
43E
100
AcDbEntity
  8
DEFAULT_2
100
AcDbLine
 62
8
  6
CONTINUOUS
 10
85.2668062076
 20
38.397636998
 11
85.2346598733
 21
38.3305002598
  0
LINE
  5
43F
100
AcDbEntity
  8
0
100
AcDbLine
 62
7
  6
CONTINUOUS
 10
91.4690046315
 20
34.2527516508
 11
91.4751083637
 21
34.2652446914
  0
LINE
  5
440
100
AcDbEntity
  8
DEFAULT_2
100
AcDbLine
 62
8
  6
CONTINUOUS
 10
85.1796158387
 20
38.1809818888
 11
85.2094265312
 21
38.2410170569
  0
LINE
  5
441
100
AcDbEntity
  8
0
100
AcDbLine
 62
9
  6
CONTINUOUS
 10
91.4690046315
 20
34.2527516508
 11
91.4710884688
 21
34.2568961924
  0
LINE
  5
442
100
AcDbEntity
  8
DEFAULT_2
100
AcDbLine
 62
8
  6
CONTINUOUS
 10
63.4002646935
 20
52.7653892012
 11
63.4153954967
 21
52.7951068296
  0
LINE
  5
443
100
AcDbEntity
  8
DEFAULT_2
100
AcDbLine
 62
8
  6
CONTINUOUS
 10
65.5358750615
 20
51.7363714811
 11
65.5207442584
 21
51.7066538527
  0
LINE
  5
444
100
AcDbEntity
  8
DEFAULT_2
100
AcDbLine
 62
8
  6
CONTINUOUS
 10
85.2346598733
 20
38.3305002598
 11
85.2006311017
 21
38.264297108
  0
LINE
  5
445
100
AcDbEntity
  8
0
100
AcDbLine
 62
7
  6
CONTINUOUS
 10
91.4652290148
 20
34.245724907
 11
91.4713457309
 21
34.257560088
  0
LINE
  5
446
100
AcDbEntity
  8
DEFAULT_2
100
AcDbLine
 62
8
  6
CONTINUOUS
 10
85.1483789431
 20
38.121892127
 11
85.1796158387
 21
38.1809818888
  0
LINE
  5
447
100
AcDbEntity
  8
0
100
AcDbLine
 62
7
  6
CONTINUOUS
 10
91.4625298814
 20
34.2406505461
 11
91.4690046315
 21
34.2527516508
  0
LINE
  5
448
100
AcDbEntity
  8
DEFAULT_2
100
AcDbLine
 62
8
  6
CONTINUOUS
 10
63.4153954967
 20
52.7951068296
 11
63.4313656181
 21
52.8243819582
  0
LINE
  5
449
100
AcDbEntity
  8
DEFAULT_2
100
AcDbLine
 62
8
  6
CONTINUOUS
 10
65.5207442584
 20
51.7066538527
 11
65.5047741369
 21
51.6773787241
  0
LINE
  5
44A
100
AcDbEntity
  8
DEFAULT_2
100
AcDbLine
 62
8
  6
CONTINUOUS
 10
85.2006311017
 20
38.264297108
 11
85.1641690439
 21
38.1980643168
  0
LINE
  5
44B
100
AcDbEntity
  8
DEFAULT_2
100
AcDbLine
 62
8
  6
CONTINUOUS
 10
85.1156489124
 20
38.0636006068
 11
85.1483789431
 21
38.121892127
  0
LINE
  5
44C
100
AcDbEntity
  8
0
100
AcDbLine
 62
7
  6
CONTINUOUS
 10
91.4587805751
 20
34.234259039
 11
91.4652290148
 21
34.245724907
  0
LINE
  5
44D
100
AcDbEntity
  8
0
100
AcDbLine
 62
9
  6
CONTINUOUS
 10
91.4609978198
 20
34.2379475646
 11
91.4625298814
 21
34.2406505461
  0
LINE
  5
44E
100
AcDbEntity
  8
0
100
AcDbLine
 62
7
  6
CONTINUOUS
 10
91.4557102739
 20
34.2289483775
 11
91.4625298814
 21
34.2406505461
  0
LINE
  5
44F
100
AcDbEntity
  8
DEFAULT_2
100
AcDbLine
 62
8
  6
CONTINUOUS
 10
63.4313656181
 20
52.8243819582
 11
63.4481741084
 21
52.8532112963
  0
LINE
  5
450
100
AcDbEntity
  8
DEFAULT_2
100
AcDbLine
 62
8
  6
CONTINUOUS
 10
65.5047741369
 20
51.6773787241
 11
65.4879656466
 21
51.6485493861
  0
LINE
  5
451
100
AcDbEntity
  8
DEFAULT_2
100
AcDbLine
 62
8
  6
CONTINUOUS
 10
85.1641690439
 20
38.1980643168
 11
85.1258239593
 21
38.1329035571
  0
LINE
  5
452
100
AcDbEntity
  8
DEFAULT_2
100
AcDbLine
 62
8
  6
CONTINUOUS
 10
92.5682548476
 20
54.552875429
 11
92.5846096644
 21
54.5804754349
  0
LINE
  5
453
100
AcDbEntity
  8
DEFAULT_2
100
AcDbLine
 62
8
  6
CONTINUOUS
 10
85.0814499942
 20
38.0061469869
 11
85.1156489124
 21
38.0636006068
  0
LINE
  5
454
100
AcDbEntity
  8
0
100
AcDbLine
 62
9
  6
CONTINUOUS
 10
91.4587805751
 20
34.234259039
 11
91.4609978198
 21
34.2379475646
  0
LINE
  5
455
100
AcDbEntity
  8
DEFAULT_2
100
AcDbLine
 62
8
  6
CONTINUOUS
 10
95.733818734
 20
55.9584516724
 11
95.7381518297
 21
55.9656186543
  0
LINE
  5
456
100
AcDbEntity
  8
0
100
AcDbLine
 62
7
  6
CONTINUOUS
 10
91.4520236205
 20
34.2231677982
 11
91.4587805751
 21
34.234259039
  0
LINE
  5
457
100
AcDbEntity
  8
DEFAULT_2
100
AcDbLine
 62
8
  6
CONTINUOUS
 10
92.5846096644
 20
54.5804754349
 11
92.6013380065
 21
54.6078554626
  0
LINE
  5
458
100
AcDbEntity
  8
0
100
AcDbLine
 62
9
  6
CONTINUOUS
 10
91.4498393159
 20
34.2196074256
 11
91.4520236205
 21
34.2231677982
  0
LINE
  5
459
100
AcDbEntity
  8
DEFAULT_2
100
AcDbLine
 62
8
  6
CONTINUOUS
 10
63.4481741084
 20
52.8532112963
 11
63.4657954077
 21
52.8815511413
  0
LINE
  5
45A
100
AcDbEntity
  8
DEFAULT_2
100
AcDbLine
 62
8
  6
CONTINUOUS
 10
65.4879656466
 20
51.6485493861
 11
65.4703443474
 21
51.6202095411
  0
LINE
  5
45B
100
AcDbEntity
  8
DEFAULT_2
100
AcDbLine
 62
8
  6
CONTINUOUS
 10
85.1258239593
 20
38.1329035571
 11
85.0850664215
 21
38.0680026649
  0
LINE
  5
45C
100
AcDbEntity
  8
DEFAULT_2
100
AcDbLine
 62
8
  6
CONTINUOUS
 10
92.6013380065
 20
54.6078554626
 11
92.6184361018
 21
54.6350095864
  0
LINE
  5
45D
100
AcDbEntity
  8
DEFAULT_2
100
AcDbLine
 62
8
  6
CONTINUOUS
 10
85.045806436
 20
37.9495709262
 11
85.0814499942
 21
38.0061469869
  0
LINE
  5
45E
100
AcDbEntity
  8
0
100
AcDbLine
 62
7
  6
CONTINUOUS
 10
91.448571662
 20
34.2176507358
 11
91.4557102739
 21
34.2289483775
  0
LINE
  5
45F
100
AcDbEntity
  8
DEFAULT_2
100
AcDbLine
 62
8
  6
CONTINUOUS
 10
95.7293217364
 20
55.951383626
 11
95.733818734
 21
55.9584516724
  0
LINE
  5
460
100
AcDbEntity
  8
DEFAULT_2
100
AcDbLine
 62
8
  6
CONTINUOUS
 10
92.6184361018
 20
54.6350095864
 11
92.6359001777
 21
54.6619318808
  0
LINE
  5
461
100
AcDbEntity
  8
0
100
AcDbLine
 62
9
  6
CONTINUOUS
 10
96.8033463551
 20
53.4824197809
 11
96.7950475118
 21
53.4697569446
  0
LINE
  5
462
100
AcDbEntity
  8
0
100
AcDbLine
 62
7
  6
CONTINUOUS
 10
91.4449809995
 20
34.2124552807
 11
91.4520236205
 21
34.2231677982
  0
LINE
  5
463
100
AcDbEntity
  8
DEFAULT_2
100
AcDbLine
 62
8
  6
CONTINUOUS
 10
63.4657954077
 20
52.8815511413
 11
63.4842146691
 21
52.9093789568
  0
LINE
  5
464
100
AcDbEntity
  8
DEFAULT_2
100
AcDbLine
 62
8
  6
CONTINUOUS
 10
65.4703443474
 20
51.6202095411
 11
65.451925086
 21
51.5923817255
  0
LINE
  5
465
100
AcDbEntity
  8
DEFAULT_2
100
AcDbLine
 62
8
  6
CONTINUOUS
 10
85.0087424854
 20
37.8939120834
 11
85.045806436
 21
37.9495709262
  0
LINE
  5
466
100
AcDbEntity
  8
DEFAULT_2
100
AcDbLine
 62
8
  6
CONTINUOUS
 10
92.6359001777
 20
54.6619318808
 11
92.6537264621
 21
54.6886164202
  0
LINE
  5
467
100
AcDbEntity
  8
DEFAULT_2
100
AcDbLine
 62
8
  6
CONTINUOUS
 10
95.7246643265
 20
55.9444183325
 11
95.7293217364
 21
55.951383626
  0
LINE
  5
468
100
AcDbEntity
  8
DEFAULT_2
100
AcDbLine
 62
8
  6
CONTINUOUS
 10
85.0850664215
 20
38.0680026649
 11
85.0424414685
 21
38.0043124686
  0
LINE
  5
469
100
AcDbEntity
  8
0
100
AcDbLine
 62
7
  6
CONTINUOUS
 10
91.4411395022
 20
34.2067618121
 11
91.448571662
 21
34.2176507358
  0
LINE
  5
46A
100
AcDbEntity
  8
DEFAULT_2
100
AcDbLine
 62
8
  6
CONTINUOUS
 10
92.6537264621
 20
54.6886164202
 11
92.6719111825
 21
54.7150572789
  0
LINE
  5
46B
100
AcDbEntity
  8
0
100
AcDbLine
 62
9
  6
CONTINUOUS
 10
91.4376495292
 20
34.201935885
 11
91.4498393159
 21
34.2196074256
  0
LINE
  5
46C
100
AcDbEntity
  8
DEFAULT_2
100
AcDbLine
 62
8
  6
CONTINUOUS
 10
95.7198499938
 20
55.9375596092
 11
95.7246643265
 21
55.9444183325
  0
LINE
  5
46D
100
AcDbEntity
  8
DEFAULT_2
100
AcDbLine
 62
8
  6
CONTINUOUS
 10
84.97028239
 20
37.839210117
 11
85.0087424854
 21
37.8939120834
  0
LINE
  5
46E
100
AcDbEntity
  8
DEFAULT_2
100
AcDbLine
 62
8
  6
CONTINUOUS
 10
63.4842146691
 20
52.9093789568
 11
63.503431876
 21
52.9366933284
  0
LINE
  5
46F
100
AcDbEntity
  8
DEFAULT_2
100
AcDbLine
 62
8
  6
CONTINUOUS
 10
65.451925086
 20
51.5923817255
 11
65.432707879
 21
51.5650673539
  0
LINE
  5
470
100
AcDbEntity
  8
0
100
AcDbLine
 62
7
  6
CONTINUOUS
 10
91.4376751513
 20
34.2021244217
 11
91.4449809995
 21
34.2124552807
  0
LINE
  5
471
100
AcDbEntity
  8
DEFAULT_2
100
AcDbLine
 62
8
  6
CONTINUOUS
 10
92.6719111825
 20
54.7150572789
 11
92.6904277636
 21
54.741216929
  0
LINE
  5
472
100
AcDbEntity
  8
DEFAULT_2
100
AcDbLine
 62
8
  6
CONTINUOUS
 10
85.0424414685
 20
38.0043124686
 11
84.9974761826
 21
37.9411940085
  0
LINE
  5
473
100
AcDbEntity
  8
DEFAULT_2
100
AcDbLine
 62
8
  6
CONTINUOUS
 10
92.6904277636
 20
54.741216929
 11
92.7092949538
 21
54.7671234055
  0
LINE
  5
474
100
AcDbEntity
  8
0
100
AcDbLine
 62
7
  6
CONTINUOUS
 10
91.4334387921
 20
34.1962844578
 11
91.4411395022
 21
34.2067618121
  0
LINE
  5
475
100
AcDbEntity
  8
DEFAULT_2
100
AcDbLine
 62
8
  6
CONTINUOUS
 10
95.7148822276
 20
55.9308112734
 11
95.7198499938
 21
55.9375596092
  0
LINE
  5
476
100
AcDbEntity
  8
DEFAULT_2
100
AcDbLine
 62
8
  6
CONTINUOUS
 10
84.9305590071
 20
37.7856453677
 11
84.97028239
 21
37.839210117
  0
LINE
  5
477
100
AcDbEntity
  8
0
100
AcDbLine
 62
9
  6
CONTINUOUS
 10
96.8123965223
 20
53.4945565198
 11
96.8033463551
 21
53.4824197809
  0
LINE
  5
478
100
AcDbEntity
  8
DEFAULT_2
100
AcDbLine
 62
8
  6
CONTINUOUS
 10
63.503431876
 20
52.9366933284
 11
63.5234166968
 21
52.9634511985
  0
LINE
  5
479
100
AcDbEntity
  8
DEFAULT_2
100
AcDbLine
 62
8
  6
CONTINUOUS
 10
65.432707879
 20
51.5650673539
 11
65.4127230582
 21
51.5383094838
  0
LINE
  5
47A
100
AcDbEntity
  8
DEFAULT_2
100
AcDbLine
 62
8
  6
CONTINUOUS
 10
92.7092949538
 20
54.7671234055
 11
92.7285095659
 21
54.7927725308
  0
LINE
  5
47B
100
AcDbEntity
  8
DEFAULT_2
100
AcDbLine
 62
8
  6
CONTINUOUS
 10
84.9974761826
 20
37.9411940085
 11
84.9506772535
 21
37.8794227107
  0
LINE
  5
47C
100
AcDbEntity
  8
0
100
AcDbLine
 62
7
  6
CONTINUOUS
 10
91.4301280702
 20
34.1921770623
 11
91.4376751513
 21
34.2021244217
  0
LINE
  5
47D
100
AcDbEntity
  8
DEFAULT_2
100
AcDbLine
 62
8
  6
CONTINUOUS
 10
92.7285095659
 20
54.7927725308
 11
92.7480684127
 21
54.8181601271
  0
LINE
  5
47E
100
AcDbEntity
  8
DEFAULT_2
100
AcDbLine
 62
8
  6
CONTINUOUS
 10
95.7097636387
 20
55.9241759959
 11
95.7148822276
 21
55.9308112734
  0
LINE
  5
47F
100
AcDbEntity
  8
0
100
AcDbLine
 62
9
  6
CONTINUOUS
 10
91.4244684115
 20
34.1849908613
 11
91.4376495292
 21
34.201935885
  0
LINE
  5
480
100
AcDbEntity
  8
DEFAULT_2
100
AcDbLine
 62
8
  6
CONTINUOUS
 10
84.8894980574
 20
37.7331034048
 11
84.9305590071
 21
37.7856453677
  0
LINE
  5
481
100
AcDbEntity
  8
0
100
AcDbLine
 62
7
  6
CONTINUOUS
 10
91.4254940257
 20
34.1862202624
 11
91.4334387921
 21
34.1962844578
  0
LINE
  5
482
100
AcDbEntity
  8
DEFAULT_2
100
AcDbLine
 62
8
  6
CONTINUOUS
 10
63.5234166968
 20
52.9634511985
 11
63.5441524193
 21
52.9896314578
  0
LINE
  5
483
100
AcDbEntity
  8
DEFAULT_2
100
AcDbLine
 62
8
  6
CONTINUOUS
 10
65.4127230582
 20
51.5383094838
 11
65.3919873358
 21
51.5121292246
  0
LINE
  5
484
100
AcDbEntity
  8
DEFAULT_2
100
AcDbLine
 62
8
  6
CONTINUOUS
 10
92.7480684127
 20
54.8181601271
 11
92.7679683069
 21
54.8432820167
  0
LINE
  5
485
100
AcDbEntity
  8
DEFAULT_2
100
AcDbLine
 62
8
  6
CONTINUOUS
 10
84.9506772535
 20
37.8794227107
 11
84.9016469864
 21
37.8185241857
  0
LINE
  5
486
100
AcDbEntity
  8
DEFAULT_2
100
AcDbLine
 62
8
  6
CONTINUOUS
 10
95.7044979006
 20
55.9176577508
 11
95.7097636387
 21
55.9241759959
  0
LINE
  5
487
100
AcDbEntity
  8
0
100
AcDbLine
 62
7
  6
CONTINUOUS
 10
91.4223612662
 20
34.1826140025
 11
91.4301280702
 21
34.1921770623
  0
LINE
  5
488
100
AcDbEntity
  8
DEFAULT_2
100
AcDbLine
 62
8
  6
CONTINUOUS
 10
92.7679683069
 20
54.8432820167
 11
92.7882060612
 21
54.868134022
  0
LINE
  5
489
100
AcDbEntity
  8
DEFAULT_2
100
AcDbLine
 62
8
  6
CONTINUOUS
 10
84.8471265582
 20
37.6816157917
 11
84.8894980574
 21
37.7331034048
  0
LINE
  5
48A
100
AcDbEntity
  8
DEFAULT_2
100
AcDbLine
 62
8
  6
CONTINUOUS
 10
92.7882060612
 20
54.868134022
 11
92.8087531956
 21
54.8926822843
  0
LINE
  5
48B
100
AcDbEntity
  8
DEFAULT_2
100
AcDbLine
 62
8
  6
CONTINUOUS
 10
63.5441524193
 20
52.9896314578
 11
63.5656397965
 21
53.0152338076
  0
LINE
  5
48C
100
AcDbEntity
  8
DEFAULT_2
100
AcDbLine
 62
8
  6
CONTINUOUS
 10
65.3919873358
 20
51.5121292246
 11
65.3704999586
 21
51.4865268748
  0
LINE
  5
48D
100
AcDbEntity
  8
0
100
AcDbLine
 62
9
  6
CONTINUOUS
 10
96.8221648042
 20
53.5061226263
 11
96.8123965223
 21
53.4945565198
  0
LINE
  5
48E
100
AcDbEntity
  8
DEFAULT_2
100
AcDbLine
 62
8
  6
CONTINUOUS
 10
95.6990878524
 20
55.9112593317
 11
95.7044979006
 21
55.9176577508
  0
LINE
  5
48F
100
AcDbEntity
  8
0
100
AcDbLine
 62
7
  6
CONTINUOUS
 10
91.4173291498
 20
34.1765696211
 11
91.4254940257
 21
34.1862202624
  0
LINE
  5
490
100
AcDbEntity
  8
DEFAULT_2
100
AcDbLine
 62
8
  6
CONTINUOUS
 10
84.9016469864
 20
37.8185241857
 11
84.8508346274
 21
37.7591043657
  0
LINE
  5
491
100
AcDbEntity
  8
DEFAULT_2
100
AcDbLine
 62
8
  6
CONTINUOUS
 10
92.8087531956
 20
54.8926822843
 11
92.8296295236
 21
54.9169519766
  0
LINE
  5
492
100
AcDbEntity
  8
DEFAULT_2
100
AcDbLine
 62
8
  6
CONTINUOUS
 10
84.8034715264
 20
37.631214092
 11
84.8471265582
 21
37.6816157917
  0
LINE
  5
493
100
AcDbEntity
  8
0
100
AcDbLine
 62
7
  6
CONTINUOUS
 10
91.4143957263
 20
34.1734350527
 11
91.4223612662
 21
34.1826140025
  0
LINE
  5
494
100
AcDbEntity
  8
0
100
AcDbLine
 62
9
  6
CONTINUOUS
 10
91.4103391638
 20
34.1688278916
 11
91.4143957263
 21
34.1734350527
  0
LINE
  5
495
100
AcDbEntity
  8
DEFAULT_2
100
AcDbLine
 62
8
  6
CONTINUOUS
 10
92.8296295236
 20
54.9169519766
 11
92.8508303738
 21
54.9409379296
  0
LINE
  5
496
100
AcDbEntity
  8
DEFAULT_2
100
AcDbLine
 62
8
  6
CONTINUOUS
 10
95.6935363333
 20
55.9049835321
 11
95.6990878524
 21
55.9112593317
  0
LINE
  5
497
100
AcDbEntity
  8
0
100
AcDbLine
 62
9
  6
CONTINUOUS
 10
91.4223612662
 20
34.1826140025
 11
91.4244684115
 21
34.1849908613
  0
LINE
  5
498
100
AcDbEntity
  8
DEFAULT_2
100
AcDbLine
 62
8
  6
CONTINUOUS
 10
65.3704999586
 20
51.4865268748
 11
65.3482956193
 21
51.4615437652
  0
LINE
  5
499
100
AcDbEntity
  8
0
100
AcDbLine
 62
7
  6
CONTINUOUS
 10
91.4089675082
 20
34.167331784
 11
91.4173291498
 21
34.1765696211
  0
LINE
  5
49A
100
AcDbEntity
  8
DEFAULT_2
100
AcDbLine
 62
8
  6
CONTINUOUS
 10
84.8508346274
 20
37.7591043657
 11
84.7979826436
 21
37.7008930171
  0
LINE
  5
49B
100
AcDbEntity
  8
DEFAULT_2
100
AcDbLine
 62
8
  6
CONTINUOUS
 10
92.8508303738
 20
54.9409379296
 11
92.8723510746
 21
54.9646349737
  0
LINE
  5
49C
100
AcDbEntity
  8
DEFAULT_2
100
AcDbLine
 62
8
  6
CONTINUOUS
 10
84.7585599792
 20
37.5819298691
 11
84.8034715264
 21
37.631214092
  0
LINE
  5
49D
100
AcDbEntity
  8
DEFAULT_2
100
AcDbLine
 62
8
  6
CONTINUOUS
 10
95.6878461825
 20
55.8988331455
 11
95.6935363333
 21
55.9049835321
  0
LINE
  5
49E
100
AcDbEntity
  8
0
100
AcDbLine
 62
7
  6
CONTINUOUS
 10
91.4062519053
 20
34.164639112
 11
91.4143957263
 21
34.1734350527
  0
LINE
  5
49F
100
AcDbEntity
  8
DEFAULT_2
100
AcDbLine
 62
8
  6
CONTINUOUS
 10
92.8723510746
 20
54.9646349737
 11
92.8941869547
 21
54.9880379396
  0
LINE
  5
4A0
100
AcDbEntity
  8
DEFAULT_2
100
AcDbLine
 62
8
  6
CONTINUOUS
 10
65.3482956193
 20
51.4615437652
 11
65.3253927391
 21
51.4371994423
  0
LINE
  5
4A1
100
AcDbEntity
  8
0
100
AcDbLine
 62
9
  6
CONTINUOUS
 10
96.8326153566
 20
53.5170756589
 11
96.8221648042
 21
53.5061226263
  0
LINE
  5
4A2
100
AcDbEntity
  8
DEFAULT_2
100
AcDbLine
 62
8
  6
CONTINUOUS
 10
92.8941869547
 20
54.9880379396
 11
92.9163333424
 21
55.0111416579
  0
LINE
  5
4A3
100
AcDbEntity
  8
DEFAULT_2
100
AcDbLine
 62
8
  6
CONTINUOUS
 10
84.7124189338
 20
37.5337946866
 11
84.7585599792
 21
37.5819298691
  0
LINE
  5
4A4
100
AcDbEntity
  8
DEFAULT_2
100
AcDbLine
 62
8
  6
CONTINUOUS
 10
84.7979826436
 20
37.7008930171
 11
84.7434201491
 21
37.6442817567
  0
LINE
  5
4A5
100
AcDbEntity
  8
0
100
AcDbLine
 62
7
  6
CONTINUOUS
 10
91.4004318501
 20
34.1585049703
 11
91.4089675082
 21
34.167331784
  0
LINE
  5
4A6
100
AcDbEntity
  8
DEFAULT_2
100
AcDbLine
 62
8
  6
CONTINUOUS
 10
95.6820206027
 20
55.8928113446
 11
95.6878461825
 21
55.8988331455
  0
LINE
  5
4A7
100
AcDbEntity
  8
0
100
AcDbLine
 62
9
  6
CONTINUOUS
 10
91.3953080947
 20
34.1534999498
 11
91.3979496375
 21
34.156224157
  0
LINE
  5
4A8
100
AcDbEntity
  8
0
100
AcDbLine
 62
9
  6
CONTINUOUS
 10
91.4062519053
 20
34.164639112
 11
91.4103391638
 21
34.1688278916
  0
LINE
  5
4A9
100
AcDbEntity
  8
0
100
AcDbLine
 62
7
  6
CONTINUOUS
 10
91.3979496375
 20
34.156224157
 11
91.4062519053
 21
34.164639112
  0
LINE
  5
4AA
100
AcDbEntity
  8
DEFAULT_2
100
AcDbLine
 62
8
  6
CONTINUOUS
 10
92.9163333424
 20
55.0111416579
 11
92.947730978
 21
55.0428567848
  0
LINE
  5
4AB
100
AcDbEntity
  8
DEFAULT_2
100
AcDbLine
 62
8
  6
CONTINUOUS
 10
65.9162931822
 20
35.9491036459
 11
66.2810113574
 21
36.313821821
  0
LINE
  5
4AC
100
AcDbEntity
  8
DEFAULT_2
100
AcDbLine
 62
8
  6
CONTINUOUS
 10
66.0046815299
 20
35.8607152982
 11
66.4765022224
 21
36.3325359908
  0
LINE
  5
4AD
100
AcDbEntity
  8
DEFAULT_2
100
AcDbLine
 62
8
  6
CONTINUOUS
 10
84.6651783102
 20
37.4869383579
 11
84.7124189338
 21
37.5337946866
  0
LINE
  5
4AE
100
AcDbEntity
  8
DEFAULT_2
100
AcDbLine
 62
8
  6
CONTINUOUS
 10
95.6760622017
 20
55.8869207154
 11
95.6820206027
 21
55.8928113446
  0
LINE
  5
4AF
100
AcDbEntity
  8
DEFAULT_2
100
AcDbLine
 62
8
  6
CONTINUOUS
 10
66.2753788095
 20
36.308189343
 11
66.2784296365
 21
36.3111883904
  0
LINE
  5
4B0
100
AcDbEntity
  8
DEFAULT_2
100
AcDbLine
 62
8
  6
CONTINUOUS
 10
66.363767156
 20
36.2198009937
 11
66.3654597779
 21
36.2214617841
  0
LINE
  5
4B1
100
AcDbEntity
  8
DEFAULT_2
100
AcDbLine
 62
8
  6
CONTINUOUS
 10
84.7434201491
 20
37.6442817567
 11
84.6870438438
 21
37.5891777636
  0
LINE
  5
4B2
100
AcDbEntity
  8
DEFAULT_2
100
AcDbLine
 62
8
  6
CONTINUOUS
 10
92.947730978
 20
55.0428567848
 11
92.979719203
 21
55.0739786137
  0
LINE
  5
4B3
100
AcDbEntity
  8
0
100
AcDbLine
 62
7
  6
CONTINUOUS
 10
91.3917439308
 20
34.1500860768
 11
91.4004318501
 21
34.1585049703
  0
LINE
  5
4B4
100
AcDbEntity
  8
0
100
AcDbLine
 62
9
  6
CONTINUOUS
 10
91.3917439308
 20
34.1500860768
 11
91.3953080947
 21
34.1534999498
  0
LINE
  5
4B5
100
AcDbEntity
  8
0
100
AcDbLine
 62
7
  6
CONTINUOUS
 10
91.3895083288
 20
34.1481875085
 11
91.3979496375
 21
34.156224157
  0
LINE
  5
4B6
100
AcDbEntity
  8
DEFAULT_2
100
AcDbLine
 62
8
  6
CONTINUOUS
 10
66.2784296365
 20
36.3111883904
 11
66.2815315627
 21
36.3141350096
  0
LINE
  5
4B7
100
AcDbEntity
  8
DEFAULT_2
100
AcDbLine
 62
8
  6
CONTINUOUS
 10
95.6699739352
 20
55.8811642376
 11
95.6760622017
 21
55.8869207154
  0
LINE
  5
4B8
100
AcDbEntity
  8
DEFAULT_2
100
AcDbLine
 62
8
  6
CONTINUOUS
 10
66.3654597779
 20
36.2214617841
 11
66.3671838507
 21
36.2230903938
  0
LINE
  5
4B9
100
AcDbEntity
  8
DEFAULT_2
100
AcDbLine
 62
8
  6
CONTINUOUS
 10
84.616771891
 20
37.4412859641
 11
84.6651783102
 21
37.4869383579
  0
LINE
  5
4BA
100
AcDbEntity
  8
DEFAULT_2
100
AcDbLine
 62
8
  6
CONTINUOUS
 10
92.979719203
 20
55.0739786137
 11
93.0142635644
 21
55.1063121429
  0
LINE
  5
4BB
100
AcDbEntity
  8
0
100
AcDbLine
 62
9
  6
CONTINUOUS
 10
96.8437098316
 20
53.527375426
 11
96.8326153566
 21
53.5170756589
  0
LINE
  5
4BC
100
AcDbEntity
  8
DEFAULT_2
100
AcDbLine
 62
8
  6
CONTINUOUS
 10
84.6870438438
 20
37.5891777636
 11
84.6290464793
 21
37.5357825771
  0
LINE
  5
4BD
100
AcDbEntity
  8
DEFAULT_2
100
AcDbLine
 62
8
  6
CONTINUOUS
 10
66.2815315627
 20
36.3141350096
 11
66.2846835146
 21
36.3170281727
  0
LINE
  5
4BE
100
AcDbEntity
  8
DEFAULT_2
100
AcDbLine
 62
8
  6
CONTINUOUS
 10
66.3671838507
 20
36.2230903938
 11
66.3689386351
 21
36.2246861297
  0
LINE
  5
4BF
100
AcDbEntity
  8
0
100
AcDbLine
 62
7
  6
CONTINUOUS
 10
91.3829261154
 20
34.1420722767
 11
91.3917439308
 21
34.1500860768
  0
LINE
  5
4C0
100
AcDbEntity
  8
DEFAULT_2
100
AcDbLine
 62
8
  6
CONTINUOUS
 10
95.6637587588
 20
55.8755448914
 11
95.6699739352
 21
55.8811642376
  0
LINE
  5
4C1
100
AcDbEntity
  8
DEFAULT_2
100
AcDbLine
 62
8
  6
CONTINUOUS
 10
93.0142635644
 20
55.1063121429
 11
93.0494434103
 21
55.1379526623
  0
LINE
  5
4C2
100
AcDbEntity
  8
DEFAULT_2
100
AcDbLine
 62
8
  6
CONTINUOUS
 10
84.567231244
 20
37.3968658614
 11
84.616771891
 21
37.4412859641
  0
LINE
  5
4C3
100
AcDbEntity
  8
0
100
AcDbLine
 62
7
  6
CONTINUOUS
 10
91.3809464283
 20
34.1405253948
 11
91.3895083288
 21
34.1481875085
  0
LINE
  5
4C4
100
AcDbEntity
  8
DEFAULT_2
100
AcDbLine
 62
8
  6
CONTINUOUS
 10
66.2846835146
 20
36.3170281727
 11
66.2878386025
 21
36.3198269239
  0
LINE
  5
4C5
100
AcDbEntity
  8
DEFAULT_2
100
AcDbLine
 62
8
  6
CONTINUOUS
 10
66.3689386351
 20
36.2246861297
 11
66.3707233921
 21
36.2262482986
  0
LINE
  5
4C6
100
AcDbEntity
  8
DEFAULT_2
100
AcDbLine
 62
8
  6
CONTINUOUS
 10
84.6290464793
 20
37.5357825771
 11
84.5694934716
 21
37.4841564126
  0
LINE
  5
4C7
100
AcDbEntity
  8
DEFAULT_2
100
AcDbLine
 62
8
  6
CONTINUOUS
 10
95.6574196279
 20
55.8700656565
 11
95.6637587588
 21
55.8755448914
  0
LINE
  5
4C8
100
AcDbEntity
  8
DEFAULT_2
100
AcDbLine
 62
8
  6
CONTINUOUS
 10
93.0494434103
 20
55.1379526623
 11
93.0874915952
 21
55.1707886708
  0
LINE
  5
4C9
100
AcDbEntity
  8
0
100
AcDbLine
 62
9
  6
CONTINUOUS
 10
91.3794244683
 20
34.1390572733
 11
91.3829261154
 21
34.1420722767
  0
LINE
  5
4CA
100
AcDbEntity
  8
DEFAULT_2
100
AcDbLine
 62
8
  6
CONTINUOUS
 10
66.2878386025
 20
36.3198269239
 11
66.2910403922
 21
36.3225719911
  0
LINE
  5
4CB
100
AcDbEntity
  8
0
100
AcDbLine
 62
7
  6
CONTINUOUS
 10
91.3739990362
 20
34.1344588025
 11
91.3829261154
 21
34.1420722767
  0
LINE
  5
4CC
100
AcDbEntity
  8
DEFAULT_2
100
AcDbLine
 62
8
  6
CONTINUOUS
 10
84.516587937
 20
37.3537064057
 11
84.567231244
 21
37.3968658614
  0
LINE
  5
4CD
100
AcDbEntity
  8
DEFAULT_2
100
AcDbLine
 62
8
  6
CONTINUOUS
 10
66.3707233921
 20
36.2262482986
 11
66.3725063697
 21
36.227750594
  0
LINE
  5
4CE
100
AcDbEntity
  8
0
100
AcDbLine
 62
7
  6
CONTINUOUS
 10
91.3722830009
 20
34.133234394
 11
91.3809464283
 21
34.1405253948
  0
LINE
  5
4CF
100
AcDbEntity
  8
DEFAULT_2
100
AcDbLine
 62
8
  6
CONTINUOUS
 10
66.2910403922
 20
36.3225719911
 11
66.2942880153
 21
36.325262636
  0
LINE
  5
4D0
100
AcDbEntity
  8
DEFAULT_2
100
AcDbLine
 62
8
  6
CONTINUOUS
 10
93.0874915952
 20
55.1707886708
 11
93.1262238598
 21
55.2028154672
  0
LINE
  5
4D1
100
AcDbEntity
  8
DEFAULT_2
100
AcDbLine
 62
8
  6
CONTINUOUS
 10
95.6509617498
 20
55.8647313947
 11
95.6574196279
 21
55.8700656565
  0
LINE
  5
4D2
100
AcDbEntity
  8
0
100
AcDbLine
 62
9
  6
CONTINUOUS
 10
96.8554075186
 20
53.5369841329
 11
96.8437098316
 21
53.527375426
  0
LINE
  5
4D3
100
AcDbEntity
  8
DEFAULT_2
100
AcDbLine
 62
8
  6
CONTINUOUS
 10
84.5694934716
 20
37.4841564126
 11
84.5084244286
 21
37.4343328238
  0
LINE
  5
4D4
100
AcDbEntity
  8
DEFAULT_2
100
AcDbLine
 62
8
  6
CONTINUOUS
 10
66.3725063697
 20
36.227750594
 11
66.374316991
 21
36.2292193063
  0
LINE
  5
4D5
100
AcDbEntity
  8
0
100
AcDbLine
 62
9
  6
CONTINUOUS
 10
91.3627403431
 20
34.1255471977
 11
91.3794244683
 21
34.1390572733
  0
LINE
  5
4D6
100
AcDbEntity
  8
DEFAULT_2
100
AcDbLine
 62
8
  6
CONTINUOUS
 10
84.4648735376
 20
37.3118359529
 11
84.516587937
 21
37.3537064057
  0
LINE
  5
4D7
100
AcDbEntity
  8
DEFAULT_2
100
AcDbLine
 62
8
  6
CONTINUOUS
 10
66.2942880153
 20
36.325262636
 11
66.2975297203
 21
36.3278580917
  0
LINE
  5
4D8
100
AcDbEntity
  8
0
100
AcDbLine
 62
7
  6
CONTINUOUS
 10
91.3649858037
 20
34.1272425843
 11
91.3739990362
 21
34.1344588025
  0
LINE
  5
4D9
100
AcDbEntity
  8
0
100
AcDbLine
 62
7
  6
CONTINUOUS
 10
91.3635360847
 20
34.1263099248
 11
91.3722830009
 21
34.133234394
  0
LINE
  5
4DA
100
AcDbEntity
  8
DEFAULT_2
100
AcDbLine
 62
8
  6
CONTINUOUS
 10
93.1262238598
 20
55.2028154672
 11
93.1681218534
 21
55.2359535159
  0
LINE
  5
4DB
100
AcDbEntity
  8
DEFAULT_2
100
AcDbLine
 62
8
  6
CONTINUOUS
 10
95.6443858227
 20
55.8595434155
 11
95.6509617498
 21
55.8647313947
  0
LINE
  5
4DC
100
AcDbEntity
  8
DEFAULT_2
100
AcDbLine
 62
8
  6
CONTINUOUS
 10
66.374316991
 20
36.2292193063
 11
66.37615465
 21
36.2306539595
  0
LINE
  5
4DD
100
AcDbEntity
  8
DEFAULT_2
100
AcDbLine
 62
8
  6
CONTINUOUS
 10
66.2975297203
 20
36.3278580917
 11
66.3008141028
 21
36.3303993544
  0
LINE
  5
4DE
100
AcDbEntity
  8
DEFAULT_2
100
AcDbLine
 62
8
  6
CONTINUOUS
 10
84.4121196136
 20
37.2712828589
 11
84.4648735376
 21
37.3118359529
  0
LINE
  5
4DF
100
AcDbEntity
  8
DEFAULT_2
100
AcDbLine
 62
8
  6
CONTINUOUS
 10
84.5084244286
 20
37.4343328238
 11
84.4461237753
 21
37.386528549
  0
LINE
  5
4E0
100
AcDbEntity
  8
DEFAULT_2
100
AcDbLine
 62
8
  6
CONTINUOUS
 10
93.1681218534
 20
55.2359535159
 11
93.2107510572
 21
55.2681458785
  0
LINE
  5
4E1
100
AcDbEntity
  8
DEFAULT_2
100
AcDbLine
 62
8
  6
CONTINUOUS
 10
95.6376947122
 20
55.8545050095
 11
95.6443858227
 21
55.8595434155
  0
LINE
  5
4E2
100
AcDbEntity
  8
0
100
AcDbLine
 62
7
  6
CONTINUOUS
 10
91.3559081196
 20
34.1204187269
 11
91.3649858037
 21
34.1272425843
  0
LINE
  5
4E3
100
AcDbEntity
  8
DEFAULT_2
100
AcDbLine
 62
8
  6
CONTINUOUS
 10
66.37615465
 20
36.2306539595
 11
66.3780187408
 21
36.2320540776
  0
LINE
  5
4E4
100
AcDbEntity
  8
DEFAULT_2
100
AcDbLine
 62
8
  6
CONTINUOUS
 10
66.3008141028
 20
36.3303993544
 11
66.3041402448
 21
36.3328857115
  0
LINE
  5
4E5
100
AcDbEntity
  8
0
100
AcDbLine
 62
7
  6
CONTINUOUS
 10
91.3547237403
 20
34.1197471792
 11
91.3635360847
 21
34.1263099248
  0
LINE
  5
4E6
100
AcDbEntity
  8
DEFAULT_2
100
AcDbLine
 62
8
  6
CONTINUOUS
 10
84.3584438048
 20
37.2321353101
 11
84.4121196136
 21
37.2712828589
  0
LINE
  5
4E7
100
AcDbEntity
  8
0
100
AcDbLine
 62
9
  6
CONTINUOUS
 10
96.8676654933
 20
53.5458665211
 11
96.8554075186
 21
53.5369841329
  0
LINE
  5
4E8
100
AcDbEntity
  8
DEFAULT_2
100
AcDbLine
 62
8
  6
CONTINUOUS
 10
84.4461237753
 20
37.386528549
 11
84.38242673
 21
37.3406014668
  0
LINE
  5
4E9
100
AcDbEntity
  8
0
100
AcDbLine
 62
9
  6
CONTINUOUS
 10
91.3453104012
 20
34.1130140022
 11
91.3627403431
 21
34.1255471977
  0
LINE
  5
4EA
100
AcDbEntity
  8
DEFAULT_2
100
AcDbLine
 62
8
  6
CONTINUOUS
 10
95.6308912843
 20
55.8496194674
 11
95.6376947122
 21
55.8545050095
  0
LINE
  5
4EB
100
AcDbEntity
  8
DEFAULT_2
100
AcDbLine
 62
8
  6
CONTINUOUS
 10
84.3037986732
 20
37.1943526013
 11
84.3584438048
 21
37.2321353101
  0
LINE
  5
4EC
100
AcDbEntity
  8
0
100
AcDbLine
 62
7
  6
CONTINUOUS
 10
91.3458632795
 20
34.11354052
 11
91.3559081196
 21
34.1204187269
  0
LINE
  5
4ED
100
AcDbEntity
  8
DEFAULT_2
100
AcDbLine
 62
8
  6
CONTINUOUS
 10
84.38242673
 20
37.3406014668
 11
84.3178311297
 21
37.2968828953
  0
LINE
  5
4EE
100
AcDbEntity
  8
0
100
AcDbLine
 62
7
  6
CONTINUOUS
 10
97.0295500013
 20
53.6217479919
 11
97.0356893192
 21
53.6258803412
  0
LINE
  5
4EF
100
AcDbEntity
  8
DEFAULT_2
100
AcDbLine
 62
8
  6
CONTINUOUS
 10
84.2482196826
 20
37.1579580906
 11
84.3037986732
 21
37.1943526013
  0
LINE
  5
4F0
100
AcDbEntity
  8
0
100
AcDbLine
 62
7
  6
CONTINUOUS
 10
91.3369714551
 20
34.1076836977
 11
91.3467875572
 21
34.1139816869
  0
LINE
  5
4F1
100
AcDbEntity
  8
0
100
AcDbLine
 62
9
  6
CONTINUOUS
 10
91.3271917691
 20
34.1014987643
 11
91.3453104012
 21
34.1130140022
  0
LINE
  5
4F2
100
AcDbEntity
  8
DEFAULT_2
100
AcDbLine
 62
8
  6
CONTINUOUS
 10
84.3178311297
 20
37.2968828953
 11
84.2519693662
 21
37.2550963111
  0
LINE
  5
4F3
100
AcDbEntity
  8
DEFAULT_2
100
AcDbLine
 62
8
  6
CONTINUOUS
 10
84.1917422964
 20
37.1229751361
 11
84.2482196826
 21
37.1579580906
  0
LINE
  5
4F4
100
AcDbEntity
  8
0
100
AcDbLine
 62
7
  6
CONTINUOUS
 10
91.3280644664
 20
34.1021698998
 11
91.3376450954
 21
34.1079249569
  0
LINE
  5
4F5
100
AcDbEntity
  8
DEFAULT_2
100
AcDbLine
 62
8
  6
CONTINUOUS
 10
84.2519693662
 20
37.2550963111
 11
84.1855480489
 21
37.2156522515
  0
LINE
  5
4F6
100
AcDbEntity
  8
DEFAULT_2
100
AcDbLine
 62
8
  6
CONTINUOUS
 10
84.1344019782
 20
37.0894270959
 11
84.1917422964
 21
37.1229751361
  0
LINE
  5
4F7
100
AcDbEntity
  8
0
100
AcDbLine
 62
7
  6
CONTINUOUS
 10
91.3193735748
 20
34.0969210185
 11
91.3285005555
 21
34.1022408082
  0
LINE
  5
4F8
100
AcDbEntity
  8
0
100
AcDbLine
 62
9
  6
CONTINUOUS
 10
91.3084438305
 20
34.091039225
 11
91.3271917691
 21
34.1014987643
  0
LINE
  5
4F9
100
AcDbEntity
  8
DEFAULT_2
100
AcDbLine
 62
8
  6
CONTINUOUS
 10
84.1855480489
 20
37.2156522515
 11
84.1179976898
 21
37.1781748572
  0
LINE
  5
4FA
100
AcDbEntity
  8
DEFAULT_2
100
AcDbLine
 62
8
  6
CONTINUOUS
 10
84.0762341917
 20
37.0573373283
 11
84.1344019782
 21
37.0894270959
  0
LINE
  5
4FB
100
AcDbEntity
  8
0
100
AcDbLine
 62
7
  6
CONTINUOUS
 10
91.310281492
 20
34.0919557346
 11
91.3193735748
 21
34.0969210185
  0
LINE
  5
4FC
100
AcDbEntity
  8
0
100
AcDbLine
 62
7
  6
CONTINUOUS
 10
91.3012412152
 20
34.0873347438
 11
91.310281492
 21
34.0919557346
  0
LINE
  5
4FD
100
AcDbEntity
  8
0
100
AcDbLine
 62
7
  6
CONTINUOUS
 10
91.2922689091
 20
34.0830473291
 11
91.3014020377
 21
34.0876088718
  0
LINE
  5
4FE
100
AcDbEntity
  8
0
100
AcDbLine
 62
9
  6
CONTINUOUS
 10
91.2891280315
 20
34.0816696655
 11
91.3084438305
 21
34.091039225
  0
LINE
  5
4FF
100
AcDbEntity
  8
0
100
AcDbLine
 62
7
  6
CONTINUOUS
 10
91.2833799121
 20
34.0790822859
 11
91.2925852221
 21
34.0833892715
  0
LINE
  5
500
100
AcDbEntity
  8
DEFAULT_2
100
AcDbLine
 62
8
  6
CONTINUOUS
 10
93.9563458606
 20
55.6387437839
 11
94.0055789481
 21
55.6527475932
  0
LINE
  5
501
100
AcDbEntity
  8
0
100
AcDbLine
 62
9
  6
CONTINUOUS
 10
43.8387725983
 20
34.0758303582
 11
43.8569764781
 21
34.0809904307
  0
LINE
  5
502
100
AcDbEntity
  8
0
100
AcDbLine
 62
7
  6
CONTINUOUS
 10
32.4196301451
 20
56.0690366943
 11
32.4055893954
 21
56.0650782861
  0
LINE
  5
503
100
AcDbEntity
  8
0
100
AcDbLine
 62
9
  6
CONTINUOUS
 10
32.3805439505
 20
56.0568854458
 11
32.4666315312
 21
56.0808399135
  0
LINE
  5
504
100
AcDbEntity
  8
0
100
AcDbLine
 62
7
  6
CONTINUOUS
 10
32.4336022856
 20
56.0728887082
 11
32.4196301451
 21
56.0690366943
  0
LINE
  5
505
100
AcDbEntity
  8
0
100
AcDbLine
 62
9
  6
CONTINUOUS
 10
33.3582326984
 20
56.0996367864
 11
33.4270423729
 21
56.1181848982
  0
LINE
  5
506
100
AcDbEntity
  8
0
100
AcDbLine
 62
7
  6
CONTINUOUS
 10
32.4475077042
 20
56.0766364454
 11
32.4336022856
 21
56.0728887082
  0
LINE
  5
507
100
AcDbEntity
  8
DEFAULT_2
100
AcDbLine
 62
8
  6
CONTINUOUS
 10
66.4185129684
 20
36.2517965818
 11
66.420894344
 21
36.252436325
  0
LINE
  5
508
100
AcDbEntity
  8
DEFAULT_2
100
AcDbLine
 62
8
  6
CONTINUOUS
 10
95.5097118905
 20
55.7940793061
 11
95.5178063401
 21
55.7962446743
  0
LINE
  5
509
100
AcDbEntity
  8
DEFAULT_2
100
AcDbLine
 62
8
  6
CONTINUOUS
 10
66.3858145019
 20
36.3724459286
 11
66.3907078933
 21
36.3737390894
  0
LINE
  5
50A
100
AcDbEntity
  8
0
100
AcDbLine
 62
7
  6
CONTINUOUS
 10
32.461347468
 20
56.0802817331
 11
32.4475077042
 21
56.0766364454
  0
LINE
  5
50B
100
AcDbEntity
  8
0
100
AcDbLine
 62
7
  6
CONTINUOUS
 10
43.831317127
 20
34.0737469753
 11
43.8495989402
 21
34.0785559626
  0
LINE
  5
50C
100
AcDbEntity
  8
DEFAULT_2
100
AcDbLine
 62
8
  6
CONTINUOUS
 10
94.0055789481
 20
55.6527475932
 11
94.0550976601
 21
55.6657064218
  0
LINE
  5
50D
100
AcDbEntity
  8
DEFAULT_2
100
AcDbLine
 62
8
  6
CONTINUOUS
 10
64.7835213391
 20
51.1171871567
 11
64.7509976326
 21
51.1088011879
  0
LINE
  5
50E
100
AcDbEntity
  8
DEFAULT_2
100
AcDbLine
 62
8
  6
CONTINUOUS
 10
64.1526184159
 20
53.3845735257
 11
64.1851421225
 21
53.3929594944
  0
LINE
  5
50F
100
AcDbEntity
  8
0
100
AcDbLine
 62
7
  6
CONTINUOUS
 10
32.4751216194
 20
56.083826083
 11
32.461347468
 21
56.0802817331
  0
LINE
  5
510
100
AcDbEntity
  8
0
100
AcDbLine
 62
9
  6
CONTINUOUS
 10
30.4680698698
 20
53.6258803751
 11
30.4688187442
 21
53.6260714119
  0
LINE
  5
511
100
AcDbEntity
  8
0
100
AcDbLine
 62
7
  6
CONTINUOUS
 10
32.4888291251
 20
56.0872707111
 11
32.4751216194
 21
56.083826083
  0
LINE
  5
512
100
AcDbEntity
  8
DEFAULT_2
100
AcDbLine
 62
8
  6
CONTINUOUS
 10
66.420894344
 20
36.252436325
 11
66.4232878747
 21
36.2530288976
  0
LINE
  5
513
100
AcDbEntity
  8
0
100
AcDbLine
 62
7
  6
CONTINUOUS
 10
32.5024676622
 20
56.090616519
 11
32.4888291251
 21
56.0872707111
  0
LINE
  5
514
100
AcDbEntity
  8
DEFAULT_2
100
AcDbLine
 62
8
  6
CONTINUOUS
 10
95.5015710732
 20
55.7920949015
 11
95.5097118905
 21
55.7940793061
  0
LINE
  5
515
100
AcDbEntity
  8
DEFAULT_2
100
AcDbLine
 62
8
  6
CONTINUOUS
 10
66.3907078933
 20
36.3737390894
 11
66.3956264686
 21
36.3749328427
  0
LINE
  5
516
100
AcDbEntity
  8
0
100
AcDbLine
 62
9
  6
CONTINUOUS
 10
32.4666315312
 20
56.0808399135
 11
32.5539242028
 21
56.101805479
  0
LINE
  5
517
100
AcDbEntity
  8
0
100
AcDbLine
 62
7
  6
CONTINUOUS
 10
32.516032879
 20
56.0938639575
 11
32.5024676622
 21
56.090616519
  0
LINE
  5
518
100
AcDbEntity
  8
DEFAULT_2
100
AcDbLine
 62
8
  6
CONTINUOUS
 10
94.0550976601
 20
55.6657064218
 11
94.1063480351
 21
55.6779486867
  0
LINE
  5
519
100
AcDbEntity
  8
0
100
AcDbLine
 62
7
  6
CONTINUOUS
 10
32.529533315
 20
56.0970165273
 11
32.516032879
 21
56.0938639575
  0
LINE
  5
51A
100
AcDbEntity
  8
DEFAULT_2
100
AcDbLine
 62
8
  6
CONTINUOUS
 10
83.393223325
 20
36.8061487999
 11
83.4578929597
 21
36.8210018875
  0
LINE
  5
51B
100
AcDbEntity
  8
DEFAULT_2
100
AcDbLine
 62
8
  6
CONTINUOUS
 10
64.7509976326
 20
51.1088011879
 11
64.7182515106
 21
51.1013307766
  0
LINE
  5
51C
100
AcDbEntity
  8
DEFAULT_2
100
AcDbLine
 62
8
  6
CONTINUOUS
 10
64.1851421225
 20
53.3929594944
 11
64.2178882444
 21
53.4004299057
  0
LINE
  5
51D
100
AcDbEntity
  8
DEFAULT_2
100
AcDbLine
 62
8
  6
CONTINUOUS
 10
83.4966568487
 20
36.9408422864
 11
83.4272746433
 21
36.9250288759
  0
LINE
  5
51E
100
AcDbEntity
  8
DEFAULT_2
100
AcDbLine
 62
8
  6
CONTINUOUS
 10
66.4232878747
 20
36.2530288976
 11
66.4254893921
 21
36.2535299028
  0
LINE
  5
51F
100
AcDbEntity
  8
0
100
AcDbLine
 62
7
  6
CONTINUOUS
 10
32.5430494127
 20
56.1000937241
 11
32.529533315
 21
56.0970165273
  0
LINE
  5
520
100
AcDbEntity
  8
0
100
AcDbLine
 62
7
  6
CONTINUOUS
 10
32.5565909965
 20
56.1030977778
 11
32.5430494127
 21
56.1000937241
  0
LINE
  5
521
100
AcDbEntity
  8
DEFAULT_2
100
AcDbLine
 62
8
  6
CONTINUOUS
 10
66.3956264686
 20
36.3749328427
 11
66.4003914622
 21
36.3759893603
  0
LINE
  5
522
100
AcDbEntity
  8
0
100
AcDbLine
 62
9
  6
CONTINUOUS
 10
43.8202338502
 20
34.0717430884
 11
43.8387725983
 21
34.0758303582
  0
LINE
  5
523
100
AcDbEntity
  8
0
100
AcDbLine
 62
9
  6
CONTINUOUS
 10
33.4270423729
 20
56.1181848982
 11
33.4964115913
 21
56.1334719947
  0
LINE
  5
524
100
AcDbEntity
  8
DEFAULT_2
100
AcDbLine
 62
8
  6
CONTINUOUS
 10
95.4933879893
 20
55.7902927197
 11
95.5015710732
 21
55.7920949015
  0
LINE
  5
525
100
AcDbEntity
  8
0
100
AcDbLine
 62
7
  6
CONTINUOUS
 10
32.5701510009
 20
56.1060270826
 11
32.5565909965
 21
56.1030977778
  0
LINE
  5
526
100
AcDbEntity
  8
DEFAULT_2
100
AcDbLine
 62
8
  6
CONTINUOUS
 10
94.1063480351
 20
55.6779486867
 11
94.1578529588
 21
55.6890717058
  0
LINE
  5
527
100
AcDbEntity
  8
0
100
AcDbLine
 62
7
  6
CONTINUOUS
 10
32.5837226741
 20
56.1088802469
 11
32.5701510009
 21
56.1060270826
  0
LINE
  5
528
100
AcDbEntity
  8
DEFAULT_2
100
AcDbLine
 62
8
  6
CONTINUOUS
 10
66.4254893921
 20
36.2535299028
 11
66.4276995991
 21
36.2539909717
  0
LINE
  5
529
100
AcDbEntity
  8
0
100
AcDbLine
 62
7
  6
CONTINUOUS
 10
32.5972998806
 20
56.111656144
 11
32.5837226741
 21
56.1088802469
  0
LINE
  5
52A
100
AcDbEntity
  8
0
100
AcDbLine
 62
9
  6
CONTINUOUS
 10
89.4820374032
 20
53.1605938817
 11
90.807209735
 21
53.4300399672
  0
LINE
  5
52B
100
AcDbEntity
  8
DEFAULT_2
100
AcDbLine
 62
8
  6
CONTINUOUS
 10
83.3282123624
 20
36.7929463736
 11
83.393223325
 21
36.8061487999
  0
LINE
  5
52C
100
AcDbEntity
  8
0
100
AcDbLine
 62
9
  6
CONTINUOUS
 10
32.5539242028
 20
56.101805479
 11
32.6422454806
 21
56.1196928972
  0
LINE
  5
52D
100
AcDbEntity
  8
0
100
AcDbLine
 62
7
  6
CONTINUOUS
 10
43.8127215597
 20
34.0699946485
 11
43.831317127
 21
34.0737469753
  0
LINE
  5
52E
100
AcDbEntity
  8
DEFAULT_2
100
AcDbLine
 62
8
  6
CONTINUOUS
 10
66.4003914622
 20
36.3759893603
 11
66.4051761818
 21
36.3769525428
  0
LINE
  5
52F
100
AcDbEntity
  8
DEFAULT_2
100
AcDbLine
 62
8
  6
CONTINUOUS
 10
83.4272746433
 20
36.9250288759
 11
83.3588628709
 21
36.9113637913
  0
LINE
  5
530
100
AcDbEntity
  8
DEFAULT_2
100
AcDbLine
 62
8
  6
CONTINUOUS
 10
64.7182515106
 20
51.1013307766
 11
64.6852975587
 21
51.0947797534
  0
LINE
  5
531
100
AcDbEntity
  8
DEFAULT_2
100
AcDbLine
 62
8
  6
CONTINUOUS
 10
64.2178882444
 20
53.4004299057
 11
64.2508421964
 21
53.4069809289
  0
LINE
  5
532
100
AcDbEntity
  8
0
100
AcDbLine
 62
7
  6
CONTINUOUS
 10
32.6108775115
 20
56.114353974
 11
32.5972998806
 21
56.111656144
  0
LINE
  5
533
100
AcDbEntity
  8
0
100
AcDbLine
 62
9
  6
CONTINUOUS
 10
88.0446953876
 20
53.1234294655
 11
89.350186598
 21
53.3827286707
  0
LINE
  5
534
100
AcDbEntity
  8
DEFAULT_2
100
AcDbLine
 62
8
  6
CONTINUOUS
 10
95.4851664545
 20
55.7886739495
 11
95.4933879893
 21
55.7902927197
  0
LINE
  5
535
100
AcDbEntity
  8
0
100
AcDbLine
 62
9
  6
CONTINUOUS
 10
88.1744549915
 20
52.9042514328
 11
89.4820374032
 21
53.1605938817
  0
LINE
  5
536
100
AcDbEntity
  8
0
100
AcDbLine
 62
9
  6
CONTINUOUS
 10
30.4688187442
 20
53.6260714119
 11
30.4709258433
 21
53.626484586
  0
LINE
  5
537
100
AcDbEntity
  8
DEFAULT_2
100
AcDbLine
 62
8
  6
CONTINUOUS
 10
94.1578529588
 20
55.6890717058
 11
94.2095876526
 21
55.6990700604
  0
LINE
  5
538
100
AcDbEntity
  8
0
100
AcDbLine
 62
7
  6
CONTINUOUS
 10
32.6244517264
 20
56.1169732791
 11
32.6108775115
 21
56.114353974
  0
LINE
  5
539
100
AcDbEntity
  8
0
100
AcDbLine
 62
9
  6
CONTINUOUS
 10
86.7639542082
 20
52.8787340195
 11
88.0446953876
 21
53.1234294655
  0
LINE
  5
53A
100
AcDbEntity
  8
DEFAULT_2
100
AcDbLine
 62
8
  6
CONTINUOUS
 10
66.4276995991
 20
36.2539909717
 11
66.4299177718
 21
36.2544119346
  0
LINE
  5
53B
100
AcDbEntity
  8
0
100
AcDbLine
 62
9
  6
CONTINUOUS
 10
86.8821509088
 20
52.660698437
 11
88.1744549915
 21
52.9042514328
  0
LINE
  5
53C
100
AcDbEntity
  8
0
100
AcDbLine
 62
7
  6
CONTINUOUS
 10
32.6380203484
 20
56.1195139796
 11
32.6244517264
 21
56.1169732791
  0
LINE
  5
53D
100
AcDbEntity
  8
0
100
AcDbLine
 62
9
  6
CONTINUOUS
 10
85.5082613144
 20
52.64876474
 11
86.7639542082
 21
52.8787340195
  0
LINE
  5
53E
100
AcDbEntity
  8
DEFAULT_2
100
AcDbLine
 62
8
  6
CONTINUOUS
 10
66.4051761818
 20
36.3769525428
 11
66.4097107713
 21
36.3777760176
  0
LINE
  5
53F
100
AcDbEntity
  8
0
100
AcDbLine
 62
7
  6
CONTINUOUS
 10
32.6515829549
 20
56.1219763426
 11
32.6380203484
 21
56.1195139796
  0
LINE
  5
540
100
AcDbEntity
  8
0
100
AcDbLine
 62
9
  6
CONTINUOUS
 10
85.6120599284
 20
52.4310912841
 11
86.8821509088
 21
52.660698437
  0
LINE
  5
541
100
AcDbEntity
  8
DEFAULT_2
100
AcDbLine
 62
8
  6
CONTINUOUS
 10
83.2628259348
 20
36.7813933434
 11
83.3282123624
 21
36.7929463736
  0
LINE
  5
542
100
AcDbEntity
  8
0
100
AcDbLine
 62
7
  6
CONTINUOUS
 10
91.1963489619
 20
34.0537148745
 11
91.2031801851
 21
34.0549194163
  0
LINE
  5
543
100
AcDbEntity
  8
0
100
AcDbLine
 62
7
  6
CONTINUOUS
 10
32.6651411343
 20
56.1243609765
 11
32.6515829549
 21
56.1219763426
  0
LINE
  5
544
100
AcDbEntity
  8
0
100
AcDbLine
 62
9
  6
CONTINUOUS
 10
84.2768493256
 20
52.4331544049
 11
85.5082613144
 21
52.64876474
  0
LINE
  5
545
100
AcDbEntity
  8
0
100
AcDbLine
 62
7
  6
CONTINUOUS
 10
91.1956058384
 20
34.0533791483
 11
91.2023865067
 21
34.0545623417
  0
LINE
  5
546
100
AcDbEntity
  8
DEFAULT_2
100
AcDbLine
 62
8
  6
CONTINUOUS
 10
95.4769102842
 20
55.7872397798
 11
95.4851664545
 21
55.7886739495
  0
LINE
  5
547
100
AcDbEntity
  8
0
100
AcDbLine
 62
9
  6
CONTINUOUS
 10
84.372306381
 20
52.2169033868
 11
85.6120599284
 21
52.4310912841
  0
LINE
  5
548
100
AcDbEntity
  8
DEFAULT_2
100
AcDbLine
 62
8
  6
CONTINUOUS
 10
83.3588628709
 20
36.9113637913
 11
83.2901109671
 21
36.8995286648
  0
LINE
  5
549
100
AcDbEntity
  8
0
100
AcDbLine
 62
9
  6
CONTINUOUS
 10
33.4964115913
 20
56.1334719947
 11
33.5662250805
 21
56.145433811
  0
LINE
  5
54A
100
AcDbEntity
  8
DEFAULT_2
100
AcDbLine
 62
8
  6
CONTINUOUS
 10
94.2095876526
 20
55.6990700604
 11
94.2625566469
 21
55.7081024678
  0
LINE
  5
54B
100
AcDbEntity
  8
0
100
AcDbLine
 62
7
  6
CONTINUOUS
 10
32.6786983424
 20
56.1266687507
 11
32.6651411343
 21
56.1243609765
  0
LINE
  5
54C
100
AcDbEntity
  8
DEFAULT_2
100
AcDbLine
 62
8
  6
CONTINUOUS
 10
64.6852975587
 20
51.0947797534
 11
64.6521728685
 21
51.0891553179
  0
LINE
  5
54D
100
AcDbEntity
  8
DEFAULT_2
100
AcDbLine
 62
8
  6
CONTINUOUS
 10
64.2508421964
 20
53.4069809289
 11
64.2839668866
 21
53.4126053644
  0
LINE
  5
54E
100
AcDbEntity
  8
DEFAULT_2
100
AcDbLine
 62
8
  6
CONTINUOUS
 10
66.4299177718
 20
36.2544119346
 11
66.4328066134
 21
36.2548980935
  0
LINE
  5
54F
100
AcDbEntity
  8
0
100
AcDbLine
 62
9
  6
CONTINUOUS
 10
91.1863002652
 20
34.0521160358
 11
91.2074759029
 21
34.0556497827
  0
LINE
  5
550
100
AcDbEntity
  8
0
100
AcDbLine
 62
9
  6
CONTINUOUS
 10
83.0699232741
 20
52.2317747841
 11
84.2768493256
 21
52.4331544049
  0
LINE
  5
551
100
AcDbEntity
  8
0
100
AcDbLine
 62
9
  6
CONTINUOUS
 10
32.6422454806
 20
56.1196928972
 11
32.731421955
 21
56.134437091
  0
LINE
  5
552
100
AcDbEntity
  8
0
100
AcDbLine
 62
9
  6
CONTINUOUS
 10
83.1570100026
 20
52.0168662533
 11
84.372306381
 21
52.2169033868
  0
LINE
  5
553
100
AcDbEntity
  8
0
100
AcDbLine
 62
7
  6
CONTINUOUS
 10
32.692259871
 20
56.1289007379
 11
32.6786983424
 21
56.1266687507
  0
LINE
  5
554
100
AcDbEntity
  8
DEFAULT_2
100
AcDbLine
 62
8
  6
CONTINUOUS
 10
66.4097107713
 20
36.3777760176
 11
66.4142597768
 21
36.3785155995
  0
LINE
  5
555
100
AcDbEntity
  8
0
100
AcDbLine
 62
9
  6
CONTINUOUS
 10
43.8014226537
 20
34.0687514276
 11
43.8202338502
 21
34.0717430884
  0
LINE
  5
556
100
AcDbEntity
  8
0
100
AcDbLine
 62
7
  6
CONTINUOUS
 10
32.7058323735
 20
56.1310580899
 11
32.692259871
 21
56.1289007379
  0
LINE
  5
557
100
AcDbEntity
  8
0
100
AcDbLine
 62
9
  6
CONTINUOUS
 10
81.8848516739
 20
52.0440313085
 11
83.0699232741
 21
52.2317747841
  0
LINE
  5
558
100
AcDbEntity
  8
0
100
AcDbLine
 62
7
  6
CONTINUOUS
 10
91.1899212052
 20
34.0526977589
 11
91.1963489619
 21
34.0537148745
  0
LINE
  5
559
100
AcDbEntity
  8
0
100
AcDbLine
 62
7
  6
CONTINUOUS
 10
91.1892983662
 20
34.0523907327
 11
91.1956058384
 21
34.0533791483
  0
LINE
  5
55A
100
AcDbEntity
  8
0
100
AcDbLine
 62
9
  6
CONTINUOUS
 10
81.9634551396
 20
51.830296625
 11
83.1570100026
 21
52.0168662533
  0
LINE
  5
55B
100
AcDbEntity
  8
0
100
AcDbLine
 62
7
  6
CONTINUOUS
 10
32.7194233008
 20
56.1331419143
 11
32.7058323735
 21
56.1310580899
  0
LINE
  5
55C
100
AcDbEntity
  8
DEFAULT_2
100
AcDbLine
 62
8
  6
CONTINUOUS
 10
83.1971756201
 20
36.7715117409
 11
83.2628259348
 21
36.7813933434
  0
LINE
  5
55D
100
AcDbEntity
  8
DEFAULT_2
100
AcDbLine
 62
8
  6
CONTINUOUS
 10
95.4686232943
 20
55.7859913994
 11
95.4769102842
 21
55.7872397798
  0
LINE
  5
55E
100
AcDbEntity
  8
0
100
AcDbLine
 62
9
  6
CONTINUOUS
 10
80.7194170872
 20
51.8693782282
 11
81.8848516739
 21
52.0440313085
  0
LINE
  5
55F
100
AcDbEntity
  8
0
100
AcDbLine
 62
9
  6
CONTINUOUS
 10
80.7902722924
 20
51.656875318
 11
81.9634551396
 21
51.830296625
  0
LINE
  5
560
100
AcDbEntity
  8
DEFAULT_2
100
AcDbLine
 62
8
  6
CONTINUOUS
 10
94.2625566469
 20
55.7081024678
 11
94.3157139447
 21
55.7159550235
  0
LINE
  5
561
100
AcDbEntity
  8
0
100
AcDbLine
 62
7
  6
CONTINUOUS
 10
32.7329703646
 20
56.1351430323
 11
32.7194233008
 21
56.1331419143
  0
LINE
  5
562
100
AcDbEntity
  8
DEFAULT_2
100
AcDbLine
 62
8
  6
CONTINUOUS
 10
83.2901109671
 20
36.8995286648
 11
83.2224392101
 21
36.8897133848
  0
LINE
  5
563
100
AcDbEntity
  8
DEFAULT_2
100
AcDbLine
 62
8
  6
CONTINUOUS
 10
66.4142597768
 20
36.3785155995
 11
66.4183992589
 21
36.3791139165
  0
LINE
  5
564
100
AcDbEntity
  8
DEFAULT_2
100
AcDbLine
 62
8
  6
CONTINUOUS
 10
66.4328066134
 20
36.2548980935
 11
66.4357060511
 21
36.2553160934
  0
LINE
  5
565
100
AcDbEntity
  8
0
100
AcDbLine
 62
7
  6
CONTINUOUS
 10
32.7463957788
 20
56.1370514811
 11
32.7329703646
 21
56.1351430323
  0
LINE
  5
566
100
AcDbEntity
  8
0
100
AcDbLine
 62
7
  6
CONTINUOUS
 10
43.7938712805
 20
34.06732141
 11
43.8127215597
 21
34.0699946485
  0
LINE
  5
567
100
AcDbEntity
  8
0
100
AcDbLine
 62
7
  6
CONTINUOUS
 10
91.1839818162
 20
34.0518567318
 11
91.1899212052
 21
34.0526977589
  0
LINE
  5
568
100
AcDbEntity
  8
0
100
AcDbLine
 62
9
  6
CONTINUOUS
 10
79.5725661235
 20
51.7075408554
 11
80.7194170872
 21
51.8693782282
  0
LINE
  5
569
100
AcDbEntity
  8
DEFAULT_2
100
AcDbLine
 62
8
  6
CONTINUOUS
 10
64.6521728685
 20
51.0891553179
 11
64.6189035385
 21
51.0844616387
  0
LINE
  5
56A
100
AcDbEntity
  8
DEFAULT_2
100
AcDbLine
 62
8
  6
CONTINUOUS
 10
64.2839668866
 20
53.4126053644
 11
64.3172362166
 21
53.4172990437
  0
LINE
  5
56B
100
AcDbEntity
  8
0
100
AcDbLine
 62
7
  6
CONTINUOUS
 10
91.1834871541
 20
34.0515743954
 11
91.1892983662
 21
34.0523907327
  0
LINE
  5
56C
100
AcDbEntity
  8
0
100
AcDbLine
 62
9
  6
CONTINUOUS
 10
79.6354283824
 20
51.4961197262
 11
80.7902722924
 21
51.656875318
  0
LINE
  5
56D
100
AcDbEntity
  8
0
100
AcDbLine
 62
7
  6
CONTINUOUS
 10
32.7596916003
 20
56.1388683421
 11
32.7463957788
 21
56.1370514811
  0
LINE
  5
56E
100
AcDbEntity
  8
0
100
AcDbLine
 62
9
  6
CONTINUOUS
 10
78.4426652292
 20
51.5581306827
 11
79.5725661235
 21
51.7075408554
  0
LINE
  5
56F
100
AcDbEntity
  8
0
100
AcDbLine
 62
7
  6
CONTINUOUS
 10
32.7728522934
 20
56.1405951398
 11
32.7596916003
 21
56.1388683421
  0
LINE
  5
570
100
AcDbEntity
  8
0
100
AcDbLine
 62
9
  6
CONTINUOUS
 10
78.4981984934
 20
51.3478100102
 11
79.6354283824
 21
51.4961197262
  0
LINE
  5
571
100
AcDbEntity
  8
0
100
AcDbLine
 62
9
  6
CONTINUOUS
 10
32.731421955
 20
56.134437091
 11
32.8212961729
 21
56.145975491
  0
LINE
  5
572
100
AcDbEntity
  8
DEFAULT_2
100
AcDbLine
 62
8
  6
CONTINUOUS
 10
95.4603105818
 20
55.7849301321
 11
95.4686232943
 21
55.7859913994
  0
LINE
  5
573
100
AcDbEntity
  8
DEFAULT_2
100
AcDbLine
 62
8
  6
CONTINUOUS
 10
66.4183992589
 20
36.3791139165
 11
66.4225481753
 21
36.3796426748
  0
LINE
  5
574
100
AcDbEntity
  8
0
100
AcDbLine
 62
7
  6
CONTINUOUS
 10
91.1785353212
 20
34.0511676875
 11
91.1839818162
 21
34.0518567318
  0
LINE
  5
575
100
AcDbEntity
  8
0
100
AcDbLine
 62
7
  6
CONTINUOUS
 10
91.1782583237
 20
34.050915976
 11
91.1834871541
 21
34.0515743954
  0
LINE
  5
576
100
AcDbEntity
  8
0
100
AcDbLine
 62
7
  6
CONTINUOUS
 10
32.7858729649
 20
56.1422335576
 11
32.7728522934
 21
56.1405951398
  0
LINE
  5
577
100
AcDbEntity
  8
DEFAULT_2
100
AcDbLine
 62
8
  6
CONTINUOUS
 10
94.3157139447
 20
55.7159550235
 11
94.3690346702
 21
55.7226230985
  0
LINE
  5
578
100
AcDbEntity
  8
DEFAULT_2
100
AcDbLine
 62
8
  6
CONTINUOUS
 10
83.1312944813
 20
36.7633055684
 11
83.1971756201
 21
36.7715117409
  0
LINE
  5
579
100
AcDbEntity
  8
0
100
AcDbLine
 62
9
  6
CONTINUOUS
 10
77.3292261203
 20
51.4209434201
 11
78.4426652292
 21
51.5581306827
  0
LINE
  5
57A
100
AcDbEntity
  8
DEFAULT_2
100
AcDbLine
 62
8
  6
CONTINUOUS
 10
66.4357060511
 20
36.2553160934
 11
66.4380214407
 21
36.2555999631
  0
LINE
  5
57B
100
AcDbEntity
  8
0
100
AcDbLine
 62
9
  6
CONTINUOUS
 10
33.5662250805
 20
56.145433811
 11
33.6362982399
 21
56.1540069671
  0
LINE
  5
57C
100
AcDbEntity
  8
0
100
AcDbLine
 62
9
  6
CONTINUOUS
 10
85.1921139338
 20
34.06649545
 11
85.1830944884
 21
34.0653983639
  0
LINE
  5
57D
100
AcDbEntity
  8
0
100
AcDbLine
 62
9
  6
CONTINUOUS
 10
77.3773354911
 20
51.2116279168
 11
78.4981984934
 21
51.3478100102
  0
LINE
  5
57E
100
AcDbEntity
  8
0
100
AcDbLine
 62
7
  6
CONTINUOUS
 10
32.7987464971
 20
56.1437850805
 11
32.7858729649
 21
56.1422335576
  0
LINE
  5
57F
100
AcDbEntity
  8
DEFAULT_2
100
AcDbLine
 62
8
  6
CONTINUOUS
 10
83.2224392101
 20
36.8897133848
 11
83.1545341968
 21
36.8816728877
  0
LINE
  5
580
100
AcDbEntity
  8
0
100
AcDbLine
 62
7
  6
CONTINUOUS
 10
32.8114542667
 20
56.145250007
 11
32.7987464971
 21
56.1437850805
  0
LINE
  5
581
100
AcDbEntity
  8
0
100
AcDbLine
 62
9
  6
CONTINUOUS
 10
76.231418145
 20
51.2957248779
 11
77.3292261203
 21
51.4209434201
  0
LINE
  5
582
100
AcDbEntity
  8
0
100
AcDbLine
 62
7
  6
CONTINUOUS
 10
91.1736456089
 20
34.0506149846
 11
91.1785353212
 21
34.0511676875
  0
LINE
  5
583
100
AcDbEntity
  8
0
100
AcDbLine
 62
7
  6
CONTINUOUS
 10
91.1735121792
 20
34.050379689
 11
91.1782583237
 21
34.050915976
  0
LINE
  5
584
100
AcDbEntity
  8
DEFAULT_2
100
AcDbLine
 62
8
  6
CONTINUOUS
 10
64.6189035385
 20
51.0844616387
 11
64.5855087795
 21
51.0807018557
  0
LINE
  5
585
100
AcDbEntity
  8
DEFAULT_2
100
AcDbLine
 62
8
  6
CONTINUOUS
 10
64.3172362166
 20
53.4172990437
 11
64.3506309756
 21
53.4210588267
  0
LINE
  5
586
100
AcDbEntity
  8
0
100
AcDbLine
 62
9
  6
CONTINUOUS
 10
76.2723729514
 20
51.0873656869
 11
77.3773354911
 21
51.2116279168
  0
LINE
  5
587
100
AcDbEntity
  8
DEFAULT_2
100
AcDbLine
 62
8
  6
CONTINUOUS
 10
66.4225481753
 20
36.3796426748
 11
66.4261453893
 21
36.3800439507
  0
LINE
  5
588
100
AcDbEntity
  8
0
100
AcDbLine
 62
7
  6
CONTINUOUS
 10
32.8239783003
 20
56.146629069
 11
32.8114542667
 21
56.145250007
  0
LINE
  5
589
100
AcDbEntity
  8
0
100
AcDbLine
 62
9
  6
CONTINUOUS
 10
91.1842146483
 20
34.0518897012
 11
91.1863002652
 21
34.0521160358
  0
LINE
  5
58A
100
AcDbEntity
  8
0
100
AcDbLine
 62
9
  6
CONTINUOUS
 10
30.4709258433
 20
53.626484586
 11
30.4744798207
 21
53.6268627569
  0
LINE
  5
58B
100
AcDbEntity
  8
0
100
AcDbLine
 62
7
  6
CONTINUOUS
 10
32.8363116324
 20
56.1479244618
 11
32.8239783003
 21
56.146629069
  0
LINE
  5
58C
100
AcDbEntity
  8
0
100
AcDbLine
 62
9
  6
CONTINUOUS
 10
75.1486269565
 20
51.1822362477
 11
76.231418145
 21
51.2957248779
  0
LINE
  5
58D
100
AcDbEntity
  8
DEFAULT_2
100
AcDbLine
 62
8
  6
CONTINUOUS
 10
95.4519759295
 20
55.7840570439
 11
95.4603105818
 21
55.7849301321
  0
LINE
  5
58E
100
AcDbEntity
  8
DEFAULT_2
100
AcDbLine
 62
8
  6
CONTINUOUS
 10
66.4380214407
 20
36.2555999631
 11
66.4403417299
 21
36.2558401611
  0
LINE
  5
58F
100
AcDbEntity
  8
0
100
AcDbLine
 62
9
  6
CONTINUOUS
 10
75.1827845496
 20
50.9747953452
 11
76.2723729514
 21
51.0873656869
  0
LINE
  5
590
100
AcDbEntity
  8
DEFAULT_2
100
AcDbLine
 62
8
  6
CONTINUOUS
 10
94.3690346702
 20
55.7226230985
 11
94.4230094214
 21
55.7281494929
  0
LINE
  5
591
100
AcDbEntity
  8
0
100
AcDbLine
 62
7
  6
CONTINUOUS
 10
91.1692077478
 20
34.0499428214
 11
91.1735121792
 21
34.050379689
  0
LINE
  5
592
100
AcDbEntity
  8
0
100
AcDbLine
 62
7
  6
CONTINUOUS
 10
91.1692137449
 20
34.0501669126
 11
91.1736456089
 21
34.0506149846
  0
LINE
  5
593
100
AcDbEntity
  8
0
100
AcDbLine
 62
7
  6
CONTINUOUS
 10
32.8484449585
 20
56.1491382396
 11
32.8363116324
 21
56.1479244618
  0
LINE
  5
594
100
AcDbEntity
  8
DEFAULT_2
100
AcDbLine
 62
8
  6
CONTINUOUS
 10
83.06517085
 20
36.7567751152
 11
83.1312944813
 21
36.7633055684
  0
LINE
  5
595
100
AcDbEntity
  8
0
100
AcDbLine
 62
9
  6
CONTINUOUS
 10
43.7824102267
 20
34.0668728647
 11
43.8014226537
 21
34.0687514276
  0
LINE
  5
596
100
AcDbEntity
  8
DEFAULT_2
100
AcDbLine
 62
8
  6
CONTINUOUS
 10
66.4261453893
 20
36.3800439507
 11
66.4297480439
 21
36.3803928125
  0
LINE
  5
597
100
AcDbEntity
  8
0
100
AcDbLine
 62
9
  6
CONTINUOUS
 10
74.0804597945
 20
51.0802543605
 11
75.1486269565
 21
51.1822362477
  0
LINE
  5
598
100
AcDbEntity
  8
0
100
AcDbLine
 62
7
  6
CONTINUOUS
 10
32.8603706586
 20
56.1502727386
 11
32.8484449585
 21
56.1491382396
  0
LINE
  5
599
100
AcDbEntity
  8
0
100
AcDbLine
 62
9
  6
CONTINUOUS
 10
74.1075028531
 20
50.873642597
 11
75.1827845496
 21
50.9747953452
  0
LINE
  5
59A
100
AcDbEntity
  8
DEFAULT_2
100
AcDbLine
 62
8
  6
CONTINUOUS
 10
83.1545341968
 20
36.8816728877
 11
83.08776711
 21
36.8755184143
  0
LINE
  5
59B
100
AcDbEntity
  8
0
100
AcDbLine
 62
9
  6
CONTINUOUS
 10
32.8212961729
 20
56.145975491
 11
32.9116488313
 21
56.154245922
  0
LINE
  5
59C
100
AcDbEntity
  8
0
100
AcDbLine
 62
7
  6
CONTINUOUS
 10
91.1652450378
 20
34.049581324
 11
91.1692077478
 21
34.0499428214
  0
LINE
  5
59D
100
AcDbEntity
  8
0
100
AcDbLine
 62
7
  6
CONTINUOUS
 10
91.165187151
 20
34.0498024739
 11
91.1692137449
 21
34.0501669126
  0
LINE
  5
59E
100
AcDbEntity
  8
0
100
AcDbLine
 62
7
  6
CONTINUOUS
 10
32.8720827688
 20
56.151330528
 11
32.8603706586
 21
56.1502727386
  0
LINE
  5
59F
100
AcDbEntity
  8
DEFAULT_2
100
AcDbLine
 62
8
  6
CONTINUOUS
 10
66.4403417299
 20
36.2558401611
 11
66.442050001
 21
36.2559887315
  0
LINE
  5
5A0
100
AcDbEntity
  8
0
100
AcDbLine
 62
9
  6
CONTINUOUS
 10
73.0254146527
 20
50.9894781089
 11
74.0804597945
 21
51.0802543605
  0
LINE
  5
5A1
100
AcDbEntity
  8
0
100
AcDbLine
 62
7
  6
CONTINUOUS
 10
32.8835768895
 20
56.1523143564
 11
32.8720827688
 21
56.151330528
  0
LINE
  5
5A2
100
AcDbEntity
  8
0
100
AcDbLine
 62
9
  6
CONTINUOUS
 10
73.0458283183
 20
50.783642894
 11
74.1075028531
 21
50.873642597
  0
LINE
  5
5A3
100
AcDbEntity
  8
DEFAULT_2
100
AcDbLine
 62
8
  6
CONTINUOUS
 10
64.5855087795
 20
51.0807018557
 11
64.5520217591
 21
51.0778794718
  0
LINE
  5
5A4
100
AcDbEntity
  8
DEFAULT_2
100
AcDbLine
 62
8
  6
CONTINUOUS
 10
64.3506309756
 20
53.4210588267
 11
64.384117996
 21
53.4238812106
  0
LINE
  5
5A5
100
AcDbEntity
  8
DEFAULT_2
100
AcDbLine
 62
8
  6
CONTINUOUS
 10
66.4297480439
 20
36.3803928125
 11
66.432813928
 21
36.3806480013
  0
LINE
  5
5A6
100
AcDbEntity
  8
0
100
AcDbLine
 62
7
  6
CONTINUOUS
 10
43.7748240074
 20
34.0657446002
 11
43.7938712805
 21
34.06732141
  0
LINE
  5
5A7
100
AcDbEntity
  8
0
100
AcDbLine
 62
7
  6
CONTINUOUS
 10
91.1615044767
 20
34.0492749039
 11
91.1652450378
 21
34.049581324
  0
LINE
  5
5A8
100
AcDbEntity
  8
DEFAULT_2
100
AcDbLine
 62
8
  6
CONTINUOUS
 10
95.4436243945
 20
55.7833733838
 11
95.4519759295
 21
55.7840570439
  0
LINE
  5
5A9
100
AcDbEntity
  8
0
100
AcDbLine
 62
7
  6
CONTINUOUS
 10
91.1614811389
 20
34.0495020239
 11
91.165187151
 21
34.0498024739
  0
LINE
  5
5AA
100
AcDbEntity
  8
0
100
AcDbLine
 62
7
  6
CONTINUOUS
 10
32.8948503094
 20
56.153227122
 11
32.8835768895
 21
56.1523143564
  0
LINE
  5
5AB
100
AcDbEntity
  8
DEFAULT_2
100
AcDbLine
 62
8
  6
CONTINUOUS
 10
94.4230094214
 20
55.7281494929
 11
94.4770930008
 21
55.7324610636
  0
LINE
  5
5AC
100
AcDbEntity
  8
0
100
AcDbLine
 62
9
  6
CONTINUOUS
 10
71.9823623082
 20
50.9096085711
 11
73.0254146527
 21
50.9894781089
  0
LINE
  5
5AD
100
AcDbEntity
  8
0
100
AcDbLine
 62
7
  6
CONTINUOUS
 10
32.9059017279
 20
56.1540718099
 11
32.8948503094
 21
56.153227122
  0
LINE
  5
5AE
100
AcDbEntity
  8
0
100
AcDbLine
 62
9
  6
CONTINUOUS
 10
71.996130954
 20
50.7045244322
 11
73.0458283183
 21
50.783642894
  0
LINE
  5
5AF
100
AcDbEntity
  8
0
100
AcDbLine
 62
7
  6
CONTINUOUS
 10
91.1579861485
 20
34.0490165154
 11
91.1615044767
 21
34.0492749039
  0
LINE
  5
5B0
100
AcDbEntity
  8
0
100
AcDbLine
 62
9
  6
CONTINUOUS
 10
33.6362982399
 20
56.1540069671
 11
33.70645002
 21
56.1591603974
  0
LINE
  5
5B1
100
AcDbEntity
  8
DEFAULT_2
100
AcDbLine
 62
8
  6
CONTINUOUS
 10
82.9989025912
 20
36.7519330727
 11
83.06517085
 21
36.7567751152
  0
LINE
  5
5B2
100
AcDbEntity
  8
DEFAULT_2
100
AcDbLine
 62
8
  6
CONTINUOUS
 10
66.442050001
 20
36.2559887315
 11
66.4437601631
 21
36.2561134092
  0
LINE
  5
5B3
100
AcDbEntity
  8
0
100
AcDbLine
 62
7
  6
CONTINUOUS
 10
91.1579884441
 20
34.049248595
 11
91.1614811389
 21
34.0495020239
  0
LINE
  5
5B4
100
AcDbEntity
  8
0
100
AcDbLine
 62
7
  6
CONTINUOUS
 10
32.9202978407
 20
56.1550978179
 11
32.9059017279
 21
56.1540718099
  0
LINE
  5
5B5
100
AcDbEntity
  8
DEFAULT_2
100
AcDbLine
 62
8
  6
CONTINUOUS
 10
66.432813928
 20
36.3806480013
 11
66.4358827343
 21
36.3808650617
  0
LINE
  5
5B6
100
AcDbEntity
  8
0
100
AcDbLine
 62
9
  6
CONTINUOUS
 10
70.9497850903
 20
50.8404160219
 11
71.9823623082
 21
50.9096085711
  0
LINE
  5
5B7
100
AcDbEntity
  8
DEFAULT_2
100
AcDbLine
 62
8
  6
CONTINUOUS
 10
83.08776711
 20
36.8755184143
 11
83.0208628785
 21
36.8710815132
  0
LINE
  5
5B8
100
AcDbEntity
  8
0
100
AcDbLine
 62
9
  6
CONTINUOUS
 10
70.9569773191
 20
50.6359827992
 11
71.996130954
 21
50.7045244322
  0
LINE
  5
5B9
100
AcDbEntity
  8
0
100
AcDbLine
 62
7
  6
CONTINUOUS
 10
91.154643873
 20
34.0487967397
 11
91.1579861485
 21
34.0490165154
  0
LINE
  5
5BA
100
AcDbEntity
  8
0
100
AcDbLine
 62
7
  6
CONTINUOUS
 10
32.9343057677
 20
56.1560155191
 11
32.9202978407
 21
56.1550978179
  0
LINE
  5
5BB
100
AcDbEntity
  8
0
100
AcDbLine
 62
7
  6
CONTINUOUS
 10
91.1547083068
 20
34.0490358513
 11
91.1579884441
 21
34.049248595
  0
LINE
  5
5BC
100
AcDbEntity
  8
0
100
AcDbLine
 62
7
  6
CONTINUOUS
 10
32.9479054937
 20
56.1568304582
 11
32.9343057677
 21
56.1560155191
  0
LINE
  5
5BD
100
AcDbEntity
  8
DEFAULT_2
100
AcDbLine
 62
8
  6
CONTINUOUS
 10
95.4352610341
 20
55.7828804007
 11
95.4436243945
 21
55.7833733838
  0
LINE
  5
5BE
100
AcDbEntity
  8
0
100
AcDbLine
 62
7
  6
CONTINUOUS
 10
91.151487144
 20
34.0486110023
 11
91.154643873
 21
34.0487967397
  0
LINE
  5
5BF
100
AcDbEntity
  8
0
100
AcDbLine
 62
7
  6
CONTINUOUS
 10
91.1516038667
 20
34.0488559882
 11
91.1547083068
 21
34.0490358513
  0
LINE
  5
5C0
100
AcDbEntity
  8
0
100
AcDbLine
 62
9
  6
CONTINUOUS
 10
69.9261113018
 20
50.7816183868
 11
70.9497850903
 21
50.8404160219
  0
LINE
  5
5C1
100
AcDbEntity
  8
DEFAULT_2
100
AcDbLine
 62
8
  6
CONTINUOUS
 10
94.4770930008
 20
55.7324610636
 11
94.5312529972
 21
55.735555163
  0
LINE
  5
5C2
100
AcDbEntity
  8
0
100
AcDbLine
 62
9
  6
CONTINUOUS
 10
69.9270782194
 20
50.5778388217
 11
70.9569773191
 21
50.6359827992
  0
LINE
  5
5C3
100
AcDbEntity
  8
DEFAULT_2
100
AcDbLine
 62
8
  6
CONTINUOUS
 10
64.5520217591
 20
51.0778794718
 11
64.5184688063
 21
51.0759965742
  0
LINE
  5
5C4
100
AcDbEntity
  8
DEFAULT_2
100
AcDbLine
 62
8
  6
CONTINUOUS
 10
64.384117996
 20
53.4238812106
 11
64.4176709487
 21
53.4257641081
  0
LINE
  5
5C5
100
AcDbEntity
  8
DEFAULT_2
100
AcDbLine
 62
8
  6
CONTINUOUS
 10
66.4437601631
 20
36.2561134092
 11
66.4461679797
 21
36.2562479026
  0
LINE
  5
5C6
100
AcDbEntity
  8
0
100
AcDbLine
 62
9
  6
CONTINUOUS
 10
32.9116488313
 20
56.154245922
 11
33.0023334496
 21
56.1592189391
  0
LINE
  5
5C7
100
AcDbEntity
  8
0
100
AcDbLine
 62
7
  6
CONTINUOUS
 10
32.9610777102
 20
56.1575484438
 11
32.9479054937
 21
56.1568304582
  0
LINE
  5
5C8
100
AcDbEntity
  8
DEFAULT_2
100
AcDbLine
 62
8
  6
CONTINUOUS
 10
66.4358827343
 20
36.3808650617
 11
66.4410432269
 21
36.3811433506
  0
LINE
  5
5C9
100
AcDbEntity
  8
0
100
AcDbLine
 62
7
  6
CONTINUOUS
 10
91.1485271705
 20
34.0484549759
 11
91.151487144
 21
34.0486110023
  0
LINE
  5
5CA
100
AcDbEntity
  8
0
100
AcDbLine
 62
7
  6
CONTINUOUS
 10
91.1486709543
 20
34.0487041812
 11
91.1516038667
 21
34.0488559882
  0
LINE
  5
5CB
100
AcDbEntity
  8
DEFAULT_2
100
AcDbLine
 62
8
  6
CONTINUOUS
 10
94.5009978388
 20
55.7279955868
 11
95.4180542818
 21
55.7738484089
  0
LINE
  5
5CC
100
AcDbEntity
  8
0
100
AcDbLine
 62
7
  6
CONTINUOUS
 10
32.9738046094
 20
56.1581755345
 11
32.9610777102
 21
56.1575484438
  0
LINE
  5
5CD
100
AcDbEntity
  8
0
100
AcDbLine
 62
9
  6
CONTINUOUS
 10
68.910368481
 20
50.7330737913
 11
69.9261113018
 21
50.7816183868
  0
LINE
  5
5CE
100
AcDbEntity
  8
0
100
AcDbLine
 62
7
  6
CONTINUOUS
 10
91.1457244291
 20
34.0483223108
 11
91.1485271705
 21
34.0484549759
  0
LINE
  5
5CF
100
AcDbEntity
  8
DEFAULT_2
100
AcDbLine
 62
8
  6
CONTINUOUS
 10
82.9325431264
 20
36.7487859756
 11
82.9989025912
 21
36.7519330727
  0
LINE
  5
5D0
100
AcDbEntity
  8
0
100
AcDbLine
 62
9
  6
CONTINUOUS
 10
68.9049509408
 20
50.5298479655
 11
69.9270782194
 21
50.5778388217
  0
LINE
  5
5D1
100
AcDbEntity
  8
0
100
AcDbLine
 62
7
  6
CONTINUOUS
 10
91.1459109917
 20
34.0485763477
 11
91.1486709543
 21
34.0487041812
  0
LINE
  5
5D2
100
AcDbEntity
  8
0
100
AcDbLine
 62
7
  6
CONTINUOUS
 10
32.9799959008
 20
56.1584569384
 11
32.9738046094
 21
56.1581755345
  0
LINE
  5
5D3
100
AcDbEntity
  8
0
100
AcDbLine
 62
7
  6
CONTINUOUS
 10
32.9920246103
 20
56.1589594186
 11
32.9799959008
 21
56.1584569384
  0
LINE
  5
5D4
100
AcDbEntity
  8
DEFAULT_2
100
AcDbLine
 62
8
  6
CONTINUOUS
 10
83.0208628785
 20
36.8710815132
 11
82.9551606394
 21
36.8684022754
  0
LINE
  5
5D5
100
AcDbEntity
  8
0
100
AcDbLine
 62
7
  6
CONTINUOUS
 10
91.1404966154
 20
34.0481100566
 11
91.1457244291
 21
34.0483223108
  0
LINE
  5
5D6
100
AcDbEntity
  8
0
100
AcDbLine
 62
7
  6
CONTINUOUS
 10
91.1407643564
 20
34.0483730141
 11
91.1459109917
 21
34.0485763477
  0
LINE
  5
5D7
100
AcDbEntity
  8
0
100
AcDbLine
 62
9
  6
CONTINUOUS
 10
43.7632726119
 20
34.0661192125
 11
43.7824102267
 21
34.0668728647
  0
LINE
  5
5D8
100
AcDbEntity
  8
DEFAULT_2
100
AcDbLine
 62
8
  6
CONTINUOUS
 10
66.4461679797
 20
36.2562479026
 11
66.4478630705
 21
36.25631333
  0
LINE
  5
5D9
100
AcDbEntity
  8
0
100
AcDbLine
 62
9
  6
CONTINUOUS
 10
89.4695675543
 20
53.3831962358
 11
89.3320199335
 21
53.3778842282
  0
LINE
  5
5DA
100
AcDbEntity
  8
0
100
AcDbLine
 62
9
  6
CONTINUOUS
 10
67.9013288543
 20
50.6945830061
 11
68.910368481
 21
50.7330737913
  0
LINE
  5
5DB
100
AcDbEntity
  8
0
100
AcDbLine
 62
9
  6
CONTINUOUS
 10
67.8897426018
 20
50.491891687
 11
68.9049509408
 21
50.5298479655
  0
LINE
  5
5DC
100
AcDbEntity
  8
0
100
AcDbLine
 62
7
  6
CONTINUOUS
 10
33.0035699275
 20
56.1593867907
 11
32.9920246103
 21
56.1589594186
  0
LINE
  5
5DD
100
AcDbEntity
  8
0
100
AcDbLine
 62
9
  6
CONTINUOUS
 10
89.7547243594
 20
53.3934588372
 11
89.4695675543
 21
53.3831962358
  0
LINE
  5
5DE
100
AcDbEntity
  8
DEFAULT_2
100
AcDbLine
 62
8
  6
CONTINUOUS
 10
95.4268909057
 20
55.7825793438
 11
95.4352610341
 21
55.7828804007
  0
LINE
  5
5DF
100
AcDbEntity
  8
DEFAULT_2
100
AcDbLine
 62
8
  6
CONTINUOUS
 10
66.4410432269
 20
36.3811433506
 11
66.4450785162
 21
36.3812845526
  0
LINE
  5
5E0
100
AcDbEntity
  8
0
100
AcDbLine
 62
9
  6
CONTINUOUS
 10
89.9047597011
 20
53.4008337679
 11
89.7571465813
 21
53.3958810592
  0
LINE
  5
5E1
100
AcDbEntity
  8
0
100
AcDbLine
 62
7
  6
CONTINUOUS
 10
91.1355178468
 20
34.0479444556
 11
91.1404966154
 21
34.0481100566
  0
LINE
  5
5E2
100
AcDbEntity
  8
0
100
AcDbLine
 62
7
  6
CONTINUOUS
 10
33.0146080216
 20
56.1597451193
 11
33.0035699275
 21
56.1593867907
  0
LINE
  5
5E3
100
AcDbEntity
  8
DEFAULT_2
100
AcDbLine
 62
8
  6
CONTINUOUS
 10
82.9325431278
 20
36.7487859426
 11
80.676451436
 21
36.6758156735
  0
LINE
  5
5E4
100
AcDbEntity
  8
0
100
AcDbLine
 62
7
  6
CONTINUOUS
 10
91.1359078706
 20
34.0482170999
 11
91.1407643564
 21
34.0483730141
  0
LINE
  5
5E5
100
AcDbEntity
  8
0
100
AcDbLine
 62
9
  6
CONTINUOUS
 10
39.6794507986
 20
34.0709537338
 11
39.5412024559
 21
34.0664954877
  0
LINE
  5
5E6
100
AcDbEntity
  8
0
100
AcDbLine
 62
9
  6
CONTINUOUS
 10
90.0557313561
 20
53.405602763
 11
89.9047597011
 21
53.4008337679
  0
LINE
  5
5E7
100
AcDbEntity
  8
0
100
AcDbLine
 62
9
  6
CONTINUOUS
 10
90.8072097222
 20
53.430039933
 11
90.4196551911
 21
53.4183647679
  0
LINE
  5
5E8
100
AcDbEntity
  8
0
100
AcDbLine
 62
9
  6
CONTINUOUS
 10
90.2871867565
 20
53.4144715802
 11
90.0714757987
 21
53.4080249849
  0
LINE
  5
5E9
100
AcDbEntity
  8
0
100
AcDbLine
 62
9
  6
CONTINUOUS
 10
85.1830944884
 20
34.0653983639
 11
85.178900661
 21
34.0652749122
  0
LINE
  5
5EA
100
AcDbEntity
  8
0
100
AcDbLine
 62
9
  6
CONTINUOUS
 10
90.4196551911
 20
53.4183647679
 11
90.2871867565
 21
53.4144715802
  0
LINE
  5
5EB
100
AcDbEntity
  8
0
100
AcDbLine
 62
9
  6
CONTINUOUS
 10
66.8981830971
 20
50.6660360219
 11
67.9013288543
 21
50.6945830061
  0
LINE
  5
5EC
100
AcDbEntity
  8
DEFAULT_2
100
AcDbLine
 62
8
  6
CONTINUOUS
 10
80.676451436
 20
36.6758156735
 11
78.4200533167
 21
36.6128494567
  0
LINE
  5
5ED
100
AcDbEntity
  8
DEFAULT_2
100
AcDbLine
 62
8
  6
CONTINUOUS
 10
64.5184688063
 20
51.0759965742
 11
64.4848739214
 21
51.0750548695
  0
LINE
  5
5EE
100
AcDbEntity
  8
DEFAULT_2
100
AcDbLine
 62
8
  6
CONTINUOUS
 10
64.4176709487
 20
53.4257641081
 11
64.4512658336
 21
53.4267058128
  0
LINE
  5
5EF
100
AcDbEntity
  8
0
100
AcDbLine
 62
9
  6
CONTINUOUS
 10
66.8804029899
 20
50.4637992967
 11
67.8897426018
 21
50.491891687
  0
LINE
  5
5F0
100
AcDbEntity
  8
0
100
AcDbLine
 62
7
  6
CONTINUOUS
 10
33.0275693646
 20
56.160103189
 11
33.0146080216
 21
56.1597451193
  0
LINE
  5
5F1
100
AcDbEntity
  8
0
100
AcDbLine
 62
7
  6
CONTINUOUS
 10
43.7572511161
 20
34.0652749103
 11
43.7748240074
 21
34.0657446002
  0
LINE
  5
5F2
100
AcDbEntity
  8
0
100
AcDbLine
 62
9
  6
CONTINUOUS
 10
30.4941432871
 20
53.6272836821
 11
30.5038608971
 21
53.6275423824
  0
LINE
  5
5F3
100
AcDbEntity
  8
0
100
AcDbLine
 62
9
  6
CONTINUOUS
 10
30.4860590935
 20
53.6270690445
 11
30.4941432871
 21
53.6272836821
  0
LINE
  5
5F4
100
AcDbEntity
  8
0
100
AcDbLine
 62
7
  6
CONTINUOUS
 10
91.1311147346
 20
34.048091004
 11
91.1359078706
 21
34.0482170999
  0
LINE
  5
5F5
100
AcDbEntity
  8
0
100
AcDbLine
 62
7
  6
CONTINUOUS
 10
91.128077622
 20
34.047749032
 11
91.1355178468
 21
34.0479444556
  0
LINE
  5
5F6
100
AcDbEntity
  8
DEFAULT_2
100
AcDbLine
 62
8
  6
CONTINUOUS
 10
66.4478630705
 20
36.25631333
 11
66.4490769538
 21
36.2563448137
  0
LINE
  5
5F7
100
AcDbEntity
  8
0
100
AcDbLine
 62
9
  6
CONTINUOUS
 10
30.4744798207
 20
53.6268627569
 11
30.479526098
 21
53.6269872715
  0
LINE
  5
5F8
100
AcDbEntity
  8
0
100
AcDbLine
 62
9
  6
CONTINUOUS
 10
33.70645002
 20
56.1591603974
 11
33.7766853647
 21
56.1608803412
  0
LINE
  5
5F9
100
AcDbEntity
  8
DEFAULT_2
100
AcDbLine
 62
8
  6
CONTINUOUS
 10
78.4200533167
 20
36.6128494567
 11
76.1206679006
 21
36.5587609843
  0
LINE
  5
5FA
100
AcDbEntity
  8
0
100
AcDbLine
 62
7
  6
CONTINUOUS
 10
33.039455294
 20
56.1603720572
 11
33.0275693646
 21
56.160103189
  0
LINE
  5
5FB
100
AcDbEntity
  8
0
100
AcDbLine
 62
9
  6
CONTINUOUS
 10
30.5038608971
 20
53.6275423824
 11
30.5152084845
 21
53.6277937292
  0
LINE
  5
5FC
100
AcDbEntity
  8
0
100
AcDbLine
 62
7
  6
CONTINUOUS
 10
91.1255379063
 20
34.047693687
 11
91.128077622
 21
34.047749032
  0
LINE
  5
5FD
100
AcDbEntity
  8
0
100
AcDbLine
 62
7
  6
CONTINUOUS
 10
91.126233035
 20
34.0479851993
 11
91.1311147346
 21
34.048091004
  0
LINE
  5
5FE
100
AcDbEntity
  8
0
100
AcDbLine
 62
9
  6
CONTINUOUS
 10
90.4775495614
 20
34.0516102175
 11
90.4834348067
 21
34.0517354702
  0
LINE
  5
5FF
100
AcDbEntity
  8
DEFAULT_2
100
AcDbLine
 62
8
  6
CONTINUOUS
 10
66.4450785162
 20
36.3812845526
 11
66.4479287424
 21
36.3813429466
  0
LINE
  5
600
100
AcDbEntity
  8
0
100
AcDbLine
 62
9
  6
CONTINUOUS
 10
85.1728656895
 20
34.0661192311
 11
85.1921139338
 21
34.06649545
  0
LINE
  5
601
100
AcDbEntity
  8
0
100
AcDbLine
 62
7
  6
CONTINUOUS
 10
38.4267463278
 20
34.0522059214
 11
38.7698814301
 21
34.0589341026
  0
LINE
  5
602
100
AcDbEntity
  8
DEFAULT_2
100
AcDbLine
 62
8
  6
CONTINUOUS
 10
76.1206679006
 20
36.5587609843
 11
73.8210708425
 21
36.5146560219
  0
LINE
  5
603
100
AcDbEntity
  8
0
100
AcDbLine
 62
9
  6
CONTINUOUS
 10
38.0508985883
 20
34.0474895625
 11
38.0636725628
 21
34.047732376
  0
LINE
  5
604
100
AcDbEntity
  8
0
100
AcDbLine
 62
9
  6
CONTINUOUS
 10
65.9000433252
 20
50.6472850648
 11
66.8981830971
 21
50.6660360219
  0
LINE
  5
605
100
AcDbEntity
  8
0
100
AcDbLine
 62
7
  6
CONTINUOUS
 10
38.7698814301
 20
34.0589341026
 11
38.9848617617
 21
34.0628743517
  0
LINE
  5
606
100
AcDbEntity
  8
0
100
AcDbLine
 62
9
  6
CONTINUOUS
 10
65.8760413838
 20
50.4454740502
 11
66.8804029899
 21
50.4637992967
  0
LINE
  5
607
100
AcDbEntity
  8
0
100
AcDbLine
 62
9
  6
CONTINUOUS
 10
33.0023334496
 20
56.1592189391
 11
33.0933240737
 21
56.1608803412
  0
LINE
  5
608
100
AcDbEntity
  8
0
100
AcDbLine
 62
7
  6
CONTINUOUS
 10
33.0523411007
 20
56.1605992734
 11
33.039455294
 21
56.1603720572
  0
LINE
  5
609
100
AcDbEntity
  8
0
100
AcDbLine
 62
7
  6
CONTINUOUS
 10
38.4230011949
 20
34.0510776912
 11
38.733219927
 21
34.0564830702
  0
LINE
  5
60A
100
AcDbEntity
  8
0
100
AcDbLine
 62
7
  6
CONTINUOUS
 10
91.1185293226
 20
34.0478535221
 11
91.126233035
 21
34.0479851993
  0
LINE
  5
60B
100
AcDbEntity
  8
0
100
AcDbLine
 62
9
  6
CONTINUOUS
 10
38.733219927
 20
34.0564830702
 11
39.0250198807
 21
34.0614311634
  0
LINE
  5
60C
100
AcDbEntity
  8
0
100
AcDbLine
 62
9
  6
CONTINUOUS
 10
38.367080045
 20
34.0503166549
 11
38.4526505071
 21
34.0517346786
  0
LINE
  5
60D
100
AcDbEntity
  8
0
100
AcDbLine
 62
7
  6
CONTINUOUS
 10
38.733219927
 20
34.0564830702
 11
38.9127834532
 21
34.0593906204
  0
LINE
  5
60E
100
AcDbEntity
  8
DEFAULT_2
100
AcDbLine
 62
8
  6
CONTINUOUS
 10
66.4490769538
 20
36.2563448137
 11
66.4499412008
 21
36.2563589313
  0
LINE
  5
60F
100
AcDbEntity
  8
0
100
AcDbLine
 62
9
  6
CONTINUOUS
 10
30.5152084845
 20
53.6277937292
 11
30.5281601456
 21
53.6280045717
  0
LINE
  5
610
100
AcDbEntity
  8
0
100
AcDbLine
 62
7
  6
CONTINUOUS
 10
38.9848617617
 20
34.0628743517
 11
39.190333097
 21
34.0661763708
  0
LINE
  5
611
100
AcDbEntity
  8
0
100
AcDbLine
 62
7
  6
CONTINUOUS
 10
91.1089616753
 20
34.0474288653
 11
91.1255379063
 21
34.047693687
  0
LINE
  5
612
100
AcDbEntity
  8
0
100
AcDbLine
 62
9
  6
CONTINUOUS
 10
37.9256766017
 20
34.0470775114
 11
37.9394785795
 21
34.0472927741
  0
LINE
  5
613
100
AcDbEntity
  8
DEFAULT_2
100
AcDbLine
 62
8
  6
CONTINUOUS
 10
82.9551606394
 20
36.8684022754
 11
82.889416208
 21
36.8673808635
  0
LINE
  5
614
100
AcDbEntity
  8
DEFAULT_2
100
AcDbLine
 62
8
  6
CONTINUOUS
 10
73.8210708425
 20
36.5146560219
 11
71.4908483593
 21
36.4799852058
  0
LINE
  5
615
100
AcDbEntity
  8
0
100
AcDbLine
 62
7
  6
CONTINUOUS
 10
38.2719309272
 20
34.0500423811
 11
38.4267463278
 21
34.0522059214
  0
LINE
  5
616
100
AcDbEntity
  8
0
100
AcDbLine
 62
7
  6
CONTINUOUS
 10
38.9127834532
 20
34.0593906204
 11
39.0844280193
 21
34.0617899689
  0
LINE
  5
617
100
AcDbEntity
  8
0
100
AcDbLine
 62
9
  6
CONTINUOUS
 10
90.9425548911
 20
34.04723622
 11
90.9703576703
 21
34.0476149844
  0
LINE
  5
618
100
AcDbEntity
  8
0
100
AcDbLine
 62
7
  6
CONTINUOUS
 10
39.190333097
 20
34.0661763708
 11
39.3865278902
 21
34.0687786421
  0
LINE
  5
619
100
AcDbEntity
  8
0
100
AcDbLine
 62
9
  6
CONTINUOUS
 10
39.0250198807
 20
34.0614311634
 11
39.1912752893
 21
34.0636009583
  0
LINE
  5
61A
100
AcDbEntity
  8
0
100
AcDbLine
 62
7
  6
CONTINUOUS
 10
33.0638171884
 20
56.160745364
 11
33.0523411007
 21
56.1605992734
  0
LINE
  5
61B
100
AcDbEntity
  8
0
100
AcDbLine
 62
9
  6
CONTINUOUS
 10
30.479526098
 20
53.6269872715
 11
30.4860590935
 21
53.6270690445
  0
LINE
  5
61C
100
AcDbEntity
  8
0
100
AcDbLine
 62
7
  6
CONTINUOUS
 10
91.1072165742
 20
34.0477151149
 11
91.1185293226
 21
34.0478535221
  0
LINE
  5
61D
100
AcDbEntity
  8
0
100
AcDbLine
 62
7
  6
CONTINUOUS
 10
38.2488466063
 20
34.0489823972
 11
38.4230011949
 21
34.0510776912
  0
LINE
  5
61E
100
AcDbEntity
  8
0
100
AcDbLine
 62
7
  6
CONTINUOUS
 10
39.0844280193
 20
34.0617899689
 11
39.2483017675
 21
34.063641049
  0
LINE
  5
61F
100
AcDbEntity
  8
DEFAULT_2
100
AcDbLine
 62
8
  6
CONTINUOUS
 10
71.4908483593
 20
36.4799852058
 11
69.1604973182
 21
36.4552784791
  0
LINE
  5
620
100
AcDbEntity
  8
0
100
AcDbLine
 62
9
  6
CONTINUOUS
 10
38.2646871278
 20
34.0491410292
 11
38.2808756304
 21
34.0493093605
  0
LINE
  5
621
100
AcDbEntity
  8
0
100
AcDbLine
 62
9
  6
CONTINUOUS
 10
39.1912752893
 20
34.0636009583
 11
39.3544452791
 21
34.0652855058
  0
LINE
  5
622
100
AcDbEntity
  8
DEFAULT_2
100
AcDbLine
 62
8
  6
CONTINUOUS
 10
66.4479287424
 20
36.3813429466
 11
66.4498021484
 21
36.3813617754
  0
LINE
  5
623
100
AcDbEntity
  8
0
100
AcDbLine
 62
7
  6
CONTINUOUS
 10
91.0926148292
 20
34.0472713497
 11
91.1089616753
 21
34.0474288653
  0
LINE
  5
624
100
AcDbEntity
  8
0
100
AcDbLine
 62
9
  6
CONTINUOUS
 10
38.2333517848
 20
34.0488329651
 11
38.2488466063
 21
34.0489823972
  0
LINE
  5
625
100
AcDbEntity
  8
0
100
AcDbLine
 62
9
  6
CONTINUOUS
 10
91.0295304846
 20
34.0472901396
 11
91.0484777022
 21
34.047470302
  0
LINE
  5
626
100
AcDbEntity
  8
0
100
AcDbLine
 62
7
  6
CONTINUOUS
 10
38.0830349819
 20
34.0482601979
 11
38.2719309272
 21
34.0500423811
  0
LINE
  5
627
100
AcDbEntity
  8
0
100
AcDbLine
 62
7
  6
CONTINUOUS
 10
39.3865278902
 20
34.0687786421
 11
39.5735826907
 21
34.0705478936
  0
LINE
  5
628
100
AcDbEntity
  8
0
100
AcDbLine
 62
9
  6
CONTINUOUS
 10
64.9059150679
 20
50.6382441998
 11
65.9000433252
 21
50.6472850648
  0
LINE
  5
629
100
AcDbEntity
  8
DEFAULT_2
100
AcDbLine
 62
8
  6
CONTINUOUS
 10
66.4499412008
 20
36.2563589313
 11
66.4505225424
 21
36.2563641111
  0
LINE
  5
62A
100
AcDbEntity
  8
0
100
AcDbLine
 62
9
  6
CONTINUOUS
 10
64.8757771432
 20
50.4367809525
 11
65.8760413838
 21
50.4454740502
  0
LINE
  5
62B
100
AcDbEntity
  8
0
100
AcDbLine
 62
9
  6
CONTINUOUS
 10
91.0698791201
 20
34.0474190627
 11
91.0886254038
 21
34.0475760715
  0
LINE
  5
62C
100
AcDbEntity
  8
0
100
AcDbLine
 62
9
  6
CONTINUOUS
 10
30.5281601456
 20
53.6280045717
 11
30.5590449568
 21
53.628262552
  0
LINE
  5
62D
100
AcDbEntity
  8
0
100
AcDbLine
 62
7
  6
CONTINUOUS
 10
33.0753343027
 20
56.1608386999
 11
33.0638171884
 21
56.160745364
  0
LINE
  5
62E
100
AcDbEntity
  8
0
100
AcDbLine
 62
7
  6
CONTINUOUS
 10
39.2483017675
 20
34.063641049
 11
39.4044900253
 21
34.064859699
  0
LINE
  5
62F
100
AcDbEntity
  8
0
100
AcDbLine
 62
7
  6
CONTINUOUS
 10
38.0508985883
 20
34.0474895625
 11
38.2488466063
 21
34.0489823972
  0
LINE
  5
630
100
AcDbEntity
  8
0
100
AcDbLine
 62
7
  6
CONTINUOUS
 10
91.0871915815
 20
34.0475682118
 11
91.1072165742
 21
34.0477151149
  0
LINE
  5
631
100
AcDbEntity
  8
0
100
AcDbLine
 62
9
  6
CONTINUOUS
 10
39.3544452791
 20
34.0652855058
 11
39.4697782343
 21
34.0661385936
  0
LINE
  5
632
100
AcDbEntity
  8
0
100
AcDbLine
 62
9
  6
CONTINUOUS
 10
38.1214738945
 20
34.0479179475
 11
38.1343157119
 21
34.0480084659
  0
LINE
  5
633
100
AcDbEntity
  8
DEFAULT_2
100
AcDbLine
 62
8
  6
CONTINUOUS
 10
69.1604973182
 20
36.4552784791
 11
66.8143023976
 21
36.4403713802
  0
LINE
  5
634
100
AcDbEntity
  8
0
100
AcDbLine
 62
9
  6
CONTINUOUS
 10
97.3362209564
 20
53.6265343112
 11
97.2228204377
 21
53.6258803752
  0
LINE
  5
635
100
AcDbEntity
  8
0
100
AcDbLine
 62
7
  6
CONTINUOUS
 10
37.9425286004
 20
34.0475402518
 11
38.0830349819
 21
34.0482601979
  0
LINE
  5
636
100
AcDbEntity
  8
0
100
AcDbLine
 62
9
  6
CONTINUOUS
 10
39.4697782343
 20
34.0661385936
 11
39.5412024559
 21
34.0664954877
  0
LINE
  5
637
100
AcDbEntity
  8
0
100
AcDbLine
 62
7
  6
CONTINUOUS
 10
91.0600195327
 20
34.047113637
 11
91.0926148292
 21
34.0472713497
  0
LINE
  5
638
100
AcDbEntity
  8
0
100
AcDbLine
 62
9
  6
CONTINUOUS
 10
90.8325882765
 20
34.0477979194
 11
90.8485845842
 21
34.047870634
  0
LINE
  5
639
100
AcDbEntity
  8
0
100
AcDbLine
 62
9
  6
CONTINUOUS
 10
97.7026568773
 20
53.6279169466
 11
97.4155359569
 21
53.6267480077
  0
LINE
  5
63A
100
AcDbEntity
  8
0
100
AcDbLine
 62
9
  6
CONTINUOUS
 10
30.5590449568
 20
53.628262552
 11
30.6922273921
 21
53.6288121167
  0
LINE
  5
63B
100
AcDbEntity
  8
0
100
AcDbLine
 62
9
  6
CONTINUOUS
 10
38.0000799734
 20
34.0472601666
 11
38.0096889382
 21
34.0472979266
  0
LINE
  5
63C
100
AcDbEntity
  8
0
100
AcDbLine
 62
7
  6
CONTINUOUS
 10
39.5735826907
 20
34.0705478936
 11
39.7404766574
 21
34.0711876735
  0
LINE
  5
63D
100
AcDbEntity
  8
0
100
AcDbLine
 62
7
  6
CONTINUOUS
 10
37.9256766017
 20
34.0470775114
 11
38.0508985883
 21
34.0474895625
  0
LINE
  5
63E
100
AcDbEntity
  8
0
100
AcDbLine
 62
7
  6
CONTINUOUS
 10
39.4044900253
 20
34.064859699
 11
39.5412022383
 21
34.0652749038
  0
LINE
  5
63F
100
AcDbEntity
  8
0
100
AcDbLine
 62
9
  6
CONTINUOUS
 10
97.7849066491
 20
53.6281599771
 11
97.7026568773
 21
53.6279169466
  0
LINE
  5
640
100
AcDbEntity
  8
0
100
AcDbLine
 62
9
  6
CONTINUOUS
 10
97.4155359569
 20
53.6267480077
 11
97.3757082881
 21
53.6266402634
  0
LINE
  5
641
100
AcDbEntity
  8
0
100
AcDbLine
 62
9
  6
CONTINUOUS
 10
97.3757082881
 20
53.6266402634
 11
97.3362209564
 21
53.6265343112
  0
LINE
  5
642
100
AcDbEntity
  8
0
100
AcDbLine
 62
7
  6
CONTINUOUS
 10
91.0484777022
 20
34.047470302
 11
91.0871915815
 21
34.0475682118
  0
LINE
  5
643
100
AcDbEntity
  8
0
100
AcDbLine
 62
7
  6
CONTINUOUS
 10
33.0933240738
 20
56.1608803412
 11
33.0753337264
 21
56.1608386965
  0
LINE
  5
644
100
AcDbEntity
  8
DEFAULT_2
100
AcDbLine
 62
8
  6
CONTINUOUS
 10
66.8143023976
 20
36.4403713802
 11
64.4680698775
 21
36.4354125862
  0
LINE
  5
645
100
AcDbEntity
  8
0
100
AcDbLine
 62
9
  6
CONTINUOUS
 10
98.215988164
 20
53.6288579672
 11
97.7849066491
 21
53.6281599771
  0
LINE
  5
646
100
AcDbEntity
  8
0
100
AcDbLine
 62
7
  6
CONTINUOUS
 10
37.874580926
 20
34.0474845288
 11
37.9425286004
 21
34.0475402518
  0
LINE
  5
647
100
AcDbEntity
  8
0
100
AcDbLine
 62
9
  6
CONTINUOUS
 10
30.6922273921
 20
53.6288121167
 11
30.8461282644
 21
53.6288362397
  0
LINE
  5
648
100
AcDbEntity
  8
0
100
AcDbLine
 62
7
  6
CONTINUOUS
 10
90.9864966432
 20
34.0471121779
 11
91.0600195327
 21
34.047113637
  0
LINE
  5
649
100
AcDbEntity
  8
0
100
AcDbLine
 62
7
  6
CONTINUOUS
 10
39.5412022383
 20
34.0652748848
 11
43.7572435356
 21
34.0652748848
  0
LINE
  5
64A
100
AcDbEntity
  8
0
100
AcDbLine
 62
7
  6
CONTINUOUS
 10
85.1788961662
 20
34.0652748848
 11
89.3949229669
 21
34.0652748848
  0
LINE
  5
64B
100
AcDbEntity
  8
0
100
AcDbLine
 62
9
  6
CONTINUOUS
 10
39.5412016464
 20
34.0664954616
 11
43.7440275863
 21
34.066495461
  0
LINE
  5
64C
100
AcDbEntity
  8
0
100
AcDbLine
 62
9
  6
CONTINUOUS
 10
85.1922066259
 20
34.06649545
 11
89.3949229677
 21
34.06649545
  0
LINE
  5
64D
100
AcDbEntity
  8
0
100
AcDbLine
 62
7
  6
CONTINUOUS
 10
39.7404766574
 20
34.0711876419
 11
89.1957081464
 21
34.0711876419
  0
LINE
  5
64E
100
AcDbEntity
  8
DEFAULT_2
100
AcDbLine
 62
8
  6
CONTINUOUS
 10
63.1966232681
 20
35.7508803412
 11
65.7395164869
 21
35.7508803412
  0
LINE
  5
64F
100
AcDbEntity
  8
DEFAULT_2
100
AcDbLine
 62
8
  6
CONTINUOUS
 10
63.1966232681
 20
35.8758803412
 11
65.7395164869
 21
35.8758803412
  0
LINE
  5
650
100
AcDbEntity
  8
DEFAULT_2
100
AcDbLine
 62
8
  6
CONTINUOUS
 10
64.4848739214
 20
51.0750548695
 11
64.4512658336
 21
51.0750548695
  0
LINE
  5
651
100
AcDbEntity
  8
DEFAULT_2
100
AcDbLine
 62
8
  6
CONTINUOUS
 10
64.4512658336
 20
53.4267058128
 11
64.4848739214
 21
53.4267058128
  0
LINE
  5
652
100
AcDbEntity
  8
0
100
AcDbLine
 62
7
  6
CONTINUOUS
 10
30.4680698779
 20
53.6258803412
 11
98.4680698772
 21
53.6258803412
  0
LINE
  5
653
100
AcDbEntity
  8
0
100
AcDbLine
 62
7
  6
CONTINUOUS
 10
33.0910128879
 20
56.1608802038
 11
95.8369664818
 21
56.1608816383
  0
LINE
  5
654
100
AcDbEntity
  8
0
100
AcDbLine
 62
9
  6
CONTINUOUS
 10
63.9148749172
 20
50.6387925298
 11
64.9059150679
 21
50.6382441998
  0
LINE
  5
655
100
AcDbEntity
  8
0
100
AcDbLine
 62
9
  6
CONTINUOUS
 10
63.8785298122
 20
50.4376563743
 11
64.8757771432
 21
50.4367809525
  0
LINE
  5
656
100
AcDbEntity
  8
0
100
AcDbLine
 62
7
  6
CONTINUOUS
 10
37.8665691617
 20
34.047144647
 11
37.9256766017
 21
34.0470775114
  0
LINE
  5
657
100
AcDbEntity
  8
0
100
AcDbLine
 62
7
  6
CONTINUOUS
 10
95.8609765224
 20
56.1608377039
 11
95.8369664818
 21
56.1608816383
  0
LINE
  5
658
100
AcDbEntity
  8
0
100
AcDbLine
 62
7
  6
CONTINUOUS
 10
90.9631150428
 20
34.0476425386
 11
91.0484777022
 21
34.047470302
  0
LINE
  5
659
100
AcDbEntity
  8
DEFAULT_2
100
AcDbLine
 62
8
  6
CONTINUOUS
 10
62.1218373575
 20
36.4403713802
 11
64.4680698775
 21
36.4354125862
  0
LINE
  5
65A
100
AcDbEntity
  8
0
100
AcDbLine
 62
9
  6
CONTINUOUS
 10
30.8461282644
 20
53.6288362397
 11
31.1922450536
 21
53.6280403783
  0
LINE
  5
65B
100
AcDbEntity
  8
0
100
AcDbLine
 62
9
  6
CONTINUOUS
 10
90.9974816169
 20
34.0475300211
 11
91.003814731
 21
34.0475147636
  0
LINE
  5
65C
100
AcDbEntity
  8
0
100
AcDbLine
 62
7
  6
CONTINUOUS
 10
89.3949229669
 20
34.0652748995
 11
89.5325841095
 21
34.0648543907
  0
LINE
  5
65D
100
AcDbEntity
  8
0
100
AcDbLine
 62
9
  6
CONTINUOUS
 10
90.6342294959
 20
34.049537597
 11
90.6589949529
 21
34.0494559461
  0
LINE
  5
65E
100
AcDbEntity
  8
0
100
AcDbLine
 62
7
  6
CONTINUOUS
 10
37.8445266592
 20
34.0475927852
 11
37.874580926
 21
34.0474845288
  0
LINE
  5
65F
100
AcDbEntity
  8
0
100
AcDbLine
 62
9
  6
CONTINUOUS
 10
31.1922450536
 20
53.6280403783
 11
31.4395477195
 21
53.6271394843
  0
LINE
  5
660
100
AcDbEntity
  8
0
100
AcDbLine
 62
9
  6
CONTINUOUS
 10
98.3770947982
 20
53.628262552
 11
98.215988164
 21
53.6288579672
  0
LINE
  5
661
100
AcDbEntity
  8
0
100
AcDbLine
 62
7
  6
CONTINUOUS
 10
89.1957081464
 20
34.0711876801
 11
89.3616493867
 21
34.0705542291
  0
LINE
  5
662
100
AcDbEntity
  8
0
100
AcDbLine
 62
9
  6
CONTINUOUS
 10
31.4395477195
 20
53.6271394843
 11
31.5999187987
 21
53.6265343112
  0
LINE
  5
663
100
AcDbEntity
  8
0
100
AcDbLine
 62
7
  6
CONTINUOUS
 10
90.8325882765
 20
34.0477979194
 11
90.9864966432
 21
34.0471121779
  0
LINE
  5
664
100
AcDbEntity
  8
0
100
AcDbLine
 62
9
  6
CONTINUOUS
 10
89.394922967
 20
34.06649545
 11
89.5409232733
 21
34.0656228644
  0
LINE
  5
665
100
AcDbEntity
  8
0
100
AcDbLine
 62
7
  6
CONTINUOUS
 10
37.8378077107
 20
34.0473182073
 11
37.8665691617
 21
34.047144647
  0
LINE
  5
666
100
AcDbEntity
  8
0
100
AcDbLine
 62
9
  6
CONTINUOUS
 10
37.874580926
 20
34.0474845288
 11
37.9066440818
 21
34.0472901161
  0
LINE
  5
667
100
AcDbEntity
  8
0
100
AcDbLine
 62
7
  6
CONTINUOUS
 10
90.7976776311
 20
34.0486924972
 11
90.9631150428
 21
34.0476425386
  0
LINE
  5
668
100
AcDbEntity
  8
DEFAULT_2
100
AcDbLine
 62
8
  6
CONTINUOUS
 10
59.7756424368
 20
36.4552784792
 11
62.1218373575
 21
36.4403713802
  0
LINE
  5
669
100
AcDbEntity
  8
0
100
AcDbLine
 62
9
  6
CONTINUOUS
 10
31.5999187987
 20
53.6265343112
 11
31.6764982342
 21
53.6260065415
  0
LINE
  5
66A
100
AcDbEntity
  8
0
100
AcDbLine
 62
7
  6
CONTINUOUS
 10
95.8707495444
 20
56.1607612585
 11
95.8594736444
 21
56.160846051
  0
LINE
  5
66B
100
AcDbEntity
  8
0
100
AcDbLine
 62
7
  6
CONTINUOUS
 10
89.5325841095
 20
34.0648543907
 11
89.6887751443
 21
34.0636318742
  0
LINE
  5
66C
100
AcDbEntity
  8
0
100
AcDbLine
 62
7
  6
CONTINUOUS
 10
37.8279854382
 20
34.0477246732
 11
37.8445266592
 21
34.0475927852
  0
LINE
  5
66D
100
AcDbEntity
  8
0
100
AcDbLine
 62
9
  6
CONTINUOUS
 10
37.8475332495
 20
34.0475758862
 11
37.8662869575
 21
34.047418911
  0
LINE
  5
66E
100
AcDbEntity
  8
0
100
AcDbLine
 62
9
  6
CONTINUOUS
 10
98.4079796094
 20
53.6280045717
 11
98.3770947982
 21
53.628262552
  0
LINE
  5
66F
100
AcDbEntity
  8
0
100
AcDbLine
 62
7
  6
CONTINUOUS
 10
90.6342294959
 20
34.049537597
 11
90.8325882765
 21
34.0477979194
  0
LINE
  5
670
100
AcDbEntity
  8
DEFAULT_2
100
AcDbLine
 62
8
  6
CONTINUOUS
 10
62.4856146239
 20
36.2563641795
 11
62.4861967003
 21
36.2563589915
  0
LINE
  5
671
100
AcDbEntity
  8
0
100
AcDbLine
 62
7
  6
CONTINUOUS
 10
89.3616493867
 20
34.0705542291
 11
89.5486965214
 21
34.0687892186
  0
LINE
  5
672
100
AcDbEntity
  8
0
100
AcDbLine
 62
9
  6
CONTINUOUS
 10
89.5409232733
 20
34.0656228644
 11
89.7010420545
 21
34.0641015203
  0
LINE
  5
673
100
AcDbEntity
  8
0
100
AcDbLine
 62
9
  6
CONTINUOUS
 10
90.689734258
 20
34.04895844
 11
90.7029773172
 21
34.0488311341
  0
LINE
  5
674
100
AcDbEntity
  8
DEFAULT_2
100
AcDbLine
 62
8
  6
CONTINUOUS
 10
62.4863327512
 20
36.381361859
 11
62.4881371513
 21
36.3813440255
  0
LINE
  5
675
100
AcDbEntity
  8
0
100
AcDbLine
 62
9
  6
CONTINUOUS
 10
62.9258202764
 20
50.6488871668
 11
63.9148749172
 21
50.6387925298
  0
LINE
  5
676
100
AcDbEntity
  8
0
100
AcDbLine
 62
9
  6
CONTINUOUS
 10
62.8832980522
 20
50.4479948279
 11
63.8785298122
 21
50.4376563743
  0
LINE
  5
677
100
AcDbEntity
  8
DEFAULT_2
100
AcDbLine
 62
8
  6
CONTINUOUS
 10
57.4452913958
 20
36.4799852058
 11
59.7756424368
 21
36.4552784792
  0
LINE
  5
678
100
AcDbEntity
  8
0
100
AcDbLine
 62
7
  6
CONTINUOUS
 10
90.6175502619
 20
34.0506220104
 11
90.7976776311
 21
34.0486924972
  0
LINE
  5
679
100
AcDbEntity
  8
0
100
AcDbLine
 62
7
  6
CONTINUOUS
 10
37.8219465952
 20
34.0474977387
 11
37.8378077107
 21
34.0473182073
  0
LINE
  5
67A
100
AcDbEntity
  8
0
100
AcDbLine
 62
7
  6
CONTINUOUS
 10
89.6887751443
 20
34.0636318742
 11
89.8526534971
 21
34.061777905
  0
LINE
  5
67B
100
AcDbEntity
  8
0
100
AcDbLine
 62
7
  6
CONTINUOUS
 10
95.8820071991
 20
56.1606255699
 11
95.8707495444
 21
56.1607612585
  0
LINE
  5
67C
100
AcDbEntity
  8
0
100
AcDbLine
 62
9
  6
CONTINUOUS
 10
89.7010420545
 20
34.0641015203
 11
89.8659404281
 21
34.0620599626
  0
LINE
  5
67D
100
AcDbEntity
  8
0
100
AcDbLine
 62
7
  6
CONTINUOUS
 10
37.816859103
 20
34.047864791
 11
37.8279854382
 21
34.0477246732
  0
LINE
  5
67E
100
AcDbEntity
  8
0
100
AcDbLine
 62
9
  6
CONTINUOUS
 10
98.4566136571
 20
53.6269872715
 11
98.4500806615
 21
53.6270690445
  0
LINE
  5
67F
100
AcDbEntity
  8
0
100
AcDbLine
 62
7
  6
CONTINUOUS
 10
90.4775495614
 20
34.0516102175
 11
90.6342294959
 21
34.049537597
  0
LINE
  5
680
100
AcDbEntity
  8
0
100
AcDbLine
 62
7
  6
CONTINUOUS
 10
89.5486965214
 20
34.0687892186
 11
89.7448817825
 21
34.0661900277
  0
LINE
  5
681
100
AcDbEntity
  8
0
100
AcDbLine
 62
7
  6
CONTINUOUS
 10
89.8526534971
 20
34.061777905
 11
90.0243035065
 21
34.0593762005
  0
LINE
  5
682
100
AcDbEntity
  8
0
100
AcDbLine
 62
9
  6
CONTINUOUS
 10
89.8659404281
 20
34.0620599626
 11
90.0306156971
 21
34.0596416828
  0
LINE
  5
683
100
AcDbEntity
  8
DEFAULT_2
100
AcDbLine
 62
8
  6
CONTINUOUS
 10
55.1150689126
 20
36.5146560219
 11
57.4452913958
 21
36.4799852058
  0
LINE
  5
684
100
AcDbEntity
  8
0
100
AcDbLine
 62
7
  6
CONTINUOUS
 10
90.4757866056
 20
34.0527731853
 11
90.6175502619
 21
34.0506220104
  0
LINE
  5
685
100
AcDbEntity
  8
DEFAULT_2
100
AcDbLine
 62
8
  6
CONTINUOUS
 10
45.9809791156
 20
36.8684022754
 11
46.0467235471
 21
36.8673808635
  0
LINE
  5
686
100
AcDbEntity
  8
0
100
AcDbLine
 62
7
  6
CONTINUOUS
 10
89.7448817825
 20
34.0661900277
 11
89.9503423922
 21
34.0628904936
  0
LINE
  5
687
100
AcDbEntity
  8
0
100
AcDbLine
 62
7
  6
CONTINUOUS
 10
90.0243035065
 20
34.0593762005
 11
90.2038717493
 21
34.0564666406
  0
LINE
  5
688
100
AcDbEntity
  8
DEFAULT_2
100
AcDbLine
 62
8
  6
CONTINUOUS
 10
62.4861967003
 20
36.2563589915
 11
62.4870439962
 21
36.2563452208
  0
LINE
  5
689
100
AcDbEntity
  8
0
100
AcDbLine
 62
9
  6
CONTINUOUS
 10
98.4209312705
 20
53.6277937292
 11
98.4079796094
 21
53.6280045717
  0
LINE
  5
68A
100
AcDbEntity
  8
0
100
AcDbLine
 62
7
  6
CONTINUOUS
 10
37.813707704
 20
34.0476324145
 11
37.8219465952
 21
34.0474977387
  0
LINE
  5
68B
100
AcDbEntity
  8
0
100
AcDbLine
 62
9
  6
CONTINUOUS
 10
90.0306156971
 20
34.0596416828
 11
90.2445931442
 21
34.0560374041
  0
LINE
  5
68C
100
AcDbEntity
  8
0
100
AcDbLine
 62
7
  6
CONTINUOUS
 10
95.8946793579
 20
56.1604118052
 11
95.8820071991
 21
56.1606255699
  0
LINE
  5
68D
100
AcDbEntity
  8
0
100
AcDbLine
 62
7
  6
CONTINUOUS
 10
37.809373449
 20
34.0479958022
 11
37.816859103
 21
34.047864791
  0
LINE
  5
68E
100
AcDbEntity
  8
0
100
AcDbLine
 62
7
  6
CONTINUOUS
 10
90.2038717493
 20
34.0564666406
 11
90.4775495614
 21
34.0516102175
  0
LINE
  5
68F
100
AcDbEntity
  8
0
100
AcDbLine
 62
7
  6
CONTINUOUS
 10
89.9503423922
 20
34.0628904936
 11
90.165312376
 21
34.0589523855
  0
LINE
  5
690
100
AcDbEntity
  8
0
100
AcDbLine
 62
9
  6
CONTINUOUS
 10
95.9338063055
 20
56.1592189391
 11
95.8428156814
 21
56.1608803412
  0
LINE
  5
691
100
AcDbEntity
  8
0
100
AcDbLine
 62
9
  6
CONTINUOUS
 10
90.2445931442
 20
34.0560374041
 11
90.4041267077
 21
34.0530721766
  0
LINE
  5
692
100
AcDbEntity
  8
DEFAULT_2
100
AcDbLine
 62
8
  6
CONTINUOUS
 10
52.8154718545
 20
36.5587609843
 11
55.1150689126
 21
36.5146560219
  0
LINE
  5
693
100
AcDbEntity
  8
0
100
AcDbLine
 62
7
  6
CONTINUOUS
 10
37.8111180778
 20
34.0476830406
 11
37.813707704
 21
34.0476324145
  0
LINE
  5
694
100
AcDbEntity
  8
0
100
AcDbLine
 62
9
  6
CONTINUOUS
 10
43.7440258213
 20
34.06649545
 11
43.7632726119
 21
34.0661192125
  0
LINE
  5
695
100
AcDbEntity
  8
0
100
AcDbLine
 62
7
  6
CONTINUOUS
 10
90.165312376
 20
34.0589523855
 11
90.4757866056
 21
34.0527731853
  0
LINE
  5
696
100
AcDbEntity
  8
DEFAULT_2
100
AcDbLine
 62
8
  6
CONTINUOUS
 10
62.4881371513
 20
36.3813440255
 11
62.4908035091
 21
36.381291277
  0
LINE
  5
697
100
AcDbEntity
  8
0
100
AcDbLine
 62
9
  6
CONTINUOUS
 10
61.8889638704
 20
50.4677798015
 11
62.8832980522
 21
50.4479948279
  0
LINE
  5
698
100
AcDbEntity
  8
0
100
AcDbLine
 62
9
  6
CONTINUOUS
 10
61.9376981523
 20
50.6684436823
 11
62.9258202764
 21
50.6488871668
  0
LINE
  5
699
100
AcDbEntity
  8
0
100
AcDbLine
 62
7
  6
CONTINUOUS
 10
95.9063695341
 20
56.1601572669
 11
95.8946793579
 21
56.1604118052
  0
LINE
  5
69A
100
AcDbEntity
  8
0
100
AcDbLine
 62
9
  6
CONTINUOUS
 10
98.4322788579
 20
53.6275423824
 11
98.4209312705
 21
53.6277937292
  0
LINE
  5
69B
100
AcDbEntity
  8
0
100
AcDbLine
 62
7
  6
CONTINUOUS
 10
37.8023226384
 20
34.0481590552
 11
37.809373449
 21
34.0479958022
  0
LINE
  5
69C
100
AcDbEntity
  8
0
100
AcDbLine
 62
7
  6
CONTINUOUS
 10
37.803666257
 20
34.0478578362
 11
37.8111180778
 21
34.0476830406
  0
LINE
  5
69D
100
AcDbEntity
  8
DEFAULT_2
100
AcDbLine
 62
8
  6
CONTINUOUS
 10
50.5160864384
 20
36.6128494567
 11
52.8154718545
 21
36.5587609843
  0
LINE
  5
69E
100
AcDbEntity
  8
0
100
AcDbLine
 62
9
  6
CONTINUOUS
 10
95.229689735
 20
56.1591603974
 11
95.1594543904
 21
56.1608803412
  0
LINE
  5
69F
100
AcDbEntity
  8
0
100
AcDbLine
 62
9
  6
CONTINUOUS
 10
98.4616599344
 20
53.6268627569
 11
98.4566136571
 21
53.6269872715
  0
LINE
  5
6A0
100
AcDbEntity
  8
DEFAULT_2
100
AcDbLine
 62
8
  6
CONTINUOUS
 10
62.4870439962
 20
36.2563452208
 11
62.4882021624
 21
36.2563156524
  0
LINE
  5
6A1
100
AcDbEntity
  8
0
100
AcDbLine
 62
7
  6
CONTINUOUS
 10
85.1613168055
 20
34.0657445423
 11
85.1788884602
 21
34.0652749122
  0
LINE
  5
6A2
100
AcDbEntity
  8
0
100
AcDbLine
 62
9
  6
CONTINUOUS
 10
98.4500806615
 20
53.6270690445
 11
98.4322788579
 21
53.6275423824
  0
LINE
  5
6A3
100
AcDbEntity
  8
0
100
AcDbLine
 62
7
  6
CONTINUOUS
 10
95.9191444139
 20
56.159816158
 11
95.9063695341
 21
56.1601572669
  0
LINE
  5
6A4
100
AcDbEntity
  8
DEFAULT_2
100
AcDbLine
 62
8
  6
CONTINUOUS
 10
48.2596883191
 20
36.6758156735
 11
50.5160864384
 21
36.6128494567
  0
LINE
  5
6A5
100
AcDbEntity
  8
DEFAULT_2
100
AcDbLine
 62
8
  6
CONTINUOUS
 10
64.4512658336
 20
51.0750548695
 11
64.4176709487
 21
51.0759965742
  0
LINE
  5
6A6
100
AcDbEntity
  8
DEFAULT_2
100
AcDbLine
 62
8
  6
CONTINUOUS
 10
64.4848739214
 20
53.4267058128
 11
64.5184688063
 21
53.4257641081
  0
LINE
  5
6A7
100
AcDbEntity
  8
0
100
AcDbLine
 62
7
  6
CONTINUOUS
 10
37.7976674251
 20
34.0482955025
 11
37.8023226384
 21
34.0481590552
  0
LINE
  5
6A8
100
AcDbEntity
  8
0
100
AcDbLine
 62
9
  6
CONTINUOUS
 10
60.8944223329
 20
50.4969485603
 11
61.8889638704
 21
50.4677798015
  0
LINE
  5
6A9
100
AcDbEntity
  8
0
100
AcDbLine
 62
9
  6
CONTINUOUS
 10
60.9494357154
 20
50.6974657999
 11
61.9376981523
 21
50.6684436823
  0
LINE
  5
6AA
100
AcDbEntity
  8
0
100
AcDbLine
 62
7
  6
CONTINUOUS
 10
37.798807803
 20
34.0480011124
 11
37.803666257
 21
34.0478578362
  0
LINE
  5
6AB
100
AcDbEntity
  8
0
100
AcDbLine
 62
9
  6
CONTINUOUS
 10
43.757239062
 20
34.0652749103
 11
43.7530445538
 21
34.0653983992
  0
LINE
  5
6AC
100
AcDbEntity
  8
0
100
AcDbLine
 62
9
  6
CONTINUOUS
 10
38.8646565186
 20
53.4080251546
 11
38.3710902565
 21
53.4226979685
  0
LINE
  5
6AD
100
AcDbEntity
  8
0
100
AcDbLine
 62
9
  6
CONTINUOUS
 10
38.3710902565
 20
53.4226979685
 11
38.1289326129
 21
53.4300399408
  0
LINE
  5
6AE
100
AcDbEntity
  8
0
100
AcDbLine
 62
9
  6
CONTINUOUS
 10
39.0156248845
 20
53.4032562662
 11
38.8646565186
 21
53.4080251546
  0
LINE
  5
6AF
100
AcDbEntity
  8
0
100
AcDbLine
 62
7
  6
CONTINUOUS
 10
95.930058241
 20
56.1594726415
 11
95.9191444139
 21
56.159816158
  0
LINE
  5
6B0
100
AcDbEntity
  8
0
100
AcDbLine
 62
9
  6
CONTINUOUS
 10
89.2566295471
 20
34.0709551235
 11
89.3949229677
 21
34.06649545
  0
LINE
  5
6B1
100
AcDbEntity
  8
DEFAULT_2
100
AcDbLine
 62
8
  6
CONTINUOUS
 10
46.0035966273
 20
36.7487859426
 11
48.2596883191
 21
36.6758156735
  0
LINE
  5
6B2
100
AcDbEntity
  8
DEFAULT_2
100
AcDbLine
 62
8
  6
CONTINUOUS
 10
62.4908035091
 20
36.381291277
 11
62.4946058667
 21
36.3811641265
  0
LINE
  5
6B3
100
AcDbEntity
  8
0
100
AcDbLine
 62
9
  6
CONTINUOUS
 10
39.1632370263
 20
53.3983036083
 11
39.0156248845
 21
53.4032562662
  0
LINE
  5
6B4
100
AcDbEntity
  8
0
100
AcDbLine
 62
7
  6
CONTINUOUS
 10
37.7938395773
 20
34.048178455
 11
37.798807803
 21
34.0480011124
  0
LINE
  5
6B5
100
AcDbEntity
  8
0
100
AcDbLine
 62
7
  6
CONTINUOUS
 10
37.7928428798
 20
34.0484676986
 11
37.7976674251
 21
34.0482955025
  0
LINE
  5
6B6
100
AcDbEntity
  8
0
100
AcDbLine
 62
9
  6
CONTINUOUS
 10
39.4483988267
 20
53.3880408771
 11
39.1632370263
 21
53.3983036083
  0
LINE
  5
6B7
100
AcDbEntity
  8
DEFAULT_2
100
AcDbLine
 62
8
  6
CONTINUOUS
 10
33.5060163658
 20
55.7761056657
 11
33.4976462373
 21
55.7764067226
  0
LINE
  5
6B8
100
AcDbEntity
  8
0
100
AcDbLine
 62
7
  6
CONTINUOUS
 10
95.9414912358
 20
56.1590612697
 11
95.930058241
 21
56.1594726415
  0
LINE
  5
6B9
100
AcDbEntity
  8
DEFAULT_2
100
AcDbLine
 62
8
  6
CONTINUOUS
 10
62.4882021624
 20
36.2563156524
 11
62.4897741081
 21
36.2562567955
  0
LINE
  5
6BA
100
AcDbEntity
  8
0
100
AcDbLine
 62
9
  6
CONTINUOUS
 10
39.5859524298
 20
53.3827286703
 11
39.4483988267
 21
53.3880408771
  0
LINE
  5
6BB
100
AcDbEntity
  8
0
100
AcDbLine
 62
9
  6
CONTINUOUS
 10
59.8986329246
 20
50.5355274437
 11
60.8944223329
 21
50.4969485603
  0
LINE
  5
6BC
100
AcDbEntity
  8
0
100
AcDbLine
 62
9
  6
CONTINUOUS
 10
59.9599322882
 20
50.7359155664
 11
60.9494357154
 21
50.6974657999
  0
LINE
  5
6BD
100
AcDbEntity
  8
0
100
AcDbLine
 62
9
  6
CONTINUOUS
 10
85.1537267212
 20
34.0668730567
 11
85.1728656895
 21
34.0661192311
  0
LINE
  5
6BE
100
AcDbEntity
  8
0
100
AcDbLine
 62
7
  6
CONTINUOUS
 10
95.9534106891
 20
56.1585762401
 11
95.9414912358
 21
56.1590612697
  0
LINE
  5
6BF
100
AcDbEntity
  8
DEFAULT_2
100
AcDbLine
 62
8
  6
CONTINUOUS
 10
45.9152768765
 20
36.8710815132
 11
45.9809791156
 21
36.8684022754
  0
LINE
  5
6C0
100
AcDbEntity
  8
0
100
AcDbLine
 62
7
  6
CONTINUOUS
 10
37.7912529689
 20
34.0482853395
 11
37.7938395773
 21
34.048178455
  0
LINE
  5
6C1
100
AcDbEntity
  8
0
100
AcDbLine
 62
7
  6
CONTINUOUS
 10
37.7903010021
 20
34.048573188
 11
37.7928428798
 21
34.0484676986
  0
LINE
  5
6C2
100
AcDbEntity
  8
0
100
AcDbLine
 62
7
  6
CONTINUOUS
 10
95.9564649489
 20
56.1584427247
 11
95.9534106891
 21
56.1585762401
  0
LINE
  5
6C3
100
AcDbEntity
  8
0
100
AcDbLine
 62
7
  6
CONTINUOUS
 10
37.7885650256
 20
34.0484083057
 11
37.7912529689
 21
34.0482853395
  0
LINE
  5
6C4
100
AcDbEntity
  8
0
100
AcDbLine
 62
7
  6
CONTINUOUS
 10
37.7876438842
 20
34.0486956509
 11
37.7903010021
 21
34.048573188
  0
LINE
  5
6C5
100
AcDbEntity
  8
0
100
AcDbLine
 62
7
  6
CONTINUOUS
 10
95.9689726169
 20
56.1578566535
 11
95.9564649489
 21
56.1584427247
  0
LINE
  5
6C6
100
AcDbEntity
  8
DEFAULT_2
100
AcDbLine
 62
8
  6
CONTINUOUS
 10
46.0035966286
 20
36.7487859756
 11
45.9372371639
 21
36.7519330727
  0
LINE
  5
6C7
100
AcDbEntity
  8
0
100
AcDbLine
 62
9
  6
CONTINUOUS
 10
58.9004876049
 20
50.5835011869
 11
59.8986329246
 21
50.5355274437
  0
LINE
  5
6C8
100
AcDbEntity
  8
0
100
AcDbLine
 62
9
  6
CONTINUOUS
 10
58.9682187698
 20
50.7838335839
 11
59.9599322882
 21
50.7359155664
  0
LINE
  5
6C9
100
AcDbEntity
  8
DEFAULT_2
100
AcDbLine
 62
8
  6
CONTINUOUS
 10
34.4351419162
 20
55.7279955868
 11
33.5180854733
 21
55.7738484089
  0
LINE
  5
6CA
100
AcDbEntity
  8
0
100
AcDbLine
 62
7
  6
CONTINUOUS
 10
37.7857549749
 20
34.0485509076
 11
37.7885650256
 21
34.0484083057
  0
LINE
  5
6CB
100
AcDbEntity
  8
0
100
AcDbLine
 62
7
  6
CONTINUOUS
 10
37.7848466851
 20
34.0488390872
 11
37.7876438842
 21
34.0486956509
  0
LINE
  5
6CC
100
AcDbEntity
  8
DEFAULT_2
100
AcDbLine
 62
8
  6
CONTINUOUS
 10
62.4946058667
 20
36.3811641265
 11
62.4997416488
 21
36.3808977428
  0
LINE
  5
6CD
100
AcDbEntity
  8
0
100
AcDbLine
 62
7
  6
CONTINUOUS
 10
95.9819333574
 20
56.1571826596
 11
95.9689726169
 21
56.1578566535
  0
LINE
  5
6CE
100
AcDbEntity
  8
DEFAULT_2
100
AcDbLine
 62
8
  6
CONTINUOUS
 10
62.4897741081
 20
36.2562567955
 11
62.4919576541
 21
36.2561404568
  0
LINE
  5
6CF
100
AcDbEntity
  8
0
100
AcDbLine
 62
9
  6
CONTINUOUS
 10
96.0244909238
 20
56.154245922
 11
95.9338063055
 21
56.1592189391
  0
LINE
  5
6D0
100
AcDbEntity
  8
DEFAULT_2
100
AcDbLine
 62
8
  6
CONTINUOUS
 10
64.4176709487
 20
51.0759965742
 11
64.384117996
 21
51.0778794718
  0
LINE
  5
6D1
100
AcDbEntity
  8
DEFAULT_2
100
AcDbLine
 62
8
  6
CONTINUOUS
 10
64.5184688063
 20
53.4257641081
 11
64.5520217591
 21
53.4238812106
  0
LINE
  5
6D2
100
AcDbEntity
  8
0
100
AcDbLine
 62
7
  6
CONTINUOUS
 10
37.7827982907
 20
34.0487176076
 11
37.7857549749
 21
34.0485509076
  0
LINE
  5
6D3
100
AcDbEntity
  8
0
100
AcDbLine
 62
7
  6
CONTINUOUS
 10
37.7818874705
 20
34.0490081478
 11
37.7848466851
 21
34.0488390872
  0
LINE
  5
6D4
100
AcDbEntity
  8
DEFAULT_2
100
AcDbLine
 62
8
  6
CONTINUOUS
 10
34.4590467543
 20
55.7324610636
 11
34.4048867579
 21
55.735555163
  0
LINE
  5
6D5
100
AcDbEntity
  8
0
100
AcDbLine
 62
9
  6
CONTINUOUS
 10
57.8990840174
 20
50.6409249075
 11
58.9004876049
 21
50.5835011869
  0
LINE
  5
6D6
100
AcDbEntity
  8
0
100
AcDbLine
 62
7
  6
CONTINUOUS
 10
95.9953300713
 20
56.1564145944
 11
95.9819333574
 21
56.1571826596
  0
LINE
  5
6D7
100
AcDbEntity
  8
0
100
AcDbLine
 62
9
  6
CONTINUOUS
 10
57.9732301519
 20
50.8412275485
 11
58.9682187698
 21
50.7838335839
  0
LINE
  5
6D8
100
AcDbEntity
  8
DEFAULT_2
100
AcDbLine
 62
8
  6
CONTINUOUS
 10
33.4976462373
 20
55.7764067226
 11
33.489282877
 21
55.7768997057
  0
LINE
  5
6D9
100
AcDbEntity
  8
0
100
AcDbLine
 62
7
  6
CONTINUOUS
 10
37.7796712718
 20
34.0489136901
 11
37.7827982907
 21
34.0487176076
  0
LINE
  5
6DA
100
AcDbEntity
  8
0
100
AcDbLine
 62
7
  6
CONTINUOUS
 10
96.0091441755
 20
56.155546525
 11
95.9953300713
 21
56.1564145944
  0
LINE
  5
6DB
100
AcDbEntity
  8
0
100
AcDbLine
 62
7
  6
CONTINUOUS
 10
37.7787463002
 20
34.0492082193
 11
37.7818874705
 21
34.0490081478
  0
LINE
  5
6DC
100
AcDbEntity
  8
DEFAULT_2
100
AcDbLine
 62
8
  6
CONTINUOUS
 10
45.8483726451
 20
36.8755184143
 11
45.9152768765
 21
36.8710815132
  0
LINE
  5
6DD
100
AcDbEntity
  8
0
100
AcDbLine
 62
9
  6
CONTINUOUS
 10
56.8934220573
 20
50.707821504
 11
57.8990840174
 21
50.6409249075
  0
LINE
  5
6DE
100
AcDbEntity
  8
0
100
AcDbLine
 62
9
  6
CONTINUOUS
 10
56.9741547114
 20
50.9081582251
 11
57.9732301519
 21
50.8412275485
  0
LINE
  5
6DF
100
AcDbEntity
  8
0
100
AcDbLine
 62
7
  6
CONTINUOUS
 10
96.0233553642
 20
56.1545728223
 11
96.0091441755
 21
56.155546525
  0
LINE
  5
6E0
100
AcDbEntity
  8
DEFAULT_2
100
AcDbLine
 62
8
  6
CONTINUOUS
 10
62.4919576541
 20
36.2561404568
 11
62.4935002924
 21
36.2560344231
  0
LINE
  5
6E1
100
AcDbEntity
  8
DEFAULT_2
100
AcDbLine
 62
8
  6
CONTINUOUS
 10
62.4997416488
 20
36.3808977428
 11
62.5029761916
 21
36.3806746616
  0
LINE
  5
6E2
100
AcDbEntity
  8
0
100
AcDbLine
 62
7
  6
CONTINUOUS
 10
37.7763597316
 20
34.0491447169
 11
37.7796712718
 21
34.0489136901
  0
LINE
  5
6E3
100
AcDbEntity
  8
0
100
AcDbLine
 62
7
  6
CONTINUOUS
 10
37.775386242
 20
34.0494468821
 11
37.7787463002
 21
34.0492082193
  0
LINE
  5
6E4
100
AcDbEntity
  8
DEFAULT_2
100
AcDbLine
 62
8
  6
CONTINUOUS
 10
45.9372371639
 20
36.7519330727
 11
45.8709689051
 21
36.7567751152
  0
LINE
  5
6E5
100
AcDbEntity
  8
0
100
AcDbLine
 62
9
  6
CONTINUOUS
 10
95.2998415151
 20
56.1540069671
 11
95.229689735
 21
56.1591603974
  0
LINE
  5
6E6
100
AcDbEntity
  8
0
100
AcDbLine
 62
7
  6
CONTINUOUS
 10
96.0342653631
 20
56.1537697322
 11
96.0233553642
 21
56.1545728223
  0
LINE
  5
6E7
100
AcDbEntity
  8
0
100
AcDbLine
 62
9
  6
CONTINUOUS
 10
55.8826869295
 20
50.7842649839
 11
56.8934220573
 21
50.707821504
  0
LINE
  5
6E8
100
AcDbEntity
  8
0
100
AcDbLine
 62
9
  6
CONTINUOUS
 10
55.9701082601
 20
50.9846606435
 11
56.9741547114
 21
50.9081582251
  0
LINE
  5
6E9
100
AcDbEntity
  8
0
100
AcDbLine
 62
7
  6
CONTINUOUS
 10
37.7728068727
 20
34.049420528
 11
37.7763597316
 21
34.0491447169
  0
LINE
  5
6EA
100
AcDbEntity
  8
0
100
AcDbLine
 62
7
  6
CONTINUOUS
 10
96.0453961907
 20
56.152900594
 11
96.0342653631
 21
56.1537697322
  0
LINE
  5
6EB
100
AcDbEntity
  8
0
100
AcDbLine
 62
7
  6
CONTINUOUS
 10
37.7717856552
 20
34.0497320504
 11
37.775386242
 21
34.0494468821
  0
LINE
  5
6EC
100
AcDbEntity
  8
DEFAULT_2
100
AcDbLine
 62
8
  6
CONTINUOUS
 10
34.5131303336
 20
55.7281494929
 11
34.4590467543
 21
55.7324610636
  0
LINE
  5
6ED
100
AcDbEntity
  8
DEFAULT_2
100
AcDbLine
 62
8
  6
CONTINUOUS
 10
62.4935002924
 20
36.2560344231
 11
62.4950414821
 21
36.2559089097
  0
LINE
  5
6EE
100
AcDbEntity
  8
DEFAULT_2
100
AcDbLine
 62
8
  6
CONTINUOUS
 10
33.489282877
 20
55.7768997057
 11
33.480931342
 21
55.7775833658
  0
LINE
  5
6EF
100
AcDbEntity
  8
DEFAULT_2
100
AcDbLine
 62
8
  6
CONTINUOUS
 10
62.5029761916
 20
36.3806746616
 11
62.5062075517
 21
36.3804092127
  0
LINE
  5
6F0
100
AcDbEntity
  8
0
100
AcDbLine
 62
7
  6
CONTINUOUS
 10
85.1422696932
 20
34.0673212759
 11
85.1613168055
 21
34.0657445423
  0
LINE
  5
6F1
100
AcDbEntity
  8
0
100
AcDbLine
 62
7
  6
CONTINUOUS
 10
96.0567485332
 20
56.151962309
 11
96.0453961907
 21
56.152900594
  0
LINE
  5
6F2
100
AcDbEntity
  8
DEFAULT_2
100
AcDbLine
 62
8
  6
CONTINUOUS
 10
64.384117996
 20
51.0778794718
 11
64.3506309756
 21
51.0807018557
  0
LINE
  5
6F3
100
AcDbEntity
  8
DEFAULT_2
100
AcDbLine
 62
8
  6
CONTINUOUS
 10
64.5520217591
 20
53.4238812106
 11
64.5855087795
 21
53.4210588267
  0
LINE
  5
6F4
100
AcDbEntity
  8
0
100
AcDbLine
 62
9
  6
CONTINUOUS
 10
54.866066902
 20
50.8702956352
 11
55.8826869295
 21
50.7842649839
  0
LINE
  5
6F5
100
AcDbEntity
  8
0
100
AcDbLine
 62
9
  6
CONTINUOUS
 10
54.9602451319
 20
51.0708197052
 11
55.9701082601
 21
50.9846606435
  0
LINE
  5
6F6
100
AcDbEntity
  8
0
100
AcDbLine
 62
7
  6
CONTINUOUS
 10
37.7689748627
 20
34.0497516564
 11
37.7728068727
 21
34.049420528
  0
LINE
  5
6F7
100
AcDbEntity
  8
0
100
AcDbLine
 62
7
  6
CONTINUOUS
 10
96.0683207065
 20
56.1509519112
 11
96.0567485332
 21
56.151962309
  0
LINE
  5
6F8
100
AcDbEntity
  8
0
100
AcDbLine
 62
7
  6
CONTINUOUS
 10
37.7678815429
 20
34.0500767891
 11
37.7717856552
 21
34.0497320504
  0
LINE
  5
6F9
100
AcDbEntity
  8
0
100
AcDbLine
 62
9
  6
CONTINUOUS
 10
96.1148435821
 20
56.145975491
 11
96.0244909238
 21
56.154245922
  0
LINE
  5
6FA
100
AcDbEntity
  8
0
100
AcDbLine
 62
7
  6
CONTINUOUS
 10
96.0801093461
 20
56.1498665574
 11
96.0683207065
 21
56.1509519112
  0
LINE
  5
6FB
100
AcDbEntity
  8
DEFAULT_2
100
AcDbLine
 62
8
  6
CONTINUOUS
 10
45.7816055582
 20
36.8816728877
 11
45.8483726451
 21
36.8755184143
  0
LINE
  5
6FC
100
AcDbEntity
  8
0
100
AcDbLine
 62
9
  6
CONTINUOUS
 10
53.8425526814
 20
50.9660294736
 11
54.866066902
 21
50.8702956352
  0
LINE
  5
6FD
100
AcDbEntity
  8
0
100
AcDbLine
 62
9
  6
CONTINUOUS
 10
53.9438253985
 20
51.1666816753
 11
54.9602451319
 21
51.0708197052
  0
LINE
  5
6FE
100
AcDbEntity
  8
0
100
AcDbLine
 62
7
  6
CONTINUOUS
 10
37.7647995354
 20
34.0501534316
 11
37.7689748627
 21
34.0497516564
  0
LINE
  5
6FF
100
AcDbEntity
  8
DEFAULT_2
100
AcDbLine
 62
8
  6
CONTINUOUS
 10
62.5062075517
 20
36.3804092127
 11
62.5100136085
 21
36.3800419341
  0
LINE
  5
700
100
AcDbEntity
  8
DEFAULT_2
100
AcDbLine
 62
8
  6
CONTINUOUS
 10
62.4950414821
 20
36.2559089097
 11
62.4971739094
 21
36.2557030628
  0
LINE
  5
701
100
AcDbEntity
  8
0
100
AcDbLine
 62
7
  6
CONTINUOUS
 10
96.0921095186
 20
56.1487035577
 11
96.0801093461
 21
56.1498665574
  0
LINE
  5
702
100
AcDbEntity
  8
0
100
AcDbLine
 62
7
  6
CONTINUOUS
 10
37.7636202923
 20
34.0504964026
 11
37.7678815429
 21
34.0500767891
  0
LINE
  5
703
100
AcDbEntity
  8
DEFAULT_2
100
AcDbLine
 62
8
  6
CONTINUOUS
 10
45.8709689051
 20
36.7567751152
 11
45.8048452738
 21
36.7633055684
  0
LINE
  5
704
100
AcDbEntity
  8
0
100
AcDbLine
 62
9
  6
CONTINUOUS
 10
85.1347128399
 20
34.0687519772
 11
85.1537267212
 21
34.0668730567
  0
LINE
  5
705
100
AcDbEntity
  8
0
100
AcDbLine
 62
7
  6
CONTINUOUS
 10
96.1043146161
 20
56.1474604286
 11
96.0921095186
 21
56.1487035577
  0
LINE
  5
706
100
AcDbEntity
  8
0
100
AcDbLine
 62
9
  6
CONTINUOUS
 10
52.8113204612
 20
51.0715276134
 11
53.8425526814
 21
50.9660294736
  0
LINE
  5
707
100
AcDbEntity
  8
DEFAULT_2
100
AcDbLine
 62
8
  6
CONTINUOUS
 10
34.5671050849
 20
55.7226230985
 11
34.5131303336
 21
55.7281494929
  0
LINE
  5
708
100
AcDbEntity
  8
0
100
AcDbLine
 62
9
  6
CONTINUOUS
 10
52.9196503747
 20
51.2723974927
 11
53.9438253985
 21
51.1666816753
  0
LINE
  5
709
100
AcDbEntity
  8
DEFAULT_2
100
AcDbLine
 62
8
  6
CONTINUOUS
 10
33.480931342
 20
55.7775833658
 11
33.4725966896
 21
55.778456454
  0
LINE
  5
70A
100
AcDbEntity
  8
0
100
AcDbLine
 62
9
  6
CONTINUOUS
 10
98.4652139118
 20
53.626484586
 11
98.4616599344
 21
53.6268627569
  0
LINE
  5
70B
100
AcDbEntity
  8
0
100
AcDbLine
 62
7
  6
CONTINUOUS
 10
96.1167165078
 20
56.146134922
 11
96.1043146161
 21
56.1474604286
  0
LINE
  5
70C
100
AcDbEntity
  8
0
100
AcDbLine
 62
7
  6
CONTINUOUS
 10
37.7602199552
 20
34.0506445103
 11
37.7647995354
 21
34.0501534316
  0
LINE
  5
70D
100
AcDbEntity
  8
0
100
AcDbLine
 62
9
  6
CONTINUOUS
 10
37.7521928271
 20
34.0518606463
 11
37.749839476
 21
34.0521160356
  0
LINE
  5
70E
100
AcDbEntity
  8
0
100
AcDbLine
 62
7
  6
CONTINUOUS
 10
37.7589611426
 20
34.0510081289
 11
37.7636202923
 21
34.0504964026
  0
LINE
  5
70F
100
AcDbEntity
  8
0
100
AcDbLine
 62
9
  6
CONTINUOUS
 10
51.7710020486
 20
51.1869859389
 11
52.8113204612
 21
51.0715276134
  0
LINE
  5
710
100
AcDbEntity
  8
0
100
AcDbLine
 62
9
  6
CONTINUOUS
 10
51.8867538659
 20
51.3880570472
 11
52.9196503747
 21
51.2723974927
  0
LINE
  5
711
100
AcDbEntity
  8
0
100
AcDbLine
 62
7
  6
CONTINUOUS
 10
96.1293054848
 20
56.1447250761
 11
96.1167165078
 21
56.146134922
  0
LINE
  5
712
100
AcDbEntity
  8
DEFAULT_2
100
AcDbLine
 62
8
  6
CONTINUOUS
 10
62.5100136085
 20
36.3800419341
 11
62.5138135874
 21
36.379616161
  0
LINE
  5
713
100
AcDbEntity
  8
DEFAULT_2
100
AcDbLine
 62
8
  6
CONTINUOUS
 10
64.3506309756
 20
51.0807018557
 11
64.3172362166
 21
51.0844616387
  0
LINE
  5
714
100
AcDbEntity
  8
DEFAULT_2
100
AcDbLine
 62
8
  6
CONTINUOUS
 10
64.5855087795
 20
53.4210588267
 11
64.6189035385
 21
53.4172990437
  0
LINE
  5
715
100
AcDbEntity
  8
DEFAULT_2
100
AcDbLine
 62
8
  6
CONTINUOUS
 10
62.4971739094
 20
36.2557030628
 11
62.4993024822
 21
36.2554602963
  0
LINE
  5
716
100
AcDbEntity
  8
0
100
AcDbLine
 62
7
  6
CONTINUOUS
 10
96.1420747933
 20
56.1432287227
 11
96.1293054848
 21
56.1447250761
  0
LINE
  5
717
100
AcDbEntity
  8
DEFAULT_2
100
AcDbLine
 62
8
  6
CONTINUOUS
 10
45.7137005449
 20
36.8897133848
 11
45.7816055582
 21
36.8816728877
  0
LINE
  5
718
100
AcDbEntity
  8
0
100
AcDbLine
 62
7
  6
CONTINUOUS
 10
37.7551974428
 20
34.0512450187
 11
37.7602199552
 21
34.0506445103
  0
LINE
  5
719
100
AcDbEntity
  8
0
100
AcDbLine
 62
9
  6
CONTINUOUS
 10
50.7204270298
 20
51.3125314238
 11
51.7710020486
 21
51.1869859389
  0
LINE
  5
71A
100
AcDbEntity
  8
0
100
AcDbLine
 62
9
  6
CONTINUOUS
 10
50.8437025575
 20
51.5138897511
 11
51.8867538659
 21
51.3880570472
  0
LINE
  5
71B
100
AcDbEntity
  8
0
100
AcDbLine
 62
7
  6
CONTINUOUS
 10
96.15067581
 20
56.1421831483
 11
96.1420747933
 21
56.1432287227
  0
LINE
  5
71C
100
AcDbEntity
  8
0
100
AcDbLine
 62
9
  6
CONTINUOUS
 10
43.7530445538
 20
34.0653983992
 11
43.7440258213
 21
34.06649545
  0
LINE
  5
71D
100
AcDbEntity
  8
0
100
AcDbLine
 62
9
  6
CONTINUOUS
 10
95.3699146745
 20
56.145433811
 11
95.2998415151
 21
56.1540069671
  0
LINE
  5
71E
100
AcDbEntity
  8
0
100
AcDbLine
 62
7
  6
CONTINUOUS
 10
37.7538452619
 20
34.0516349155
 11
37.7589611426
 21
34.0510081289
  0
LINE
  5
71F
100
AcDbEntity
  8
DEFAULT_2
100
AcDbLine
 62
8
  6
CONTINUOUS
 10
45.8048452738
 20
36.7633055684
 11
45.7389641349
 21
36.7715117409
  0
LINE
  5
720
100
AcDbEntity
  8
DEFAULT_2
100
AcDbLine
 62
8
  6
CONTINUOUS
 10
34.6204258103
 20
55.7159550235
 11
34.5671050849
 21
55.7226230985
  0
LINE
  5
721
100
AcDbEntity
  8
0
100
AcDbLine
 62
7
  6
CONTINUOUS
 10
96.1636984942
 20
56.1405422854
 11
96.15067581
 21
56.1421831483
  0
LINE
  5
722
100
AcDbEntity
  8
DEFAULT_2
100
AcDbLine
 62
8
  6
CONTINUOUS
 10
33.4725966896
 20
55.778456454
 11
33.4642839772
 21
55.7795177213
  0
LINE
  5
723
100
AcDbEntity
  8
0
100
AcDbLine
 62
9
  6
CONTINUOUS
 10
49.6581782612
 20
51.4484209445
 11
50.7204270298
 21
51.3125314238
  0
LINE
  5
724
100
AcDbEntity
  8
0
100
AcDbLine
 62
9
  6
CONTINUOUS
 10
96.2047178
 20
56.134437091
 11
96.1148435821
 21
56.145975491
  0
LINE
  5
725
100
AcDbEntity
  8
DEFAULT_2
100
AcDbLine
 62
8
  6
CONTINUOUS
 10
62.5138135874
 20
36.379616161
 11
62.5180911184
 21
36.3790659721
  0
LINE
  5
726
100
AcDbEntity
  8
0
100
AcDbLine
 62
9
  6
CONTINUOUS
 10
49.7891618711
 20
51.650069399
 11
50.8437025575
 21
51.5138897511
  0
LINE
  5
727
100
AcDbEntity
  8
0
100
AcDbLine
 62
7
  6
CONTINUOUS
 10
96.1768609794
 20
56.1388130242
 11
96.1636984942
 21
56.1405422854
  0
LINE
  5
728
100
AcDbEntity
  8
0
100
AcDbLine
 62
7
  6
CONTINUOUS
 10
37.7496632493
 20
34.0519831207
 11
37.7551974428
 21
34.0512450187
  0
LINE
  5
729
100
AcDbEntity
  8
DEFAULT_2
100
AcDbLine
 62
8
  6
CONTINUOUS
 10
62.4993024822
 20
36.2554602963
 11
62.5020740125
 21
36.2550881791
  0
LINE
  5
72A
100
AcDbEntity
  8
0
100
AcDbLine
 62
9
  6
CONTINUOUS
 10
48.5828347153
 20
51.5948613106
 11
49.6581782612
 21
51.4484209445
  0
LINE
  5
72B
100
AcDbEntity
  8
0
100
AcDbLine
 62
7
  6
CONTINUOUS
 10
37.7482814862
 20
34.052394955
 11
37.7538452619
 21
34.0516349155
  0
LINE
  5
72C
100
AcDbEntity
  8
0
100
AcDbLine
 62
7
  6
CONTINUOUS
 10
96.1901583882
 20
56.1369936827
 11
96.1768609794
 21
56.1388130242
  0
LINE
  5
72D
100
AcDbEntity
  8
0
100
AcDbLine
 62
9
  6
CONTINUOUS
 10
48.7218752985
 20
51.7968527344
 11
49.7891618711
 21
51.650069399
  0
LINE
  5
72E
100
AcDbEntity
  8
DEFAULT_2
100
AcDbLine
 62
8
  6
CONTINUOUS
 10
64.3172362166
 20
51.0844616387
 11
64.2839668866
 21
51.0891553179
  0
LINE
  5
72F
100
AcDbEntity
  8
DEFAULT_2
100
AcDbLine
 62
8
  6
CONTINUOUS
 10
64.6189035385
 20
53.4172990437
 11
64.6521728685
 21
53.4126053644
  0
LINE
  5
730
100
AcDbEntity
  8
0
100
AcDbLine
 62
7
  6
CONTINUOUS
 10
85.1234195319
 20
34.0699944219
 11
85.1422696932
 21
34.0673212759
  0
LINE
  5
731
100
AcDbEntity
  8
0
100
AcDbLine
 62
7
  6
CONTINUOUS
 10
96.2035851453
 20
56.1350827455
 11
96.1901583882
 21
56.1369936827
  0
LINE
  5
732
100
AcDbEntity
  8
0
100
AcDbLine
 62
9
  6
CONTINUOUS
 10
47.4932376294
 20
51.7521161982
 11
48.5828347153
 21
51.5948613106
  0
LINE
  5
733
100
AcDbEntity
  8
DEFAULT_2
100
AcDbLine
 62
8
  6
CONTINUOUS
 10
45.646028788
 20
36.8995286648
 11
45.7137005449
 21
36.8897133848
  0
LINE
  5
734
100
AcDbEntity
  8
0
100
AcDbLine
 62
9
  6
CONTINUOUS
 10
47.6405071072
 20
51.9544668887
 11
48.7218752985
 21
51.7968527344
  0
LINE
  5
735
100
AcDbEntity
  8
DEFAULT_2
100
AcDbLine
 62
8
  6
CONTINUOUS
 10
62.5180911184
 20
36.3790659721
 11
62.5223585106
 21
36.3784418434
  0
LINE
  5
736
100
AcDbEntity
  8
DEFAULT_2
100
AcDbLine
 62
8
  6
CONTINUOUS
 10
34.6735831082
 20
55.7081024678
 11
34.6204258103
 21
55.7159550235
  0
LINE
  5
737
100
AcDbEntity
  8
0
100
AcDbLine
 62
7
  6
CONTINUOUS
 10
96.2171330772
 20
56.1330791708
 11
96.2035851453
 21
56.1350827455
  0
LINE
  5
738
100
AcDbEntity
  8
0
100
AcDbLine
 62
7
  6
CONTINUOUS
 10
37.7436551953
 20
34.0528766122
 11
37.7496632493
 21
34.0519831207
  0
LINE
  5
739
100
AcDbEntity
  8
DEFAULT_2
100
AcDbLine
 62
8
  6
CONTINUOUS
 10
45.7389641349
 20
36.7715117409
 11
45.6733138203
 21
36.7813933434
  0
LINE
  5
73A
100
AcDbEntity
  8
DEFAULT_2
100
AcDbLine
 62
8
  6
CONTINUOUS
 10
33.4642839772
 20
55.7795177213
 11
33.4559969872
 21
55.7807661017
  0
LINE
  5
73B
100
AcDbEntity
  8
0
100
AcDbLine
 62
7
  6
CONTINUOUS
 10
37.7422408162
 20
34.0533139752
 11
37.7482814862
 21
34.052394955
  0
LINE
  5
73C
100
AcDbEntity
  8
0
100
AcDbLine
 62
9
  6
CONTINUOUS
 10
46.3880881609
 20
51.9204262059
 11
47.4932376294
 21
51.7521161982
  0
LINE
  5
73D
100
AcDbEntity
  8
0
100
AcDbLine
 62
7
  6
CONTINUOUS
 10
96.2307207401
 20
56.1309935138
 11
96.2171330772
 21
56.1330791708
  0
LINE
  5
73E
100
AcDbEntity
  8
0
100
AcDbLine
 62
9
  6
CONTINUOUS
 10
46.5439677132
 20
52.1231744928
 11
47.6405071072
 21
51.9544668887
  0
LINE
  5
73F
100
AcDbEntity
  8
DEFAULT_2
100
AcDbLine
 62
8
  6
CONTINUOUS
 10
62.5020740125
 20
36.2550881791
 11
62.5048365237
 21
36.2546538067
  0
LINE
  5
740
100
AcDbEntity
  8
0
100
AcDbLine
 62
9
  6
CONTINUOUS
 10
37.749839476
 20
34.0521160356
 11
37.7422408162
 21
34.0533139752
  0
LINE
  5
741
100
AcDbEntity
  8
0
100
AcDbLine
 62
9
  6
CONTINUOUS
 10
85.1159004254
 20
34.0717441303
 11
85.1347128399
 21
34.0687519772
  0
LINE
  5
742
100
AcDbEntity
  8
0
100
AcDbLine
 62
7
  6
CONTINUOUS
 10
96.2442902142
 20
56.1288343259
 11
96.2307207401
 21
56.1309935138
  0
LINE
  5
743
100
AcDbEntity
  8
0
100
AcDbLine
 62
9
  6
CONTINUOUS
 10
45.2663855215
 20
52.1000512227
 11
46.3880881609
 21
51.9204262059
  0
LINE
  5
744
100
AcDbEntity
  8
0
100
AcDbLine
 62
9
  6
CONTINUOUS
 10
45.4310094383
 20
52.3032352116
 11
46.5439677132
 21
52.1231744928
  0
LINE
  5
745
100
AcDbEntity
  8
DEFAULT_2
100
AcDbLine
 62
8
  6
CONTINUOUS
 10
62.5223585106
 20
36.3784418434
 11
62.5270237839
 21
36.3776729147
  0
LINE
  5
746
100
AcDbEntity
  8
0
100
AcDbLine
 62
7
  6
CONTINUOUS
 10
96.2578489359
 20
56.1266004961
 11
96.2442902142
 21
56.1288343259
  0
LINE
  5
747
100
AcDbEntity
  8
0
100
AcDbLine
 62
9
  6
CONTINUOUS
 10
96.2938942745
 20
56.1196928972
 11
96.2047178
 21
56.134437091
  0
LINE
  5
748
100
AcDbEntity
  8
0
100
AcDbLine
 62
7
  6
CONTINUOUS
 10
37.7371674248
 20
34.0539508525
 11
37.7436551953
 21
34.0528766122
  0
LINE
  5
749
100
AcDbEntity
  8
0
100
AcDbLine
 62
9
  6
CONTINUOUS
 10
44.1270122963
 20
52.2912384545
 11
45.2663855215
 21
52.1000512227
  0
LINE
  5
74A
100
AcDbEntity
  8
0
100
AcDbLine
 62
7
  6
CONTINUOUS
 10
37.735786073
 20
34.0544054613
 11
37.7422408162
 21
34.0533139752
  0
LINE
  5
74B
100
AcDbEntity
  8
0
100
AcDbLine
 62
9
  6
CONTINUOUS
 10
44.3007793526
 20
52.4948850747
 11
45.4310094383
 21
52.3032352116
  0
LINE
  5
74C
100
AcDbEntity
  8
DEFAULT_2
100
AcDbLine
 62
8
  6
CONTINUOUS
 10
64.2839668866
 20
51.0891553179
 11
64.2508421964
 21
51.0947797534
  0
LINE
  5
74D
100
AcDbEntity
  8
DEFAULT_2
100
AcDbLine
 62
8
  6
CONTINUOUS
 10
64.6521728685
 20
53.4126053644
 11
64.6852975587
 21
53.4069809289
  0
LINE
  5
74E
100
AcDbEntity
  8
0
100
AcDbLine
 62
7
  6
CONTINUOUS
 10
96.2714035198
 20
56.1242908743
 11
96.2578489359
 21
56.1266004961
  0
LINE
  5
74F
100
AcDbEntity
  8
DEFAULT_2
100
AcDbLine
 62
8
  6
CONTINUOUS
 10
34.7265521024
 20
55.6990700604
 11
34.6735831082
 21
55.7081024678
  0
LINE
  5
750
100
AcDbEntity
  8
0
100
AcDbLine
 62
9
  6
CONTINUOUS
 10
95.4397281638
 20
56.1334719947
 11
95.3699146745
 21
56.145433811
  0
LINE
  5
751
100
AcDbEntity
  8
DEFAULT_2
100
AcDbLine
 62
8
  6
CONTINUOUS
 10
45.5772768842
 20
36.9113637913
 11
45.646028788
 21
36.8995286648
  0
LINE
  5
752
100
AcDbEntity
  8
DEFAULT_2
100
AcDbLine
 62
8
  6
CONTINUOUS
 10
33.4559969872
 20
55.7807661017
 11
33.447740817
 21
55.7822002714
  0
LINE
  5
753
100
AcDbEntity
  8
0
100
AcDbLine
 62
9
  6
CONTINUOUS
 10
37.735786073
 20
34.0544054613
 11
37.728663836
 21
34.0556497805
  0
LINE
  5
754
100
AcDbEntity
  8
0
100
AcDbLine
 62
9
  6
CONTINUOUS
 10
42.9690195233
 20
52.4942475625
 11
44.1270122963
 21
52.2912384545
  0
LINE
  5
755
100
AcDbEntity
  8
0
100
AcDbLine
 62
7
  6
CONTINUOUS
 10
96.2849592059
 20
56.1219043927
 11
96.2714035198
 21
56.1242908743
  0
LINE
  5
756
100
AcDbEntity
  8
DEFAULT_2
100
AcDbLine
 62
8
  6
CONTINUOUS
 10
45.6733138203
 20
36.7813933434
 11
45.6079273926
 21
36.7929463736
  0
LINE
  5
757
100
AcDbEntity
  8
0
100
AcDbLine
 62
9
  6
CONTINUOUS
 10
43.1524666094
 20
52.6983339
 11
44.3007793526
 21
52.4948850747
  0
LINE
  5
758
100
AcDbEntity
  8
DEFAULT_2
100
AcDbLine
 62
8
  6
CONTINUOUS
 10
62.5048365237
 20
36.2546538067
 11
62.5070332109
 21
36.2542627989
  0
LINE
  5
759
100
AcDbEntity
  8
0
100
AcDbLine
 62
7
  6
CONTINUOUS
 10
96.2985193917
 20
56.1194401895
 11
96.2849592059
 21
56.1219043927
  0
LINE
  5
75A
100
AcDbEntity
  8
0
100
AcDbLine
 62
9
  6
CONTINUOUS
 10
41.7915473063
 20
52.7092954786
 11
42.9690195233
 21
52.4942475625
  0
LINE
  5
75B
100
AcDbEntity
  8
0
100
AcDbLine
 62
7
  6
CONTINUOUS
 10
37.7302699268
 20
34.055219351
 11
37.7371674248
 21
34.0539508525
  0
LINE
  5
75C
100
AcDbEntity
  8
DEFAULT_2
100
AcDbLine
 62
8
  6
CONTINUOUS
 10
62.5270237839
 20
36.3776729147
 11
62.5316736739
 21
36.3768157288
  0
LINE
  5
75D
100
AcDbEntity
  8
0
100
AcDbLine
 62
9
  6
CONTINUOUS
 10
41.9847066107
 20
52.9139199877
 11
43.1524666094
 21
52.6983339
  0
LINE
  5
75E
100
AcDbEntity
  8
0
100
AcDbLine
 62
7
  6
CONTINUOUS
 10
37.7289525513
 20
34.0556859351
 11
37.735786073
 21
34.0544054613
  0
LINE
  5
75F
100
AcDbEntity
  8
0
100
AcDbLine
 62
7
  6
CONTINUOUS
 10
96.3120856067
 20
56.1168976657
 11
96.2985193917
 21
56.1194401895
  0
LINE
  5
760
100
AcDbEntity
  8
0
100
AcDbLine
 62
9
  6
CONTINUOUS
 10
40.5932110329
 20
52.9367353848
 11
41.7915473063
 21
52.7092954786
  0
LINE
  5
761
100
AcDbEntity
  8
0
100
AcDbLine
 62
9
  6
CONTINUOUS
 10
40.7956521231
 20
53.1421026072
 11
41.9847066107
 21
52.9139199877
  0
LINE
  5
762
100
AcDbEntity
  8
0
100
AcDbLine
 62
7
  6
CONTINUOUS
 10
96.325657373
 20
56.1142765646
 11
96.3120856067
 21
56.1168976657
  0
LINE
  5
763
100
AcDbEntity
  8
DEFAULT_2
100
AcDbLine
 62
8
  6
CONTINUOUS
 10
34.7782867962
 20
55.6890717058
 11
34.7265521024
 21
55.6990700604
  0
LINE
  5
764
100
AcDbEntity
  8
0
100
AcDbLine
 62
9
  6
CONTINUOUS
 10
98.4673210108
 20
53.6260714119
 11
98.4652139118
 21
53.626484586
  0
LINE
  5
765
100
AcDbEntity
  8
DEFAULT_2
100
AcDbLine
 62
8
  6
CONTINUOUS
 10
62.5070332109
 20
36.2542627989
 11
62.5092225716
 21
36.2538325188
  0
LINE
  5
766
100
AcDbEntity
  8
0
100
AcDbLine
 62
9
  6
CONTINUOUS
 10
39.3721305532
 20
53.1770596091
 11
40.5932110329
 21
52.9367353848
  0
LINE
  5
767
100
AcDbEntity
  8
DEFAULT_2
100
AcDbLine
 62
8
  6
CONTINUOUS
 10
33.447740817
 20
55.7822002714
 11
33.4395192822
 21
55.7838190416
  0
LINE
  5
768
100
AcDbEntity
  8
0
100
AcDbLine
 62
9
  6
CONTINUOUS
 10
39.5859524285
 20
53.3827286687
 11
40.7956521231
 21
53.1421026072
  0
LINE
  5
769
100
AcDbEntity
  8
DEFAULT_2
100
AcDbLine
 62
8
  6
CONTINUOUS
 10
64.2508421964
 20
51.0947797534
 11
64.2178882444
 21
51.1013307766
  0
LINE
  5
76A
100
AcDbEntity
  8
DEFAULT_2
100
AcDbLine
 62
8
  6
CONTINUOUS
 10
64.6852975587
 20
53.4069809289
 11
64.7182515106
 21
53.4004299057
  0
LINE
  5
76B
100
AcDbEntity
  8
0
100
AcDbLine
 62
7
  6
CONTINUOUS
 10
96.3392324644
 20
56.1115769765
 11
96.325657373
 21
56.1142765646
  0
LINE
  5
76C
100
AcDbEntity
  8
DEFAULT_2
100
AcDbLine
 62
8
  6
CONTINUOUS
 10
45.5088651118
 20
36.9250288759
 11
45.5772768842
 21
36.9113637913
  0
LINE
  5
76D
100
AcDbEntity
  8
0
100
AcDbLine
 62
7
  6
CONTINUOUS
 10
85.1048239923
 20
34.0737466574
 11
85.1234195319
 21
34.0699944219
  0
LINE
  5
76E
100
AcDbEntity
  8
0
100
AcDbLine
 62
9
  6
CONTINUOUS
 10
96.3822155522
 20
56.101805479
 11
96.2938942745
 21
56.1196928972
  0
LINE
  5
76F
100
AcDbEntity
  8
DEFAULT_2
100
AcDbLine
 62
8
  6
CONTINUOUS
 10
45.6079273926
 20
36.7929463736
 11
45.54291643
 21
36.8061487999
  0
LINE
  5
770
100
AcDbEntity
  8
0
100
AcDbLine
 62
9
  6
CONTINUOUS
 10
38.1289325839
 20
53.4300399399
 11
39.3721305532
 21
53.1770596091
  0
LINE
  5
771
100
AcDbEntity
  8
0
100
AcDbLine
 62
7
  6
CONTINUOUS
 10
37.7230146958
 20
34.0566963025
 11
37.7302699268
 21
34.055219351
  0
LINE
  5
772
100
AcDbEntity
  8
DEFAULT_2
100
AcDbLine
 62
8
  6
CONTINUOUS
 10
62.5316736739
 20
36.3768157288
 11
62.5366537152
 21
36.3757961045
  0
LINE
  5
773
100
AcDbEntity
  8
0
100
AcDbLine
 62
7
  6
CONTINUOUS
 10
96.3528070005
 20
56.1087993694
 11
96.3392324644
 21
56.1115769765
  0
LINE
  5
774
100
AcDbEntity
  8
0
100
AcDbLine
 62
7
  6
CONTINUOUS
 10
37.7218009048
 20
34.0571655599
 11
37.7289525513
 21
34.0556859351
  0
LINE
  5
775
100
AcDbEntity
  8
0
100
AcDbLine
 62
7
  6
CONTINUOUS
 10
96.3663758417
 20
56.1059445527
 11
96.3528070005
 21
56.1087993694
  0
LINE
  5
776
100
AcDbEntity
  8
DEFAULT_2
100
AcDbLine
 62
8
  6
CONTINUOUS
 10
62.5092225716
 20
36.2538325188
 11
62.5114039045
 21
36.2533631258
  0
LINE
  5
777
100
AcDbEntity
  8
DEFAULT_2
100
AcDbLine
 62
8
  6
CONTINUOUS
 10
34.8297917199
 20
55.6779486867
 11
34.7782867962
 21
55.6890717058
  0
LINE
  5
778
100
AcDbEntity
  8
0
100
AcDbLine
 62
7
  6
CONTINUOUS
 10
96.3799328331
 20
56.1030136607
 11
96.3663758417
 21
56.1059445527
  0
LINE
  5
779
100
AcDbEntity
  8
DEFAULT_2
100
AcDbLine
 62
8
  6
CONTINUOUS
 10
33.4395192822
 20
55.7838190416
 11
33.4313361983
 21
55.7856212234
  0
LINE
  5
77A
100
AcDbEntity
  8
0
100
AcDbLine
 62
9
  6
CONTINUOUS
 10
95.5090973821
 20
56.1181848982
 11
95.4397281638
 21
56.1334719947
  0
LINE
  5
77B
100
AcDbEntity
  8
0
100
AcDbLine
 62
9
  6
CONTINUOUS
 10
85.0973614619
 20
34.0758317909
 11
85.1159004254
 21
34.0717441303
  0
LINE
  5
77C
100
AcDbEntity
  8
0
100
AcDbLine
 62
9
  6
CONTINUOUS
 10
37.728663836
 20
34.0556497805
 11
37.7218009048
 21
34.0571655599
  0
LINE
  5
77D
100
AcDbEntity
  8
0
100
AcDbLine
 62
7
  6
CONTINUOUS
 10
96.3934712133
 20
56.1000080912
 11
96.3799328331
 21
56.1030136607
  0
LINE
  5
77E
100
AcDbEntity
  8
0
100
AcDbLine
 62
7
  6
CONTINUOUS
 10
37.7154570909
 20
34.0583927306
 11
37.7230146958
 21
34.0566963025
  0
LINE
  5
77F
100
AcDbEntity
  8
DEFAULT_2
100
AcDbLine
 62
8
  6
CONTINUOUS
 10
62.5366537152
 20
36.3757961045
 11
62.5416119916
 21
36.3746753171
  0
LINE
  5
780
100
AcDbEntity
  8
0
100
AcDbLine
 62
7
  6
CONTINUOUS
 10
37.7143989282
 20
34.0588494906
 11
37.7218009048
 21
34.0571655599
  0
LINE
  5
781
100
AcDbEntity
  8
DEFAULT_2
100
AcDbLine
 62
8
  6
CONTINUOUS
 10
45.4394829063
 20
36.9408422864
 11
45.5088651118
 21
36.9250288759
  0
LINE
  5
782
100
AcDbEntity
  8
0
100
AcDbLine
 62
7
  6
CONTINUOUS
 10
96.4069839173
 20
56.096929454
 11
96.3934712133
 21
56.1000080912
  0
LINE
  5
783
100
AcDbEntity
  8
DEFAULT_2
100
AcDbLine
 62
8
  6
CONTINUOUS
 10
64.2178882444
 20
51.1013307766
 11
64.1851421225
 21
51.1088011879
  0
LINE
  5
784
100
AcDbEntity
  8
DEFAULT_2
100
AcDbLine
 62
8
  6
CONTINUOUS
 10
64.7182515106
 20
53.4004299057
 11
64.7509976326
 21
53.3929594944
  0
LINE
  5
785
100
AcDbEntity
  8
DEFAULT_2
100
AcDbLine
 62
8
  6
CONTINUOUS
 10
45.54291643
 20
36.8061487999
 11
45.4782467953
 21
36.8210018875
  0
LINE
  5
786
100
AcDbEntity
  8
0
100
AcDbLine
 62
9
  6
CONTINUOUS
 10
37.7143989282
 20
34.0588494906
 11
37.7077251345
 21
34.0603894939
  0
LINE
  5
787
100
AcDbEntity
  8
0
100
AcDbLine
 62
7
  6
CONTINUOUS
 10
96.4204824825
 20
56.0937751164
 11
96.4069839173
 21
56.096929454
  0
LINE
  5
788
100
AcDbEntity
  8
DEFAULT_2
100
AcDbLine
 62
8
  6
CONTINUOUS
 10
62.5114039045
 20
36.2533631258
 11
62.513820519
 21
36.2527951244
  0
LINE
  5
789
100
AcDbEntity
  8
DEFAULT_2
100
AcDbLine
 62
8
  6
CONTINUOUS
 10
34.881042095
 20
55.6657064218
 11
34.8297917199
 21
55.6779486867
  0
LINE
  5
78A
100
AcDbEntity
  8
0
100
AcDbLine
 62
7
  6
CONTINUOUS
 10
96.4340472753
 20
56.0905255642
 11
96.4204824825
 21
56.0937751164
  0
LINE
  5
78B
100
AcDbEntity
  8
0
100
AcDbLine
 62
9
  6
CONTINUOUS
 10
96.4695082238
 20
56.0808399135
 11
96.3822155522
 21
56.101805479
  0
LINE
  5
78C
100
AcDbEntity
  8
DEFAULT_2
100
AcDbLine
 62
8
  6
CONTINUOUS
 10
33.4313361983
 20
55.7856212234
 11
33.423195381
 21
55.787605628
  0
LINE
  5
78D
100
AcDbEntity
  8
0
100
AcDbLine
 62
7
  6
CONTINUOUS
 10
96.4476851498
 20
56.0871776883
 11
96.4340472753
 21
56.0905255642
  0
LINE
  5
78E
100
AcDbEntity
  8
0
100
AcDbLine
 62
7
  6
CONTINUOUS
 10
37.7076690404
 20
34.0603122306
 11
37.7154570909
 21
34.0583927306
  0
LINE
  5
78F
100
AcDbEntity
  8
DEFAULT_2
100
AcDbLine
 62
8
  6
CONTINUOUS
 10
62.5416119916
 20
36.3746753171
 11
62.5468243678
 21
36.3733818717
  0
LINE
  5
790
100
AcDbEntity
  8
0
100
AcDbLine
 62
7
  6
CONTINUOUS
 10
37.7067656508
 20
34.0607511039
 11
37.7143989282
 21
34.0588494906
  0
LINE
  5
791
100
AcDbEntity
  8
0
100
AcDbLine
 62
7
  6
CONTINUOUS
 10
96.4613918859
 20
56.0837310091
 11
96.4476851498
 21
56.0871776883
  0
LINE
  5
792
100
AcDbEntity
  8
0
100
AcDbLine
 62
9
  6
CONTINUOUS
 10
98.4680698853
 20
53.6258803751
 11
98.4673210108
 21
53.6260714119
  0
LINE
  5
793
100
AcDbEntity
  8
DEFAULT_2
100
AcDbLine
 62
8
  6
CONTINUOUS
 10
62.513820519
 20
36.2527951244
 11
62.5162253782
 21
36.2521791609
  0
LINE
  5
794
100
AcDbEntity
  8
DEFAULT_2
100
AcDbLine
 62
8
  6
CONTINUOUS
 10
45.4782467953
 20
36.8210018875
 11
45.4139635659
 21
36.8374927988
  0
LINE
  5
795
100
AcDbEntity
  8
DEFAULT_2
100
AcDbLine
 62
8
  6
CONTINUOUS
 10
45.3705559961
 20
36.9585358793
 11
45.4394829063
 21
36.9408422864
  0
LINE
  5
796
100
AcDbEntity
  8
0
100
AcDbLine
 62
7
  6
CONTINUOUS
 10
96.4751651977
 20
56.0801846171
 11
96.4613918859
 21
56.0837310091
  0
LINE
  5
797
100
AcDbEntity
  8
DEFAULT_2
100
AcDbLine
 62
8
  6
CONTINUOUS
 10
64.1851421225
 20
51.1088011879
 11
64.1526184159
 21
51.1171871567
  0
LINE
  5
798
100
AcDbEntity
  8
DEFAULT_2
100
AcDbLine
 62
8
  6
CONTINUOUS
 10
64.7509976326
 20
53.3929594944
 11
64.7835213391
 21
53.3845735257
  0
LINE
  5
799
100
AcDbEntity
  8
DEFAULT_2
100
AcDbLine
 62
8
  6
CONTINUOUS
 10
34.930560807
 20
55.6527475932
 11
34.881042095
 21
55.6657064218
  0
LINE
  5
79A
100
AcDbEntity
  8
0
100
AcDbLine
 62
7
  6
CONTINUOUS
 10
85.0865421156
 20
34.0785555793
 11
85.1048239923
 21
34.0737466574
  0
LINE
  5
79B
100
AcDbEntity
  8
0
100
AcDbLine
 62
7
  6
CONTINUOUS
 10
96.4890040845
 20
56.076537289
 11
96.4751651977
 21
56.0801846171
  0
LINE
  5
79C
100
AcDbEntity
  8
DEFAULT_2
100
AcDbLine
 62
8
  6
CONTINUOUS
 10
33.423195381
 20
55.787605628
 11
33.4151009314
 21
55.7897709962
  0
LINE
  5
79D
100
AcDbEntity
  8
0
100
AcDbLine
 62
9
  6
CONTINUOUS
 10
95.5779070567
 20
56.0996367864
 11
95.5090973821
 21
56.1181848982
  0
LINE
  5
79E
100
AcDbEntity
  8
0
100
AcDbLine
 62
7
  6
CONTINUOUS
 10
96.5029086168
 20
56.0727875055
 11
96.4890040845
 21
56.076537289
  0
LINE
  5
79F
100
AcDbEntity
  8
DEFAULT_2
100
AcDbLine
 62
8
  6
CONTINUOUS
 10
62.5468243678
 20
36.3733818717
 11
62.5520077552
 21
36.3719766747
  0
LINE
  5
7A0
100
AcDbEntity
  8
0
100
AcDbLine
 62
7
  6
CONTINUOUS
 10
96.5168798858
 20
56.0689334324
 11
96.5029086168
 21
56.0727875055
  0
LINE
  5
7A1
100
AcDbEntity
  8
DEFAULT_2
100
AcDbLine
 62
8
  6
CONTINUOUS
 10
62.5162253782
 20
36.2521791609
 11
62.5186175313
 21
36.2515154912
  0
LINE
  5
7A2
100
AcDbEntity
  8
0
100
AcDbLine
 62
9
  6
CONTINUOUS
 10
96.5555958046
 20
56.0568854458
 11
96.4695082238
 21
56.0808399135
  0
LINE
  5
7A3
100
AcDbEntity
  8
0
100
AcDbLine
 62
7
  6
CONTINUOUS
 10
96.5309197984
 20
56.0649729456
 11
96.5168798858
 21
56.0689334324
  0
LINE
  5
7A4
100
AcDbEntity
  8
0
100
AcDbLine
 62
9
  6
CONTINUOUS
 10
85.079157281
 20
34.0809923233
 11
85.0973614619
 21
34.0758317909
  0
LINE
  5
7A5
100
AcDbEntity
  8
DEFAULT_2
100
AcDbLine
 62
8
  6
CONTINUOUS
 10
45.4139635659
 20
36.8374927988
 11
45.350111819
 21
36.8556086961
  0
LINE
  5
7A6
100
AcDbEntity
  8
DEFAULT_2
100
AcDbLine
 62
8
  6
CONTINUOUS
 10
34.9797938945
 20
55.6387437839
 11
34.930560807
 21
55.6527475932
  0
LINE
  5
7A7
100
AcDbEntity
  8
DEFAULT_2
100
AcDbLine
 62
8
  6
CONTINUOUS
 10
45.3008201834
 20
36.9784914841
 11
45.3705559961
 21
36.9585358793
  0
LINE
  5
7A8
100
AcDbEntity
  8
0
100
AcDbLine
 62
9
  6
CONTINUOUS
 10
37.7077251345
 20
34.0603894939
 11
37.6870919982
 21
34.0663196414
  0
LINE
  5
7A9
100
AcDbEntity
  8
DEFAULT_2
100
AcDbLine
 62
8
  6
CONTINUOUS
 10
64.1526184159
 20
51.1171871567
 11
64.1203428366
 21
51.1264824455
  0
LINE
  5
7AA
100
AcDbEntity
  8
DEFAULT_2
100
AcDbLine
 62
8
  6
CONTINUOUS
 10
64.7835213391
 20
53.3845735257
 11
64.8157969184
 21
53.3752782368
  0
LINE
  5
7AB
100
AcDbEntity
  8
0
100
AcDbLine
 62
7
  6
CONTINUOUS
 10
96.545031005
 20
56.0609036247
 11
96.5309197984
 21
56.0649729456
  0
LINE
  5
7AC
100
AcDbEntity
  8
DEFAULT_2
100
AcDbLine
 62
8
  6
CONTINUOUS
 10
33.4151009314
 20
55.7897709962
 11
33.4070565849
 21
55.7921161978
  0
LINE
  5
7AD
100
AcDbEntity
  8
0
100
AcDbLine
 62
7
  6
CONTINUOUS
 10
37.6989410793
 20
34.0628773258
 11
37.7076690404
 21
34.0603122306
  0
LINE
  5
7AE
100
AcDbEntity
  8
0
100
AcDbLine
 62
7
  6
CONTINUOUS
 10
96.5592167135
 20
56.0567227821
 11
96.545031005
 21
56.0609036247
  0
LINE
  5
7AF
100
AcDbEntity
  8
DEFAULT_2
100
AcDbLine
 62
8
  6
CONTINUOUS
 10
62.5520077552
 20
36.3719766747
 11
62.5573963377
 21
36.3703878534
  0
LINE
  5
7B0
100
AcDbEntity
  8
DEFAULT_2
100
AcDbLine
 62
8
  6
CONTINUOUS
 10
62.5186175313
 20
36.2515154912
 11
62.521167891
 21
36.2507509953
  0
LINE
  5
7B1
100
AcDbEntity
  8
0
100
AcDbLine
 62
7
  6
CONTINUOUS
 10
96.5734806027
 20
56.0524274687
 11
96.5592167135
 21
56.0567227821
  0
LINE
  5
7B2
100
AcDbEntity
  8
0
100
AcDbLine
 62
7
  6
CONTINUOUS
 10
31.9983328366
 20
53.5789798634
 11
32.0004202655
 21
53.5783415819
  0
LINE
  5
7B3
100
AcDbEntity
  8
DEFAULT_2
100
AcDbLine
 62
8
  6
CONTINUOUS
 10
35.0287193241
 20
55.623701092
 11
34.9797938945
 21
55.6387437839
  0
LINE
  5
7B4
100
AcDbEntity
  8
0
100
AcDbLine
 62
7
  6
CONTINUOUS
 10
96.5878251944
 20
56.0480149608
 11
96.5734806027
 21
56.0524274687
  0
LINE
  5
7B5
100
AcDbEntity
  8
DEFAULT_2
100
AcDbLine
 62
8
  6
CONTINUOUS
 10
45.350111819
 20
36.8556086961
 11
45.286736632
 21
36.875336742
  0
LINE
  5
7B6
100
AcDbEntity
  8
0
100
AcDbLine
 62
7
  6
CONTINUOUS
 10
96.6022316344
 20
56.0434892123
 11
96.5878251944
 21
56.0480149608
  0
LINE
  5
7B7
100
AcDbEntity
  8
DEFAULT_2
100
AcDbLine
 62
8
  6
CONTINUOUS
 10
33.4070565849
 20
55.7921161978
 11
33.3990663654
 21
55.7946400435
  0
LINE
  5
7B8
100
AcDbEntity
  8
DEFAULT_2
100
AcDbLine
 62
8
  6
CONTINUOUS
 10
45.2316632229
 20
37.000369527
 11
45.3008201834
 21
36.9784914841
  0
LINE
  5
7B9
100
AcDbEntity
  8
0
100
AcDbLine
 62
9
  6
CONTINUOUS
 10
96.6403265289
 20
56.0300504639
 11
96.5555958046
 21
56.0568854458
  0
LINE
  5
7BA
100
AcDbEntity
  8
0
100
AcDbLine
 62
7
  6
CONTINUOUS
 10
37.6909351103
 20
34.065241762
 11
37.6996580898
 21
34.0624713347
  0
LINE
  5
7BB
100
AcDbEntity
  8
DEFAULT_2
100
AcDbLine
 62
8
  6
CONTINUOUS
 10
64.1203428366
 20
51.1264824455
 11
64.0883556843
 21
51.1366755701
  0
LINE
  5
7BC
100
AcDbEntity
  8
DEFAULT_2
100
AcDbLine
 62
8
  6
CONTINUOUS
 10
64.8157969184
 20
53.3752782368
 11
64.8477840707
 21
53.3650851122
  0
LINE
  5
7BD
100
AcDbEntity
  8
0
100
AcDbLine
 62
9
  6
CONTINUOUS
 10
95.6460399314
 20
56.0778887461
 11
95.5779070567
 21
56.0996367864
  0
LINE
  5
7BE
100
AcDbEntity
  8
DEFAULT_2
100
AcDbLine
 62
8
  6
CONTINUOUS
 10
62.5573963377
 20
36.3703878534
 11
62.5627478589
 21
36.3686782874
  0
LINE
  5
7BF
100
AcDbEntity
  8
0
100
AcDbLine
 62
7
  6
CONTINUOUS
 10
96.6166880932
 20
56.0388523569
 11
96.6022316344
 21
56.0434892123
  0
LINE
  5
7C0
100
AcDbEntity
  8
DEFAULT_2
100
AcDbLine
 62
8
  6
CONTINUOUS
 10
62.521167891
 20
36.2507509953
 11
62.5237013916
 21
36.249932299
  0
LINE
  5
7C1
100
AcDbEntity
  8
0
100
AcDbLine
 62
7
  6
CONTINUOUS
 10
85.0686220868
 20
34.0843976796
 11
85.0865421156
 21
34.0785555793
  0
LINE
  5
7C2
100
AcDbEntity
  8
0
100
AcDbLine
 62
7
  6
CONTINUOUS
 10
96.6311941828
 20
56.0341030219
 11
96.6166880932
 21
56.0388523569
  0
LINE
  5
7C3
100
AcDbEntity
  8
DEFAULT_2
100
AcDbLine
 62
8
  6
CONTINUOUS
 10
35.0755446512
 20
55.6082315608
 11
35.0287193241
 21
55.623701092
  0
LINE
  5
7C4
100
AcDbEntity
  8
0
100
AcDbLine
 62
7
  6
CONTINUOUS
 10
32.0004169338
 20
53.5783425935
 11
31.9810732812
 21
53.5847981918
  0
LINE
  5
7C5
100
AcDbEntity
  8
0
100
AcDbLine
 62
7
  6
CONTINUOUS
 10
96.6457490837
 20
56.029239955
 11
96.6311941828
 21
56.0341030219
  0
LINE
  5
7C6
100
AcDbEntity
  8
0
100
AcDbLine
 62
9
  6
CONTINUOUS
 10
32.0004169021
 20
53.5783425991
 11
32.0147664039
 21
53.5735234281
  0
LINE
  5
7C7
100
AcDbEntity
  8
DEFAULT_2
100
AcDbLine
 62
8
  6
CONTINUOUS
 10
45.286736632
 20
36.875336742
 11
45.2238830823
 21
36.8966640988
  0
LINE
  5
7C8
100
AcDbEntity
  8
0
100
AcDbLine
 62
7
  6
CONTINUOUS
 10
96.6603520336
 20
56.0242618694
 11
96.6457490837
 21
56.029239955
  0
LINE
  5
7C9
100
AcDbEntity
  8
0
100
AcDbLine
 62
7
  6
CONTINUOUS
 10
31.9782442287
 20
53.5858452603
 11
31.9983328366
 21
53.5789798634
  0
LINE
  5
7CA
100
AcDbEntity
  8
0
100
AcDbLine
 62
7
  6
CONTINUOUS
 10
37.6827678452
 20
34.0678548202
 11
37.6914520299
 21
34.0648809504
  0
LINE
  5
7CB
100
AcDbEntity
  8
DEFAULT_2
100
AcDbLine
 62
8
  6
CONTINUOUS
 10
62.5627478589
 20
36.3686782874
 11
62.5682708815
 21
36.3667733018
  0
LINE
  5
7CC
100
AcDbEntity
  8
0
100
AcDbLine
 62
7
  6
CONTINUOUS
 10
37.6745311511
 20
34.0705005289
 11
37.6830682593
 21
34.0675540123
  0
LINE
  5
7CD
100
AcDbEntity
  8
DEFAULT_2
100
AcDbLine
 62
8
  6
CONTINUOUS
 10
62.5237013916
 20
36.249932299
 11
62.5262168828
 21
36.2490597808
  0
LINE
  5
7CE
100
AcDbEntity
  8
DEFAULT_2
100
AcDbLine
 62
8
  6
CONTINUOUS
 10
45.1618733712
 20
37.0246113572
 11
45.2316632229
 21
37.000369527
  0
LINE
  5
7CF
100
AcDbEntity
  8
0
100
AcDbLine
 62
7
  6
CONTINUOUS
 10
96.6750021951
 20
56.019167487
 11
96.6603520336
 21
56.0242618694
  0
LINE
  5
7D0
100
AcDbEntity
  8
0
100
AcDbLine
 62
9
  6
CONTINUOUS
 10
85.0624077582
 20
34.0868284823
 11
85.079157281
 21
34.0809923233
  0
LINE
  5
7D1
100
AcDbEntity
  8
DEFAULT_2
100
AcDbLine
 62
8
  6
CONTINUOUS
 10
64.0883556843
 20
51.1366755701
 11
64.0566672864
 21
51.1477626594
  0
LINE
  5
7D2
100
AcDbEntity
  8
DEFAULT_2
100
AcDbLine
 62
8
  6
CONTINUOUS
 10
64.8477840707
 20
53.3650851122
 11
64.8794724687
 21
53.3539980229
  0
LINE
  5
7D3
100
AcDbEntity
  8
0
100
AcDbLine
 62
9
  6
CONTINUOUS
 10
37.6870919982
 20
34.0663196414
 11
37.6668320519
 21
34.0734207871
  0
LINE
  5
7D4
100
AcDbEntity
  8
DEFAULT_2
100
AcDbLine
 62
8
  6
CONTINUOUS
 10
35.1220443969
 20
55.5918098048
 11
35.0755446512
 21
55.6082315608
  0
LINE
  5
7D5
100
AcDbEntity
  8
0
100
AcDbLine
 62
7
  6
CONTINUOUS
 10
96.689700594
 20
56.0139548514
 11
96.6750021951
 21
56.019167487
  0
LINE
  5
7D6
100
AcDbEntity
  8
0
100
AcDbLine
 62
9
  6
CONTINUOUS
 10
96.7236112527
 20
56.0004269729
 11
96.6403265289
 21
56.0300504639
  0
LINE
  5
7D7
100
AcDbEntity
  8
0
100
AcDbLine
 62
7
  6
CONTINUOUS
 10
96.7044538437
 20
56.0086199521
 11
96.689700594
 21
56.0139548514
  0
LINE
  5
7D8
100
AcDbEntity
  8
DEFAULT_2
100
AcDbLine
 62
8
  6
CONTINUOUS
 10
33.3911342966
 20
55.7973413442
 11
33.3832644022
 21
55.8002189106
  0
LINE
  5
7D9
100
AcDbEntity
  8
DEFAULT_2
100
AcDbLine
 62
8
  6
CONTINUOUS
 10
45.2238830823
 20
36.8966640988
 11
45.1615855186
 21
36.9195806706
  0
LINE
  5
7DA
100
AcDbEntity
  8
0
100
AcDbLine
 62
7
  6
CONTINUOUS
 10
96.7192575107
 20
56.003162699
 11
96.7044538437
 21
56.0086199521
  0
LINE
  5
7DB
100
AcDbEntity
  8
0
100
AcDbLine
 62
9
  6
CONTINUOUS
 10
95.7133359761
 20
56.0530389662
 11
95.6460399314
 21
56.0778887461
  0
LINE
  5
7DC
100
AcDbEntity
  8
DEFAULT_2
100
AcDbLine
 62
8
  6
CONTINUOUS
 10
62.5682708815
 20
36.3667733018
 11
62.5737478838
 21
36.3647397288
  0
LINE
  5
7DD
100
AcDbEntity
  8
DEFAULT_2
100
AcDbLine
 62
8
  6
CONTINUOUS
 10
62.5262168828
 20
36.2490597808
 11
62.5288530396
 21
36.24808017
  0
LINE
  5
7DE
100
AcDbEntity
  8
0
100
AcDbLine
 62
7
  6
CONTINUOUS
 10
37.6660117913
 20
34.0738712706
 11
37.6744536126
 21
34.0707281626
  0
LINE
  5
7DF
100
AcDbEntity
  8
0
100
AcDbLine
 62
7
  6
CONTINUOUS
 10
96.7341080601
 20
55.997582746
 11
96.7192575107
 21
56.003162699
  0
LINE
  5
7E0
100
AcDbEntity
  8
DEFAULT_2
100
AcDbLine
 62
8
  6
CONTINUOUS
 10
35.1681990068
 20
55.5744422534
 11
35.1220443969
 21
55.5918098048
  0
LINE
  5
7E1
100
AcDbEntity
  8
DEFAULT_2
100
AcDbLine
 62
8
  6
CONTINUOUS
 10
45.0927936374
 20
37.0508088057
 11
45.1618733712
 21
37.0246113572
  0
LINE
  5
7E2
100
AcDbEntity
  8
DEFAULT_2
100
AcDbLine
 62
8
  6
CONTINUOUS
 10
64.0566672864
 20
51.1477626594
 11
64.0253028102
 21
51.159735427
  0
LINE
  5
7E3
100
AcDbEntity
  8
DEFAULT_2
100
AcDbLine
 62
8
  6
CONTINUOUS
 10
64.8794724687
 20
53.3539980229
 11
64.9108369449
 21
53.3420252553
  0
LINE
  5
7E4
100
AcDbEntity
  8
0
100
AcDbLine
 62
7
  6
CONTINUOUS
 10
96.7490041241
 20
55.9918789696
 11
96.7341080601
 21
55.997582746
  0
LINE
  5
7E5
100
AcDbEntity
  8
0
100
AcDbLine
 62
7
  6
CONTINUOUS
 10
96.7639456521
 20
55.9860497249
 11
96.7490041241
 21
55.9918789696
  0
LINE
  5
7E6
100
AcDbEntity
  8
DEFAULT_2
100
AcDbLine
 62
8
  6
CONTINUOUS
 10
33.3832644022
 20
55.8002189106
 11
33.3754633761
 21
55.8032705226
  0
LINE
  5
7E7
100
AcDbEntity
  8
0
100
AcDbLine
 62
7
  6
CONTINUOUS
 10
96.7689363784
 20
55.9840784226
 11
96.7639456521
 21
55.9860497249
  0
LINE
  5
7E8
100
AcDbEntity
  8
0
100
AcDbLine
 62
9
  6
CONTINUOUS
 10
96.8053535807
 20
55.9681144732
 11
96.7236112527
 21
56.0004269729
  0
LINE
  5
7E9
100
AcDbEntity
  8
DEFAULT_2
100
AcDbLine
 62
8
  6
CONTINUOUS
 10
45.1615855186
 20
36.9195806706
 11
45.099892115
 21
36.9440661828
  0
LINE
  5
7EA
100
AcDbEntity
  8
DEFAULT_2
100
AcDbLine
 62
8
  6
CONTINUOUS
 10
62.5288530396
 20
36.24808017
 11
62.5314664958
 21
36.2470414643
  0
LINE
  5
7EB
100
AcDbEntity
  8
0
100
AcDbLine
 62
7
  6
CONTINUOUS
 10
31.9810732812
 20
53.5847981918
 11
31.9619800963
 21
53.5923866915
  0
LINE
  5
7EC
100
AcDbEntity
  8
DEFAULT_2
100
AcDbLine
 62
8
  6
CONTINUOUS
 10
62.5737478838
 20
36.3647397288
 11
62.5793610621
 21
36.3625023364
  0
LINE
  5
7ED
100
AcDbEntity
  8
DEFAULT_2
100
AcDbLine
 62
8
  6
CONTINUOUS
 10
35.2120113313
 20
55.5569486707
 11
35.1681990068
 21
55.5744422534
  0
LINE
  5
7EE
100
AcDbEntity
  8
0
100
AcDbLine
 62
7
  6
CONTINUOUS
 10
96.7839396663
 20
55.978078762
 11
96.7689363784
 21
55.9840784226
  0
LINE
  5
7EF
100
AcDbEntity
  8
0
100
AcDbLine
 62
7
  6
CONTINUOUS
 10
37.6570504941
 20
34.0772661177
 11
37.6658525615
 21
34.0737341423
  0
LINE
  5
7F0
100
AcDbEntity
  8
0
100
AcDbLine
 62
9
  6
CONTINUOUS
 10
32.0147664039
 20
53.5735234281
 11
32.0287976776
 21
53.56784386
  0
LINE
  5
7F1
100
AcDbEntity
  8
0
100
AcDbLine
 62
7
  6
CONTINUOUS
 10
96.7989902076
 20
55.9719488261
 11
96.7839396663
 21
55.978078762
  0
LINE
  5
7F2
100
AcDbEntity
  8
0
100
AcDbLine
 62
7
  6
CONTINUOUS
 10
31.9582185518
 20
53.5940281333
 11
31.9782442287
 21
53.5858452603
  0
LINE
  5
7F3
100
AcDbEntity
  8
0
100
AcDbLine
 62
7
  6
CONTINUOUS
 10
37.6481360096
 20
34.0811103318
 11
37.6574516121
 21
34.077297048
  0
LINE
  5
7F4
100
AcDbEntity
  8
DEFAULT_2
100
AcDbLine
 62
8
  6
CONTINUOUS
 10
45.0232983248
 20
37.0794461759
 11
45.0927936374
 21
37.0508088057
  0
LINE
  5
7F5
100
AcDbEntity
  8
DEFAULT_2
100
AcDbLine
 62
8
  6
CONTINUOUS
 10
64.0253028102
 20
51.159735427
 11
63.9943048772
 21
51.1725776788
  0
LINE
  5
7F6
100
AcDbEntity
  8
DEFAULT_2
100
AcDbLine
 62
8
  6
CONTINUOUS
 10
64.9108369449
 20
53.3420252553
 11
64.9418348778
 21
53.3291830036
  0
LINE
  5
7F7
100
AcDbEntity
  8
0
100
AcDbLine
 62
7
  6
CONTINUOUS
 10
96.81408831
 20
55.965686629
 11
96.7989902076
 21
55.9719488261
  0
LINE
  5
7F8
100
AcDbEntity
  8
0
100
AcDbLine
 62
9
  6
CONTINUOUS
 10
37.6668320519
 20
34.0734207871
 11
37.6470116974
 21
34.0816696569
  0
LINE
  5
7F9
100
AcDbEntity
  8
DEFAULT_2
100
AcDbLine
 62
8
  6
CONTINUOUS
 10
33.3754633761
 20
55.8032705226
 11
33.3677327084
 21
55.8064961188
  0
LINE
  5
7FA
100
AcDbEntity
  8
0
100
AcDbLine
 62
9
  6
CONTINUOUS
 10
95.7796483046
 20
56.0252106123
 11
95.7133359761
 21
56.0530389662
  0
LINE
  5
7FB
100
AcDbEntity
  8
DEFAULT_2
100
AcDbLine
 62
8
  6
CONTINUOUS
 10
35.2554730554
 20
55.5386019132
 11
35.2120113313
 21
55.5569486707
  0
LINE
  5
7FC
100
AcDbEntity
  8
0
100
AcDbLine
 62
7
  6
CONTINUOUS
 10
96.8292333291
 20
55.9592905295
 11
96.81408831
 21
55.965686629
  0
LINE
  5
7FD
100
AcDbEntity
  8
DEFAULT_2
100
AcDbLine
 62
8
  6
CONTINUOUS
 10
62.5314664958
 20
36.2470414643
 11
62.5340559266
 21
36.2459441934
  0
LINE
  5
7FE
100
AcDbEntity
  8
DEFAULT_2
100
AcDbLine
 62
8
  6
CONTINUOUS
 10
45.099892115
 20
36.9440661828
 11
45.0388401445
 21
36.9701026201
  0
LINE
  5
7FF
100
AcDbEntity
  8
DEFAULT_2
100
AcDbLine
 62
8
  6
CONTINUOUS
 10
62.5793610621
 20
36.3625023364
 11
62.5849185301
 21
36.3601298974
  0
LINE
  5
800
100
AcDbEntity
  8
0
100
AcDbLine
 62
7
  6
CONTINUOUS
 10
96.8444233848
 20
55.9527593885
 11
96.8292333291
 21
55.9592905295
  0
LINE
  5
801
100
AcDbEntity
  8
0
100
AcDbLine
 62
9
  6
CONTINUOUS
 10
96.8854495719
 20
55.9332268466
 11
96.8053535807
 21
55.9681144732
  0
LINE
  5
802
100
AcDbEntity
  8
0
100
AcDbLine
 62
7
  6
CONTINUOUS
 10
96.8596549582
 20
55.9460927926
 11
96.8444233848
 21
55.9527593885
  0
LINE
  5
803
100
AcDbEntity
  8
0
100
AcDbLine
 62
7
  6
CONTINUOUS
 10
37.6391233096
 20
34.0852795711
 11
37.648786471
 21
34.0810169395
  0
LINE
  5
804
100
AcDbEntity
  8
DEFAULT_2
100
AcDbLine
 62
8
  6
CONTINUOUS
 10
33.3677327084
 20
55.8064961188
 11
33.360076604
 21
55.8098947255
  0
LINE
  5
805
100
AcDbEntity
  8
0
100
AcDbLine
 62
7
  6
CONTINUOUS
 10
96.8698298825
 20
55.9415733131
 11
96.8596549582
 21
55.9460927926
  0
LINE
  5
806
100
AcDbEntity
  8
DEFAULT_2
100
AcDbLine
 62
8
  6
CONTINUOUS
 10
35.2985673284
 20
55.5194084755
 11
35.2554730554
 21
55.5386019132
  0
LINE
  5
807
100
AcDbEntity
  8
DEFAULT_2
100
AcDbLine
 62
8
  6
CONTINUOUS
 10
44.9546508277
 20
37.1100606071
 11
45.0232983248
 21
37.0794461759
  0
LINE
  5
808
100
AcDbEntity
  8
DEFAULT_2
100
AcDbLine
 62
8
  6
CONTINUOUS
 10
63.9943048772
 20
51.1725776788
 11
63.9636800969
 21
51.1862860163
  0
LINE
  5
809
100
AcDbEntity
  8
DEFAULT_2
100
AcDbLine
 62
8
  6
CONTINUOUS
 10
64.9418348778
 20
53.3291830036
 11
64.9724596581
 21
53.3154746661
  0
LINE
  5
80A
100
AcDbEntity
  8
0
100
AcDbLine
 62
7
  6
CONTINUOUS
 10
96.8800188966
 20
55.9369941782
 11
96.8698298825
 21
55.9415733131
  0
LINE
  5
80B
100
AcDbEntity
  8
DEFAULT_2
100
AcDbLine
 62
8
  6
CONTINUOUS
 10
62.5340559266
 20
36.2459441934
 11
62.5367286013
 21
36.2447384351
  0
LINE
  5
80C
100
AcDbEntity
  8
DEFAULT_2
100
AcDbLine
 62
8
  6
CONTINUOUS
 10
62.5849185301
 20
36.3601298974
 11
62.5886985017
 21
36.358424345
  0
LINE
  5
80D
100
AcDbEntity
  8
0
100
AcDbLine
 62
7
  6
CONTINUOUS
 10
96.8902195419
 20
55.9323559799
 11
96.8800188966
 21
55.9369941782
  0
LINE
  5
80E
100
AcDbEntity
  8
DEFAULT_2
100
AcDbLine
 62
8
  6
CONTINUOUS
 10
45.0388401445
 20
36.9701026201
 11
44.9784668804
 21
36.997671967
  0
LINE
  5
80F
100
AcDbEntity
  8
0
100
AcDbLine
 62
7
  6
CONTINUOUS
 10
96.9004289513
 20
55.9276595406
 11
96.8902195419
 21
55.9323559799
  0
LINE
  5
810
100
AcDbEntity
  8
0
100
AcDbLine
 62
7
  6
CONTINUOUS
 10
31.9619800963
 20
53.5923866915
 11
31.9431763186
 21
53.6010880705
  0
LINE
  5
811
100
AcDbEntity
  8
0
100
AcDbLine
 62
7
  6
CONTINUOUS
 10
96.910643852
 20
55.9229059229
 11
96.9004289513
 21
55.9276595406
  0
LINE
  5
812
100
AcDbEntity
  8
DEFAULT_2
100
AcDbLine
 62
8
  6
CONTINUOUS
 10
35.3392033244
 20
55.5003715069
 11
35.2985673284
 21
55.5194084755
  0
LINE
  5
813
100
AcDbEntity
  8
0
100
AcDbLine
 62
9
  6
CONTINUOUS
 10
95.8448869992
 20
55.994506105
 11
95.7796483046
 21
56.0252106123
  0
LINE
  5
814
100
AcDbEntity
  8
0
100
AcDbLine
 62
7
  6
CONTINUOUS
 10
96.9208605774
 20
55.918096436
 11
96.910643852
 21
55.9229059229
  0
LINE
  5
815
100
AcDbEntity
  8
DEFAULT_2
100
AcDbLine
 62
8
  6
CONTINUOUS
 10
33.360076604
 20
55.8098947255
 11
33.3524992681
 21
55.8134653692
  0
LINE
  5
816
100
AcDbEntity
  8
DEFAULT_2
100
AcDbLine
 62
8
  6
CONTINUOUS
 10
62.5886985017
 20
36.358424345
 11
62.5924496655
 21
36.3566563149
  0
LINE
  5
817
100
AcDbEntity
  8
0
100
AcDbLine
 62
7
  6
CONTINUOUS
 10
37.630026622
 20
34.089786726
 11
37.6400281033
 21
34.0850431561
  0
LINE
  5
818
100
AcDbEntity
  8
0
100
AcDbLine
 62
7
  6
CONTINUOUS
 10
96.9310750873
 20
55.9132326373
 11
96.9208605774
 21
55.918096436
  0
LINE
  5
819
100
AcDbEntity
  8
0
100
AcDbLine
 62
9
  6
CONTINUOUS
 10
96.9638079964
 20
55.8958736943
 11
96.8854495719
 21
55.9332268466
  0
LINE
  5
81A
100
AcDbEntity
  8
0
100
AcDbLine
 62
9
  6
CONTINUOUS
 10
32.0287976776
 20
53.56784386
 11
32.0424592363
 21
53.5613247357
  0
LINE
  5
81B
100
AcDbEntity
  8
0
100
AcDbLine
 62
7
  6
CONTINUOUS
 10
31.9382935982
 20
53.6035537419
 11
31.9582185518
 21
53.5940281333
  0
LINE
  5
81C
100
AcDbEntity
  8
DEFAULT_2
100
AcDbLine
 62
8
  6
CONTINUOUS
 10
62.5367286013
 20
36.2447384351
 11
62.5393722643
 21
36.2434702957
  0
LINE
  5
81D
100
AcDbEntity
  8
DEFAULT_2
100
AcDbLine
 62
8
  6
CONTINUOUS
 10
44.885902341
 20
37.1431273239
 11
44.9546508277
 21
37.1100606071
  0
LINE
  5
81E
100
AcDbEntity
  8
0
100
AcDbLine
 62
7
  6
CONTINUOUS
 10
96.9412624064
 20
55.9083263075
 11
96.9310750873
 21
55.9132326373
  0
LINE
  5
81F
100
AcDbEntity
  8
DEFAULT_2
100
AcDbLine
 62
8
  6
CONTINUOUS
 10
63.9636800969
 20
51.1862860163
 11
63.9334529306
 21
51.2008501326
  0
LINE
  5
820
100
AcDbEntity
  8
DEFAULT_2
100
AcDbLine
 62
8
  6
CONTINUOUS
 10
64.9724596581
 20
53.3154746661
 11
65.0026868245
 21
53.3009105497
  0
LINE
  5
821
100
AcDbEntity
  8
0
100
AcDbLine
 62
9
  6
CONTINUOUS
 10
37.6470116974
 20
34.0816696569
 11
37.6276958958
 21
34.0910392153
  0
LINE
  5
822
100
AcDbEntity
  8
0
100
AcDbLine
 62
7
  6
CONTINUOUS
 10
96.9514641387
 20
55.903357196
 11
96.9412624064
 21
55.9083263075
  0
LINE
  5
823
100
AcDbEntity
  8
DEFAULT_2
100
AcDbLine
 62
8
  6
CONTINUOUS
 10
44.9784668804
 20
36.997671967
 11
44.9188095956
 21
37.0267562082
  0
LINE
  5
824
100
AcDbEntity
  8
DEFAULT_2
100
AcDbLine
 62
8
  6
CONTINUOUS
 10
35.3794773077
 20
55.4805806293
 11
35.3392033244
 21
55.5003715069
  0
LINE
  5
825
100
AcDbEntity
  8
DEFAULT_2
100
AcDbLine
 62
8
  6
CONTINUOUS
 10
62.5924496655
 20
36.3566563149
 11
62.5961709887
 21
36.3548262947
  0
LINE
  5
826
100
AcDbEntity
  8
0
100
AcDbLine
 62
7
  6
CONTINUOUS
 10
96.9616918824
 20
55.8983190158
 11
96.9514641387
 21
55.903357196
  0
LINE
  5
827
100
AcDbEntity
  8
0
100
AcDbLine
 62
7
  6
CONTINUOUS
 10
96.9719446323
 20
55.8932115258
 11
96.9616918824
 21
55.8983190158
  0
LINE
  5
828
100
AcDbEntity
  8
DEFAULT_2
100
AcDbLine
 62
8
  6
CONTINUOUS
 10
33.3524992681
 20
55.8134653692
 11
33.3450049056
 21
55.8172070765
  0
LINE
  5
829
100
AcDbEntity
  8
0
100
AcDbLine
 62
7
  6
CONTINUOUS
 10
96.9822213334
 20
55.8880345197
 11
96.9719446323
 21
55.8932115258
  0
LINE
  5
82A
100
AcDbEntity
  8
DEFAULT_2
100
AcDbLine
 62
8
  6
CONTINUOUS
 10
62.5393722643
 20
36.2434702957
 11
62.5419854582
 21
36.2421404765
  0
LINE
  5
82B
100
AcDbEntity
  8
0
100
AcDbLine
 62
7
  6
CONTINUOUS
 10
37.6208611741
 20
34.0946443532
 11
37.6311896939
 21
34.0893874291
  0
LINE
  5
82C
100
AcDbEntity
  8
0
100
AcDbLine
 62
7
  6
CONTINUOUS
 10
96.9925208983
 20
55.8827878193
 11
96.9822213334
 21
55.8880345197
  0
LINE
  5
82D
100
AcDbEntity
  8
DEFAULT_2
100
AcDbLine
 62
8
  6
CONTINUOUS
 10
62.5961709887
 20
36.3548262947
 11
62.5999551938
 21
36.3528857172
  0
LINE
  5
82E
100
AcDbEntity
  8
DEFAULT_2
100
AcDbLine
 62
8
  6
CONTINUOUS
 10
35.4193749931
 20
55.460042158
 11
35.3794773077
 21
55.4805806293
  0
LINE
  5
82F
100
AcDbEntity
  8
0
100
AcDbLine
 62
7
  6
CONTINUOUS
 10
97.0028422236
 20
55.8774712663
 11
96.9925208983
 21
55.8827878193
  0
LINE
  5
830
100
AcDbEntity
  8
DEFAULT_2
100
AcDbLine
 62
8
  6
CONTINUOUS
 10
63.9334529306
 20
51.2008501326
 11
63.9036673098
 21
51.2162488975
  0
LINE
  5
831
100
AcDbEntity
  8
DEFAULT_2
100
AcDbLine
 62
8
  6
CONTINUOUS
 10
65.0026868245
 20
53.3009105497
 11
65.0324724452
 21
53.2855117849
  0
LINE
  5
832
100
AcDbEntity
  8
DEFAULT_2
100
AcDbLine
 62
8
  6
CONTINUOUS
 10
44.8181420652
 20
37.1781748572
 11
44.885902341
 21
37.1431273239
  0
LINE
  5
833
100
AcDbEntity
  8
0
100
AcDbLine
 62
9
  6
CONTINUOUS
 10
97.0403158925
 20
55.856182892
 11
96.9638079964
 21
55.8958736943
  0
LINE
  5
834
100
AcDbEntity
  8
DEFAULT_2
100
AcDbLine
 62
8
  6
CONTINUOUS
 10
44.9188095956
 20
37.0267562082
 11
44.8599055634
 21
37.0573373283
  0
LINE
  5
835
100
AcDbEntity
  8
0
100
AcDbLine
 62
7
  6
CONTINUOUS
 10
97.0131842048
 20
55.8720847154
 11
97.0028422236
 21
55.8774712663
  0
LINE
  5
836
100
AcDbEntity
  8
0
100
AcDbLine
 62
9
  6
CONTINUOUS
 10
95.9089580909
 20
55.9610379782
 11
95.8448869992
 21
55.994506105
  0
LINE
  5
837
100
AcDbEntity
  8
0
100
AcDbLine
 62
7
  6
CONTINUOUS
 10
97.0235457504
 20
55.8666280273
 11
97.0131842048
 21
55.8720847154
  0
LINE
  5
838
100
AcDbEntity
  8
DEFAULT_2
100
AcDbLine
 62
8
  6
CONTINUOUS
 10
33.3450049056
 20
55.8172070765
 11
33.3375999181
 21
55.8211174609
  0
LINE
  5
839
100
AcDbEntity
  8
0
100
AcDbLine
 62
7
  6
CONTINUOUS
 10
31.9431763186
 20
53.6010880705
 11
31.9247001589
 21
53.6108819176
  0
LINE
  5
83A
100
AcDbEntity
  8
0
100
AcDbLine
 62
7
  6
CONTINUOUS
 10
97.0339257932
 20
55.8611010617
 11
97.0235457504
 21
55.8666280273
  0
LINE
  5
83B
100
AcDbEntity
  8
DEFAULT_2
100
AcDbLine
 62
8
  6
CONTINUOUS
 10
62.5999551938
 20
36.3528857172
 11
62.6037058443
 21
36.350881039
  0
LINE
  5
83C
100
AcDbEntity
  8
DEFAULT_2
100
AcDbLine
 62
8
  6
CONTINUOUS
 10
35.4568032004
 20
55.4399061478
 11
35.4193749931
 21
55.460042158
  0
LINE
  5
83D
100
AcDbEntity
  8
0
100
AcDbLine
 62
7
  6
CONTINUOUS
 10
97.0443233014
 20
55.8555036712
 11
97.0339257932
 21
55.8611010617
  0
LINE
  5
83E
100
AcDbEntity
  8
DEFAULT_2
100
AcDbLine
 62
8
  6
CONTINUOUS
 10
62.5419854582
 20
36.2421404765
 11
62.5446562346
 21
36.2407000619
  0
LINE
  5
83F
100
AcDbEntity
  8
0
100
AcDbLine
 62
7
  6
CONTINUOUS
 10
97.054737287
 20
55.8498356955
 11
97.0443233014
 21
55.8555036712
  0
LINE
  5
840
100
AcDbEntity
  8
0
100
AcDbLine
 62
7
  6
CONTINUOUS
 10
97.0651668129
 20
55.8440969564
 11
97.054737287
 21
55.8498356955
  0
LINE
  5
841
100
AcDbEntity
  8
0
100
AcDbLine
 62
7
  6
CONTINUOUS
 10
31.9185165308
 20
53.6144471424
 11
31.9382935982
 21
53.6035537419
  0
LINE
  5
842
100
AcDbEntity
  8
DEFAULT_2
100
AcDbLine
 62
8
  6
CONTINUOUS
 10
44.8599055634
 20
37.0573373283
 11
44.8017377768
 21
37.0894270959
  0
LINE
  5
843
100
AcDbEntity
  8
0
100
AcDbLine
 62
9
  6
CONTINUOUS
 10
37.6133296224
 20
34.0990755938
 11
37.6089479546
 21
34.1014987536
  0
LINE
  5
844
100
AcDbEntity
  8
DEFAULT_2
100
AcDbLine
 62
8
  6
CONTINUOUS
 10
63.9036673098
 20
51.2162488975
 11
63.8743267956
 21
51.2324797259
  0
LINE
  5
845
100
AcDbEntity
  8
DEFAULT_2
100
AcDbLine
 62
8
  6
CONTINUOUS
 10
65.0324724452
 20
53.2855117849
 11
65.0618129595
 21
53.2692809564
  0
LINE
  5
846
100
AcDbEntity
  8
0
100
AcDbLine
 62
9
  6
CONTINUOUS
 10
32.0424592363
 20
53.5613247357
 11
32.0557009494
 21
53.5539899769
  0
LINE
  5
847
100
AcDbEntity
  8
DEFAULT_2
100
AcDbLine
 62
8
  6
CONTINUOUS
 10
44.7505917062
 20
37.2156522515
 11
44.8181420652
 21
37.1781748572
  0
LINE
  5
848
100
AcDbEntity
  8
0
100
AcDbLine
 62
7
  6
CONTINUOUS
 10
97.0756109976
 20
55.8382872534
 11
97.0651668129
 21
55.8440969564
  0
LINE
  5
849
100
AcDbEntity
  8
DEFAULT_2
100
AcDbLine
 62
8
  6
CONTINUOUS
 10
62.6037058443
 20
36.350881039
 11
62.6074218544
 21
36.3488128404
  0
LINE
  5
84A
100
AcDbEntity
  8
DEFAULT_2
100
AcDbLine
 62
8
  6
CONTINUOUS
 10
33.3375999181
 20
55.8211174609
 11
33.3302859382
 21
55.8251957085
  0
LINE
  5
84B
100
AcDbEntity
  8
0
100
AcDbLine
 62
9
  6
CONTINUOUS
 10
37.6276958958
 20
34.0910392153
 11
37.6222853487
 21
34.094061153
  0
LINE
  5
84C
100
AcDbEntity
  8
0
100
AcDbLine
 62
7
  6
CONTINUOUS
 10
37.6133296224
 20
34.0990755938
 11
37.6222853487
 21
34.094061153
  0
LINE
  5
84D
100
AcDbEntity
  8
DEFAULT_2
100
AcDbLine
 62
8
  6
CONTINUOUS
 10
35.4938691425
 20
55.4191111963
 11
35.4568032004
 21
55.4399061478
  0
LINE
  5
84E
100
AcDbEntity
  8
0
100
AcDbLine
 62
9
  6
CONTINUOUS
 10
97.1149060333
 20
55.8142821746
 11
97.0403158925
 21
55.856182892
  0
LINE
  5
84F
100
AcDbEntity
  8
0
100
AcDbLine
 62
7
  6
CONTINUOUS
 10
97.086069019
 20
55.8324063603
 11
97.0756109976
 21
55.8382872534
  0
LINE
  5
850
100
AcDbEntity
  8
0
100
AcDbLine
 62
7
  6
CONTINUOUS
 10
37.6116439
 20
34.0998641965
 11
37.6208611741
 21
34.0946443532
  0
LINE
  5
851
100
AcDbEntity
  8
0
100
AcDbLine
 62
7
  6
CONTINUOUS
 10
97.0965401155
 20
55.8264540223
 11
97.086069019
 21
55.8324063603
  0
LINE
  5
852
100
AcDbEntity
  8
DEFAULT_2
100
AcDbLine
 62
8
  6
CONTINUOUS
 10
62.5446562346
 20
36.2407000619
 11
62.5472912678
 21
36.2391952212
  0
LINE
  5
853
100
AcDbEntity
  8
0
100
AcDbLine
 62
9
  6
CONTINUOUS
 10
95.9717776525
 20
55.9249336966
 11
95.9089580909
 21
55.9610379782
  0
LINE
  5
854
100
AcDbEntity
  8
0
100
AcDbLine
 62
7
  6
CONTINUOUS
 10
97.1070235853
 20
55.8204299548
 11
97.0965401155
 21
55.8264540223
  0
LINE
  5
855
100
AcDbEntity
  8
DEFAULT_2
100
AcDbLine
 62
8
  6
CONTINUOUS
 10
62.6074218544
 20
36.3488128404
 11
62.611182501
 21
36.3466342415
  0
LINE
  5
856
100
AcDbEntity
  8
0
100
AcDbLine
 62
7
  6
CONTINUOUS
 10
97.117518784
 20
55.8143338428
 11
97.1070235853
 21
55.8204299548
  0
LINE
  5
857
100
AcDbEntity
  8
DEFAULT_2
100
AcDbLine
 62
8
  6
CONTINUOUS
 10
35.5305609252
 20
55.3976633227
 11
35.4938691425
 21
55.4191111963
  0
LINE
  5
858
100
AcDbEntity
  8
DEFAULT_2
100
AcDbLine
 62
8
  6
CONTINUOUS
 10
44.8017377768
 20
37.0894270959
 11
44.7443974587
 21
37.1229751361
  0
LINE
  5
859
100
AcDbEntity
  8
0
100
AcDbLine
 62
7
  6
CONTINUOUS
 10
97.1280251207
 20
55.808165341
 11
97.117518784
 21
55.8143338428
  0
LINE
  5
85A
100
AcDbEntity
  8
DEFAULT_2
100
AcDbLine
 62
8
  6
CONTINUOUS
 10
33.3302859382
 20
55.8251957085
 11
33.3230668481
 21
55.8294396965
  0
LINE
  5
85B
100
AcDbEntity
  8
0
100
AcDbLine
 62
9
  6
CONTINUOUS
 10
85.1842479732
 20
34.0711911024
 11
85.1922066259
 21
34.06649545
  0
LINE
  5
85C
100
AcDbEntity
  8
DEFAULT_2
100
AcDbLine
 62
8
  6
CONTINUOUS
 10
63.8743267956
 20
51.2324797259
 11
63.8454549783
 21
51.24953033
  0
LINE
  5
85D
100
AcDbEntity
  8
DEFAULT_2
100
AcDbLine
 62
8
  6
CONTINUOUS
 10
65.0618129595
 20
53.2692809564
 11
65.0906847768
 21
53.2522303524
  0
LINE
  5
85E
100
AcDbEntity
  8
0
100
AcDbLine
 62
7
  6
CONTINUOUS
 10
97.1385420512
 20
55.8019240765
 11
97.1280251207
 21
55.808165341
  0
LINE
  5
85F
100
AcDbEntity
  8
DEFAULT_2
100
AcDbLine
 62
8
  6
CONTINUOUS
 10
44.6841703889
 20
37.2550963111
 11
44.7505917062
 21
37.2156522515
  0
LINE
  5
860
100
AcDbEntity
  8
0
100
AcDbLine
 62
7
  6
CONTINUOUS
 10
37.6043394197
 20
34.1044407382
 11
37.6133296224
 21
34.0990755938
  0
LINE
  5
861
100
AcDbEntity
  8
0
100
AcDbLine
 62
7
  6
CONTINUOUS
 10
97.1490690705
 20
55.7956096512
 11
97.1385420512
 21
55.8019240765
  0
LINE
  5
862
100
AcDbEntity
  8
0
100
AcDbLine
 62
7
  6
CONTINUOUS
 10
31.9247001589
 20
53.6108819176
 11
31.9065897542
 21
53.6217479916
  0
LINE
  5
863
100
AcDbEntity
  8
DEFAULT_2
100
AcDbLine
 62
8
  6
CONTINUOUS
 10
62.611182501
 20
36.3466342415
 11
62.6149047096
 21
36.3443905896
  0
LINE
  5
864
100
AcDbEntity
  8
DEFAULT_2
100
AcDbLine
 62
8
  6
CONTINUOUS
 10
62.5472912678
 20
36.2391952212
 11
62.5498890085
 21
36.2376268375
  0
LINE
  5
865
100
AcDbEntity
  8
0
100
AcDbLine
 62
7
  6
CONTINUOUS
 10
37.602391593
 20
34.1054581342
 11
37.6116439
 21
34.0998641965
  0
LINE
  5
866
100
AcDbEntity
  8
0
100
AcDbLine
 62
9
  6
CONTINUOUS
 10
97.1875168229
 20
55.7703027086
 11
97.1149060333
 21
55.8142821746
  0
LINE
  5
867
100
AcDbEntity
  8
0
100
AcDbLine
 62
7
  6
CONTINUOUS
 10
97.1596057028
 20
55.7892216467
 11
97.1490690705
 21
55.7956096512
  0
LINE
  5
868
100
AcDbEntity
  8
DEFAULT_2
100
AcDbLine
 62
8
  6
CONTINUOUS
 10
35.5648706663
 20
55.3768064121
 11
35.5305609252
 21
55.3976633227
  0
LINE
  5
869
100
AcDbEntity
  8
0
100
AcDbLine
 62
7
  6
CONTINUOUS
 10
97.17015149
 20
55.7827596299
 11
97.1596057028
 21
55.7892216467
  0
LINE
  5
86A
100
AcDbEntity
  8
DEFAULT_2
100
AcDbLine
 62
8
  6
CONTINUOUS
 10
33.3230668481
 20
55.8294396965
 11
33.3159465303
 21
55.8338473019
  0
LINE
  5
86B
100
AcDbEntity
  8
0
100
AcDbLine
 62
7
  6
CONTINUOUS
 10
97.1807059789
 20
55.7762231604
 11
97.17015149
 21
55.7827596299
  0
LINE
  5
86C
100
AcDbEntity
  8
DEFAULT_2
100
AcDbLine
 62
8
  6
CONTINUOUS
 10
44.7443974587
 20
37.1229751361
 11
44.6879200725
 21
37.1579580906
  0
LINE
  5
86D
100
AcDbEntity
  8
0
100
AcDbLine
 62
7
  6
CONTINUOUS
 10
97.1912687058
 20
55.7696117996
 11
97.1807059789
 21
55.7762231604
  0
LINE
  5
86E
100
AcDbEntity
  8
DEFAULT_2
100
AcDbLine
 62
8
  6
CONTINUOUS
 10
62.6149047096
 20
36.3443905896
 11
62.6185873538
 21
36.3420825641
  0
LINE
  5
86F
100
AcDbEntity
  8
0
100
AcDbLine
 62
7
  6
CONTINUOUS
 10
31.9003007645
 20
53.6258803412
 11
31.9185165308
 21
53.6144471424
  0
LINE
  5
870
100
AcDbEntity
  8
0
100
AcDbLine
 62
9
  6
CONTINUOUS
 10
96.0332670968
 20
55.886318441
 11
95.9717776525
 21
55.9249336966
  0
LINE
  5
871
100
AcDbEntity
  8
DEFAULT_2
100
AcDbLine
 62
8
  6
CONTINUOUS
 10
63.8454549783
 20
51.24953033
 11
63.8170960139
 21
51.2673746388
  0
LINE
  5
872
100
AcDbEntity
  8
DEFAULT_2
100
AcDbLine
 62
8
  6
CONTINUOUS
 10
65.0906847768
 20
53.2522303524
 11
65.1190437412
 21
53.2343860435
  0
LINE
  5
873
100
AcDbEntity
  8
DEFAULT_2
100
AcDbLine
 62
8
  6
CONTINUOUS
 10
35.598826057
 20
55.3553777465
 11
35.5648706663
 21
55.3768064121
  0
LINE
  5
874
100
AcDbEntity
  8
0
100
AcDbLine
 62
7
  6
CONTINUOUS
 10
97.2018391813
 20
55.7629251202
 11
97.1912687058
 21
55.7696117996
  0
LINE
  5
875
100
AcDbEntity
  8
DEFAULT_2
100
AcDbLine
 62
8
  6
CONTINUOUS
 10
62.5498890085
 20
36.2376268375
 11
62.5518680147
 21
36.2363731291
  0
LINE
  5
876
100
AcDbEntity
  8
DEFAULT_2
100
AcDbLine
 62
8
  6
CONTINUOUS
 10
44.6183086254
 20
37.2968828953
 11
44.6841703889
 21
37.2550963111
  0
LINE
  5
877
100
AcDbEntity
  8
0
100
AcDbLine
 62
9
  6
CONTINUOUS
 10
37.6089479546
 20
34.1014987536
 11
37.5908293199
 21
34.1130139908
  0
LINE
  5
878
100
AcDbEntity
  8
0
100
AcDbLine
 62
7
  6
CONTINUOUS
 10
37.5953311754
 20
34.1101667936
 11
37.6043394197
 21
34.1044407382
  0
LINE
  5
879
100
AcDbEntity
  8
0
100
AcDbLine
 62
9
  6
CONTINUOUS
 10
32.0557009494
 20
53.5539899769
 11
32.0684742271
 21
53.545866498
  0
LINE
  5
87A
100
AcDbEntity
  8
0
100
AcDbLine
 62
7
  6
CONTINUOUS
 10
97.2124168719
 20
55.7561627191
 11
97.2018391813
 21
55.7629251202
  0
LINE
  5
87B
100
AcDbEntity
  8
0
100
AcDbLine
 62
7
  6
CONTINUOUS
 10
37.5931254981
 20
34.1114352693
 11
37.602391593
 21
34.1054581342
  0
LINE
  5
87C
100
AcDbEntity
  8
0
100
AcDbLine
 62
7
  6
CONTINUOUS
 10
97.2230011817
 20
55.7493242297
 11
97.2124168719
 21
55.7561627191
  0
LINE
  5
87D
100
AcDbEntity
  8
0
100
AcDbLine
 62
9
  6
CONTINUOUS
 10
97.2580963578
 20
55.7243724649
 11
97.1875168229
 21
55.7703027086
  0
LINE
  5
87E
100
AcDbEntity
  8
DEFAULT_2
100
AcDbLine
 62
8
  6
CONTINUOUS
 10
33.3159465303
 20
55.8338473019
 11
33.308928867
 21
55.8384164018
  0
LINE
  5
87F
100
AcDbEntity
  8
DEFAULT_2
100
AcDbLine
 62
8
  6
CONTINUOUS
 10
62.6185873538
 20
36.3420825641
 11
62.622296752
 21
36.3396660815
  0
LINE
  5
880
100
AcDbEntity
  8
0
100
AcDbLine
 62
7
  6
CONTINUOUS
 10
97.2282956462
 20
55.7458763278
 11
97.2230011817
 21
55.7493242297
  0
LINE
  5
881
100
AcDbEntity
  8
DEFAULT_2
100
AcDbLine
 62
8
  6
CONTINUOUS
 10
44.6879200725
 20
37.1579580906
 11
44.6323410818
 21
37.1943526013
  0
LINE
  5
882
100
AcDbEntity
  8
DEFAULT_2
100
AcDbLine
 62
8
  6
CONTINUOUS
 10
35.6324173118
 20
55.3333829517
 11
35.598826057
 21
55.3553777465
  0
LINE
  5
883
100
AcDbEntity
  8
0
100
AcDbLine
 62
7
  6
CONTINUOUS
 10
97.2388890813
 20
55.7389228069
 11
97.2282956462
 21
55.7458763278
  0
LINE
  5
884
100
AcDbEntity
  8
DEFAULT_2
100
AcDbLine
 62
8
  6
CONTINUOUS
 10
62.5518680147
 20
36.2363731291
 11
62.5538231795
 21
36.2350825436
  0
LINE
  5
885
100
AcDbEntity
  8
0
100
AcDbLine
 62
7
  6
CONTINUOUS
 10
97.249481107
 20
55.7318966273
 11
97.2388890813
 21
55.7389228069
  0
LINE
  5
886
100
AcDbEntity
  8
DEFAULT_2
100
AcDbLine
 62
8
  6
CONTINUOUS
 10
63.8170960139
 20
51.2673746388
 11
63.7892511639
 21
51.2860110272
  0
LINE
  5
887
100
AcDbEntity
  8
DEFAULT_2
100
AcDbLine
 62
8
  6
CONTINUOUS
 10
65.1190437412
 20
53.2343860435
 11
65.1468885912
 21
53.2157496551
  0
LINE
  5
888
100
AcDbEntity
  8
0
100
AcDbLine
 62
7
  6
CONTINUOUS
 10
97.2600621395
 20
55.7248036085
 11
97.249481107
 21
55.7318966273
  0
LINE
  5
889
100
AcDbEntity
  8
0
100
AcDbLine
 62
7
  6
CONTINUOUS
 10
31.9065897542
 20
53.6217479916
 11
31.9004504359
 21
53.6258803412
  0
LINE
  5
88A
100
AcDbEntity
  8
0
100
AcDbLine
 62
7
  6
CONTINUOUS
 10
37.5863256146
 20
34.1162610575
 11
37.5953311754
 21
34.1101667936
  0
LINE
  5
88B
100
AcDbEntity
  8
DEFAULT_2
100
AcDbLine
 62
8
  6
CONTINUOUS
 10
44.5537130251
 20
37.3406014668
 11
44.6183086254
 21
37.2968828953
  0
LINE
  5
88C
100
AcDbEntity
  8
DEFAULT_2
100
AcDbLine
 62
8
  6
CONTINUOUS
 10
62.622296752
 20
36.3396660815
 11
62.6259627827
 21
36.3371842852
  0
LINE
  5
88D
100
AcDbEntity
  8
0
100
AcDbLine
 62
7
  6
CONTINUOUS
 10
97.270630519
 20
55.7176444281
 11
97.2600621395
 21
55.7248036085
  0
LINE
  5
88E
100
AcDbEntity
  8
0
100
AcDbLine
 62
9
  6
CONTINUOUS
 10
96.0933415546
 20
55.8453262978
 11
96.0332670968
 21
55.886318441
  0
LINE
  5
88F
100
AcDbEntity
  8
DEFAULT_2
100
AcDbLine
 62
8
  6
CONTINUOUS
 10
33.308928867
 20
55.8384164018
 11
33.3020159872
 21
55.8431457893
  0
LINE
  5
890
100
AcDbEntity
  8
DEFAULT_2
100
AcDbLine
 62
8
  6
CONTINUOUS
 10
35.6792905232
 20
55.301316391
 11
35.6324173118
 21
55.3333829517
  0
LINE
  5
891
100
AcDbEntity
  8
0
100
AcDbLine
 62
7
  6
CONTINUOUS
 10
97.2811868628
 20
55.7104182301
 11
97.270630519
 21
55.7176444281
  0
LINE
  5
892
100
AcDbEntity
  8
DEFAULT_2
100
AcDbLine
 62
8
  6
CONTINUOUS
 10
62.5538231795
 20
36.2350825436
 11
62.5557538112
 21
36.2337555496
  0
LINE
  5
893
100
AcDbEntity
  8
0
100
AcDbLine
 62
7
  6
CONTINUOUS
 10
37.583866265
 20
34.1178046844
 11
37.5931254981
 21
34.1114352693
  0
LINE
  5
894
100
AcDbEntity
  8
DEFAULT_2
100
AcDbLine
 62
8
  6
CONTINUOUS
 10
44.6323410818
 20
37.1943526013
 11
44.5776959503
 21
37.2321353101
  0
LINE
  5
895
100
AcDbEntity
  8
0
100
AcDbLine
 62
7
  6
CONTINUOUS
 10
97.2917313445
 20
55.703124434
 11
97.2811868628
 21
55.7104182301
  0
LINE
  5
896
100
AcDbEntity
  8
0
100
AcDbLine
 62
9
  6
CONTINUOUS
 10
97.3265643453
 20
55.6766415577
 11
97.2580963578
 21
55.7243724649
  0
LINE
  5
897
100
AcDbEntity
  8
0
100
AcDbLine
 62
7
  6
CONTINUOUS
 10
97.3022639849
 20
55.695762547
 11
97.2917313445
 21
55.703124434
  0
LINE
  5
898
100
AcDbEntity
  8
DEFAULT_2
100
AcDbLine
 62
8
  6
CONTINUOUS
 10
62.6259627827
 20
36.3371842852
 11
62.6295842995
 21
36.3346379504
  0
LINE
  5
899
100
AcDbEntity
  8
0
100
AcDbLine
 62
7
  6
CONTINUOUS
 10
97.3127846252
 20
55.6883321868
 11
97.3022639849
 21
55.695762547
  0
LINE
  5
89A
100
AcDbEntity
  8
DEFAULT_2
100
AcDbLine
 62
8
  6
CONTINUOUS
 10
63.7892511639
 20
51.2860110272
 11
63.7619429807
 21
51.3054252771
  0
LINE
  5
89B
100
AcDbEntity
  8
DEFAULT_2
100
AcDbLine
 62
8
  6
CONTINUOUS
 10
65.1468885912
 20
53.2157496551
 11
65.1741967744
 21
53.1963354053
  0
LINE
  5
89C
100
AcDbEntity
  8
0
100
AcDbLine
 62
7
  6
CONTINUOUS
 10
97.3232929024
 20
55.680833106
 11
97.3127846252
 21
55.6883321868
  0
LINE
  5
89D
100
AcDbEntity
  8
0
100
AcDbLine
 62
9
  6
CONTINUOUS
 10
37.577343069
 20
34.1227305629
 11
37.5733993755
 21
34.1255471857
  0
LINE
  5
89E
100
AcDbEntity
  8
DEFAULT_2
100
AcDbLine
 62
8
  6
CONTINUOUS
 10
62.5557538112
 20
36.2337555496
 11
62.5576592184
 21
36.2323926155
  0
LINE
  5
89F
100
AcDbEntity
  8
DEFAULT_2
100
AcDbLine
 62
8
  6
CONTINUOUS
 10
33.3020159872
 20
55.8431457893
 11
33.2952125592
 21
55.8480313314
  0
LINE
  5
8A0
100
AcDbEntity
  8
DEFAULT_2
100
AcDbLine
 62
8
  6
CONTINUOUS
 10
35.7253886979
 20
55.2681458785
 11
35.6792905232
 21
55.301316391
  0
LINE
  5
8A1
100
AcDbEntity
  8
0
100
AcDbLine
 62
7
  6
CONTINUOUS
 10
37.577343069
 20
34.1227305629
 11
37.5863256146
 21
34.1162610575
  0
LINE
  5
8A2
100
AcDbEntity
  8
0
100
AcDbLine
 62
9
  6
CONTINUOUS
 10
37.5908293199
 20
34.1130139908
 11
37.5863256146
 21
34.1162610575
  0
LINE
  5
8A3
100
AcDbEntity
  8
DEFAULT_2
100
AcDbLine
 62
8
  6
CONTINUOUS
 10
44.4900159798
 20
37.386528549
 11
44.5537130251
 21
37.3406014668
  0
LINE
  5
8A4
100
AcDbEntity
  8
0
100
AcDbLine
 62
7
  6
CONTINUOUS
 10
97.3337882256
 20
55.6732652164
 11
97.3232929024
 21
55.680833106
  0
LINE
  5
8A5
100
AcDbEntity
  8
0
100
AcDbLine
 62
9
  6
CONTINUOUS
 10
32.0684742271
 20
53.545866498
 11
32.0807321985
 21
53.5369841079
  0
LINE
  5
8A6
100
AcDbEntity
  8
0
100
AcDbLine
 62
7
  6
CONTINUOUS
 10
97.3442697545
 20
55.6656286125
 11
97.3337882256
 21
55.6732652164
  0
LINE
  5
8A7
100
AcDbEntity
  8
DEFAULT_2
100
AcDbLine
 62
8
  6
CONTINUOUS
 10
44.5776959503
 20
37.2321353101
 11
44.5240201414
 21
37.2712828589
  0
LINE
  5
8A8
100
AcDbEntity
  8
DEFAULT_2
100
AcDbLine
 62
8
  6
CONTINUOUS
 10
62.6295842995
 20
36.3346379504
 11
62.6332152018
 21
36.3319869252
  0
LINE
  5
8A9
100
AcDbEntity
  8
0
100
AcDbLine
 62
7
  6
CONTINUOUS
 10
37.5746371525
 20
34.1245732218
 11
37.583866265
 21
34.1178046844
  0
LINE
  5
8AA
100
AcDbEntity
  8
0
100
AcDbLine
 62
7
  6
CONTINUOUS
 10
97.3547363808
 20
55.6579235948
 11
97.3442697545
 21
55.6656286125
  0
LINE
  5
8AB
100
AcDbEntity
  8
0
100
AcDbLine
 62
9
  6
CONTINUOUS
 10
96.1519397255
 20
55.8020949555
 11
96.0933415546
 21
55.8453262978
  0
LINE
  5
8AC
100
AcDbEntity
  8
0
100
AcDbLine
 62
7
  6
CONTINUOUS
 10
97.3651867126
 20
55.6501506922
 11
97.3547363808
 21
55.6579235948
  0
LINE
  5
8AD
100
AcDbEntity
  8
DEFAULT_2
100
AcDbLine
 62
8
  6
CONTINUOUS
 10
62.5576592184
 20
36.2323926155
 11
62.5595840307
 21
36.2309598203
  0
LINE
  5
8AE
100
AcDbEntity
  8
0
100
AcDbLine
 62
9
  6
CONTINUOUS
 10
97.3928282664
 20
55.6272768672
 11
97.3265643453
 21
55.6766415577
  0
LINE
  5
8AF
100
AcDbEntity
  8
0
100
AcDbLine
 62
7
  6
CONTINUOUS
 10
97.3756185372
 20
55.642311078
 11
97.3651867126
 21
55.6501506922
  0
LINE
  5
8B0
100
AcDbEntity
  8
DEFAULT_2
100
AcDbLine
 62
8
  6
CONTINUOUS
 10
33.2952125592
 20
55.8480313314
 11
33.2885214488
 21
55.8530697374
  0
LINE
  5
8B1
100
AcDbEntity
  8
DEFAULT_2
100
AcDbLine
 62
8
  6
CONTINUOUS
 10
63.7619429807
 20
51.3054252771
 11
63.7352147402
 21
51.3255866073
  0
LINE
  5
8B2
100
AcDbEntity
  8
DEFAULT_2
100
AcDbLine
 62
8
  6
CONTINUOUS
 10
65.1741967744
 20
53.1963354053
 11
65.2009250148
 21
53.1761740751
  0
LINE
  5
8B3
100
AcDbEntity
  8
DEFAULT_2
100
AcDbLine
 62
8
  6
CONTINUOUS
 10
35.7680179016
 20
55.2359535159
 11
35.7253886979
 21
55.2681458785
  0
LINE
  5
8B4
100
AcDbEntity
  8
DEFAULT_2
100
AcDbLine
 62
8
  6
CONTINUOUS
 10
62.6332152018
 20
36.3319869252
 11
62.6367978443
 21
36.329271038
  0
LINE
  5
8B5
100
AcDbEntity
  8
0
100
AcDbLine
 62
7
  6
CONTINUOUS
 10
97.3860331095
 20
55.6344033301
 11
97.3756185372
 21
55.642311078
  0
LINE
  5
8B6
100
AcDbEntity
  8
0
100
AcDbLine
 62
7
  6
CONTINUOUS
 10
37.5684049085
 20
34.1295810777
 11
37.577343069
 21
34.1227305629
  0
LINE
  5
8B7
100
AcDbEntity
  8
DEFAULT_2
100
AcDbLine
 62
8
  6
CONTINUOUS
 10
44.4277153264
 20
37.4343328238
 11
44.4900159798
 21
37.386528549
  0
LINE
  5
8B8
100
AcDbEntity
  8
0
100
AcDbLine
 62
7
  6
CONTINUOUS
 10
97.3964459951
 20
55.626414942
 11
97.3860331095
 21
55.6344033301
  0
LINE
  5
8B9
100
AcDbEntity
  8
DEFAULT_2
100
AcDbLine
 62
8
  6
CONTINUOUS
 10
44.5240201414
 20
37.2712828589
 11
44.4712662175
 21
37.3118359529
  0
LINE
  5
8BA
100
AcDbEntity
  8
DEFAULT_2
100
AcDbLine
 62
8
  6
CONTINUOUS
 10
62.5595840307
 20
36.2309598203
 11
62.5614809908
 21
36.2294903263
  0
LINE
  5
8BB
100
AcDbEntity
  8
0
100
AcDbLine
 62
7
  6
CONTINUOUS
 10
97.4068658853
 20
55.6183382998
 11
97.3964459951
 21
55.626414942
  0
LINE
  5
8BC
100
AcDbEntity
  8
0
100
AcDbLine
 62
7
  6
CONTINUOUS
 10
37.5654616365
 20
34.1317468639
 11
37.5746371525
 21
34.1245732218
  0
LINE
  5
8BD
100
AcDbEntity
  8
0
100
AcDbLine
 62
7
  6
CONTINUOUS
 10
97.4172897226
 20
55.6101747557
 11
97.4068658853
 21
55.6183382998
  0
LINE
  5
8BE
100
AcDbEntity
  8
DEFAULT_2
100
AcDbLine
 62
8
  6
CONTINUOUS
 10
62.6367978443
 20
36.329271038
 11
62.6403310536
 21
36.3264911814
  0
LINE
  5
8BF
100
AcDbEntity
  8
DEFAULT_2
100
AcDbLine
 62
8
  6
CONTINUOUS
 10
33.2885214488
 20
55.8530697374
 11
33.2819455217
 21
55.8582577166
  0
LINE
  5
8C0
100
AcDbEntity
  8
DEFAULT_2
100
AcDbLine
 62
8
  6
CONTINUOUS
 10
35.8099158953
 20
55.2028154672
 11
35.7680179016
 21
55.2359535159
  0
LINE
  5
8C1
100
AcDbEntity
  8
0
100
AcDbLine
 62
7
  6
CONTINUOUS
 10
97.4277191311
 20
55.6019220131
 11
97.4172897226
 21
55.6101747557
  0
LINE
  5
8C2
100
AcDbEntity
  8
0
100
AcDbLine
 62
9
  6
CONTINUOUS
 10
96.2090030429
 20
55.7567666089
 11
96.1519397255
 21
55.8020949555
  0
LINE
  5
8C3
100
AcDbEntity
  8
0
100
AcDbLine
 62
9
  6
CONTINUOUS
 10
97.4568992403
 20
55.5763721456
 11
97.3928282664
 21
55.6272768672
  0
LINE
  5
8C4
100
AcDbEntity
  8
0
100
AcDbLine
 62
9
  6
CONTINUOUS
 10
37.5595331263
 20
34.1368172499
 11
37.5567152478
 21
34.1390572609
  0
LINE
  5
8C5
100
AcDbEntity
  8
DEFAULT_2
100
AcDbLine
 62
8
  6
CONTINUOUS
 10
63.7352147402
 20
51.3255866073
 11
63.7090661796
 21
51.3464942921
  0
LINE
  5
8C6
100
AcDbEntity
  8
DEFAULT_2
100
AcDbLine
 62
8
  6
CONTINUOUS
 10
65.2009250148
 20
53.1761740751
 11
65.2270735754
 21
53.1552663902
  0
LINE
  5
8C7
100
AcDbEntity
  8
0
100
AcDbLine
 62
7
  6
CONTINUOUS
 10
97.4381550809
 20
55.5935782224
 11
97.4277191311
 21
55.6019220131
  0
LINE
  5
8C8
100
AcDbEntity
  8
DEFAULT_2
100
AcDbLine
 62
8
  6
CONTINUOUS
 10
62.5614809908
 20
36.2294903263
 11
62.5633494362
 21
36.22798465
  0
LINE
  5
8C9
100
AcDbEntity
  8
0
100
AcDbLine
 62
9
  6
CONTINUOUS
 10
37.5733993755
 20
34.1255471857
 11
37.5684049085
 21
34.1295810777
  0
LINE
  5
8CA
100
AcDbEntity
  8
0
100
AcDbLine
 62
7
  6
CONTINUOUS
 10
97.4485982836
 20
55.5851416856
 11
97.4381550809
 21
55.5935782224
  0
LINE
  5
8CB
100
AcDbEntity
  8
DEFAULT_2
100
AcDbLine
 62
8
  6
CONTINUOUS
 10
44.4712662175
 20
37.3118359529
 11
44.4195518181
 21
37.3537064057
  0
LINE
  5
8CC
100
AcDbEntity
  8
0
100
AcDbLine
 62
7
  6
CONTINUOUS
 10
37.5595331263
 20
34.1368172499
 11
37.5684049085
 21
34.1295810777
  0
LINE
  5
8CD
100
AcDbEntity
  8
DEFAULT_2
100
AcDbLine
 62
8
  6
CONTINUOUS
 10
44.3666462834
 20
37.4841564126
 11
44.4277153264
 21
37.4343328238
  0
LINE
  5
8CE
100
AcDbEntity
  8
DEFAULT_2
100
AcDbLine
 62
8
  6
CONTINUOUS
 10
62.6403310536
 20
36.3264911814
 11
62.6438569108
 21
36.323612293
  0
LINE
  5
8CF
100
AcDbEntity
  8
0
100
AcDbLine
 62
7
  6
CONTINUOUS
 10
97.4590492127
 20
55.5766108478
 11
97.4485982836
 21
55.5851416856
  0
LINE
  5
8D0
100
AcDbEntity
  8
0
100
AcDbLine
 62
9
  6
CONTINUOUS
 10
32.0807321985
 20
53.5369841079
 11
32.0924298835
 21
53.5273754
  0
LINE
  5
8D1
100
AcDbEntity
  8
0
100
AcDbLine
 62
7
  6
CONTINUOUS
 10
97.4695081273
 20
55.5679842861
 11
97.4590492127
 21
55.5766108478
  0
LINE
  5
8D2
100
AcDbEntity
  8
DEFAULT_2
100
AcDbLine
 62
8
  6
CONTINUOUS
 10
33.2819455217
 20
55.8582577166
 11
33.2754876435
 21
55.8635919784
  0
LINE
  5
8D3
100
AcDbEntity
  8
DEFAULT_2
100
AcDbLine
 62
8
  6
CONTINUOUS
 10
35.8486481598
 20
55.1707886708
 11
35.8099158953
 21
55.2028154672
  0
LINE
  5
8D4
100
AcDbEntity
  8
0
100
AcDbLine
 62
7
  6
CONTINUOUS
 10
97.4799750983
 20
55.5592606958
 11
97.4695081273
 21
55.5679842861
  0
LINE
  5
8D5
100
AcDbEntity
  8
0
100
AcDbLine
 62
7
  6
CONTINUOUS
 10
37.5563634589
 20
34.1393306737
 11
37.5654616365
 21
34.1317468639
  0
LINE
  5
8D6
100
AcDbEntity
  8
DEFAULT_2
100
AcDbLine
 62
8
  6
CONTINUOUS
 10
62.5633494362
 20
36.22798465
 11
62.5651887044
 21
36.2264433077
  0
LINE
  5
8D7
100
AcDbEntity
  8
0
100
AcDbLine
 62
7
  6
CONTINUOUS
 10
97.4904500362
 20
55.550438873
 11
97.4799750983
 21
55.5592606958
  0
LINE
  5
8D8
100
AcDbEntity
  8
0
100
AcDbLine
 62
9
  6
CONTINUOUS
 10
97.5187955046
 20
55.5240185707
 11
97.4568992403
 21
55.5763721456
  0
LINE
  5
8D9
100
AcDbEntity
  8
DEFAULT_2
100
AcDbLine
 62
8
  6
CONTINUOUS
 10
63.7090661796
 20
51.3464942921
 11
63.6835186435
 21
51.3681322496
  0
LINE
  5
8DA
100
AcDbEntity
  8
DEFAULT_2
100
AcDbLine
 62
8
  6
CONTINUOUS
 10
65.2270735754
 20
53.1552663902
 11
65.2526211116
 21
53.1336284328
  0
LINE
  5
8DB
100
AcDbEntity
  8
DEFAULT_2
100
AcDbLine
 62
8
  6
CONTINUOUS
 10
62.6438569108
 20
36.323612293
 11
62.6473297892
 21
36.3206696628
  0
LINE
  5
8DC
100
AcDbEntity
  8
0
100
AcDbLine
 62
7
  6
CONTINUOUS
 10
97.5009327199
 20
55.5415176964
 11
97.4904500362
 21
55.550438873
  0
LINE
  5
8DD
100
AcDbEntity
  8
DEFAULT_2
100
AcDbLine
 62
8
  6
CONTINUOUS
 10
44.4195518181
 20
37.3537064057
 11
44.3689085111
 21
37.3968658614
  0
LINE
  5
8DE
100
AcDbEntity
  8
0
100
AcDbLine
 62
9
  6
CONTINUOUS
 10
96.2644909037
 20
55.709470511
 11
96.2090030429
 21
55.7567666089
  0
LINE
  5
8DF
100
AcDbEntity
  8
0
100
AcDbLine
 62
7
  6
CONTINUOUS
 10
97.5114228263
 20
55.5324961058
 11
97.5009327199
 21
55.5415176964
  0
LINE
  5
8E0
100
AcDbEntity
  8
DEFAULT_2
100
AcDbLine
 62
8
  6
CONTINUOUS
 10
35.8866963447
 20
55.1379526623
 11
35.8486481598
 21
55.1707886708
  0
LINE
  5
8E1
100
AcDbEntity
  8
DEFAULT_2
100
AcDbLine
 62
8
  6
CONTINUOUS
 10
33.2754876435
 20
55.8635919784
 11
33.2691485127
 21
55.8690712133
  0
LINE
  5
8E2
100
AcDbEntity
  8
DEFAULT_2
100
AcDbLine
 62
8
  6
CONTINUOUS
 10
44.3070932758
 20
37.5357825771
 11
44.3666462834
 21
37.4841564126
  0
LINE
  5
8E3
100
AcDbEntity
  8
0
100
AcDbLine
 62
7
  6
CONTINUOUS
 10
37.5507493345
 20
34.1444433782
 11
37.5595331263
 21
34.1368172499
  0
LINE
  5
8E4
100
AcDbEntity
  8
0
100
AcDbLine
 62
7
  6
CONTINUOUS
 10
97.52191996
 20
55.5233730803
 11
97.5114228263
 21
55.5324961058
  0
LINE
  5
8E5
100
AcDbEntity
  8
DEFAULT_2
100
AcDbLine
 62
8
  6
CONTINUOUS
 10
62.5651887044
 20
36.2264433077
 11
62.5670332411
 21
36.2248356364
  0
LINE
  5
8E6
100
AcDbEntity
  8
0
100
AcDbLine
 62
7
  6
CONTINUOUS
 10
97.5324236816
 20
55.5141476147
 11
97.52191996
 21
55.5233730803
  0
LINE
  5
8E7
100
AcDbEntity
  8
DEFAULT_2
100
AcDbLine
 62
8
  6
CONTINUOUS
 10
62.6473297892
 20
36.3206696628
 11
62.6507485905
 21
36.3176642131
  0
LINE
  5
8E8
100
AcDbEntity
  8
0
100
AcDbLine
 62
7
  6
CONTINUOUS
 10
97.5429335363
 20
55.5048186961
 11
97.5324236816
 21
55.5141476147
  0
LINE
  5
8E9
100
AcDbEntity
  8
0
100
AcDbLine
 62
7
  6
CONTINUOUS
 10
37.547367861
 20
34.1473276299
 11
37.5563634589
 21
34.1393306737
  0
LINE
  5
8EA
100
AcDbEntity
  8
DEFAULT_2
100
AcDbLine
 62
8
  6
CONTINUOUS
 10
44.3689085111
 20
37.3968658614
 11
44.3193678641
 21
37.4412859641
  0
LINE
  5
8EB
100
AcDbEntity
  8
DEFAULT_2
100
AcDbLine
 62
8
  6
CONTINUOUS
 10
63.6835186435
 20
51.3681322496
 11
63.6586134646
 21
51.3904654481
  0
LINE
  5
8EC
100
AcDbEntity
  8
DEFAULT_2
100
AcDbLine
 62
8
  6
CONTINUOUS
 10
65.2526211116
 20
53.1336284328
 11
65.2775262905
 21
53.1112952343
  0
LINE
  5
8ED
100
AcDbEntity
  8
0
100
AcDbLine
 62
7
  6
CONTINUOUS
 10
97.5534490792
 20
55.4953852799
 11
97.5429335363
 21
55.5048186961
  0
LINE
  5
8EE
100
AcDbEntity
  8
0
100
AcDbLine
 62
9
  6
CONTINUOUS
 10
97.5785282437
 20
55.4703158891
 11
97.5187955046
 21
55.5240185707
  0
LINE
  5
8EF
100
AcDbEntity
  8
DEFAULT_2
100
AcDbLine
 62
8
  6
CONTINUOUS
 10
35.9218761907
 20
55.1063121429
 11
35.8866963447
 21
55.1379526623
  0
LINE
  5
8F0
100
AcDbEntity
  8
DEFAULT_2
100
AcDbLine
 62
8
  6
CONTINUOUS
 10
33.2691485127
 20
55.8690712133
 11
33.2629333362
 21
55.8746905595
  0
LINE
  5
8F1
100
AcDbEntity
  8
DEFAULT_2
100
AcDbLine
 62
8
  6
CONTINUOUS
 10
62.5670332411
 20
36.2248356364
 11
62.5688459457
 21
36.2231921859
  0
LINE
  5
8F2
100
AcDbEntity
  8
0
100
AcDbLine
 62
7
  6
CONTINUOUS
 10
97.5639698989
 20
55.485846267
 11
97.5534490792
 21
55.4953852799
  0
LINE
  5
8F3
100
AcDbEntity
  8
0
100
AcDbLine
 62
9
  6
CONTINUOUS
 10
37.5567152478
 20
34.1390572609
 11
37.5408316189
 21
34.1534999373
  0
LINE
  5
8F4
100
AcDbEntity
  8
0
100
AcDbLine
 62
9
  6
CONTINUOUS
 10
96.3183162922
 20
55.6603878507
 11
96.2644909037
 21
55.709470511
  0
LINE
  5
8F5
100
AcDbEntity
  8
DEFAULT_2
100
AcDbLine
 62
8
  6
CONTINUOUS
 10
62.6507485905
 20
36.3176642131
 11
62.6541440554
 21
36.3145673132
  0
LINE
  5
8F6
100
AcDbEntity
  8
0
100
AcDbLine
 62
7
  6
CONTINUOUS
 10
97.5744956386
 20
55.4762004818
 11
97.5639698989
 21
55.485846267
  0
LINE
  5
8F7
100
AcDbEntity
  8
DEFAULT_2
100
AcDbLine
 62
8
  6
CONTINUOUS
 10
44.2490959112
 20
37.5891777636
 11
44.3070932758
 21
37.5357825771
  0
LINE
  5
8F8
100
AcDbEntity
  8
0
100
AcDbLine
 62
7
  6
CONTINUOUS
 10
37.5420767824
 20
34.1524616252
 11
37.5507493345
 21
34.1444433782
  0
LINE
  5
8F9
100
AcDbEntity
  8
0
100
AcDbLine
 62
7
  6
CONTINUOUS
 10
97.5850260127
 20
55.4664466522
 11
97.5744956386
 21
55.4762004818
  0
LINE
  5
8FA
100
AcDbEntity
  8
0
100
AcDbLine
 62
9
  6
CONTINUOUS
 10
32.0924298835
 20
53.5273754
 11
32.1035243579
 21
53.5170756331
  0
LINE
  5
8FB
100
AcDbEntity
  8
DEFAULT_2
100
AcDbLine
 62
8
  6
CONTINUOUS
 10
35.956420552
 20
55.0739786137
 11
35.9218761907
 21
55.1063121429
  0
LINE
  5
8FC
100
AcDbEntity
  8
0
100
AcDbLine
 62
7
  6
CONTINUOUS
 10
97.59556082
 20
55.4565833926
 11
97.5850260127
 21
55.4664466522
  0
LINE
  5
8FD
100
AcDbEntity
  8
DEFAULT_2
100
AcDbLine
 62
8
  6
CONTINUOUS
 10
62.5688459457
 20
36.2231921859
 11
62.5706260057
 21
36.2215137168
  0
LINE
  5
8FE
100
AcDbEntity
  8
DEFAULT_2
100
AcDbLine
 62
8
  6
CONTINUOUS
 10
44.3193678641
 20
37.4412859641
 11
44.2709614449
 21
37.4869383579
  0
LINE
  5
8FF
100
AcDbEntity
  8
DEFAULT_2
100
AcDbLine
 62
8
  6
CONTINUOUS
 10
33.2629333362
 20
55.8746905595
 11
33.2568450697
 21
55.8804470373
  0
LINE
  5
900
100
AcDbEntity
  8
DEFAULT_2
100
AcDbLine
 62
8
  6
CONTINUOUS
 10
62.6541440554
 20
36.3145673132
 11
62.6574819539
 21
36.3114085983
  0
LINE
  5
901
100
AcDbEntity
  8
0
100
AcDbLine
 62
7
  6
CONTINUOUS
 10
97.6060999524
 20
55.4466091895
 11
97.59556082
 21
55.4565833926
  0
LINE
  5
902
100
AcDbEntity
  8
0
100
AcDbLine
 62
7
  6
CONTINUOUS
 10
37.538496986
 20
34.1557427143
 11
37.547367861
 21
34.1473276299
  0
LINE
  5
903
100
AcDbEntity
  8
DEFAULT_2
100
AcDbLine
 62
8
  6
CONTINUOUS
 10
63.6586134646
 20
51.3904654481
 11
63.6343495997
 21
51.4134938004
  0
LINE
  5
904
100
AcDbEntity
  8
DEFAULT_2
100
AcDbLine
 62
8
  6
CONTINUOUS
 10
65.2775262905
 20
53.1112952343
 11
65.3017901553
 21
53.088266882
  0
LINE
  5
905
100
AcDbEntity
  8
0
100
AcDbLine
 62
9
  6
CONTINUOUS
 10
97.6361289412
 20
55.4153431547
 11
97.5785282437
 21
55.4703158891
  0
LINE
  5
906
100
AcDbEntity
  8
0
100
AcDbLine
 62
7
  6
CONTINUOUS
 10
97.6166433975
 20
55.4365223924
 11
97.6060999524
 21
55.4466091895
  0
LINE
  5
907
100
AcDbEntity
  8
0
100
AcDbLine
 62
9
  6
CONTINUOUS
 10
37.5408316189
 20
34.1534999373
 11
37.538496986
 21
34.1557427143
  0
LINE
  5
908
100
AcDbEntity
  8
0
100
AcDbLine
 62
7
  6
CONTINUOUS
 10
97.6271912363
 20
55.4263212089
 11
97.6166433975
 21
55.4365223924
  0
LINE
  5
909
100
AcDbEntity
  8
DEFAULT_2
100
AcDbLine
 62
8
  6
CONTINUOUS
 10
35.9884087771
 20
55.0428567848
 11
35.956420552
 21
55.0739786137
  0
LINE
  5
90A
100
AcDbEntity
  8
0
100
AcDbLine
 62
9
  6
CONTINUOUS
 10
96.3703950006
 20
55.6097162027
 11
96.3183162922
 21
55.6603878507
  0
LINE
  5
90B
100
AcDbEntity
  8
DEFAULT_2
100
AcDbLine
 62
8
  6
CONTINUOUS
 10
44.1927196059
 20
37.6442817567
 11
44.2490959112
 21
37.5891777636
  0
LINE
  5
90C
100
AcDbEntity
  8
0
100
AcDbLine
 62
7
  6
CONTINUOUS
 10
97.6377436339
 20
55.4160037064
 11
97.6271912363
 21
55.4263212089
  0
LINE
  5
90D
100
AcDbEntity
  8
DEFAULT_2
100
AcDbLine
 62
8
  6
CONTINUOUS
 10
62.5706260057
 20
36.2215137168
 11
62.5723726085
 21
36.2198009896
  0
LINE
  5
90E
100
AcDbEntity
  8
DEFAULT_2
100
AcDbLine
 62
8
  6
CONTINUOUS
 10
62.6574819539
 20
36.3114085983
 11
62.660760955
 21
36.3081893389
  0
LINE
  5
90F
100
AcDbEntity
  8
0
100
AcDbLine
 62
7
  6
CONTINUOUS
 10
37.5335353739
 20
34.1608766227
 11
37.5420767824
 21
34.1524616252
  0
LINE
  5
910
100
AcDbEntity
  8
DEFAULT_2
100
AcDbLine
 62
8
  6
CONTINUOUS
 10
33.2568450697
 20
55.8804470373
 11
33.2508866688
 21
55.8863376665
  0
LINE
  5
911
100
AcDbEntity
  8
0
100
AcDbLine
 62
7
  6
CONTINUOUS
 10
97.6483008235
 20
55.4055678205
 11
97.6377436339
 21
55.4160037064
  0
LINE
  5
912
100
AcDbEntity
  8
DEFAULT_2
100
AcDbLine
 62
8
  6
CONTINUOUS
 10
44.2709614449
 20
37.4869383579
 11
44.2237208212
 21
37.5337946866
  0
LINE
  5
913
100
AcDbEntity
  8
0
100
AcDbLine
 62
7
  6
CONTINUOUS
 10
97.6588630828
 20
55.3950113728
 11
97.6483008235
 21
55.4055678205
  0
LINE
  5
914
100
AcDbEntity
  8
DEFAULT_2
100
AcDbLine
 62
8
  6
CONTINUOUS
 10
62.9314582252
 20
35.8607152982
 11
62.4596375326
 21
36.3325359908
  0
LINE
  5
915
100
AcDbEntity
  8
DEFAULT_2
100
AcDbLine
 62
8
  6
CONTINUOUS
 10
63.0198465728
 20
35.9491036459
 11
62.6551283977
 21
36.313821821
  0
LINE
  5
916
100
AcDbEntity
  8
DEFAULT_2
100
AcDbLine
 62
8
  6
CONTINUOUS
 10
63.6343495997
 20
51.4134938004
 11
63.610747016
 21
51.4371994423
  0
LINE
  5
917
100
AcDbEntity
  8
DEFAULT_2
100
AcDbLine
 62
8
  6
CONTINUOUS
 10
65.3017901553
 20
53.088266882
 11
65.3253927391
 21
53.06456124
  0
LINE
  5
918
100
AcDbEntity
  8
DEFAULT_2
100
AcDbLine
 62
8
  6
CONTINUOUS
 10
36.0198064127
 20
55.0111416579
 11
35.9884087771
 21
55.0428567848
  0
LINE
  5
919
100
AcDbEntity
  8
0
100
AcDbLine
 62
7
  6
CONTINUOUS
 10
97.6694307015
 20
55.3843320969
 11
97.6588630828
 21
55.3950113728
  0
LINE
  5
91A
100
AcDbEntity
  8
0
100
AcDbLine
 62
9
  6
CONTINUOUS
 10
97.6915634559
 20
55.3592421813
 11
97.6361289412
 21
55.4153431547
  0
LINE
  5
91B
100
AcDbEntity
  8
0
100
AcDbLine
 62
7
  6
CONTINUOUS
 10
37.5297751303
 20
34.1645784361
 11
37.538496986
 21
34.1557427143
  0
LINE
  5
91C
100
AcDbEntity
  8
0
100
AcDbLine
 62
7
  6
CONTINUOUS
 10
97.6800039404
 20
55.3735276771
 11
97.6694307015
 21
55.3843320969
  0
LINE
  5
91D
100
AcDbEntity
  8
0
100
AcDbLine
 62
7
  6
CONTINUOUS
 10
97.6905829807
 20
55.3625957985
 11
97.6800039404
 21
55.3735276771
  0
LINE
  5
91E
100
AcDbEntity
  8
DEFAULT_2
100
AcDbLine
 62
8
  6
CONTINUOUS
 10
33.2508866688
 20
55.8863376665
 11
33.2450610889
 21
55.8923594674
  0
LINE
  5
91F
100
AcDbEntity
  8
0
100
AcDbLine
 62
9
  6
CONTINUOUS
 10
96.4207428158
 20
55.5575586695
 11
96.3703950006
 21
55.6097162027
  0
LINE
  5
920
100
AcDbEntity
  8
DEFAULT_2
100
AcDbLine
 62
8
  6
CONTINUOUS
 10
44.1381571114
 20
37.7008930171
 11
44.1927196059
 21
37.6442817567
  0
LINE
  5
921
100
AcDbEntity
  8
DEFAULT_2
100
AcDbLine
 62
8
  6
CONTINUOUS
 10
44.2237208212
 20
37.5337946866
 11
44.1775797758
 21
37.5819298691
  0
LINE
  5
922
100
AcDbEntity
  8
DEFAULT_2
100
AcDbLine
 62
8
  6
CONTINUOUS
 10
36.0419528004
 20
54.9880379396
 11
36.0198064127
 21
55.0111416579
  0
LINE
  5
923
100
AcDbEntity
  8
0
100
AcDbLine
 62
7
  6
CONTINUOUS
 10
97.7011678621
 20
55.3515342126
 11
97.6905829807
 21
55.3625957985
  0
LINE
  5
924
100
AcDbEntity
  8
0
100
AcDbLine
 62
9
  6
CONTINUOUS
 10
32.1035243579
 20
53.5170756331
 11
32.1139749111
 21
53.5061226016
  0
LINE
  5
925
100
AcDbEntity
  8
0
100
AcDbLine
 62
7
  6
CONTINUOUS
 10
37.525146874
 20
34.1696909468
 11
37.5335353739
 21
34.1608766227
  0
LINE
  5
926
100
AcDbEntity
  8
0
100
AcDbLine
 62
7
  6
CONTINUOUS
 10
97.7117584104
 20
55.3403408185
 11
97.7011678621
 21
55.3515342126
  0
LINE
  5
927
100
AcDbEntity
  8
DEFAULT_2
100
AcDbLine
 62
8
  6
CONTINUOUS
 10
63.610747016
 20
51.4371994423
 11
63.5878441358
 21
51.4615437652
  0
LINE
  5
928
100
AcDbEntity
  8
DEFAULT_2
100
AcDbLine
 62
8
  6
CONTINUOUS
 10
65.3253927391
 20
53.06456124
 11
65.3482956193
 21
53.0402169172
  0
LINE
  5
929
100
AcDbEntity
  8
0
100
AcDbLine
 62
7
  6
CONTINUOUS
 10
97.7223547127
 20
55.3290131612
 11
97.7117584104
 21
55.3403408185
  0
LINE
  5
92A
100
AcDbEntity
  8
0
100
AcDbLine
 62
9
  6
CONTINUOUS
 10
37.5297751303
 20
34.1645784361
 11
37.5258005474
 21
34.168827879
  0
LINE
  5
92B
100
AcDbEntity
  8
DEFAULT_2
100
AcDbLine
 62
8
  6
CONTINUOUS
 10
36.0637886804
 20
54.9646349737
 11
36.0419528004
 21
54.9880379396
  0
LINE
  5
92C
100
AcDbEntity
  8
0
100
AcDbLine
 62
9
  6
CONTINUOUS
 10
97.7448212081
 20
55.3021386831
 11
97.6915634559
 21
55.3592421813
  0
LINE
  5
92D
100
AcDbEntity
  8
DEFAULT_2
100
AcDbLine
 62
8
  6
CONTINUOUS
 10
33.2450610889
 20
55.8923594674
 11
33.2393709381
 21
55.898509854
  0
LINE
  5
92E
100
AcDbEntity
  8
0
100
AcDbLine
 62
7
  6
CONTINUOUS
 10
97.732951595
 20
55.317554417
 11
97.7223547127
 21
55.3290131612
  0
LINE
  5
92F
100
AcDbEntity
  8
0
100
AcDbLine
 62
7
  6
CONTINUOUS
 10
37.5212248292
 20
34.1738385942
 11
37.5297751303
 21
34.1645784361
  0
LINE
  5
930
100
AcDbEntity
  8
0
100
AcDbLine
 62
7
  6
CONTINUOUS
 10
97.74353653
 20
55.3059760228
 11
97.732951595
 21
55.317554417
  0
LINE
  5
931
100
AcDbEntity
  8
DEFAULT_2
100
AcDbLine
 62
8
  6
CONTINUOUS
 10
44.1775797758
 20
37.5819298691
 11
44.1326682287
 21
37.631214092
  0
LINE
  5
932
100
AcDbEntity
  8
0
100
AcDbLine
 62
9
  6
CONTINUOUS
 10
96.469368351
 20
55.5040229328
 11
96.4207428158
 21
55.5575586695
  0
LINE
  5
933
100
AcDbEntity
  8
DEFAULT_2
100
AcDbLine
 62
8
  6
CONTINUOUS
 10
44.0853051277
 20
37.7591043657
 11
44.1381571114
 21
37.7008930171
  0
LINE
  5
934
100
AcDbEntity
  8
DEFAULT_2
100
AcDbLine
 62
8
  6
CONTINUOUS
 10
36.0853093813
 20
54.9409379296
 11
36.0637886804
 21
54.9646349737
  0
LINE
  5
935
100
AcDbEntity
  8
0
100
AcDbLine
 62
7
  6
CONTINUOUS
 10
97.7541021845
 20
55.2942841902
 11
97.74353653
 21
55.3059760228
  0
LINE
  5
936
100
AcDbEntity
  8
0
100
AcDbLine
 62
7
  6
CONTINUOUS
 10
97.7593773434
 20
55.2883956841
 11
97.7541021845
 21
55.2942841902
  0
LINE
  5
937
100
AcDbEntity
  8
0
100
AcDbLine
 62
7
  6
CONTINUOUS
 10
37.5169325866
 20
34.1789073023
 11
37.525146874
 21
34.1696909468
  0
LINE
  5
938
100
AcDbEntity
  8
DEFAULT_2
100
AcDbLine
 62
8
  6
CONTINUOUS
 10
63.5878441358
 20
51.4615437652
 11
63.5656397965
 21
51.4865268748
  0
LINE
  5
939
100
AcDbEntity
  8
DEFAULT_2
100
AcDbLine
 62
8
  6
CONTINUOUS
 10
65.3482956193
 20
53.0402169172
 11
65.3704999586
 21
53.0152338076
  0
LINE
  5
93A
100
AcDbEntity
  8
0
100
AcDbLine
 62
7
  6
CONTINUOUS
 10
97.7699106172
 20
55.2765343322
 11
97.7593773434
 21
55.2883956841
  0
LINE
  5
93B
100
AcDbEntity
  8
DEFAULT_2
100
AcDbLine
 62
8
  6
CONTINUOUS
 10
33.2393709381
 20
55.898509854
 11
33.2338194191
 21
55.9047856536
  0
LINE
  5
93C
100
AcDbEntity
  8
DEFAULT_2
100
AcDbLine
 62
8
  6
CONTINUOUS
 10
36.1065102315
 20
54.9169519766
 11
36.0853093813
 21
54.9409379296
  0
LINE
  5
93D
100
AcDbEntity
  8
0
100
AcDbLine
 62
9
  6
CONTINUOUS
 10
97.7958855847
 20
55.2441703491
 11
97.7448212081
 21
55.3021386831
  0
LINE
  5
93E
100
AcDbEntity
  8
0
100
AcDbLine
 62
7
  6
CONTINUOUS
 10
97.7804206784
 20
55.2645596402
 11
97.7699106172
 21
55.2765343322
  0
LINE
  5
93F
100
AcDbEntity
  8
0
100
AcDbLine
 62
9
  6
CONTINUOUS
 10
37.5258005474
 20
34.168827879
 11
37.5116712974
 21
34.1849908488
  0
LINE
  5
940
100
AcDbEntity
  8
0
100
AcDbLine
 62
7
  6
CONTINUOUS
 10
97.7909078878
 20
55.2524694185
 11
97.7804206784
 21
55.2645596402
  0
LINE
  5
941
100
AcDbEntity
  8
DEFAULT_2
100
AcDbLine
 62
8
  6
CONTINUOUS
 10
44.1326682287
 20
37.631214092
 11
44.0890131969
 21
37.6816157917
  0
LINE
  5
942
100
AcDbEntity
  8
0
100
AcDbLine
 62
7
  6
CONTINUOUS
 10
37.5128699672
 20
34.1835253178
 11
37.5212248292
 21
34.1738385942
  0
LINE
  5
943
100
AcDbEntity
  8
DEFAULT_2
100
AcDbLine
 62
8
  6
CONTINUOUS
 10
36.1273865595
 20
54.8926822843
 11
36.1065102315
 21
54.9169519766
  0
LINE
  5
944
100
AcDbEntity
  8
0
100
AcDbLine
 62
7
  6
CONTINUOUS
 10
97.8013729894
 20
55.2402609442
 11
97.7909078878
 21
55.2524694185
  0
LINE
  5
945
100
AcDbEntity
  8
0
100
AcDbLine
 62
9
  6
CONTINUOUS
 10
96.5162868928
 20
55.4492133353
 11
96.469368351
 21
55.5040229328
  0
LINE
  5
946
100
AcDbEntity
  8
DEFAULT_2
100
AcDbLine
 62
8
  6
CONTINUOUS
 10
44.0344927687
 20
37.8185241857
 11
44.0853051277
 21
37.7591043657
  0
LINE
  5
947
100
AcDbEntity
  8
0
100
AcDbLine
 62
7
  6
CONTINUOUS
 10
97.8118169142
 20
55.2279311631
 11
97.8013729894
 21
55.2402609442
  0
LINE
  5
948
100
AcDbEntity
  8
DEFAULT_2
100
AcDbLine
 62
8
  6
CONTINUOUS
 10
33.2338194191
 20
55.9047856536
 11
33.2284093709
 21
55.9111840727
  0
LINE
  5
949
100
AcDbEntity
  8
0
100
AcDbLine
 62
9
  6
CONTINUOUS
 10
32.1139749111
 20
53.5061226016
 11
32.1237431953
 21
53.4945564972
  0
LINE
  5
94A
100
AcDbEntity
  8
DEFAULT_2
100
AcDbLine
 62
8
  6
CONTINUOUS
 10
63.5656397965
 20
51.4865268748
 11
63.5441524193
 21
51.5121292246
  0
LINE
  5
94B
100
AcDbEntity
  8
DEFAULT_2
100
AcDbLine
 62
8
  6
CONTINUOUS
 10
65.3704999586
 20
53.0152338076
 11
65.3919873358
 21
52.9896314578
  0
LINE
  5
94C
100
AcDbEntity
  8
DEFAULT_2
100
AcDbLine
 62
8
  6
CONTINUOUS
 10
36.1479336938
 20
54.868134022
 11
36.1273865595
 21
54.8926822843
  0
LINE
  5
94D
100
AcDbEntity
  8
0
100
AcDbLine
 62
7
  6
CONTINUOUS
 10
97.8222406136
 20
55.215476871
 11
97.8118169142
 21
55.2279311631
  0
LINE
  5
94E
100
AcDbEntity
  8
0
100
AcDbLine
 62
7
  6
CONTINUOUS
 10
37.5089147126
 20
34.1885271373
 11
37.5169325866
 21
34.1789073023
  0
LINE
  5
94F
100
AcDbEntity
  8
0
100
AcDbLine
 62
9
  6
CONTINUOUS
 10
97.8447414465
 20
55.1854774028
 11
97.7958855847
 21
55.2441703491
  0
LINE
  5
950
100
AcDbEntity
  8
0
100
AcDbLine
 62
7
  6
CONTINUOUS
 10
97.8326449291
 20
55.2028948651
 11
97.8222406136
 21
55.215476871
  0
LINE
  5
951
100
AcDbEntity
  8
DEFAULT_2
100
AcDbLine
 62
8
  6
CONTINUOUS
 10
44.0890131969
 20
37.6816157917
 11
44.0466416976
 21
37.7331034048
  0
LINE
  5
952
100
AcDbEntity
  8
0
100
AcDbLine
 62
7
  6
CONTINUOUS
 10
97.8430304934
 20
55.1901820659
 11
97.8326449291
 21
55.2028948651
  0
LINE
  5
953
100
AcDbEntity
  8
DEFAULT_2
100
AcDbLine
 62
8
  6
CONTINUOUS
 10
36.1681714482
 20
54.8432820167
 11
36.1479336938
 21
54.868134022
  0
LINE
  5
954
100
AcDbEntity
  8
DEFAULT_2
100
AcDbLine
 62
8
  6
CONTINUOUS
 10
33.2284093709
 20
55.9111840727
 11
33.2231436327
 21
55.9177023178
  0
LINE
  5
955
100
AcDbEntity
  8
0
100
AcDbLine
 62
9
  6
CONTINUOUS
 10
96.5615266845
 20
55.3932137262
 11
96.5162868928
 21
55.4492133353
  0
LINE
  5
956
100
AcDbEntity
  8
0
100
AcDbLine
 62
7
  6
CONTINUOUS
 10
97.8533976619
 20
55.1773356135
 11
97.8430304934
 21
55.1901820659
  0
LINE
  5
957
100
AcDbEntity
  8
DEFAULT_2
100
AcDbLine
 62
8
  6
CONTINUOUS
 10
43.9854625016
 20
37.8794227107
 11
44.0344927687
 21
37.8185241857
  0
LINE
  5
958
100
AcDbEntity
  8
0
100
AcDbLine
 62
7
  6
CONTINUOUS
 10
37.5047350198
 20
34.1936396876
 11
37.5128699672
 21
34.1835253178
  0
LINE
  5
959
100
AcDbEntity
  8
0
100
AcDbLine
 62
7
  6
CONTINUOUS
 10
97.8637464677
 20
55.1643529378
 11
97.8533976619
 21
55.1773356135
  0
LINE
  5
95A
100
AcDbEntity
  8
DEFAULT_2
100
AcDbLine
 62
8
  6
CONTINUOUS
 10
36.1880713424
 20
54.8181601271
 11
36.1681714482
 21
54.8432820167
  0
LINE
  5
95B
100
AcDbEntity
  8
DEFAULT_2
100
AcDbLine
 62
8
  6
CONTINUOUS
 10
63.5441524193
 20
51.5121292246
 11
63.5234166968
 21
51.5383094838
  0
LINE
  5
95C
100
AcDbEntity
  8
DEFAULT_2
100
AcDbLine
 62
8
  6
CONTINUOUS
 10
65.3919873358
 20
52.9896314578
 11
65.4127230582
 21
52.9634511985
  0
LINE
  5
95D
100
AcDbEntity
  8
0
100
AcDbLine
 62
7
  6
CONTINUOUS
 10
97.8740766003
 20
55.1512318056
 11
97.8637464677
 21
55.1643529378
  0
LINE
  5
95E
100
AcDbEntity
  8
0
100
AcDbLine
 62
9
  6
CONTINUOUS
 10
97.8914493945
 20
55.1261083852
 11
97.8447414465
 21
55.1854774028
  0
LINE
  5
95F
100
AcDbEntity
  8
DEFAULT_2
100
AcDbLine
 62
8
  6
CONTINUOUS
 10
44.0466416976
 20
37.7331034048
 11
44.005580748
 21
37.7856453677
  0
LINE
  5
960
100
AcDbEntity
  8
0
100
AcDbLine
 62
9
  6
CONTINUOUS
 10
37.5116712974
 20
34.1849908488
 11
37.4984901775
 21
34.2019358728
  0
LINE
  5
961
100
AcDbEntity
  8
0
100
AcDbLine
 62
7
  6
CONTINUOUS
 10
37.5011160125
 20
34.1985508808
 11
37.5089147126
 21
34.1885271373
  0
LINE
  5
962
100
AcDbEntity
  8
0
100
AcDbLine
 62
7
  6
CONTINUOUS
 10
97.8843874035
 20
55.1379703449
 11
97.8740766003
 21
55.1512318056
  0
LINE
  5
963
100
AcDbEntity
  8
DEFAULT_2
100
AcDbLine
 62
8
  6
CONTINUOUS
 10
33.2231436327
 20
55.9177023178
 11
33.2180250438
 21
55.9243375953
  0
LINE
  5
964
100
AcDbEntity
  8
DEFAULT_2
100
AcDbLine
 62
8
  6
CONTINUOUS
 10
36.2076301891
 20
54.7927725308
 11
36.1880713424
 21
54.8181601271
  0
LINE
  5
965
100
AcDbEntity
  8
0
100
AcDbLine
 62
7
  6
CONTINUOUS
 10
97.8946778908
 20
55.1245670486
 11
97.8843874035
 21
55.1379703449
  0
LINE
  5
966
100
AcDbEntity
  8
0
100
AcDbLine
 62
9
  6
CONTINUOUS
 10
96.6050633243
 20
55.3361729081
 11
96.5615266845
 21
55.3932137262
  0
LINE
  5
967
100
AcDbEntity
  8
0
100
AcDbLine
 62
7
  6
CONTINUOUS
 10
97.9049467754
 20
55.1110207582
 11
97.8946778908
 21
55.1245670486
  0
LINE
  5
968
100
AcDbEntity
  8
DEFAULT_2
100
AcDbLine
 62
8
  6
CONTINUOUS
 10
43.9386635724
 20
37.9411940085
 11
43.9854625016
 21
37.8794227107
  0
LINE
  5
969
100
AcDbEntity
  8
DEFAULT_2
100
AcDbLine
 62
8
  6
CONTINUOUS
 10
36.2268448012
 20
54.7671234055
 11
36.2076301891
 21
54.7927725308
  0
LINE
  5
96A
100
AcDbEntity
  8
0
100
AcDbLine
 62
7
  6
CONTINUOUS
 10
37.4968451199
 20
34.2041815526
 11
37.5047350198
 21
34.1936396876
  0
LINE
  5
96B
100
AcDbEntity
  8
0
100
AcDbLine
 62
7
  6
CONTINUOUS
 10
97.9151925128
 20
55.0973306291
 11
97.9049467754
 21
55.1110207582
  0
LINE
  5
96C
100
AcDbEntity
  8
DEFAULT_2
100
AcDbLine
 62
8
  6
CONTINUOUS
 10
63.5234166968
 20
51.5383094838
 11
63.503431876
 21
51.5650673539
  0
LINE
  5
96D
100
AcDbEntity
  8
DEFAULT_2
100
AcDbLine
 62
8
  6
CONTINUOUS
 10
65.4127230582
 20
52.9634511985
 11
65.432707879
 21
52.9366933284
  0
LINE
  5
96E
100
AcDbEntity
  8
0
100
AcDbLine
 62
9
  6
CONTINUOUS
 10
32.1237431953
 20
53.4945564972
 11
32.1327933662
 21
53.4824197611
  0
LINE
  5
96F
100
AcDbEntity
  8
0
100
AcDbLine
 62
9
  6
CONTINUOUS
 10
97.9360464424
 20
55.0661374389
 11
97.8914493945
 21
55.1261083852
  0
LINE
  5
970
100
AcDbEntity
  8
DEFAULT_2
100
AcDbLine
 62
8
  6
CONTINUOUS
 10
44.005580748
 20
37.7856453677
 11
43.9658573651
 21
37.839210117
  0
LINE
  5
971
100
AcDbEntity
  8
0
100
AcDbLine
 62
7
  6
CONTINUOUS
 10
97.9254133526
 20
55.0834960799
 11
97.9151925128
 21
55.0973306291
  0
LINE
  5
972
100
AcDbEntity
  8
DEFAULT_2
100
AcDbLine
 62
8
  6
CONTINUOUS
 10
33.2180250438
 20
55.9243375953
 11
33.2130572777
 21
55.9310859311
  0
LINE
  5
973
100
AcDbEntity
  8
0
100
AcDbLine
 62
9
  6
CONTINUOUS
 10
37.4984901775
 20
34.2019358728
 11
37.4968451199
 21
34.2041815526
  0
LINE
  5
974
100
AcDbEntity
  8
0
100
AcDbLine
 62
7
  6
CONTINUOUS
 10
97.9356073979
 20
55.069516728
 11
97.9254133526
 21
55.0834960799
  0
LINE
  5
975
100
AcDbEntity
  8
DEFAULT_2
100
AcDbLine
 62
8
  6
CONTINUOUS
 10
36.2457119915
 20
54.741216929
 11
36.2268448012
 21
54.7671234055
  0
LINE
  5
976
100
AcDbEntity
  8
0
100
AcDbLine
 62
7
  6
CONTINUOUS
 10
37.4935597997
 20
34.2089778485
 11
37.5011160125
 21
34.1985508808
  0
LINE
  5
977
100
AcDbEntity
  8
0
100
AcDbLine
 62
9
  6
CONTINUOUS
 10
96.6468911882
 20
55.278220545
 11
96.6050633243
 21
55.3361729081
  0
LINE
  5
978
100
AcDbEntity
  8
0
100
AcDbLine
 62
7
  6
CONTINUOUS
 10
97.9457726683
 20
55.0553923137
 11
97.9356073979
 21
55.069516728
  0
LINE
  5
979
100
AcDbEntity
  8
DEFAULT_2
100
AcDbLine
 62
8
  6
CONTINUOUS
 10
43.8936982866
 20
38.0043124686
 11
43.9386635724
 21
37.9411940085
  0
LINE
  5
97A
100
AcDbEntity
  8
0
100
AcDbLine
 62
7
  6
CONTINUOUS
 10
97.9559071636
 20
55.0411226168
 11
97.9457726683
 21
55.0553923137
  0
LINE
  5
97B
100
AcDbEntity
  8
DEFAULT_2
100
AcDbLine
 62
8
  6
CONTINUOUS
 10
36.2642285726
 20
54.7150572789
 11
36.2457119915
 21
54.741216929
  0
LINE
  5
97C
100
AcDbEntity
  8
DEFAULT_2
100
AcDbLine
 62
8
  6
CONTINUOUS
 10
63.503431876
 20
51.5650673539
 11
63.4842146691
 21
51.5923817255
  0
LINE
  5
97D
100
AcDbEntity
  8
DEFAULT_2
100
AcDbLine
 62
8
  6
CONTINUOUS
 10
65.432707879
 20
52.9366933284
 11
65.451925086
 21
52.9093789568
  0
LINE
  5
97E
100
AcDbEntity
  8
DEFAULT_2
100
AcDbLine
 62
8
  6
CONTINUOUS
 10
43.9658573651
 20
37.839210117
 11
43.9273972696
 21
37.8939120834
  0
LINE
  5
97F
100
AcDbEntity
  8
0
100
AcDbLine
 62
9
  6
CONTINUOUS
 10
97.9785985952
 20
55.0055963254
 11
97.9360464424
 21
55.0661374389
  0
LINE
  5
980
100
AcDbEntity
  8
DEFAULT_2
100
AcDbLine
 62
8
  6
CONTINUOUS
 10
33.2130572777
 20
55.9310859311
 11
33.2082429449
 21
55.9379446544
  0
LINE
  5
981
100
AcDbEntity
  8
0
100
AcDbLine
 62
7
  6
CONTINUOUS
 10
97.9660089256
 20
55.0267073708
 11
97.9559071636
 21
55.0411226168
  0
LINE
  5
982
100
AcDbEntity
  8
0
100
AcDbLine
 62
7
  6
CONTINUOUS
 10
37.4892259821
 20
34.2151494938
 11
37.4968451199
 21
34.2041815526
  0
LINE
  5
983
100
AcDbEntity
  8
0
100
AcDbLine
 62
7
  6
CONTINUOUS
 10
97.9760760929
 20
55.0121461773
 11
97.9660089256
 21
55.0267073708
  0
LINE
  5
984
100
AcDbEntity
  8
DEFAULT_2
100
AcDbLine
 62
8
  6
CONTINUOUS
 10
36.282413293
 20
54.6886164202
 11
36.2642285726
 21
54.7150572789
  0
LINE
  5
985
100
AcDbEntity
  8
0
100
AcDbLine
 62
9
  6
CONTINUOUS
 10
96.6869938956
 20
55.2195059951
 11
96.6468911882
 21
55.278220545
  0
LINE
  5
986
100
AcDbEntity
  8
0
100
AcDbLine
 62
7
  6
CONTINUOUS
 10
97.9861069474
 20
54.9974384293
 11
97.9760760929
 21
55.0121461773
  0
LINE
  5
987
100
AcDbEntity
  8
0
100
AcDbLine
 62
7
  6
CONTINUOUS
 10
37.4862698895
 20
34.2198061921
 11
37.4935597997
 21
34.2089778485
  0
LINE
  5
988
100
AcDbEntity
  8
0
100
AcDbLine
 62
7
  6
CONTINUOUS
 10
97.9960999458
 20
54.9825832462
 11
97.9861069474
 21
54.9974384293
  0
LINE
  5
989
100
AcDbEntity
  8
DEFAULT_2
100
AcDbLine
 62
8
  6
CONTINUOUS
 10
43.8510733335
 20
38.0680026649
 11
43.8936982866
 21
38.0043124686
  0
LINE
  5
98A
100
AcDbEntity
  8
DEFAULT_2
100
AcDbLine
 62
8
  6
CONTINUOUS
 10
33.2082429449
 20
55.9379446544
 11
33.203585535
 21
55.9449099479
  0
LINE
  5
98B
100
AcDbEntity
  8
DEFAULT_2
100
AcDbLine
 62
8
  6
CONTINUOUS
 10
36.3002395773
 20
54.6619318808
 11
36.282413293
 21
54.6886164202
  0
LINE
  5
98C
100
AcDbEntity
  8
DEFAULT_2
100
AcDbLine
 62
8
  6
CONTINUOUS
 10
43.9273972696
 20
37.8939120834
 11
43.890333319
 21
37.9495709262
  0
LINE
  5
98D
100
AcDbEntity
  8
0
100
AcDbLine
 62
9
  6
CONTINUOUS
 10
98.0191770281
 20
54.9444989962
 11
97.9785985952
 21
55.0055963254
  0
LINE
  5
98E
100
AcDbEntity
  8
0
100
AcDbLine
 62
7
  6
CONTINUOUS
 10
98.0060537354
 20
54.967579432
 11
97.9960999458
 21
54.9825832462
  0
LINE
  5
98F
100
AcDbEntity
  8
DEFAULT_2
100
AcDbLine
 62
8
  6
CONTINUOUS
 10
63.4842146691
 20
51.5923817255
 11
63.4657954077
 21
51.6202095411
  0
LINE
  5
990
100
AcDbEntity
  8
DEFAULT_2
100
AcDbLine
 62
8
  6
CONTINUOUS
 10
65.451925086
 20
52.9093789568
 11
65.4703443474
 21
52.8815511413
  0
LINE
  5
991
100
AcDbEntity
  8
0
100
AcDbLine
 62
9
  6
CONTINUOUS
 10
37.4892259821
 20
34.2151494938
 11
37.4863003887
 21
34.2196074138
  0
LINE
  5
992
100
AcDbEntity
  8
0
100
AcDbLine
 62
9
  6
CONTINUOUS
 10
32.1327933662
 20
53.4824197611
 11
32.1410922146
 21
53.4697569285
  0
LINE
  5
993
100
AcDbEntity
  8
0
100
AcDbLine
 62
7
  6
CONTINUOUS
 10
98.0159671472
 20
54.9524254613
 11
98.0060537354
 21
54.967579432
  0
LINE
  5
994
100
AcDbEntity
  8
DEFAULT_2
100
AcDbLine
 62
8
  6
CONTINUOUS
 10
36.3177036533
 20
54.6350095864
 11
36.3002395773
 21
54.6619318808
  0
LINE
  5
995
100
AcDbEntity
  8
0
100
AcDbLine
 62
9
  6
CONTINUOUS
 10
96.725356051
 20
55.1601839601
 11
96.6869938956
 21
55.2195059951
  0
LINE
  5
996
100
AcDbEntity
  8
0
100
AcDbLine
 62
7
  6
CONTINUOUS
 10
98.0258391647
 20
54.9371195046
 11
98.0159671472
 21
54.9524254613
  0
LINE
  5
997
100
AcDbEntity
  8
0
100
AcDbLine
 62
7
  6
CONTINUOUS
 10
37.4819038589
 20
34.2265407464
 11
37.4892259821
 21
34.2151494938
  0
LINE
  5
998
100
AcDbEntity
  8
DEFAULT_2
100
AcDbLine
 62
8
  6
CONTINUOUS
 10
33.203585535
 20
55.9449099479
 11
33.1990885375
 21
55.9519779943
  0
LINE
  5
999
100
AcDbEntity
  8
0
100
AcDbLine
 62
7
  6
CONTINUOUS
 10
98.0356688621
 20
54.921659503
 11
98.0258391647
 21
54.9371195046
  0
LINE
  5
99A
100
AcDbEntity
  8
DEFAULT_2
100
AcDbLine
 62
8
  6
CONTINUOUS
 10
43.890333319
 20
37.9495709262
 11
43.8546897609
 21
38.0061469869
  0
LINE
  5
99B
100
AcDbEntity
  8
DEFAULT_2
100
AcDbLine
 62
8
  6
CONTINUOUS
 10
36.3348017485
 20
54.6078554626
 11
36.3177036533
 21
54.6350095864
  0
LINE
  5
99C
100
AcDbEntity
  8
DEFAULT_2
100
AcDbLine
 62
8
  6
CONTINUOUS
 10
43.8103157957
 20
38.1329035571
 11
43.8510733335
 21
38.0680026649
  0
LINE
  5
99D
100
AcDbEntity
  8
0
100
AcDbLine
 62
9
  6
CONTINUOUS
 10
98.0577814731
 20
54.8829633249
 11
98.0191770281
 21
54.9444989962
  0
LINE
  5
99E
100
AcDbEntity
  8
0
100
AcDbLine
 62
7
  6
CONTINUOUS
 10
98.0454553096
 20
54.9060433038
 11
98.0356688621
 21
54.921659503
  0
LINE
  5
99F
100
AcDbEntity
  8
0
100
AcDbLine
 62
7
  6
CONTINUOUS
 10
37.4792705539
 20
34.231032839
 11
37.4862698895
 21
34.2198061921
  0
LINE
  5
9A0
100
AcDbEntity
  8
DEFAULT_2
100
AcDbLine
 62
8
  6
CONTINUOUS
 10
63.4657954077
 20
51.6202095411
 11
63.4481741084
 21
51.6485493861
  0
LINE
  5
9A1
100
AcDbEntity
  8
DEFAULT_2
100
AcDbLine
 62
8
  6
CONTINUOUS
 10
65.4703443474
 20
52.8815511413
 11
65.4879656466
 21
52.8532112963
  0
LINE
  5
9A2
100
AcDbEntity
  8
0
100
AcDbLine
 62
7
  6
CONTINUOUS
 10
98.0551961229
 20
54.8902710089
 11
98.0454553096
 21
54.9060433038
  0
LINE
  5
9A3
100
AcDbEntity
  8
0
100
AcDbLine
 62
9
  6
CONTINUOUS
 10
96.7620271771
 20
55.1003088093
 11
96.725356051
 21
55.1601839601
  0
LINE
  5
9A4
100
AcDbEntity
  8
DEFAULT_2
100
AcDbLine
 62
8
  6
CONTINUOUS
 10
36.3515300907
 20
54.5804754349
 11
36.3348017485
 21
54.6078554626
  0
LINE
  5
9A5
100
AcDbEntity
  8
0
100
AcDbLine
 62
7
  6
CONTINUOUS
 10
98.0648904995
 20
54.8743399716
 11
98.0551961229
 21
54.8902710089
  0
LINE
  5
9A6
100
AcDbEntity
  8
0
100
AcDbLine
 62
9
  6
CONTINUOUS
 10
37.4863003887
 20
34.2196074138
 11
37.4751418829
 21
34.2379475534
  0
LINE
  5
9A7
100
AcDbEntity
  8
DEFAULT_2
100
AcDbLine
 62
8
  6
CONTINUOUS
 10
33.1990885375
 20
55.9519779943
 11
33.1947554418
 21
55.9591449762
  0
LINE
  5
9A8
100
AcDbEntity
  8
0
100
AcDbLine
 62
7
  6
CONTINUOUS
 10
98.0745361361
 20
54.8582498171
 11
98.0648904995
 21
54.8743399716
  0
LINE
  5
9A9
100
AcDbEntity
  8
DEFAULT_2
100
AcDbLine
 62
8
  6
CONTINUOUS
 10
43.8546897609
 20
38.0061469869
 11
43.8204908426
 21
38.0636006068
  0
LINE
  5
9AA
100
AcDbEntity
  8
0
100
AcDbLine
 62
7
  6
CONTINUOUS
 10
37.4749054899
 20
34.2383511193
 11
37.4819038589
 21
34.2265407464
  0
LINE
  5
9AB
100
AcDbEntity
  8
DEFAULT_2
100
AcDbLine
 62
8
  6
CONTINUOUS
 10
36.3678849074
 20
54.552875429
 11
36.3515300907
 21
54.5804754349
  0
LINE
  5
9AC
100
AcDbEntity
  8
0
100
AcDbLine
 62
9
  6
CONTINUOUS
 10
98.0944383718
 20
54.8210695804
 11
98.0577814731
 21
54.8829633249
  0
LINE
  5
9AD
100
AcDbEntity
  8
0
100
AcDbLine
 62
7
  6
CONTINUOUS
 10
98.0841307884
 20
54.8420000744
 11
98.0745361361
 21
54.8582498171
  0
LINE
  5
9AE
100
AcDbEntity
  8
DEFAULT_2
100
AcDbLine
 62
8
  6
CONTINUOUS
 10
43.7719707112
 20
38.1980643168
 11
43.8103157957
 21
38.1329035571
  0
LINE
  5
9AF
100
AcDbEntity
  8
DEFAULT_2
100
AcDbLine
 62
8
  6
CONTINUOUS
 10
63.4481741084
 20
51.6485493861
 11
63.4313656181
 21
51.6773787241
  0
LINE
  5
9B0
100
AcDbEntity
  8
DEFAULT_2
100
AcDbLine
 62
8
  6
CONTINUOUS
 10
65.4879656466
 20
52.8532112963
 11
65.5047741369
 21
52.8243819582
  0
LINE
  5
9B1
100
AcDbEntity
  8
0
100
AcDbLine
 62
7
  6
CONTINUOUS
 10
98.0936730722
 20
54.825588783
 11
98.0841307884
 21
54.8420000744
  0
LINE
  5
9B2
100
AcDbEntity
  8
0
100
AcDbLine
 62
9
  6
CONTINUOUS
 10
96.7970399843
 20
55.0399584087
 11
96.7620271771
 21
55.1003088093
  0
LINE
  5
9B3
100
AcDbEntity
  8
0
100
AcDbLine
 62
7
  6
CONTINUOUS
 10
37.4725864769
 20
34.2426534202
 11
37.4792705539
 21
34.231032839
  0
LINE
  5
9B4
100
AcDbEntity
  8
0
100
AcDbLine
 62
7
  6
CONTINUOUS
 10
98.1031620812
 20
54.8090130485
 11
98.0936730722
 21
54.825588783
  0
LINE
  5
9B5
100
AcDbEntity
  8
0
100
AcDbLine
 62
9
  6
CONTINUOUS
 10
32.1410922146
 20
53.4697569285
 11
32.1486092882
 21
53.4566144652
  0
LINE
  5
9B6
100
AcDbEntity
  8
0
100
AcDbLine
 62
7
  6
CONTINUOUS
 10
98.1125970841
 20
54.7922695083
 11
98.1031620812
 21
54.8090130485
  0
LINE
  5
9B7
100
AcDbEntity
  8
DEFAULT_2
100
AcDbLine
 62
8
  6
CONTINUOUS
 10
43.8204908426
 20
38.0636006068
 11
43.7877608119
 21
38.121892127
  0
LINE
  5
9B8
100
AcDbEntity
  8
0
100
AcDbLine
 62
9
  6
CONTINUOUS
 10
98.1291605467
 20
54.758909775
 11
98.0944383718
 21
54.8210695804
  0
LINE
  5
9B9
100
AcDbEntity
  8
0
100
AcDbLine
 62
7
  6
CONTINUOUS
 10
98.1219772981
 20
54.7753547062
 11
98.1125970841
 21
54.7922695083
  0
LINE
  5
9BA
100
AcDbEntity
  8
DEFAULT_2
100
AcDbLine
 62
8
  6
CONTINUOUS
 10
43.7355086533
 20
38.264297108
 11
43.7719707112
 21
38.1980643168
  0
LINE
  5
9BB
100
AcDbEntity
  8
0
100
AcDbLine
 62
9
  6
CONTINUOUS
 10
96.8304533772
 20
54.9791613999
 11
96.7970399843
 21
55.0399584087
  0
LINE
  5
9BC
100
AcDbEntity
  8
0
100
AcDbLine
 62
7
  6
CONTINUOUS
 10
98.1313020206
 20
54.7582648418
 11
98.1219772981
 21
54.7753547062
  0
LINE
  5
9BD
100
AcDbEntity
  8
DEFAULT_2
100
AcDbLine
 62
8
  6
CONTINUOUS
 10
63.4313656181
 20
51.6773787241
 11
63.4153954967
 21
51.7066538527
  0
LINE
  5
9BE
100
AcDbEntity
  8
DEFAULT_2
100
AcDbLine
 62
8
  6
CONTINUOUS
 10
65.5047741369
 20
52.8243819582
 11
65.5207442584
 21
52.7951068296
  0
LINE
  5
9BF
100
AcDbEntity
  8
0
100
AcDbLine
 62
7
  6
CONTINUOUS
 10
37.4682580337
 20
34.2505749319
 11
37.4749054899
 21
34.2383511193
  0
LINE
  5
9C0
100
AcDbEntity
  8
0
100
AcDbLine
 62
9
  6
CONTINUOUS
 10
37.4751418829
 20
34.2379475534
 11
37.4725864769
 21
34.2426534202
  0
LINE
  5
9C1
100
AcDbEntity
  8
0
100
AcDbLine
 62
7
  6
CONTINUOUS
 10
98.140577361
 20
54.7409830947
 11
98.1313020206
 21
54.7582648418
  0
LINE
  5
9C2
100
AcDbEntity
  8
0
100
AcDbLine
 62
9
  6
CONTINUOUS
 10
37.466242695
 20
34.2546622136
 11
37.465051232
 21
34.2568961819
  0
LINE
  5
9C3
100
AcDbEntity
  8
DEFAULT_2
100
AcDbLine
 62
8
  6
CONTINUOUS
 10
43.7877608119
 20
38.121892127
 11
43.7565239163
 21
38.1809818888
  0
LINE
  5
9C4
100
AcDbEntity
  8
0
100
AcDbLine
 62
7
  6
CONTINUOUS
 10
37.466242695
 20
34.2546622136
 11
37.4725864769
 21
34.2426534202
  0
LINE
  5
9C5
100
AcDbEntity
  8
0
100
AcDbLine
 62
7
  6
CONTINUOUS
 10
98.1498046737
 20
54.7235006182
 11
98.140577361
 21
54.7409830947
  0
LINE
  5
9C6
100
AcDbEntity
  8
0
100
AcDbLine
 62
9
  6
CONTINUOUS
 10
98.1619497857
 20
54.6966041369
 11
98.1291605467
 21
54.758909775
  0
LINE
  5
9C7
100
AcDbEntity
  8
0
100
AcDbLine
 62
9
  6
CONTINUOUS
 10
96.8623321584
 20
54.9179243825
 11
96.8304533772
 21
54.9791613999
  0
LINE
  5
9C8
100
AcDbEntity
  8
0
100
AcDbLine
 62
7
  6
CONTINUOUS
 10
98.1589816971
 20
54.7058150177
 11
98.1498046737
 21
54.7235006182
  0
LINE
  5
9C9
100
AcDbEntity
  8
DEFAULT_2
100
AcDbLine
 62
8
  6
CONTINUOUS
 10
43.7014798817
 20
38.3305002598
 11
43.7355086533
 21
38.264297108
  0
LINE
  5
9CA
100
AcDbEntity
  8
0
100
AcDbLine
 62
7
  6
CONTINUOUS
 10
98.1681058844
 20
54.6879243288
 11
98.1589816971
 21
54.7058150177
  0
LINE
  5
9CB
100
AcDbEntity
  8
DEFAULT_2
100
AcDbLine
 62
8
  6
CONTINUOUS
 10
63.4153954967
 20
51.7066538527
 11
63.4002646935
 21
51.7363714811
  0
LINE
  5
9CC
100
AcDbEntity
  8
DEFAULT_2
100
AcDbLine
 62
8
  6
CONTINUOUS
 10
65.5207442584
 20
52.7951068296
 11
65.5358750615
 21
52.7653892012
  0
LINE
  5
9CD
100
AcDbEntity
  8
0
100
AcDbLine
 62
7
  6
CONTINUOUS
 10
98.1771744354
 20
54.6698269931
 11
98.1681058844
 21
54.6879243288
  0
LINE
  5
9CE
100
AcDbEntity
  8
0
100
AcDbLine
 62
7
  6
CONTINUOUS
 10
37.4619889783
 20
34.2632049879
 11
37.4682580337
 21
34.2505749319
  0
LINE
  5
9CF
100
AcDbEntity
  8
DEFAULT_2
100
AcDbLine
 62
8
  6
CONTINUOUS
 10
43.7565239163
 20
38.1809818888
 11
43.7267132238
 21
38.2410170569
  0
LINE
  5
9D0
100
AcDbEntity
  8
0
100
AcDbLine
 62
9
  6
CONTINUOUS
 10
98.1928973369
 20
54.6341066636
 11
98.1619497857
 21
54.6966041369
  0
LINE
  5
9D1
100
AcDbEntity
  8
0
100
AcDbLine
 62
9
  6
CONTINUOUS
 10
32.1486092882
 20
53.4566144652
 11
32.1553170036
 21
53.4430405967
  0
LINE
  5
9D2
100
AcDbEntity
  8
0
100
AcDbLine
 62
9
  6
CONTINUOUS
 10
96.8926696508
 20
54.8563852461
 11
96.8623321584
 21
54.9179243825
  0
LINE
  5
9D3
100
AcDbEntity
  8
0
100
AcDbLine
 62
7
  6
CONTINUOUS
 10
98.1861843555
 20
54.6515217719
 11
98.1771744354
 21
54.6698269931
  0
LINE
  5
9D4
100
AcDbEntity
  8
0
100
AcDbLine
 62
7
  6
CONTINUOUS
 10
98.1951325372
 20
54.6330076062
 11
98.1861843555
 21
54.6515217719
  0
LINE
  5
9D5
100
AcDbEntity
  8
0
100
AcDbLine
 62
7
  6
CONTINUOUS
 10
37.4602645084
 20
34.2670521414
 11
37.466242695
 21
34.2546622136
  0
LINE
  5
9D6
100
AcDbEntity
  8
DEFAULT_2
100
AcDbLine
 62
8
  6
CONTINUOUS
 10
43.6693335474
 20
38.397636998
 11
43.7014798817
 21
38.3305002598
  0
LINE
  5
9D7
100
AcDbEntity
  8
0
100
AcDbLine
 62
7
  6
CONTINUOUS
 10
98.2040158509
 20
54.6142834393
 11
98.1951325372
 21
54.6330076062
  0
LINE
  5
9D8
100
AcDbEntity
  8
DEFAULT_2
100
AcDbLine
 62
8
  6
CONTINUOUS
 10
63.4002646935
 20
51.7363714811
 11
63.3859860452
 21
51.766507815
  0
LINE
  5
9D9
100
AcDbEntity
  8
DEFAULT_2
100
AcDbLine
 62
8
  6
CONTINUOUS
 10
65.5358750615
 20
52.7653892012
 11
65.5501537099
 21
52.7352528673
  0
LINE
  5
9DA
100
AcDbEntity
  8
0
100
AcDbLine
 62
9
  6
CONTINUOUS
 10
96.9214814746
 20
54.7946477198
 11
96.8926696508
 21
54.8563852461
  0
LINE
  5
9DB
100
AcDbEntity
  8
0
100
AcDbLine
 62
7
  6
CONTINUOUS
 10
98.2128312358
 20
54.5953480176
 11
98.2040158509
 21
54.6142834393
  0
LINE
  5
9DC
100
AcDbEntity
  8
DEFAULT_2
100
AcDbLine
 62
8
  6
CONTINUOUS
 10
43.7267132238
 20
38.2410170569
 11
43.6984436528
 21
38.301779589
  0
LINE
  5
9DD
100
AcDbEntity
  8
0
100
AcDbLine
 62
9
  6
CONTINUOUS
 10
98.2220753767
 20
54.5713897723
 11
98.1928973369
 21
54.6341066636
  0
LINE
  5
9DE
100
AcDbEntity
  8
0
100
AcDbLine
 62
9
  6
CONTINUOUS
 10
37.465051232
 20
34.2568961819
 11
37.4560615081
 21
34.2763911953
  0
LINE
  5
9DF
100
AcDbEntity
  8
0
100
AcDbLine
 62
7
  6
CONTINUOUS
 10
98.2215757785
 20
54.5761996988
 11
98.2128312358
 21
54.5953480176
  0
LINE
  5
9E0
100
AcDbEntity
  8
0
100
AcDbLine
 62
7
  6
CONTINUOUS
 10
37.4561260997
 20
34.2762324512
 11
37.4619889783
 21
34.2632049879
  0
LINE
  5
9E1
100
AcDbEntity
  8
0
100
AcDbLine
 62
7
  6
CONTINUOUS
 10
98.2302467633
 20
54.5568362962
 11
98.2215757785
 21
54.5761996988
  0
LINE
  5
9E2
100
AcDbEntity
  8
DEFAULT_2
100
AcDbLine
 62
8
  6
CONTINUOUS
 10
43.6395943603
 20
38.464489976
 11
43.6693335474
 21
38.397636998
  0
LINE
  5
9E3
100
AcDbEntity
  8
0
100
AcDbLine
 62
9
  6
CONTINUOUS
 10
96.9487869783
 20
54.732798578
 11
96.9214814746
 21
54.7946477198
  0
LINE
  5
9E4
100
AcDbEntity
  8
DEFAULT_2
100
AcDbLine
 62
8
  6
CONTINUOUS
 10
63.3859860452
 20
51.766507815
 11
63.3725801645
 21
51.7970196222
  0
LINE
  5
9E5
100
AcDbEntity
  8
DEFAULT_2
100
AcDbLine
 62
8
  6
CONTINUOUS
 10
65.5501537099
 20
52.7352528673
 11
65.5635595906
 21
52.7047410602
  0
LINE
  5
9E6
100
AcDbEntity
  8
0
100
AcDbLine
 62
7
  6
CONTINUOUS
 10
98.2388416808
 20
54.5372550028
 11
98.2302467633
 21
54.5568362962
  0
LINE
  5
9E7
100
AcDbEntity
  8
0
100
AcDbLine
 62
7
  6
CONTINUOUS
 10
37.454677451
 20
34.2798146497
 11
37.4602645084
 21
34.2670521414
  0
LINE
  5
9E8
100
AcDbEntity
  8
0
100
AcDbLine
 62
9
  6
CONTINUOUS
 10
98.2495127932
 20
54.5085101251
 11
98.2220753767
 21
54.5713897723
  0
LINE
  5
9E9
100
AcDbEntity
  8
DEFAULT_2
100
AcDbLine
 62
8
  6
CONTINUOUS
 10
43.6984436528
 20
38.301779589
 11
43.6717295465
 21
38.3632335688
  0
LINE
  5
9EA
100
AcDbEntity
  8
0
100
AcDbLine
 62
7
  6
CONTINUOUS
 10
98.2473581765
 20
54.5174524468
 11
98.2388416808
 21
54.5372550028
  0
LINE
  5
9EB
100
AcDbEntity
  8
0
100
AcDbLine
 62
7
  6
CONTINUOUS
 10
98.2557939204
 20
54.4974249411
 11
98.2473581765
 21
54.5174524468
  0
LINE
  5
9EC
100
AcDbEntity
  8
0
100
AcDbLine
 62
9
  6
CONTINUOUS
 10
96.9745907934
 20
54.6709547968
 11
96.9487869783
 21
54.732798578
  0
LINE
  5
9ED
100
AcDbEntity
  8
0
100
AcDbLine
 62
7
  6
CONTINUOUS
 10
98.2641525459
 20
54.4771538661
 11
98.2557939204
 21
54.4974249411
  0
LINE
  5
9EE
100
AcDbEntity
  8
DEFAULT_2
100
AcDbLine
 62
8
  6
CONTINUOUS
 10
43.6117222938
 20
38.5321441427
 11
43.6395943603
 21
38.464489976
  0
LINE
  5
9EF
100
AcDbEntity
  8
DEFAULT_2
100
AcDbLine
 62
8
  6
CONTINUOUS
 10
43.6717295465
 20
38.3632335688
 11
43.6526962876
 21
38.4098247318
  0
LINE
  5
9F0
100
AcDbEntity
  8
0
100
AcDbLine
 62
9
  6
CONTINUOUS
 10
98.2752602185
 20
54.4454743323
 11
98.2495127932
 21
54.5085101251
  0
LINE
  5
9F1
100
AcDbEntity
  8
DEFAULT_2
100
AcDbLine
 62
8
  6
CONTINUOUS
 10
63.3725801645
 20
51.7970196222
 11
63.3600488878
 21
51.8279009296
  0
LINE
  5
9F2
100
AcDbEntity
  8
DEFAULT_2
100
AcDbLine
 62
8
  6
CONTINUOUS
 10
65.5635595906
 20
52.7047410602
 11
65.5760908673
 21
52.6738597527
  0
LINE
  5
9F3
100
AcDbEntity
  8
0
100
AcDbLine
 62
7
  6
CONTINUOUS
 10
37.4506973334
 20
34.2896468884
 11
37.4561260997
 21
34.2762324512
  0
LINE
  5
9F4
100
AcDbEntity
  8
0
100
AcDbLine
 62
7
  6
CONTINUOUS
 10
98.2724234459
 20
54.4566541227
 11
98.2641525459
 21
54.4771538661
  0
LINE
  5
9F5
100
AcDbEntity
  8
0
100
AcDbLine
 62
7
  6
CONTINUOUS
 10
98.2805935498
 20
54.4359477737
 11
98.2724234459
 21
54.4566541227
  0
LINE
  5
9F6
100
AcDbEntity
  8
0
100
AcDbLine
 62
7
  6
CONTINUOUS
 10
37.4495071895
 20
34.2929397219
 11
37.454677451
 21
34.2798146497
  0
LINE
  5
9F7
100
AcDbEntity
  8
0
100
AcDbLine
 62
9
  6
CONTINUOUS
 10
96.9989789692
 20
54.6090446635
 11
96.9745907934
 21
54.6709547968
  0
LINE
  5
9F8
100
AcDbEntity
  8
DEFAULT_2
100
AcDbLine
 62
8
  6
CONTINUOUS
 10
43.6526962876
 20
38.4098247318
 11
43.6345555678
 21
38.4567706572
  0
LINE
  5
9F9
100
AcDbEntity
  8
0
100
AcDbLine
 62
7
  6
CONTINUOUS
 10
98.2886597261
 20
54.4150328753
 11
98.2805935498
 21
54.4359477737
  0
LINE
  5
9FA
100
AcDbEntity
  8
0
100
AcDbLine
 62
9
  6
CONTINUOUS
 10
98.299319834
 20
54.3823913869
 11
98.2752602185
 21
54.4454743323
  0
LINE
  5
9FB
100
AcDbEntity
  8
0
100
AcDbLine
 62
9
  6
CONTINUOUS
 10
37.4495071895
 20
34.2929397219
 11
37.4482021749
 21
34.296368699
  0
LINE
  5
9FC
100
AcDbEntity
  8
DEFAULT_2
100
AcDbLine
 62
8
  6
CONTINUOUS
 10
43.586199564
 20
38.5992854936
 11
43.6117222938
 21
38.5321441427
  0
LINE
  5
9FD
100
AcDbEntity
  8
0
100
AcDbLine
 62
9
  6
CONTINUOUS
 10
32.1553601412
 20
53.4421089868
 11
32.155496547
 21
53.4417499934
  0
LINE
  5
9FE
100
AcDbEntity
  8
0
100
AcDbLine
 62
7
  6
CONTINUOUS
 10
98.2966200605
 20
54.3939040604
 11
98.2886597261
 21
54.4150328753
  0
LINE
  5
9FF
100
AcDbEntity
  8
DEFAULT_2
100
AcDbLine
 62
8
  6
CONTINUOUS
 10
63.3600488878
 20
51.8279009296
 11
63.348402911
 21
51.8591268211
  0
LINE
  5
A00
100
AcDbEntity
  8
DEFAULT_2
100
AcDbLine
 62
8
  6
CONTINUOUS
 10
65.5760908673
 20
52.6738597527
 11
65.587736844
 21
52.6426338613
  0
LINE
  5
A01
100
AcDbEntity
  8
0
100
AcDbLine
 62
9
  6
CONTINUOUS
 10
97.0220241091
 20
54.5470046856
 11
96.9989789692
 21
54.6090446635
  0
LINE
  5
A02
100
AcDbEntity
  8
0
100
AcDbLine
 62
7
  6
CONTINUOUS
 10
98.3044731108
 20
54.372554166
 11
98.2966200605
 21
54.3939040604
  0
LINE
  5
A03
100
AcDbEntity
  8
DEFAULT_2
100
AcDbLine
 62
8
  6
CONTINUOUS
 10
43.6345555678
 20
38.4567706572
 11
43.6172979729
 21
38.5041022456
  0
LINE
  5
A04
100
AcDbEntity
  8
0
100
AcDbLine
 62
7
  6
CONTINUOUS
 10
37.4457307345
 20
34.3034361224
 11
37.4506973334
 21
34.2896468884
  0
LINE
  5
A05
100
AcDbEntity
  8
0
100
AcDbLine
 62
7
  6
CONTINUOUS
 10
98.3122173565
 20
54.3509755586
 11
98.3044731108
 21
54.372554166
  0
LINE
  5
A06
100
AcDbEntity
  8
0
100
AcDbLine
 62
9
  6
CONTINUOUS
 10
98.3216935132
 20
54.3193706813
 11
98.299319834
 21
54.3823913869
  0
LINE
  5
A07
100
AcDbEntity
  8
0
100
AcDbLine
 62
7
  6
CONTINUOUS
 10
37.4447794714
 20
34.3064157784
 11
37.4495071895
 21
34.2929397219
  0
LINE
  5
A08
100
AcDbEntity
  8
0
100
AcDbLine
 62
9
  6
CONTINUOUS
 10
97.0437376095
 20
54.4849235893
 11
97.0220241091
 21
54.5470046856
  0
LINE
  5
A09
100
AcDbEntity
  8
0
100
AcDbLine
 62
7
  6
CONTINUOUS
 10
98.3198508261
 20
54.3291611503
 11
98.3122173565
 21
54.3509755586
  0
LINE
  5
A0A
100
AcDbEntity
  8
DEFAULT_2
100
AcDbLine
 62
8
  6
CONTINUOUS
 10
43.5625192345
 20
38.6670925073
 11
43.586199564
 21
38.5992854936
  0
LINE
  5
A0B
100
AcDbEntity
  8
DEFAULT_2
100
AcDbLine
 62
8
  6
CONTINUOUS
 10
43.6172979729
 20
38.5041022456
 11
43.600949989
 21
38.5517536907
  0
LINE
  5
A0C
100
AcDbEntity
  8
DEFAULT_2
100
AcDbLine
 62
8
  6
CONTINUOUS
 10
63.348402911
 20
51.8591268211
 11
63.3376579626
 21
51.8906556084
  0
LINE
  5
A0D
100
AcDbEntity
  8
DEFAULT_2
100
AcDbLine
 62
8
  6
CONTINUOUS
 10
65.587736844
 20
52.6426338613
 11
65.5984817924
 21
52.6111050739
  0
LINE
  5
A0E
100
AcDbEntity
  8
0
100
AcDbLine
 62
7
  6
CONTINUOUS
 10
98.3273708823
 20
54.3071051051
 11
98.3198508261
 21
54.3291611503
  0
LINE
  5
A0F
100
AcDbEntity
  8
0
100
AcDbLine
 62
7
  6
CONTINUOUS
 10
98.3347741473
 20
54.2848032372
 11
98.3273708823
 21
54.3071051051
  0
LINE
  5
A10
100
AcDbEntity
  8
0
100
AcDbLine
 62
9
  6
CONTINUOUS
 10
98.3424442231
 20
54.2563577448
 11
98.3216935132
 21
54.3193706813
  0
LINE
  5
A11
100
AcDbEntity
  8
0
100
AcDbLine
 62
9
  6
CONTINUOUS
 10
97.0641555162
 20
54.4228301154
 11
97.0437376095
 21
54.4849235893
  0
LINE
  5
A12
100
AcDbEntity
  8
0
100
AcDbLine
 62
9
  6
CONTINUOUS
 10
37.4482021749
 20
34.296368699
 11
37.4414989914
 21
34.3167632167
  0
LINE
  5
A13
100
AcDbEntity
  8
0
100
AcDbLine
 62
7
  6
CONTINUOUS
 10
98.3420565454
 20
54.2622531079
 11
98.3347741473
 21
54.2848032372
  0
LINE
  5
A14
100
AcDbEntity
  8
0
100
AcDbLine
 62
7
  6
CONTINUOUS
 10
37.4412543829
 20
34.3175861668
 11
37.4457307345
 21
34.3034361224
  0
LINE
  5
A15
100
AcDbEntity
  8
0
100
AcDbLine
 62
7
  6
CONTINUOUS
 10
98.3492134407
 20
54.2394538342
 11
98.3420565454
 21
54.2622531079
  0
LINE
  5
A16
100
AcDbEntity
  8
DEFAULT_2
100
AcDbLine
 62
8
  6
CONTINUOUS
 10
63.3376579626
 20
51.8906556084
 11
63.3278165124
 21
51.9224780381
  0
LINE
  5
A17
100
AcDbEntity
  8
DEFAULT_2
100
AcDbLine
 62
8
  6
CONTINUOUS
 10
65.5984817924
 20
52.6111050739
 11
65.6083232427
 21
52.5792826443
  0
LINE
  5
A18
100
AcDbEntity
  8
0
100
AcDbLine
 62
9
  6
CONTINUOUS
 10
97.0832832024
 20
54.3608351158
 11
97.0641555162
 21
54.4228301154
  0
LINE
  5
A19
100
AcDbEntity
  8
0
100
AcDbLine
 62
7
  6
CONTINUOUS
 10
37.4405200434
 20
34.3202296207
 11
37.4447794714
 21
34.3064157784
  0
LINE
  5
A1A
100
AcDbEntity
  8
0
100
AcDbLine
 62
7
  6
CONTINUOUS
 10
98.3562398926
 20
54.2164054709
 11
98.3492134407
 21
54.2394538342
  0
LINE
  5
A1B
100
AcDbEntity
  8
0
100
AcDbLine
 62
9
  6
CONTINUOUS
 10
98.3616139636
 20
54.1933458308
 11
98.3424442231
 21
54.2563577448
  0
LINE
  5
A1C
100
AcDbEntity
  8
0
100
AcDbLine
 62
7
  6
CONTINUOUS
 10
98.3631314621
 20
54.1931063901
 11
98.3562398926
 21
54.2164054709
  0
LINE
  5
A1D
100
AcDbEntity
  8
0
100
AcDbLine
 62
9
  6
CONTINUOUS
 10
97.1011188504
 20
54.2990634002
 11
97.0832832024
 21
54.3608351158
  0
LINE
  5
A1E
100
AcDbEntity
  8
0
100
AcDbLine
 62
7
  6
CONTINUOUS
 10
98.3698829902
 20
54.1695573373
 11
98.3631314621
 21
54.1931063901
  0
LINE
  5
A1F
100
AcDbEntity
  8
0
100
AcDbLine
 62
9
  6
CONTINUOUS
 10
37.4414989914
 20
34.3167632167
 11
37.4405200434
 21
34.3202296207
  0
LINE
  5
A20
100
AcDbEntity
  8
0
100
AcDbLine
 62
9
  6
CONTINUOUS
 10
98.3792509051
 20
54.1302976625
 11
98.3616139636
 21
54.1933458308
  0
LINE
  5
A21
100
AcDbEntity
  8
DEFAULT_2
100
AcDbLine
 62
8
  6
CONTINUOUS
 10
63.3278165124
 20
51.9224780381
 11
63.318887003
 21
51.9545684202
  0
LINE
  5
A22
100
AcDbEntity
  8
DEFAULT_2
100
AcDbLine
 62
8
  6
CONTINUOUS
 10
65.6083232427
 20
52.5792826443
 11
65.617252752
 21
52.5471922622
  0
LINE
  5
A23
100
AcDbEntity
  8
0
100
AcDbLine
 62
7
  6
CONTINUOUS
 10
98.3764893143
 20
54.1457592054
 11
98.3698829902
 21
54.1695573373
  0
LINE
  5
A24
100
AcDbEntity
  8
0
100
AcDbLine
 62
7
  6
CONTINUOUS
 10
37.4372962718
 20
34.3320812013
 11
37.4412543829
 21
34.3175861668
  0
LINE
  5
A25
100
AcDbEntity
  8
0
100
AcDbLine
 62
9
  6
CONTINUOUS
 10
97.1177281855
 20
54.2374180359
 11
97.1011188504
 21
54.2990634002
  0
LINE
  5
A26
100
AcDbEntity
  8
0
100
AcDbLine
 62
7
  6
CONTINUOUS
 10
98.3829456716
 20
54.1217115299
 11
98.3764893143
 21
54.1457592054
  0
LINE
  5
A27
100
AcDbEntity
  8
0
100
AcDbLine
 62
7
  6
CONTINUOUS
 10
37.4367545558
 20
34.3343664058
 11
37.4405200434
 21
34.3202296207
  0
LINE
  5
A28
100
AcDbEntity
  8
0
100
AcDbLine
 62
7
  6
CONTINUOUS
 10
98.3892476436
 20
54.0974124642
 11
98.3829456716
 21
54.1217115299
  0
LINE
  5
A29
100
AcDbEntity
  8
0
100
AcDbLine
 62
9
  6
CONTINUOUS
 10
98.3954084267
 20
54.0671350337
 11
98.3792509051
 21
54.1302976625
  0
LINE
  5
A2A
100
AcDbEntity
  8
0
100
AcDbLine
 62
9
  6
CONTINUOUS
 10
97.1331568877
 20
54.1758475735
 11
97.1177281855
 21
54.2374180359
  0
LINE
  5
A2B
100
AcDbEntity
  8
0
100
AcDbLine
 62
7
  6
CONTINUOUS
 10
98.3953909116
 20
54.0728595178
 11
98.3892476436
 21
54.0974124642
  0
LINE
  5
A2C
100
AcDbEntity
  8
0
100
AcDbLine
 62
9
  6
CONTINUOUS
 10
37.4367545558
 20
34.3343664058
 11
37.4359739271
 21
34.3375079056
  0
LINE
  5
A2D
100
AcDbEntity
  8
DEFAULT_2
100
AcDbLine
 62
8
  6
CONTINUOUS
 10
63.318887003
 20
51.9545684202
 11
63.3108805661
 21
51.986887637
  0
LINE
  5
A2E
100
AcDbEntity
  8
DEFAULT_2
100
AcDbLine
 62
8
  6
CONTINUOUS
 10
65.617252752
 20
52.5471922622
 11
65.625259189
 21
52.5148730454
  0
LINE
  5
A2F
100
AcDbEntity
  8
0
100
AcDbLine
 62
7
  6
CONTINUOUS
 10
98.4013717318
 20
54.0480473247
 11
98.3953909116
 21
54.0728595178
  0
LINE
  5
A30
100
AcDbEntity
  8
0
100
AcDbLine
 62
7
  6
CONTINUOUS
 10
98.4042983221
 20
54.0355490964
 11
98.4013717318
 21
54.0480473247
  0
LINE
  5
A31
100
AcDbEntity
  8
0
100
AcDbLine
 62
9
  6
CONTINUOUS
 10
98.4100881517
 20
54.0039695058
 11
98.3954084267
 21
54.0671350337
  0
LINE
  5
A32
100
AcDbEntity
  8
0
100
AcDbLine
 62
9
  6
CONTINUOUS
 10
97.1474380127
 20
54.1143374971
 11
97.1331568877
 21
54.1758475735
  0
LINE
  5
A33
100
AcDbEntity
  8
0
100
AcDbLine
 62
7
  6
CONTINUOUS
 10
37.433884203
 20
34.3469035209
 11
37.4372962718
 21
34.3320812013
  0
LINE
  5
A34
100
AcDbEntity
  8
0
100
AcDbLine
 62
7
  6
CONTINUOUS
 10
98.4071810423
 20
54.0229911617
 11
98.4042983221
 21
54.0355490964
  0
LINE
  5
A35
100
AcDbEntity
  8
0
100
AcDbLine
 62
9
  6
CONTINUOUS
 10
32.1552847542
 20
53.4424436874
 11
32.1553601412
 21
53.4421089868
  0
LINE
  5
A36
100
AcDbEntity
  8
0
100
AcDbLine
 62
7
  6
CONTINUOUS
 10
98.4100187325
 20
54.0103756702
 11
98.4071810423
 21
54.0229911617
  0
LINE
  5
A37
100
AcDbEntity
  8
0
100
AcDbLine
 62
7
  6
CONTINUOUS
 10
37.4335084705
 20
34.3488096038
 11
37.4367545558
 21
34.3343664058
  0
LINE
  5
A38
100
AcDbEntity
  8
0
100
AcDbLine
 62
7
  6
CONTINUOUS
 10
98.4128110293
 20
53.9977012994
 11
98.4100187325
 21
54.0103756702
  0
LINE
  5
A39
100
AcDbEntity
  8
DEFAULT_2
100
AcDbLine
 62
8
  6
CONTINUOUS
 10
63.3108805661
 20
51.986887637
 11
63.3037998603
 21
52.0194220908
  0
LINE
  5
A3A
100
AcDbEntity
  8
DEFAULT_2
100
AcDbLine
 62
8
  6
CONTINUOUS
 10
65.625259189
 20
52.5148730454
 11
65.6323398948
 21
52.4823385916
  0
LINE
  5
A3B
100
AcDbEntity
  8
0
100
AcDbLine
 62
7
  6
CONTINUOUS
 10
98.415557316
 20
53.984967795
 11
98.4128110293
 21
53.9977012994
  0
LINE
  5
A3C
100
AcDbEntity
  8
0
100
AcDbLine
 62
9
  6
CONTINUOUS
 10
97.1606156367
 20
54.052815398
 11
97.1474380127
 21
54.1143374971
  0
LINE
  5
A3D
100
AcDbEntity
  8
0
100
AcDbLine
 62
7
  6
CONTINUOUS
 10
98.4182571463
 20
53.9721740624
 11
98.415557316
 21
53.984967795
  0
LINE
  5
A3E
100
AcDbEntity
  8
0
100
AcDbLine
 62
9
  6
CONTINUOUS
 10
98.4232961951
 20
53.9408786253
 11
98.4100881517
 21
54.0039695058
  0
LINE
  5
A3F
100
AcDbEntity
  8
0
100
AcDbLine
 62
7
  6
CONTINUOUS
 10
98.4209100115
 20
53.9593192094
 11
98.4182571463
 21
53.9721740624
  0
LINE
  5
A40
100
AcDbEntity
  8
0
100
AcDbLine
 62
9
  6
CONTINUOUS
 10
37.4359739271
 20
34.3375079056
 11
37.4316450905
 21
34.3585347752
  0
LINE
  5
A41
100
AcDbEntity
  8
0
100
AcDbLine
 62
7
  6
CONTINUOUS
 10
98.4235153878
 20
53.9464023325
 11
98.4209100115
 21
53.9593192094
  0
LINE
  5
A42
100
AcDbEntity
  8
0
100
AcDbLine
 62
7
  6
CONTINUOUS
 10
98.4260727636
 20
53.9334223776
 11
98.4235153878
 21
53.9464023325
  0
LINE
  5
A43
100
AcDbEntity
  8
0
100
AcDbLine
 62
9
  6
CONTINUOUS
 10
97.1726881773
 20
53.991403891
 11
97.1606156367
 21
54.052815398
  0
LINE
  5
A44
100
AcDbEntity
  8
0
100
AcDbLine
 62
7
  6
CONTINUOUS
 10
98.4285814973
 20
53.9203788641
 11
98.4260727636
 21
53.9334223776
  0
LINE
  5
A45
100
AcDbEntity
  8
DEFAULT_2
100
AcDbLine
 62
8
  6
CONTINUOUS
 10
63.3037998603
 20
52.0194220908
 11
63.297650984
 21
52.0521449535
  0
LINE
  5
A46
100
AcDbEntity
  8
DEFAULT_2
100
AcDbLine
 62
8
  6
CONTINUOUS
 10
65.6323398948
 20
52.4823385916
 11
65.6384887711
 21
52.4496157289
  0
LINE
  5
A47
100
AcDbEntity
  8
0
100
AcDbLine
 62
7
  6
CONTINUOUS
 10
98.4310410082
 20
53.9072709333
 11
98.4285814973
 21
53.9203788641
  0
LINE
  5
A48
100
AcDbEntity
  8
0
100
AcDbLine
 62
9
  6
CONTINUOUS
 10
98.4350554171
 20
53.8778531263
 11
98.4232961951
 21
53.9408786253
  0
LINE
  5
A49
100
AcDbEntity
  8
0
100
AcDbLine
 62
7
  6
CONTINUOUS
 10
37.4308069622
 20
34.363540961
 11
37.433884203
 21
34.3469035209
  0
LINE
  5
A4A
100
AcDbEntity
  8
0
100
AcDbLine
 62
7
  6
CONTINUOUS
 10
98.4334505346
 20
53.8940986332
 11
98.4310410082
 21
53.9072709333
  0
LINE
  5
A4B
100
AcDbEntity
  8
0
100
AcDbLine
 62
9
  6
CONTINUOUS
 10
97.1836589939
 20
53.9302021858
 11
97.1726881773
 21
53.991403891
  0
LINE
  5
A4C
100
AcDbEntity
  8
0
100
AcDbLine
 62
7
  6
CONTINUOUS
 10
98.4358093993
 20
53.8808615323
 11
98.4334505346
 21
53.8940986332
  0
LINE
  5
A4D
100
AcDbEntity
  8
0
100
AcDbLine
 62
7
  6
CONTINUOUS
 10
98.438116747
 20
53.8675601894
 11
98.4358093993
 21
53.8808615323
  0
LINE
  5
A4E
100
AcDbEntity
  8
0
100
AcDbLine
 62
9
  6
CONTINUOUS
 10
37.4316450905
 20
34.3585347752
 11
37.4310456744
 21
34.3620334918
  0
LINE
  5
A4F
100
AcDbEntity
  8
0
100
AcDbLine
 62
7
  6
CONTINUOUS
 10
98.4403718083
 20
53.8541947044
 11
98.438116747
 21
53.8675601894
  0
LINE
  5
A50
100
AcDbEntity
  8
0
100
AcDbLine
 62
9
  6
CONTINUOUS
 10
98.4453775523
 20
53.8149524304
 11
98.4350554171
 21
53.8778531263
  0
LINE
  5
A51
100
AcDbEntity
  8
0
100
AcDbLine
 62
7
  6
CONTINUOUS
 10
98.4425736802
 20
53.8407660135
 11
98.4403718083
 21
53.8541947044
  0
LINE
  5
A52
100
AcDbEntity
  8
0
100
AcDbLine
 62
9
  6
CONTINUOUS
 10
97.1935542198
 20
53.8691720111
 11
97.1836589939
 21
53.9302021858
  0
LINE
  5
A53
100
AcDbEntity
  8
0
100
AcDbLine
 62
7
  6
CONTINUOUS
 10
98.4447215281
 20
53.8272747254
 11
98.4425736802
 21
53.8407660135
  0
LINE
  5
A54
100
AcDbEntity
  8
DEFAULT_2
100
AcDbLine
 62
8
  6
CONTINUOUS
 10
63.297650984
 20
52.0521449535
 11
63.2924409559
 21
52.085020409
  0
LINE
  5
A55
100
AcDbEntity
  8
DEFAULT_2
100
AcDbLine
 62
8
  6
CONTINUOUS
 10
65.6384887711
 20
52.4496157289
 11
65.6436987992
 21
52.4167402733
  0
LINE
  5
A56
100
AcDbEntity
  8
0
100
AcDbLine
 62
7
  6
CONTINUOUS
 10
98.446814456
 20
53.8137219251
 11
98.4447215281
 21
53.8272747254
  0
LINE
  5
A57
100
AcDbEntity
  8
0
100
AcDbLine
 62
7
  6
CONTINUOUS
 10
98.4488516045
 20
53.8001085889
 11
98.446814456
 21
53.8137219251
  0
LINE
  5
A58
100
AcDbEntity
  8
0
100
AcDbLine
 62
7
  6
CONTINUOUS
 10
37.4288077615
 20
34.3774495135
 11
37.4310456744
 21
34.3620334918
  0
LINE
  5
A59
100
AcDbEntity
  8
0
100
AcDbLine
 62
9
  6
CONTINUOUS
 10
97.2023856478
 20
53.808356508
 11
97.1935542198
 21
53.8691720111
  0
LINE
  5
A5A
100
AcDbEntity
  8
0
100
AcDbLine
 62
7
  6
CONTINUOUS
 10
98.450832136
 20
53.786435665
 11
98.4488516045
 21
53.8001085889
  0
LINE
  5
A5B
100
AcDbEntity
  8
0
100
AcDbLine
 62
9
  6
CONTINUOUS
 10
98.4543046534
 20
53.7520462228
 11
98.4453775523
 21
53.8149524304
  0
LINE
  5
A5C
100
AcDbEntity
  8
0
100
AcDbLine
 62
7
  6
CONTINUOUS
 10
37.4285031248
 20
34.3799755086
 11
37.4308069622
 21
34.363540961
  0
LINE
  5
A5D
100
AcDbEntity
  8
0
100
AcDbLine
 62
7
  6
CONTINUOUS
 10
98.4527552097
 20
53.7727042581
 11
98.450832136
 21
53.786435665
  0
LINE
  5
A5E
100
AcDbEntity
  8
0
100
AcDbLine
 62
7
  6
CONTINUOUS
 10
98.4546200822
 20
53.7589148951
 11
98.4527552097
 21
53.7727042581
  0
LINE
  5
A5F
100
AcDbEntity
  8
0
100
AcDbLine
 62
7
  6
CONTINUOUS
 10
98.4564259679
 20
53.7450685109
 11
98.4546200822
 21
53.7589148951
  0
LINE
  5
A60
100
AcDbEntity
  8
DEFAULT_2
100
AcDbLine
 62
8
  6
CONTINUOUS
 10
63.2924409559
 20
52.085020409
 11
63.288172019
 21
52.1180317522
  0
LINE
  5
A61
100
AcDbEntity
  8
DEFAULT_2
100
AcDbLine
 62
8
  6
CONTINUOUS
 10
65.6436987992
 20
52.4167402733
 11
65.6479677361
 21
52.3837289302
  0
LINE
  5
A62
100
AcDbEntity
  8
0
100
AcDbLine
 62
9
  6
CONTINUOUS
 10
97.2101929022
 20
53.7476042131
 11
97.2023856478
 21
53.808356508
  0
LINE
  5
A63
100
AcDbEntity
  8
0
100
AcDbLine
 62
7
  6
CONTINUOUS
 10
98.4581722257
 20
53.7311650114
 11
98.4564259679
 21
53.7450685109
  0
LINE
  5
A64
100
AcDbEntity
  8
0
100
AcDbLine
 62
9
  6
CONTINUOUS
 10
37.4288077615
 20
34.3774495135
 11
37.4285266692
 21
34.3797749099
  0
LINE
  5
A65
100
AcDbEntity
  8
0
100
AcDbLine
 62
7
  6
CONTINUOUS
 10
98.4598581466
 20
53.7172048618
 11
98.4581722257
 21
53.7311650114
  0
LINE
  5
A66
100
AcDbEntity
  8
0
100
AcDbLine
 62
9
  6
CONTINUOUS
 10
98.4618667916
 20
53.6890108756
 11
98.4543046534
 21
53.7520462228
  0
LINE
  5
A67
100
AcDbEntity
  8
0
100
AcDbLine
 62
7
  6
CONTINUOUS
 10
98.461483164
 20
53.7031873476
 11
98.4598581466
 21
53.7172048618
  0
LINE
  5
A68
100
AcDbEntity
  8
0
100
AcDbLine
 62
9
  6
CONTINUOUS
 10
97.2170056817
 20
53.6867646308
 11
97.2101929022
 21
53.7476042131
  0
LINE
  5
A69
100
AcDbEntity
  8
0
100
AcDbLine
 62
7
  6
CONTINUOUS
 10
98.4630466442
 20
53.6891122456
 11
98.461483164
 21
53.7031873476
  0
ARC
  5
A6A
100
AcDbEntity
  8
DEFAULT_2
100
AcDbCircle
 62
8
  6
CONTINUOUS
 10
165.8771286292
 20
11.7793479541
 40
84.875
100
AcDbArc
 50
149.7377214405
 51
161.5309540856
  0
ARC
  5
A6B
100
AcDbEntity
  8
DEFAULT_2
100
AcDbCircle
 62
8
  6
CONTINUOUS
 10
-36.9409888741
 20
11.7793479541
 40
84.875
100
AcDbArc
 50
18.4690459144
 51
30.2622785595
  0
ARC
  5
A6C
100
AcDbEntity
  8
0
100
AcDbCircle
 62
7
  6
CONTINUOUS
 10
156.062116271
 20
26.7826623988
 40
65.0
100
AcDbArc
 50
155.7863823056
 51
173.2878274203
  0
ARC
  5
A6D
100
AcDbEntity
  8
0
100
AcDbCircle
 62
7
  6
CONTINUOUS
 10
-27.1259765159
 20
26.7826623988
 40
65.0
100
AcDbArc
 50
6.7121725761
 51
24.2136176944
  0
ARC
  5
A6E
100
AcDbEntity
  8
DEFAULT_2
100
AcDbCircle
 62
8
  6
CONTINUOUS
 10
65.7395164869
 20
36.1258803412
 40
0.375
100
AcDbArc
 50
270.0
 51
315.0
  0
ARC
  5
A6F
100
AcDbEntity
  8
DEFAULT_2
100
AcDbCircle
 62
8
  6
CONTINUOUS
 10
63.1966232681
 20
36.1258803412
 40
0.375
100
AcDbArc
 50
225.0
 51
270.0
  0
ARC
  5
A70
100
AcDbEntity
  8
0
100
AcDbCircle
 62
7
  6
CONTINUOUS
 10
31.9274908827
 20
53.3392150403
 40
0.25
100
AcDbArc
 50
24.2136176997
 51
73.117761597
  0
ARC
  5
A71
100
AcDbEntity
  8
0
100
AcDbCircle
 62
7
  6
CONTINUOUS
 10
97.0086488733
 20
53.3392150403
 40
0.25
100
AcDbArc
 50
106.8822386015
 51
155.7863824771
  0
ARC
  5
A72
100
AcDbEntity
  8
DEFAULT_2
100
AcDbCircle
 62
8
  6
CONTINUOUS
 10
65.7395164869
 20
36.1258803412
 40
0.25
100
AcDbArc
 50
270.0
 51
315.0
  0
ARC
  5
A73
100
AcDbEntity
  8
DEFAULT_2
100
AcDbCircle
 62
8
  6
CONTINUOUS
 10
63.1966232681
 20
36.1258803412
 40
0.25
100
AcDbArc
 50
225.0
 51
270.0
  0
ENDSEC
  0
SECTION
  2
OBJECTS
  0
DICTIONARY
  5
C
100
AcDbDictionary
280
0
281
1
  3
ACAD_GROUP
350
D
  3
ACAD_MLINESTYLE
350
17
  3
ACAD_LAYOUT
350
1A
  3
ACAD_PLOTSETTINGS
350
19
  3
ACAD_PLOTSTYLENAME
350
E
  0
DICTIONARY
  5
D
102
{ACAD_REACTORS
330
C
102
}
100
AcDbDictionary
280
0
281
1
  0
ACDBDICTIONARYWDFLT
  5
E
102
{ACAD_REACTORS
330
C
102
}
100
AcDbDictionary
281
1
  3
Normal
350
F
100
AcDbDictionaryWithDefault
340
F
  0
DICTIONARY
  5
17
102
{ACAD_REACTORS
330
C
102
}
100
AcDbDictionary
280
0
281
1
  3
Standard
350
18
  0
DICTIONARY
  5
19
102
{ACAD_REACTORS
330
C
102
}
100
AcDbDictionary
281
1
  0
DICTIONARY
  5
1A
102
{ACAD_REACTORS
330
C
102
}
100
AcDbDictionary
281
1
  3
Model
350
A74
  3
Layout1
350
A75
  0
ACDBPLACEHOLDER
  5
F
102
{ACAD_REACTORS
330
E
102
}
  0
MLINESTYLE
  5
18
102
{ACAD_REACTORS
330
17
102
}
100
AcDbMlineStyle
  2
STANDARD
 70
0
  3

 62
256
 51
90.0
 52
90.0
 71
2
 49
0.5
 62
256
  6
BYLAYER
 49
-0.5
 62
256
  6
BYLAYER
  0
LAYOUT
  5
A74
102
{ACAD_REACTORS
330
1A
102
}
100
AcDbPlotSettings
  1

  2
none_device
  4
ANSI_C_(22.00_x_17.00_Inches)
  6

 40
0.0
 41
0.0
 42
0.0
 43
0.0
 44
558.8
 45
431.8
 46
0.0
 47
0.0
 48
0.0
 49
0.0
140
0.0
141
0.0
142
1.0
143
1.0
 70
1024
 72
0
 73
0
 74
0
  7

 75
0
147
1.0
148
0.0
149
0.0
100
AcDbLayout
  1
Model
 70
0
 71
0
 10
0.0
 20
0.0
 11
22.0
 21
17.0
 12
0.0
 22
0.0
 32
0.0
 14
0.0
 24
0.0
 34
0.0
 15
0.0
 25
0.0
 35
0.0
146
0.0
 13
0.0
 23
0.0
 33
0.0
 16
1.0
 26
0.0
 36
0.0
 17
0.0
 27
1.0
 37
0.0
 76
0
330
212
345
0
346
0
  0
LAYOUT
  5
A75
102
{ACAD_REACTORS
330
1A
102
}
100
AcDbPlotSettings
  1

  2
none_device
  4
ANSI_C_(22.00_x_17.00_Inches)
  6

 40
0.0
 41
0.0
 42
0.0
 43
0.0
 44
558.8
 45
431.8
 46
0.0
 47
0.0
 48
0.0
 49
0.0
140
0.0
141
0.0
142
1.0
143
1.0
 70
0
 72
0
 73
0
 74
0
  7

 75
0
147
1.0
148
0.0
149
0.0
100
AcDbLayout
  1
Layout1
 70
0
 71
1
 10
0.0
 20
0.0
 11
22.0
 21
17.0
 12
0.0
 22
0.0
 32
0.0
 14
0.0
 24
0.0
 34
0.0
 15
0.0
 25
0.0
 35
0.0
146
0.0
 13
0.0
 23
0.0
 33
0.0
 16
1.0
 26
0.0
 36
0.0
 17
0.0
 27
1.0
 37
0.0
 76
0
330
213
345
0
346
0
  0
ENDSEC
  0
EOF
