  0
SECTION
  2
HEADER
  9
$ACADVER
  1
AC1021
  9
$DWGCODEPAGE
  3
ANSI_1252
  9
$EXTMAX
 10
22.0
 20
17.0
 30
0.0
  9
$EXTMIN
 10
0.0
 20
0.0
 30
0.0
  9
$LIMMIN
 10
0.0
 20
0.0
  9
$LIMMAX
 10
22.0
 20
17.0
  9
$VIEWCTR
 10
11.0
 20
8.5
  9
$VIEWSIZE
 40
17.0
  9
$CLAYER
  8
0
  9
$LTSCALE
 40
1.21
  9
$CELTYPE
  6
BYLAYER
  9
$DIMSCALE
 40
1.0
  9
$DIMASZ
 40
0.1875
  9
$DIMEXO
 40
0.1375
  9
$DIMDLI
 40
0.836
  9
$DIMEXE
 40
0.396
  9
$DIMCEN
 40
0.198
  9
$DIMLFAC
 40
1.0
  9
$DIMBLK
  1
_FILLED
  9
$DIMTXT
 40
0.125
  9
$DIMTOL
 70
1
  9
$DIMLIM
 70
0
  9
$DIMTFAC
 40
1.0
  9
$DIMTP
 40
0.001
  9
$DIMTM
 40
0.001
  9
$PDMODE
 70
3
  9
$PDSIZE
 40
0.03125
  9
$HANDSEED
  5
801
  9
$TILEMODE
 70
1
  9
$MEASUREMENT
 70
0
  9
$INSUNITS
 70
1
  0
ENDSEC
  0
SECTION
  2
CLASSES
  0
CLASS
  1
ACDBDICTIONARYWDFLT
  2
AcDbDictionaryWithDefault
  3
AutoCAD 2000
 90
0
 91
1
280
0
281
0
  0
CLASS
  1
ACDBPLACEHOLDER
  2
AcDbPlaceHolder
  3
AutoCAD 2000
 90
0
 91
1
280
0
281
0
  0
CLASS
  1
LAYOUT
  2
AcDbLayout
  3
AutoCAD 2000
 90
0
 91
0
280
0
281
0
  0
ENDSEC
  0
SECTION
  2
TABLES
  0
TABLE
  2
VPORT
  5
8
100
AcDbSymbolTable
 70
2
  0
VPORT
  5
1F4
100
AcDbSymbolTableRecord
100
AcDbViewportTableRecord
  2
*ACTIVE
 70
0
 10
0.0
 20
0.0
 11
1.0
 21
1.0
 12
11.0
 22
8.5
 13
0.0
 23
0.0
 14
1.0
 24
1.0
 15
0.0
 25
0.0
 16
0.0
 26
0.0
 36
1.0
 17
0.0
 27
0.0
 37
0.0
 40
17.0
 41
1.2941176471
 42
50.0
 43
0.0
 44
0.0
 50
0.0
 51
0.0
 71
0
 72
100
 73
1
 74
1
 75
0
 76
0
 77
0
 78
0
  0
ENDTAB
  0
TABLE
  2
LTYPE
  5
5
100
AcDbSymbolTable
 70
6
  0
LTYPE
  5
14
100
AcDbSymbolTableRecord
100
AcDbLinetypeTableRecord
  2
BYBLOCK
 70
0
  3

 72
65
 73
0
 40
0.0
  0
LTYPE
  5
15
100
AcDbSymbolTableRecord
100
AcDbLinetypeTableRecord
  2
BYLAYER
 70
0
  3

 72
65
 73
0
 40
0.0
  0
LTYPE
  5
16
100
AcDbSymbolTableRecord
100
AcDbLinetypeTableRecord
  2
CONTINUOUS
 70
64
  3
Solid line
 72
65
 73
0
 40
0.0
  0
LTYPE
  5
1F5
100
AcDbSymbolTableRecord
100
AcDbLinetypeTableRecord
  2
CENTER
 70
64
  3
____ _ ____ _ ____ _ ____ _ ____ _ ____ _ ____
 72
65
 73
4
 40
0.6
 49
0.375
 74
0
 49
-0.075
 74
0
 49
0.075
 74
0
 49
-0.075
 74
0
  0
LTYPE
  5
1F6
100
AcDbSymbolTableRecord
100
AcDbLinetypeTableRecord
  2
HIDDEN
 70
64
  3
- - - - - - - - - - - - - - - - - - - -
 72
65
 73
2
 40
0.2
 49
0.1
 74
0
 49
-0.1
 74
0
  0
LTYPE
  5
1F7
100
AcDbSymbolTableRecord
100
AcDbLinetypeTableRecord
  2
PHANTOM
 70
64
  3
_____ _ _ _____ _ _ _____ _ _ _____
 72
65
 73
6
 40
0.8
 49
0.45
 74
0
 49
-0.05
 74
0
 49
0.1
 74
0
 49
-0.05
 74
0
 49
0.1
 74
0
 49
-0.05
 74
0
  0
LTYPE
  5
1F8
100
AcDbSymbolTableRecord
100
AcDbLinetypeTableRecord
  2
DOT
 70
64
  3
. . . . . . . . . . . . . . . . . . . .
 72
65
 73
2
 40
0.2
 49
0.1
 74
0
 49
-0.1
 74
0
  0
LTYPE
  5
1F9
100
AcDbSymbolTableRecord
100
AcDbLinetypeTableRecord
  2
DASHED
 70
64
  3
- - - - - - - - - - - - - - - - - - - -
 72
65
 73
2
 40
0.2
 49
0.1
 74
0
 49
-0.1
 74
0
  0
ENDTAB
  0
TABLE
  2
LAYER
  5
2
100
AcDbSymbolTable
 70
36
  0
LAYER
  5
10
100
AcDbSymbolTableRecord
100
AcDbLayerTableRecord
  2
0
 70
0
 62
7
  6
CONTINUOUS
370
-3
390
F
  0
LAYER
  5
1FA
100
AcDbSymbolTableRecord
100
AcDbLayerTableRecord
  2
DEFAULT_1
 70
0
 62
7
  6
CENTER
370
-3
390
F
  0
LAYER
  5
1FB
100
AcDbSymbolTableRecord
100
AcDbLayerTableRecord
  2
DEFAULT_2
 70
0
 62
8
  6
HIDDEN
370
-3
390
F
  0
LAYER
  5
1FC
100
AcDbSymbolTableRecord
100
AcDbLayerTableRecord
  2
DEFAULT_3
 70
0
 62
7
  6
PHANTOM
370
-3
390
F
  0
LAYER
  5
1FD
100
AcDbSymbolTableRecord
100
AcDbLayerTableRecord
  2
1_CURVES
 70
0
 62
7
  6
CONTINUOUS
370
-3
390
F
  0
LAYER
  5
1FE
100
AcDbSymbolTableRecord
100
AcDbLayerTableRecord
  2
1_CURVES-JETS
 70
0
 62
7
  6
CONTINUOUS
370
-3
390
F
  0
LAYER
  5
1FF
100
AcDbSymbolTableRecord
100
AcDbLayerTableRecord
  2
1_CURVES_TOLERANCES
 70
0
 62
7
  6
CONTINUOUS
370
-3
390
F
  0
LAYER
  5
200
100
AcDbSymbolTableRecord
100
AcDbLayerTableRecord
  2
2_PLANES
 70
0
 62
7
  6
CONTINUOUS
370
-3
390
F
  0
LAYER
  5
201
100
AcDbSymbolTableRecord
100
AcDbLayerTableRecord
  2
3_POINTS
 70
0
 62
7
  6
CONTINUOUS
370
-3
390
F
  0
LAYER
  5
202
100
AcDbSymbolTableRecord
100
AcDbLayerTableRecord
  2
3_POINTS-JETS
 70
0
 62
7
  6
CONTINUOUS
370
-3
390
F
  0
LAYER
  5
203
100
AcDbSymbolTableRecord
100
AcDbLayerTableRecord
  2
4_CSYS
 70
0
 62
7
  6
CONTINUOUS
370
-3
390
F
  0
LAYER
  5
204
100
AcDbSymbolTableRecord
100
AcDbLayerTableRecord
  2
5_AXIS
 70
0
 62
7
  6
CONTINUOUS
370
-3
390
F
  0
LAYER
  5
205
100
AcDbSymbolTableRecord
100
AcDbLayerTableRecord
  2
5_AXIS-JETS
 70
0
 62
7
  6
CONTINUOUS
370
-3
390
F
  0
LAYER
  5
206
100
AcDbSymbolTableRecord
100
AcDbLayerTableRecord
  2
6_SURFACES
 70
0
 62
7
  6
CONTINUOUS
370
-3
390
F
  0
LAYER
  5
207
100
AcDbSymbolTableRecord
100
AcDbLayerTableRecord
  2
6_SURFACES-OFFSET-FIBRE
 70
0
 62
7
  6
CONTINUOUS
370
-3
390
F
  0
LAYER
  5
208
100
AcDbSymbolTableRecord
100
AcDbLayerTableRecord
  2
6_SURFACES-TOOLING
 70
0
 62
7
  6
CONTINUOUS
370
-3
390
F
  0
LAYER
  5
209
100
AcDbSymbolTableRecord
100
AcDbLayerTableRecord
  2
6_SURFACES_POUR_DECOUPE
 70
0
 62
7
  6
CONTINUOUS
370
-3
390
F
  0
LAYER
  5
20A
100
AcDbSymbolTableRecord
100
AcDbLayerTableRecord
  2
6_SURFACES_TOOLING
 70
0
 62
7
  6
CONTINUOUS
370
-3
390
F
  0
LAYER
  5
20B
100
AcDbSymbolTableRecord
100
AcDbLayerTableRecord
  2
7_NOTES
 70
0
 62
7
  6
CONTINUOUS
370
-3
390
F
  0
LAYER
  5
20C
100
AcDbSymbolTableRecord
100
AcDbLayerTableRecord
  2
8_ZONE-ROBINETERIE
 70
0
 62
7
  6
CONTINUOUS
370
-3
390
F
  0
LAYER
  5
20D
100
AcDbSymbolTableRecord
100
AcDbLayerTableRecord
  2
MIA_PLUS_TROU
 70
0
 62
7
  6
CONTINUOUS
370
-3
390
F
  0
LAYER
  5
20E
100
AcDbSymbolTableRecord
100
AcDbLayerTableRecord
  2
MIA_TROU
 70
0
 62
7
  6
CONTINUOUS
370
-3
390
F
  0
LAYER
  5
20F
100
AcDbSymbolTableRecord
100
AcDbLayerTableRecord
  2
XSEC_DATUMS
 70
0
 62
7
  6
CONTINUOUS
370
-3
390
F
  0
ENDTAB
  0
TABLE
  2
STYLE
  5
3
100
AcDbSymbolTable
 70
1
  0
STYLE
  5
11
100
AcDbSymbolTableRecord
100
AcDbTextStyleTableRecord
  2
STANDARD
 70
0
 40
0.0
 41
0.8
 50
0.0
 71
0
 42
0.2
  3
txt
  4

  0
STYLE
  5
210
100
AcDbSymbolTableRecord
100
AcDbTextStyleTableRecord
  2
TEXTSTYLE_1
 70
0
 40
0.0
 41
0.8
 50
0.0
 71
0
 42
0.2
  3
gdt
  4

  0
ENDTAB
  0
TABLE
  2
VIEW
  5
6
100
AcDbSymbolTable
 70
0
  0
ENDTAB
  0
TABLE
  2
UCS
  5
7
100
AcDbSymbolTable
 70
0
  0
ENDTAB
  0
TABLE
  2
APPID
  5
9
100
AcDbSymbolTable
 70
1
  0
APPID
  5
211
100
AcDbSymbolTableRecord
100
AcDbRegAppTableRecord
  2
ACAD
 70
0
  0
ENDTAB
  0
TABLE
  2
BLOCK_RECORD
  5
1
100
AcDbSymbolTable
 70
0
  0
BLOCK_RECORD
  5
212
100
AcDbSymbolTableRecord
100
AcDbBlockTableRecord
  2
*Model_Space
  0
BLOCK_RECORD
  5
213
100
AcDbSymbolTableRecord
100
AcDbBlockTableRecord
  2
*Paper_Space
  0
ENDTAB
  0
TABLE
  2
DIMSTYLE
  5
A
100
AcDbSymbolTable
 70
1
100
AcDbDimStyleTable
 71
0
  0
DIMSTYLE
105
214
100
AcDbSymbolTableRecord
100
AcDbDimStyleTableRecord
  2
STANDARD
 70
0
  3

  4

 40
1.0
 41
0.1875
 42
0.0625
 43
0.38
 44
0.18
 45
0.0
 46
0.0
 47
0.001
 48
0.001
140
0.125
141
0.09
142
0.0
143
25.4
144
1.0
145
0.0
146
1.0
147
0.09
 71
1.0
 72
0.0
 73
1
 74
1
 75
0
 76
0
 77
0
 78
4
170
0
171
2
172
0
173
0
174
0
175
0
176
0
177
0
178
0
270
2
271
3
272
3
273
2
274
2
275
0
280
0
281
0
282
0
283
1
284
4
285
0
286
0
287
3
288
0
340
11
  0
ENDTAB
  0
ENDSEC
  0
SECTION
  2
BLOCKS
  0
BLOCK
  5
20
100
AcDbEntity
  8
0
100
AcDbBlockBegin
  2
*Model_Space
 70
0
 10
0.0
 20
0.0
 30
0.0
  3
*Model_Space
  1

  0
ENDBLK
  5
21
100
AcDbEntity
  8
0
100
AcDbBlockEnd
  0
BLOCK
  5
1C
100
AcDbEntity
  8
0
100
AcDbBlockBegin
  2
*Paper_Space
 70
0
 10
0.0
 20
0.0
 30
0.0
  3
*Paper_Space
  1

  0
ENDBLK
  5
1D
100
AcDbEntity
  8
0
100
AcDbBlockEnd
  0
ENDSEC
  0
SECTION
  2
ENTITIES
  0
LINE
  5
215
100
AcDbEntity
  8
0
100
AcDbLine
 62
7
  6
CONTINUOUS
 10
30.5052527697
 20
138.9360455952
 11
30.4937543184
 21
138.8890905593
  0
LINE
  5
216
100
AcDbEntity
  8
0
100
AcDbLine
 62
9
  6
CONTINUOUS
 10
30.5038608971
 20
138.9300776735
 11
30.5152084845
 21
138.9703289747
  0
LINE
  5
217
100
AcDbEntity
  8
0
100
AcDbLine
 62
7
  6
CONTINUOUS
 10
30.5189179075
 20
138.9831455668
 11
30.5052527697
 21
138.9360455952
  0
LINE
  5
218
100
AcDbEntity
  8
0
100
AcDbLine
 62
9
  6
CONTINUOUS
 10
30.5152084845
 20
138.9703289747
 11
30.5281601456
 21
139.0106949401
  0
LINE
  5
219
100
AcDbEntity
  8
0
100
AcDbLine
 62
7
  6
CONTINUOUS
 10
33.5365057074
 20
135.8723494731
 11
33.5319755994
 21
135.8585434301
  0
LINE
  5
21A
100
AcDbEntity
  8
0
100
AcDbLine
 62
7
  6
CONTINUOUS
 10
30.5347665845
 20
139.0303340164
 11
30.5189179075
 21
138.9831455668
  0
LINE
  5
21B
100
AcDbEntity
  8
0
100
AcDbLine
 62
9
  6
CONTINUOUS
 10
30.5281601456
 20
139.0106949401
 11
30.5427610864
 21
139.0512050766
  0
LINE
  5
21C
100
AcDbEntity
  8
0
100
AcDbLine
 62
9
  6
CONTINUOUS
 10
43.747788816
 20
130.6579928199
 11
43.7566398069
 21
130.681857789
  0
LINE
  5
21D
100
AcDbEntity
  8
0
100
AcDbLine
 62
7
  6
CONTINUOUS
 10
30.5528140203
 20
139.0775051198
 11
30.5347665845
 21
139.0303340164
  0
LINE
  5
21E
100
AcDbEntity
  8
0
100
AcDbLine
 62
7
  6
CONTINUOUS
 10
33.541787683
 20
135.8858349688
 11
33.5365057074
 21
135.8723494731
  0
LINE
  5
21F
100
AcDbEntity
  8
0
100
AcDbLine
 62
9
  6
CONTINUOUS
 10
30.5427610864
 20
139.0512050766
 11
30.5590449568
 21
139.0918293674
  0
LINE
  5
220
100
AcDbEntity
  8
0
100
AcDbLine
 62
9
  6
CONTINUOUS
 10
43.7566398069
 20
130.681857789
 11
43.7666255678
 21
130.7052767125
  0
LINE
  5
221
100
AcDbEntity
  8
0
100
AcDbLine
 62
7
  6
CONTINUOUS
 10
30.5730778566
 20
139.1245950087
 11
30.5528140203
 21
139.0775051198
  0
LINE
  5
222
100
AcDbEntity
  8
0
100
AcDbLine
 62
9
  6
CONTINUOUS
 10
30.5590449568
 20
139.0918293674
 11
30.5770312782
 21
139.1324940812
  0
LINE
  5
223
100
AcDbEntity
  8
0
100
AcDbLine
 62
7
  6
CONTINUOUS
 10
33.5417862374
 20
135.8858249759
 11
33.5478278373
 21
135.8990061816
  0
LINE
  5
224
100
AcDbEntity
  8
0
100
AcDbLine
 62
7
  6
CONTINUOUS
 10
30.595599902
 20
139.1715709328
 11
30.5730778566
 21
139.1245950087
  0
LINE
  5
225
100
AcDbEntity
  8
0
100
AcDbLine
 62
9
  6
CONTINUOUS
 10
43.7666255678
 20
130.7052767125
 11
43.7777184931
 21
130.7281848237
  0
LINE
  5
226
100
AcDbEntity
  8
0
100
AcDbLine
 62
9
  6
CONTINUOUS
 10
30.5770312782
 20
139.1324940812
 11
30.5967619847
 21
139.1731771822
  0
LINE
  5
227
100
AcDbEntity
  8
0
100
AcDbLine
 62
7
  6
CONTINUOUS
 10
33.5478278373
 20
135.8990061816
 11
33.5546459375
 21
135.9119045648
  0
LINE
  5
228
100
AcDbEntity
  8
0
100
AcDbLine
 62
9
  6
CONTINUOUS
 10
30.5967619847
 20
139.1731771822
 11
30.6181825267
 21
139.2136761738
  0
LINE
  5
229
100
AcDbEntity
  8
0
100
AcDbLine
 62
7
  6
CONTINUOUS
 10
30.6203228761
 20
139.2182337145
 11
30.595599902
 21
139.1715709328
  0
LINE
  5
22A
100
AcDbEntity
  8
0
100
AcDbLine
 62
9
  6
CONTINUOUS
 10
43.7777184931
 20
130.7281848237
 11
43.7898916204
 21
130.7505264639
  0
LINE
  5
22B
100
AcDbEntity
  8
0
100
AcDbLine
 62
9
  6
CONTINUOUS
 10
30.6181825267
 20
139.2136761738
 11
30.6412119846
 21
139.2537836076
  0
LINE
  5
22C
100
AcDbEntity
  8
0
100
AcDbLine
 62
9
  6
CONTINUOUS
 10
62.9465661935
 20
128.201200815
 11
62.9107554355
 21
128.1392408089
  0
LINE
  5
22D
100
AcDbEntity
  8
0
100
AcDbLine
 62
7
  6
CONTINUOUS
 10
30.6472237222
 20
139.2644241505
 11
30.6203228761
 21
139.2182337145
  0
LINE
  5
22E
100
AcDbEntity
  8
0
100
AcDbLine
 62
9
  6
CONTINUOUS
 10
65.997965209
 20
126.193270487
 11
66.0329271637
 21
126.2514233793
  0
LINE
  5
22F
100
AcDbEntity
  8
0
100
AcDbLine
 62
7
  6
CONTINUOUS
 10
33.5622137697
 20
135.9244440059
 11
33.5546523313
 21
135.9119143399
  0
LINE
  5
230
100
AcDbEntity
  8
0
100
AcDbLine
 62
9
  6
CONTINUOUS
 10
43.7898916204
 20
130.7505264639
 11
43.8031158064
 21
130.7722469397
  0
LINE
  5
231
100
AcDbEntity
  8
0
100
AcDbLine
 62
9
  6
CONTINUOUS
 10
30.6412119846
 20
139.2537836076
 11
30.6658801902
 21
139.2935024255
  0
LINE
  5
232
100
AcDbEntity
  8
0
100
AcDbLine
 62
9
  6
CONTINUOUS
 10
62.9845064982
 20
128.261557396
 11
62.9465661935
 21
128.201200815
  0
LINE
  5
233
100
AcDbEntity
  8
0
100
AcDbLine
 62
7
  6
CONTINUOUS
 10
30.6762415775
 20
139.3099895681
 11
30.6472237222
 21
139.2644241505
  0
LINE
  5
234
100
AcDbEntity
  8
0
100
AcDbLine
 62
9
  6
CONTINUOUS
 10
65.9608629771
 20
126.1364803605
 11
65.997965209
 21
126.193270487
  0
LINE
  5
235
100
AcDbEntity
  8
0
100
AcDbLine
 62
9
  6
CONTINUOUS
 10
30.6658801902
 20
139.2935024255
 11
30.6922273921
 21
139.3328288748
  0
LINE
  5
236
100
AcDbEntity
  8
0
100
AcDbLine
 62
9
  6
CONTINUOUS
 10
43.8031158064
 20
130.7722469397
 11
43.8173551571
 21
130.7932861859
  0
LINE
  5
237
100
AcDbEntity
  8
0
100
AcDbLine
 62
9
  6
CONTINUOUS
 10
63.0244837224
 20
128.3201868307
 11
62.9845064982
 21
128.261557396
  0
LINE
  5
238
100
AcDbEntity
  8
0
100
AcDbLine
 62
7
  6
CONTINUOUS
 10
33.5622075413
 20
135.9244343185
 11
33.5704870871
 21
135.9365411109
  0
LINE
  5
239
100
AcDbEntity
  8
0
100
AcDbLine
 62
7
  6
CONTINUOUS
 10
30.7073100687
 20
139.3547446598
 11
30.6762415775
 21
139.3099895681
  0
LINE
  5
23A
100
AcDbEntity
  8
0
100
AcDbLine
 62
9
  6
CONTINUOUS
 10
65.921695514
 20
126.0811614779
 11
65.9608629771
 21
126.1364803605
  0
LINE
  5
23B
100
AcDbEntity
  8
0
100
AcDbLine
 62
9
  6
CONTINUOUS
 10
30.6922273921
 20
139.3328288748
 11
30.720151591
 21
139.37154919
  0
LINE
  5
23C
100
AcDbEntity
  8
0
100
AcDbLine
 62
9
  6
CONTINUOUS
 10
63.0664359367
 20
128.3770221666
 11
63.0244837224
 21
128.3201868307
  0
LINE
  5
23D
100
AcDbEntity
  8
0
100
AcDbLine
 62
9
  6
CONTINUOUS
 10
43.8173551571
 20
130.7932861859
 11
43.8325710322
 21
130.8135869981
  0
LINE
  5
23E
100
AcDbEntity
  8
0
100
AcDbLine
 62
7
  6
CONTINUOUS
 10
30.7404226711
 20
139.3986281272
 11
30.7073100687
 21
139.3547446598
  0
LINE
  5
23F
100
AcDbEntity
  8
0
100
AcDbLine
 62
7
  6
CONTINUOUS
 10
63.2848478599
 20
132.9254954333
 11
63.2901895446
 21
132.9324716857
  0
LINE
  5
240
100
AcDbEntity
  8
0
100
AcDbLine
 62
7
  6
CONTINUOUS
 10
65.6512918952
 20
132.8974640125
 11
65.6459502104
 21
132.8904877601
  0
LINE
  5
241
100
AcDbEntity
  8
0
100
AcDbLine
 62
9
  6
CONTINUOUS
 10
65.8805054433
 20
126.0273673644
 11
65.921695514
 21
126.0811614779
  0
LINE
  5
242
100
AcDbEntity
  8
0
100
AcDbLine
 62
7
  6
CONTINUOUS
 10
33.5794538644
 20
135.9481727499
 11
33.570494785
 21
135.9365501225
  0
LINE
  5
243
100
AcDbEntity
  8
0
100
AcDbLine
 62
9
  6
CONTINUOUS
 10
30.720151591
 20
139.37154919
 11
30.7495408806
 21
139.4094786275
  0
LINE
  5
244
100
AcDbEntity
  8
0
100
AcDbLine
 62
9
  6
CONTINUOUS
 10
63.1102842077
 20
128.4319774466
 11
63.0664359367
 21
128.3770221666
  0
LINE
  5
245
100
AcDbEntity
  8
0
100
AcDbLine
 62
7
  6
CONTINUOUS
 10
30.7756076474
 20
139.4415987212
 11
30.7404226711
 21
139.3986281272
  0
LINE
  5
246
100
AcDbEntity
  8
0
100
AcDbLine
 62
9
  6
CONTINUOUS
 10
65.8373426933
 20
125.9751604924
 11
65.8805054433
 21
126.0273673644
  0
LINE
  5
247
100
AcDbEntity
  8
0
100
AcDbLine
 62
9
  6
CONTINUOUS
 10
43.8325710322
 20
130.8135869981
 11
43.8487247372
 21
130.8330978567
  0
LINE
  5
248
100
AcDbEntity
  8
0
100
AcDbLine
 62
9
  6
CONTINUOUS
 10
30.7495408806
 20
139.4094786275
 11
30.7803686335
 21
139.4465616989
  0
LINE
  5
249
100
AcDbEntity
  8
0
100
AcDbLine
 62
9
  6
CONTINUOUS
 10
63.1559600675
 20
128.4849966866
 11
63.1102842077
 21
128.4319774466
  0
LINE
  5
24A
100
AcDbEntity
  8
0
100
AcDbLine
 62
7
  6
CONTINUOUS
 10
33.5890332522
 20
135.9592402044
 11
33.5794538644
 21
135.9481727499
  0
LINE
  5
24B
100
AcDbEntity
  8
0
100
AcDbLine
 62
7
  6
CONTINUOUS
 10
30.8126942622
 20
139.4834109874
 11
30.7756076474
 21
139.4415987212
  0
LINE
  5
24C
100
AcDbEntity
  8
0
100
AcDbLine
 62
9
  6
CONTINUOUS
 10
30.7803686335
 20
139.4465616989
 11
30.8125882299
 21
139.4827168577
  0
LINE
  5
24D
100
AcDbEntity
  8
0
100
AcDbLine
 62
9
  6
CONTINUOUS
 10
65.7922694792
 20
125.9246149134
 11
65.8373426933
 21
125.9751604924
  0
LINE
  5
24E
100
AcDbEntity
  8
0
100
AcDbLine
 62
9
  6
CONTINUOUS
 10
85.1088923888
 20
110.9485164984
 11
85.1259334687
 21
110.9671870761
  0
LINE
  5
24F
100
AcDbEntity
  8
0
100
AcDbLine
 62
9
  6
CONTINUOUS
 10
43.8487247372
 20
130.8330978567
 11
43.8657747407
 21
130.8517684849
  0
LINE
  5
250
100
AcDbEntity
  8
0
100
AcDbLine
 62
9
  6
CONTINUOUS
 10
63.20338807
 20
128.5360140074
 11
63.1559600675
 21
128.4849966866
  0
LINE
  5
251
100
AcDbEntity
  8
0
100
AcDbLine
 62
9
  6
CONTINUOUS
 10
30.8125882299
 20
139.4827168577
 11
30.8461282644
 21
139.5178392902
  0
LINE
  5
252
100
AcDbEntity
  8
0
100
AcDbLine
 62
9
  6
CONTINUOUS
 10
65.7453478305
 20
125.8757989153
 11
65.7922694792
 21
125.9246149134
  0
LINE
  5
253
100
AcDbEntity
  8
0
100
AcDbLine
 62
7
  6
CONTINUOUS
 10
30.8515990865
 20
139.5238718971
 11
30.8126942622
 21
139.4834109874
  0
LINE
  5
254
100
AcDbEntity
  8
0
100
AcDbLine
 62
7
  6
CONTINUOUS
 10
33.5890265728
 20
135.9592299686
 11
33.5992275612
 21
135.9697434982
  0
LINE
  5
255
100
AcDbEntity
  8
0
100
AcDbLine
 62
9
  6
CONTINUOUS
 10
63.2524963952
 20
128.5849811355
 11
63.20338807
 21
128.5360140074
  0
LINE
  5
256
100
AcDbEntity
  8
0
100
AcDbLine
 62
9
  6
CONTINUOUS
 10
85.0909987094
 20
110.9307365388
 11
85.1088923888
 21
110.9485164984
  0
LINE
  5
257
100
AcDbEntity
  8
0
100
AcDbLine
 62
9
  6
CONTINUOUS
 10
43.8657747407
 20
130.8517684849
 11
43.8836765351
 21
130.8695500357
  0
LINE
  5
258
100
AcDbEntity
  8
0
100
AcDbLine
 62
9
  6
CONTINUOUS
 10
30.8461282644
 20
139.5178392902
 11
30.880912594
 21
139.5518299703
  0
LINE
  5
259
100
AcDbEntity
  8
0
100
AcDbLine
 62
9
  6
CONTINUOUS
 10
65.6966429443
 20
125.8287796489
 11
65.7453478305
 21
125.8757989153
  0
LINE
  5
25A
100
AcDbEntity
  8
0
100
AcDbLine
 62
7
  6
CONTINUOUS
 10
30.8920884643
 20
139.5627829248
 11
30.8515990865
 21
139.5238718971
  0
LINE
  5
25B
100
AcDbEntity
  8
0
100
AcDbLine
 62
7
  6
CONTINUOUS
 10
63.2901895446
 20
132.9324716857
 11
63.297650984
 21
132.9394101602
  0
LINE
  5
25C
100
AcDbEntity
  8
0
100
AcDbLine
 62
7
  6
CONTINUOUS
 10
65.6459502104
 20
132.8904877601
 11
65.6384887711
 21
132.8835492856
  0
LINE
  5
25D
100
AcDbEntity
  8
0
100
AcDbLine
 62
9
  6
CONTINUOUS
 10
63.3032152563
 20
128.6318484355
 11
63.2524963952
 21
128.5849811355
  0
LINE
  5
25E
100
AcDbEntity
  8
0
100
AcDbLine
 62
7
  6
CONTINUOUS
 10
33.6100634901
 20
135.9797075349
 11
33.5992362764
 21
135.969751984
  0
LINE
  5
25F
100
AcDbEntity
  8
0
100
AcDbLine
 62
7
  6
CONTINUOUS
 10
33.5992275612
 20
135.9697434982
 11
33.6100537473
 21
135.9796998572
  0
LINE
  5
260
100
AcDbEntity
  8
0
100
AcDbLine
 62
7
  6
CONTINUOUS
 10
95.326076265
 20
105.8368756122
 11
95.3369034786
 21
105.8468311631
  0
LINE
  5
261
100
AcDbEntity
  8
0
100
AcDbLine
 62
7
  6
CONTINUOUS
 10
95.3369121938
 20
105.8468396489
 11
95.3260860078
 21
105.8368832899
  0
LINE
  5
262
100
AcDbEntity
  8
0
100
AcDbLine
 62
9
  6
CONTINUOUS
 10
30.880912594
 20
139.5518299703
 11
30.9168708575
 21
139.584618196
  0
LINE
  5
263
100
AcDbEntity
  8
0
100
AcDbLine
 62
9
  6
CONTINUOUS
 10
85.0723009776
 20
110.9138914165
 11
85.0909987094
 21
110.9307365388
  0
LINE
  5
264
100
AcDbEntity
  8
0
100
AcDbLine
 62
9
  6
CONTINUOUS
 10
43.8836765351
 20
130.8695500357
 11
43.9023834524
 21
130.8863961351
  0
LINE
  5
265
100
AcDbEntity
  8
0
100
AcDbLine
 62
9
  6
CONTINUOUS
 10
65.646221857
 20
125.7836213172
 11
65.6966429443
 21
125.8287796489
  0
LINE
  5
266
100
AcDbEntity
  8
0
100
AcDbLine
 62
7
  6
CONTINUOUS
 10
30.9339653284
 20
139.5999095198
 11
30.8920884643
 21
139.5627829248
  0
LINE
  5
267
100
AcDbEntity
  8
0
100
AcDbLine
 62
7
  6
CONTINUOUS
 10
98.0021744266
 20
102.2166736273
 11
98.0440512908
 21
102.2538002224
  0
LINE
  5
268
100
AcDbEntity
  8
0
100
AcDbLine
 62
9
  6
CONTINUOUS
 10
63.3554558795
 20
128.6765611415
 11
63.3032152563
 21
128.6318484355
  0
LINE
  5
269
100
AcDbEntity
  8
0
100
AcDbLine
 62
9
  6
CONTINUOUS
 10
30.9168708575
 20
139.584618196
 11
30.9539382772
 21
139.6161473049
  0
LINE
  5
26A
100
AcDbEntity
  8
0
100
AcDbLine
 62
9
  6
CONTINUOUS
 10
98.0192688975
 20
102.2319649512
 11
97.9822014779
 21
102.2004358422
  0
LINE
  5
26B
100
AcDbEntity
  8
0
100
AcDbLine
 62
9
  6
CONTINUOUS
 10
65.5941554477
 20
125.7403870962
 11
65.646221857
 21
125.7836213172
  0
LINE
  5
26C
100
AcDbEntity
  8
0
100
AcDbLine
 62
7
  6
CONTINUOUS
 10
33.6100537473
 20
135.9796998572
 11
33.6214482934
 21
135.989036938
  0
LINE
  5
26D
100
AcDbEntity
  8
0
100
AcDbLine
 62
7
  6
CONTINUOUS
 10
95.3146818897
 20
105.8275388127
 11
95.326076265
 21
105.8368756122
  0
LINE
  5
26E
100
AcDbEntity
  8
0
100
AcDbLine
 62
7
  6
CONTINUOUS
 10
30.9770364834
 20
139.635166729
 11
30.9339653284
 21
139.5999095198
  0
LINE
  5
26F
100
AcDbEntity
  8
0
100
AcDbLine
 62
7
  6
CONTINUOUS
 10
97.9591032716
 20
102.1814164181
 11
98.0021744266
 21
102.2166736273
  0
LINE
  5
270
100
AcDbEntity
  8
0
100
AcDbLine
 62
9
  6
CONTINUOUS
 10
85.0528485982
 20
110.8980232289
 11
85.0723009776
 21
110.9138914165
  0
LINE
  5
271
100
AcDbEntity
  8
0
100
AcDbLine
 62
9
  6
CONTINUOUS
 10
43.9023834524
 20
130.8863961351
 11
43.9218469811
 21
130.9022631078
  0
LINE
  5
272
100
AcDbEntity
  8
0
100
AcDbLine
 62
9
  6
CONTINUOUS
 10
30.9539382772
 20
139.6161473049
 11
30.9919860331
 21
139.6463121416
  0
LINE
  5
273
100
AcDbEntity
  8
0
100
AcDbLine
 62
9
  6
CONTINUOUS
 10
97.9822014779
 20
102.2004358422
 11
97.9441537219
 21
102.1702710055
  0
LINE
  5
274
100
AcDbEntity
  8
0
100
AcDbLine
 62
9
  6
CONTINUOUS
 10
63.4091244708
 20
128.7190611444
 11
63.3554558795
 21
128.6765611415
  0
LINE
  5
275
100
AcDbEntity
  8
0
100
AcDbLine
 62
9
  6
CONTINUOUS
 10
65.5405165133
 20
125.6991371358
 11
65.5941554477
 21
125.7403870962
  0
LINE
  5
276
100
AcDbEntity
  8
0
100
AcDbLine
 62
7
  6
CONTINUOUS
 10
31.0210587121
 20
139.6683856215
 11
30.9770364834
 21
139.635166729
  0
LINE
  5
277
100
AcDbEntity
  8
0
100
AcDbLine
 62
7
  6
CONTINUOUS
 10
97.9150810429
 20
102.1481975257
 11
97.9591032716
 21
102.1814164181
  0
LINE
  5
278
100
AcDbEntity
  8
0
100
AcDbLine
 62
9
  6
CONTINUOUS
 10
30.9919860331
 20
139.6463121416
 11
31.0309131912
 21
139.6750414268
  0
LINE
  5
279
100
AcDbEntity
  8
0
100
AcDbLine
 62
9
  6
CONTINUOUS
 10
97.9441537219
 20
102.1702710055
 11
97.9052265638
 21
102.1415417203
  0
LINE
  5
27A
100
AcDbEntity
  8
0
100
AcDbLine
 62
9
  6
CONTINUOUS
 10
85.0326858744
 20
110.8831704954
 11
85.0528485982
 21
110.8980232289
  0
LINE
  5
27B
100
AcDbEntity
  8
0
100
AcDbLine
 62
9
  6
CONTINUOUS
 10
43.9218469811
 20
130.9022631078
 11
43.9420220032
 21
130.9171135527
  0
LINE
  5
27C
100
AcDbEntity
  8
0
100
AcDbLine
 62
9
  6
CONTINUOUS
 10
63.4641552296
 20
128.7593241236
 11
63.4091244708
 21
128.7190611444
  0
LINE
  5
27D
100
AcDbEntity
  8
0
100
AcDbLine
 62
7
  6
CONTINUOUS
 10
33.6214482934
 20
135.989036938
 11
33.6333785
 21
135.9977221816
  0
LINE
  5
27E
100
AcDbEntity
  8
0
100
AcDbLine
 62
7
  6
CONTINUOUS
 10
95.3146914617
 20
105.8275462091
 11
95.3027612551
 21
105.8188609655
  0
LINE
  5
27F
100
AcDbEntity
  8
0
100
AcDbLine
 62
7
  6
CONTINUOUS
 10
63.297650984
 20
132.9394101602
 11
63.3072244445
 21
132.9462982342
  0
LINE
  5
280
100
AcDbEntity
  8
0
100
AcDbLine
 62
7
  6
CONTINUOUS
 10
65.6384887711
 20
132.8835492856
 11
65.6289153105
 21
132.8766612116
  0
LINE
  5
281
100
AcDbEntity
  8
0
100
AcDbLine
 62
9
  6
CONTINUOUS
 10
65.4853803573
 20
125.6599290372
 11
65.5405165133
 21
125.6991371358
  0
LINE
  5
282
100
AcDbEntity
  8
0
100
AcDbLine
 62
7
  6
CONTINUOUS
 10
31.065985012
 20
139.6995835795
 11
31.0210587121
 21
139.6683856215
  0
LINE
  5
283
100
AcDbEntity
  8
0
100
AcDbLine
 62
7
  6
CONTINUOUS
 10
97.8701547431
 20
102.1169995676
 11
97.9150810429
 21
102.1481975257
  0
LINE
  5
284
100
AcDbEntity
  8
0
100
AcDbLine
 62
9
  6
CONTINUOUS
 10
31.0309131912
 20
139.6750414268
 11
31.0705418675
 21
139.7022197864
  0
LINE
  5
285
100
AcDbEntity
  8
0
100
AcDbLine
 62
9
  6
CONTINUOUS
 10
97.9052265638
 20
102.1415417203
 11
97.8655978876
 21
102.1143633607
  0
LINE
  5
286
100
AcDbEntity
  8
0
100
AcDbLine
 62
9
  6
CONTINUOUS
 10
63.5204744492
 20
128.7973153244
 11
63.4641552296
 21
128.7593241236
  0
LINE
  5
287
100
AcDbEntity
  8
0
100
AcDbLine
 62
9
  6
CONTINUOUS
 10
85.0118800586
 20
110.8693841444
 11
85.0326858744
 21
110.8831704954
  0
LINE
  5
288
100
AcDbEntity
  8
0
100
AcDbLine
 62
9
  6
CONTINUOUS
 10
43.9420220032
 20
130.9171135527
 11
43.9628398579
 21
130.930897564
  0
LINE
  5
289
100
AcDbEntity
  8
0
100
AcDbLine
 62
9
  6
CONTINUOUS
 10
65.4288241945
 20
125.6228174606
 11
65.4853803573
 21
125.6599290372
  0
LINE
  5
28A
100
AcDbEntity
  8
0
100
AcDbLine
 62
7
  6
CONTINUOUS
 10
33.6333785
 20
135.9977221816
 11
33.6457501274
 21
136.0056882676
  0
LINE
  5
28B
100
AcDbEntity
  8
0
100
AcDbLine
 62
7
  6
CONTINUOUS
 10
33.6457594884
 20
136.0056939233
 11
33.6333893822
 21
135.9977262824
  0
LINE
  5
28C
100
AcDbEntity
  8
0
100
AcDbLine
 62
7
  6
CONTINUOUS
 10
95.3027612551
 20
105.8188609655
 11
95.2903896277
 21
105.8108948795
  0
LINE
  5
28D
100
AcDbEntity
  8
0
100
AcDbLine
 62
7
  6
CONTINUOUS
 10
95.2903802667
 20
105.8108892238
 11
95.3027503728
 21
105.8188568647
  0
LINE
  5
28E
100
AcDbEntity
  8
0
100
AcDbLine
 62
7
  6
CONTINUOUS
 10
31.111752232
 20
139.7287498536
 11
31.065985012
 21
139.6995835795
  0
LINE
  5
28F
100
AcDbEntity
  8
0
100
AcDbLine
 62
7
  6
CONTINUOUS
 10
97.8243875231
 20
102.0878332935
 11
97.8701547431
 21
102.1169995676
  0
LINE
  5
290
100
AcDbEntity
  8
0
100
AcDbLine
 62
9
  6
CONTINUOUS
 10
31.0705418675
 20
139.7022197864
 11
31.1106576899
 21
139.7277307891
  0
LINE
  5
291
100
AcDbEntity
  8
0
100
AcDbLine
 62
9
  6
CONTINUOUS
 10
97.8655978876
 20
102.1143633607
 11
97.8254820652
 21
102.088852358
  0
LINE
  5
292
100
AcDbEntity
  8
0
100
AcDbLine
 62
9
  6
CONTINUOUS
 10
63.5780149807
 20
128.8330112923
 11
63.5204744492
 21
128.7973153244
  0
LINE
  5
293
100
AcDbEntity
  8
0
100
AcDbLine
 62
9
  6
CONTINUOUS
 10
65.3709280266
 20
125.5878545187
 11
65.4288241945
 21
125.6228174606
  0
LINE
  5
294
100
AcDbEntity
  8
0
100
AcDbLine
 62
9
  6
CONTINUOUS
 10
84.9905097677
 20
110.8567107083
 11
85.0118800586
 21
110.8693841444
  0
LINE
  5
295
100
AcDbEntity
  8
0
100
AcDbLine
 62
9
  6
CONTINUOUS
 10
43.9628398579
 20
130.930897564
 11
43.9842224323
 21
130.9435681968
  0
LINE
  5
296
100
AcDbEntity
  8
0
100
AcDbLine
 62
9
  6
CONTINUOUS
 10
31.1106576899
 20
139.7277307891
 11
31.151233106
 21
139.7515898986
  0
LINE
  5
297
100
AcDbEntity
  8
0
100
AcDbLine
 62
9
  6
CONTINUOUS
 10
97.8254820652
 20
102.088852358
 11
97.7849066491
 21
102.0649932485
  0
LINE
  5
298
100
AcDbEntity
  8
0
100
AcDbLine
 62
7
  6
CONTINUOUS
 10
63.3072244445
 20
132.9462982342
 11
63.318887003
 21
132.9531236476
  0
LINE
  5
299
100
AcDbEntity
  8
0
100
AcDbLine
 62
7
  6
CONTINUOUS
 10
65.6289153105
 20
132.8766612116
 11
65.617252752
 21
132.8698357982
  0
LINE
  5
29A
100
AcDbEntity
  8
0
100
AcDbLine
 62
7
  6
CONTINUOUS
 10
31.1581656001
 20
139.7557999084
 11
31.111752232
 21
139.7287498536
  0
LINE
  5
29B
100
AcDbEntity
  8
0
100
AcDbLine
 62
7
  6
CONTINUOUS
 10
97.7779741549
 20
102.0607832387
 11
97.8243875231
 21
102.0878332935
  0
LINE
  5
29C
100
AcDbEntity
  8
0
100
AcDbLine
 62
9
  6
CONTINUOUS
 10
63.6367144379
 20
128.8663871226
 11
63.5780149807
 21
128.8330112923
  0
LINE
  5
29D
100
AcDbEntity
  8
0
100
AcDbLine
 62
7
  6
CONTINUOUS
 10
33.6457501274
 20
136.0056882676
 11
33.6584685912
 21
136.0128880922
  0
LINE
  5
29E
100
AcDbEntity
  8
0
100
AcDbLine
 62
7
  6
CONTINUOUS
 10
95.2903896277
 20
105.8108948795
 11
95.2776711638
 21
105.803695055
  0
LINE
  5
29F
100
AcDbEntity
  8
0
100
AcDbLine
 62
9
  6
CONTINUOUS
 10
65.3117737376
 20
125.5550892842
 11
65.3709280266
 21
125.5878545187
  0
LINE
  5
2A0
100
AcDbEntity
  8
0
100
AcDbLine
 62
9
  6
CONTINUOUS
 10
31.151233106
 20
139.7515898986
 11
31.1922450536
 21
139.7738055797
  0
LINE
  5
2A1
100
AcDbEntity
  8
0
100
AcDbLine
 62
9
  6
CONTINUOUS
 10
97.7849066491
 20
102.0649932485
 11
97.7438947015
 21
102.0427775674
  0
LINE
  5
2A2
100
AcDbEntity
  8
0
100
AcDbLine
 62
7
  6
CONTINUOUS
 10
31.2050666309
 20
139.7806554137
 11
31.1581656001
 21
139.7557999084
  0
LINE
  5
2A3
100
AcDbEntity
  8
0
100
AcDbLine
 62
7
  6
CONTINUOUS
 10
97.7310731242
 20
102.0359277334
 11
97.7779741549
 21
102.0607832387
  0
LINE
  5
2A4
100
AcDbEntity
  8
0
100
AcDbLine
 62
9
  6
CONTINUOUS
 10
84.9686089709
 20
110.8451680513
 11
84.9905097677
 21
110.8567107083
  0
LINE
  5
2A5
100
AcDbEntity
  8
0
100
AcDbLine
 62
9
  6
CONTINUOUS
 10
43.9842224323
 20
130.9435681968
 11
44.0061355109
 21
130.9551098028
  0
LINE
  5
2A6
100
AcDbEntity
  8
0
100
AcDbLine
 62
9
  6
CONTINUOUS
 10
63.6964901562
 20
128.8974119398
 11
63.6367144379
 21
128.8663871226
  0
LINE
  5
2A7
100
AcDbEntity
  8
0
100
AcDbLine
 62
9
  6
CONTINUOUS
 10
65.2514447207
 20
125.5245673532
 11
65.3117737376
 21
125.5550892842
  0
LINE
  5
2A8
100
AcDbEntity
  8
0
100
AcDbLine
 62
9
  6
CONTINUOUS
 10
31.1922450536
 20
139.7738055797
 11
31.2334828778
 21
139.7942884368
  0
LINE
  5
2A9
100
AcDbEntity
  8
0
100
AcDbLine
 62
9
  6
CONTINUOUS
 10
97.7438947015
 20
102.0427775674
 11
97.7026568773
 21
102.0222947103
  0
LINE
  5
2AA
100
AcDbEntity
  8
0
100
AcDbLine
 62
7
  6
CONTINUOUS
 10
33.67146568
 20
136.0193038409
 11
33.658477205
 21
136.0128901274
  0
LINE
  5
2AB
100
AcDbEntity
  8
0
100
AcDbLine
 62
7
  6
CONTINUOUS
 10
95.264674075
 20
105.7972793062
 11
95.27766255
 21
105.8036930197
  0
LINE
  5
2AC
100
AcDbEntity
  8
0
100
AcDbLine
 62
7
  6
CONTINUOUS
 10
63.318887003
 20
132.9531236476
 11
63.3326232624
 21
132.9598739145
  0
LINE
  5
2AD
100
AcDbEntity
  8
0
100
AcDbLine
 62
7
  6
CONTINUOUS
 10
65.617252752
 20
132.8698357982
 11
65.6035164927
 21
132.8630855312
  0
LINE
  5
2AE
100
AcDbEntity
  8
0
100
AcDbLine
 62
7
  6
CONTINUOUS
 10
31.2522833144
 20
139.8032870045
 11
31.2050666309
 21
139.7806554137
  0
LINE
  5
2AF
100
AcDbEntity
  8
0
100
AcDbLine
 62
7
  6
CONTINUOUS
 10
97.6838564406
 20
102.0132961426
 11
97.7310731242
 21
102.0359277334
  0
LINE
  5
2B0
100
AcDbEntity
  8
0
100
AcDbLine
 62
9
  6
CONTINUOUS
 10
63.75726731
 20
128.9260578206
 11
63.6964901562
 21
128.8974119398
  0
LINE
  5
2B1
100
AcDbEntity
  8
0
100
AcDbLine
 62
9
  6
CONTINUOUS
 10
44.0061355109
 20
130.9551098028
 11
44.0285339432
 21
130.9654997029
  0
LINE
  5
2B2
100
AcDbEntity
  8
0
100
AcDbLine
 62
9
  6
CONTINUOUS
 10
84.9462207481
 20
110.8347833202
 11
84.9686089709
 21
110.8451680513
  0
LINE
  5
2B3
100
AcDbEntity
  8
0
100
AcDbLine
 62
9
  6
CONTINUOUS
 10
65.1900259785
 20
125.4963312429
 11
65.2514447207
 21
125.5245673532
  0
LINE
  5
2B4
100
AcDbEntity
  8
0
100
AcDbLine
 62
9
  6
CONTINUOUS
 10
31.2334828778
 20
139.7942884368
 11
31.2747093728
 21
139.8129626853
  0
LINE
  5
2B5
100
AcDbEntity
  8
0
100
AcDbLine
 62
9
  6
CONTINUOUS
 10
97.7026568773
 20
102.0222947103
 11
97.6614303823
 21
102.0036204618
  0
LINE
  5
2B6
100
AcDbEntity
  8
0
100
AcDbLine
 62
7
  6
CONTINUOUS
 10
31.2996069353
 20
139.8236213662
 11
31.2522833144
 21
139.8032870045
  0
LINE
  5
2B7
100
AcDbEntity
  8
0
100
AcDbLine
 62
7
  6
CONTINUOUS
 10
97.6365328198
 20
101.9929617809
 11
97.6838564406
 21
102.0132961426
  0
LINE
  5
2B8
100
AcDbEntity
  8
0
100
AcDbLine
 62
7
  6
CONTINUOUS
 10
33.6846249483
 20
136.0249062657
 11
33.67146568
 21
136.0193038409
  0
LINE
  5
2B9
100
AcDbEntity
  8
0
100
AcDbLine
 62
7
  6
CONTINUOUS
 10
33.6714585872
 20
136.0193005849
 11
33.6846200787
 21
136.0249047093
  0
LINE
  5
2BA
100
AcDbEntity
  8
0
100
AcDbLine
 62
7
  6
CONTINUOUS
 10
95.2515148068
 20
105.7916768815
 11
95.264674075
 21
105.7972793062
  0
LINE
  5
2BB
100
AcDbEntity
  8
0
100
AcDbLine
 62
7
  6
CONTINUOUS
 10
95.2646811679
 20
105.7972825623
 11
95.2515196764
 21
105.7916784379
  0
LINE
  5
2BC
100
AcDbEntity
  8
0
100
AcDbLine
 62
9
  6
CONTINUOUS
 10
63.8189599803
 20
128.9522980032
 11
63.75726731
 21
128.9260578206
  0
LINE
  5
2BD
100
AcDbEntity
  8
0
100
AcDbLine
 62
7
  6
CONTINUOUS
 10
63.3326232624
 20
132.9598739145
 11
63.348402911
 21
132.9665370896
  0
LINE
  5
2BE
100
AcDbEntity
  8
0
100
AcDbLine
 62
7
  6
CONTINUOUS
 10
65.6035164927
 20
132.8630855312
 11
65.587736844
 21
132.8564223562
  0
LINE
  5
2BF
100
AcDbEntity
  8
0
100
AcDbLine
 62
9
  6
CONTINUOUS
 10
85.0260334258
 20
131.1221220017
 11
84.7420974811
 21
131.0041203395
  0
LINE
  5
2C0
100
AcDbEntity
  8
0
100
AcDbLine
 62
9
  6
CONTINUOUS
 10
65.1276048406
 20
125.4704203226
 11
65.1900259785
 21
125.4963312429
  0
LINE
  5
2C1
100
AcDbEntity
  8
0
100
AcDbLine
 62
9
  6
CONTINUOUS
 10
44.1553285209
 20
110.7961336279
 11
43.8721907106
 21
110.6790029503
  0
LINE
  5
2C2
100
AcDbEntity
  8
0
100
AcDbLine
 62
9
  6
CONTINUOUS
 10
31.2747093728
 20
139.8129626853
 11
31.3159657223
 21
139.8298978795
  0
LINE
  5
2C3
100
AcDbEntity
  8
0
100
AcDbLine
 62
9
  6
CONTINUOUS
 10
97.6614303823
 20
102.0036204618
 11
97.6201740328
 21
101.9866852676
  0
LINE
  5
2C4
100
AcDbEntity
  8
0
100
AcDbLine
 62
9
  6
CONTINUOUS
 10
44.0285339432
 20
130.9654997029
 11
44.05137207
 21
130.9747155873
  0
LINE
  5
2C5
100
AcDbEntity
  8
0
100
AcDbLine
 62
9
  6
CONTINUOUS
 10
84.9233920426
 20
110.8255779226
 11
84.9462207481
 21
110.8347833202
  0
LINE
  5
2C6
100
AcDbEntity
  8
0
100
AcDbLine
 62
9
  6
CONTINUOUS
 10
85.3186245743
 20
131.2396907966
 11
85.0260334258
 21
131.1221220017
  0
LINE
  5
2C7
100
AcDbEntity
  8
0
100
AcDbLine
 62
9
  6
CONTINUOUS
 10
43.8721907106
 20
110.6790029503
 11
43.5805207987
 21
110.5623007166
  0
LINE
  5
2C8
100
AcDbEntity
  8
0
100
AcDbLine
 62
9
  6
CONTINUOUS
 10
84.7420974811
 20
131.0041203395
 11
84.7346422889
 21
131.0011961229
  0
LINE
  5
2C9
100
AcDbEntity
  8
0
100
AcDbLine
 62
9
  6
CONTINUOUS
 10
44.1629668732
 20
110.7991098434
 11
44.1553285209
 21
110.7961336279
  0
LINE
  5
2CA
100
AcDbEntity
  8
0
100
AcDbLine
 62
9
  6
CONTINUOUS
 10
85.6198898224
 20
131.3568338572
 11
85.3186245743
 21
131.2396907966
  0
LINE
  5
2CB
100
AcDbEntity
  8
0
100
AcDbLine
 62
9
  6
CONTINUOUS
 10
43.5805207987
 20
110.5623007166
 11
43.2803001072
 21
110.4460199055
  0
LINE
  5
2CC
100
AcDbEntity
  8
0
100
AcDbLine
 62
7
  6
CONTINUOUS
 10
31.3469891255
 20
139.8417120175
 11
31.2996069353
 21
139.8236213662
  0
LINE
  5
2CD
100
AcDbEntity
  8
0
100
AcDbLine
 62
7
  6
CONTINUOUS
 10
97.5891506296
 20
101.9748711296
 11
97.6365328198
 21
101.9929617809
  0
LINE
  5
2CE
100
AcDbEntity
  8
0
100
AcDbLine
 62
9
  6
CONTINUOUS
 10
63.8814834531
 20
128.9761062316
 11
63.8189599803
 21
128.9522980032
  0
LINE
  5
2CF
100
AcDbEntity
  8
0
100
AcDbLine
 62
9
  6
CONTINUOUS
 10
85.9297724825
 20
131.4735297848
 11
85.6198898224
 21
131.3568338572
  0
LINE
  5
2D0
100
AcDbEntity
  8
0
100
AcDbLine
 62
9
  6
CONTINUOUS
 10
43.2803001072
 20
110.4460199055
 11
42.9715846698
 21
110.3301815811
  0
LINE
  5
2D1
100
AcDbEntity
  8
0
100
AcDbLine
 62
9
  6
CONTINUOUS
 10
65.0642705809
 20
125.4468708876
 11
65.1276048406
 21
125.4704203226
  0
LINE
  5
2D2
100
AcDbEntity
  8
0
100
AcDbLine
 62
9
  6
CONTINUOUS
 10
31.3159657223
 20
139.8298978795
 11
31.3572574692
 21
139.8451413369
  0
LINE
  5
2D3
100
AcDbEntity
  8
0
100
AcDbLine
 62
9
  6
CONTINUOUS
 10
97.6201740328
 20
101.9866852676
 11
97.5788822859
 21
101.9714418103
  0
LINE
  5
2D4
100
AcDbEntity
  8
0
100
AcDbLine
 62
7
  6
CONTINUOUS
 10
63.348402911
 20
132.9665370896
 11
63.3662029991
 21
132.9731009136
  0
LINE
  5
2D5
100
AcDbEntity
  8
0
100
AcDbLine
 62
7
  6
CONTINUOUS
 10
65.587736844
 20
132.8564223562
 11
65.569936756
 21
132.8498585321
  0
LINE
  5
2D6
100
AcDbEntity
  8
0
100
AcDbLine
 62
9
  6
CONTINUOUS
 10
86.2482336871
 20
131.5897634136
 11
85.9297724825
 21
131.4735297848
  0
LINE
  5
2D7
100
AcDbEntity
  8
0
100
AcDbLine
 62
9
  6
CONTINUOUS
 10
42.9715846698
 20
110.3301815811
 11
42.6544130846
 21
110.2148007312
  0
LINE
  5
2D8
100
AcDbEntity
  8
0
100
AcDbLine
 62
7
  6
CONTINUOUS
 10
33.6979205964
 20
136.029716821
 11
33.6846249483
 21
136.0249062657
  0
LINE
  5
2D9
100
AcDbEntity
  8
0
100
AcDbLine
 62
7
  6
CONTINUOUS
 10
95.2515196764
 20
105.7916784379
 11
95.238223598
 21
105.7868677953
  0
LINE
  5
2DA
100
AcDbEntity
  8
0
100
AcDbLine
 62
9
  6
CONTINUOUS
 10
86.5752388708
 20
131.705523178
 11
86.2482336871
 21
131.5897634136
  0
LINE
  5
2DB
100
AcDbEntity
  8
0
100
AcDbLine
 62
9
  6
CONTINUOUS
 10
42.6544130846
 20
110.2148007312
 11
42.3288189806
 21
110.0998885627
  0
LINE
  5
2DC
100
AcDbEntity
  8
0
100
AcDbLine
 62
9
  6
CONTINUOUS
 10
44.05137207
 20
130.9747155873
 11
44.0746164094
 21
130.9827396028
  0
LINE
  5
2DD
100
AcDbEntity
  8
0
100
AcDbLine
 62
9
  6
CONTINUOUS
 10
84.900159556
 20
110.8175626505
 11
84.9233920426
 21
110.8255779226
  0
LINE
  5
2DE
100
AcDbEntity
  8
0
100
AcDbLine
 62
9
  6
CONTINUOUS
 10
86.9107535534
 20
131.820796631
 11
86.5752388708
 21
131.705523178
  0
LINE
  5
2DF
100
AcDbEntity
  8
0
100
AcDbLine
 62
9
  6
CONTINUOUS
 10
42.3288189806
 20
110.0998885627
 11
41.994835996
 21
109.9854571726
  0
LINE
  5
2E0
100
AcDbEntity
  8
0
100
AcDbLine
 62
9
  6
CONTINUOUS
 10
63.9447579195
 20
128.9974640792
 11
63.8814834531
 21
128.9761062316
  0
LINE
  5
2E1
100
AcDbEntity
  8
0
100
AcDbLine
 62
7
  6
CONTINUOUS
 10
31.394353465
 20
139.8575833383
 11
31.3469891255
 21
139.8417120175
  0
LINE
  5
2E2
100
AcDbEntity
  8
0
100
AcDbLine
 62
7
  6
CONTINUOUS
 10
97.54178629
 20
101.9589998088
 11
97.5891506296
 21
101.9748711296
  0
LINE
  5
2E3
100
AcDbEntity
  8
0
100
AcDbLine
 62
9
  6
CONTINUOUS
 10
87.2547386116
 20
131.9355712508
 11
86.9107535534
 21
131.820796631
  0
LINE
  5
2E4
100
AcDbEntity
  8
0
100
AcDbLine
 62
9
  6
CONTINUOUS
 10
41.994835996
 20
109.9854571726
 11
41.6525027017
 21
109.8715188783
  0
LINE
  5
2E5
100
AcDbEntity
  8
0
100
AcDbLine
 62
9
  6
CONTINUOUS
 10
84.7346422889
 20
131.0011961229
 11
84.7254682945
 21
130.9981502064
  0
LINE
  5
2E6
100
AcDbEntity
  8
0
100
AcDbLine
 62
9
  6
CONTINUOUS
 10
65.00011122
 20
125.4257146234
 11
65.0642705809
 21
125.4468708876
  0
LINE
  5
2E7
100
AcDbEntity
  8
0
100
AcDbLine
 62
9
  6
CONTINUOUS
 10
31.3572574692
 20
139.8451413369
 11
31.3984680104
 21
139.8586899067
  0
LINE
  5
2E8
100
AcDbEntity
  8
0
100
AcDbLine
 62
9
  6
CONTINUOUS
 10
97.5788822859
 20
101.9714418103
 11
97.5376717446
 21
101.9578932404
  0
LINE
  5
2E9
100
AcDbEntity
  8
0
100
AcDbLine
 62
9
  6
CONTINUOUS
 10
44.1724325752
 20
110.8022161949
 11
44.1629668732
 21
110.7991098434
  0
LINE
  5
2EA
100
AcDbEntity
  8
0
100
AcDbLine
 62
7
  6
CONTINUOUS
 10
63.3662029991
 20
132.9731009136
 11
63.3859860452
 21
132.979553842
  0
LINE
  5
2EB
100
AcDbEntity
  8
0
100
AcDbLine
 62
7
  6
CONTINUOUS
 10
65.5691076409
 20
132.9733713584
 11
65.5501573192
 21
132.9671902236
  0
LINE
  5
2EC
100
AcDbEntity
  8
0
100
AcDbLine
 62
7
  6
CONTINUOUS
 10
65.569936756
 20
132.8498585321
 11
65.5501537099
 21
132.8434056038
  0
LINE
  5
2ED
100
AcDbEntity
  8
0
100
AcDbLine
 62
9
  6
CONTINUOUS
 10
87.6071568538
 20
132.049834419
 11
87.2547386116
 21
131.9355712508
  0
LINE
  5
2EE
100
AcDbEntity
  8
0
100
AcDbLine
 62
9
  6
CONTINUOUS
 10
41.6525027017
 20
109.8715188783
 11
41.3018557616
 21
109.7580860788
  0
LINE
  5
2EF
100
AcDbEntity
  8
0
100
AcDbLine
 62
9
  6
CONTINUOUS
 10
87.967968005
 20
132.1635739789
 11
87.6071568538
 21
132.049834419
  0
LINE
  5
2F0
100
AcDbEntity
  8
0
100
AcDbLine
 62
9
  6
CONTINUOUS
 10
41.3018557616
 20
109.7580860788
 11
40.9429345359
 21
109.6451706268
  0
LINE
  5
2F1
100
AcDbEntity
  8
0
100
AcDbLine
 62
9
  6
CONTINUOUS
 10
88.3371334968
 20
132.2767776029
 11
87.967968005
 21
132.1635739789
  0
LINE
  5
2F2
100
AcDbEntity
  8
0
100
AcDbLine
 62
9
  6
CONTINUOUS
 10
40.9429345359
 20
109.6451706268
 11
40.5757768173
 21
109.5327845676
  0
LINE
  5
2F3
100
AcDbEntity
  8
0
100
AcDbLine
 62
7
  6
CONTINUOUS
 10
33.6979161571
 20
136.0297153519
 11
33.7113093597
 21
136.0337459922
  0
LINE
  5
2F4
100
AcDbEntity
  8
0
100
AcDbLine
 62
7
  6
CONTINUOUS
 10
95.238223598
 20
105.7868677953
 11
95.2248303954
 21
105.7828371549
  0
LINE
  5
2F5
100
AcDbEntity
  8
0
100
AcDbLine
 62
9
  6
CONTINUOUS
 10
88.7146110187
 20
132.3894331859
 11
88.3371334968
 21
132.2767776029
  0
LINE
  5
2F6
100
AcDbEntity
  8
0
100
AcDbLine
 62
9
  6
CONTINUOUS
 10
40.5757768173
 20
109.5327845676
 11
40.2004239719
 21
109.420939722
  0
LINE
  5
2F7
100
AcDbEntity
  8
0
100
AcDbLine
 62
9
  6
CONTINUOUS
 10
64.0087014701
 20
129.016351863
 11
63.9447579195
 21
128.9974640792
  0
LINE
  5
2F8
100
AcDbEntity
  8
0
100
AcDbLine
 62
9
  6
CONTINUOUS
 10
94.5264035735
 20
133.848799793
 11
94.2019087015
 21
133.7531792245
  0
LINE
  5
2F9
100
AcDbEntity
  8
0
100
AcDbLine
 62
9
  6
CONTINUOUS
 10
34.734162925
 20
108.0633839555
 11
34.4097358337
 21
107.9677832294
  0
LINE
  5
2FA
100
AcDbEntity
  8
0
100
AcDbLine
 62
9
  6
CONTINUOUS
 10
84.7254682945
 20
130.9981502064
 11
84.7146567518
 21
130.9949850999
  0
LINE
  5
2FB
100
AcDbEntity
  8
0
100
AcDbLine
 62
9
  6
CONTINUOUS
 10
94.2019087015
 20
133.7531792245
 11
94.0435403021
 21
133.7070532848
  0
LINE
  5
2FC
100
AcDbEntity
  8
0
100
AcDbLine
 62
9
  6
CONTINUOUS
 10
34.8924977714
 20
108.1095004589
 11
34.734162925
 21
108.0633839555
  0
LINE
  5
2FD
100
AcDbEntity
  8
0
100
AcDbLine
 62
7
  6
CONTINUOUS
 10
63.3859860452
 20
132.979553842
 11
63.4077217119
 21
132.9858839306
  0
LINE
  5
2FE
100
AcDbEntity
  8
0
100
AcDbLine
 62
7
  6
CONTINUOUS
 10
65.5501573192
 20
132.9671902236
 11
65.5284153994
 21
132.9608585387
  0
LINE
  5
2FF
100
AcDbEntity
  8
0
100
AcDbLine
 62
7
  6
CONTINUOUS
 10
65.5501537099
 20
132.8434056038
 11
65.5284180432
 21
132.8370755151
  0
LINE
  5
300
100
AcDbEntity
  8
0
100
AcDbLine
 62
9
  6
CONTINUOUS
 10
89.1003602415
 20
132.5015285392
 11
88.7146110187
 21
132.3894331859
  0
LINE
  5
301
100
AcDbEntity
  8
0
100
AcDbLine
 62
9
  6
CONTINUOUS
 10
40.2004239719
 20
109.420939722
 11
39.8169153545
 21
109.309647964
  0
LINE
  5
302
100
AcDbEntity
  8
0
100
AcDbLine
 62
7
  6
CONTINUOUS
 10
31.4415753949
 20
139.8712494294
 11
31.394353465
 21
139.8575833383
  0
LINE
  5
303
100
AcDbEntity
  8
0
100
AcDbLine
 62
7
  6
CONTINUOUS
 10
97.4945643602
 20
101.9453337177
 11
97.54178629
 21
101.9589998088
  0
LINE
  5
304
100
AcDbEntity
  8
0
100
AcDbLine
 62
9
  6
CONTINUOUS
 10
64.9352177721
 20
125.4069807214
 11
65.00011122
 21
125.4257146234
  0
LINE
  5
305
100
AcDbEntity
  8
0
100
AcDbLine
 62
9
  6
CONTINUOUS
 10
44.1836399019
 20
110.8054506476
 11
44.1724325752
 21
110.8022161949
  0
LINE
  5
306
100
AcDbEntity
  8
0
100
AcDbLine
 62
9
  6
CONTINUOUS
 10
84.8766071505
 20
110.810765412
 11
84.900159556
 21
110.8175626505
  0
LINE
  5
307
100
AcDbEntity
  8
0
100
AcDbLine
 62
9
  6
CONTINUOUS
 10
44.0746164094
 20
130.9827396028
 11
44.0981829593
 21
130.9895384889
  0
LINE
  5
308
100
AcDbEntity
  8
0
100
AcDbLine
 62
9
  6
CONTINUOUS
 10
94.0435403021
 20
133.7070532848
 11
93.8893523735
 21
133.6627972352
  0
LINE
  5
309
100
AcDbEntity
  8
0
100
AcDbLine
 62
9
  6
CONTINUOUS
 10
35.0466531467
 20
108.1537476981
 11
34.8924977714
 21
108.1095004589
  0
LINE
  5
30A
100
AcDbEntity
  8
0
100
AcDbLine
 62
7
  6
CONTINUOUS
 10
33.5319755994
 20
135.8585434301
 11
33.5282281283
 21
135.8444814615
  0
LINE
  5
30B
100
AcDbEntity
  8
0
100
AcDbLine
 62
9
  6
CONTINUOUS
 10
62.9107554355
 20
128.1392408089
 11
62.8771447238
 21
128.0757899373
  0
LINE
  5
30C
100
AcDbEntity
  8
0
100
AcDbLine
 62
9
  6
CONTINUOUS
 10
98.0552271611
 20
102.2647531768
 11
98.0192688975
 21
102.2319649512
  0
LINE
  5
30D
100
AcDbEntity
  8
0
100
AcDbLine
 62
9
  6
CONTINUOUS
 10
66.0329271637
 20
126.2514233793
 11
66.0656881698
 21
126.310838071
  0
LINE
  5
30E
100
AcDbEntity
  8
0
100
AcDbLine
 62
9
  6
CONTINUOUS
 10
85.1259334687
 20
110.9671870761
 11
85.14207895
 21
110.9866974374
  0
LINE
  5
30F
100
AcDbEntity
  8
0
100
AcDbLine
 62
9
  6
CONTINUOUS
 10
30.4860590935
 20
138.8508530546
 11
30.4941432871
 21
138.8901688067
  0
LINE
  5
310
100
AcDbEntity
  8
0
100
AcDbLine
 62
7
  6
CONTINUOUS
 10
95.3471131823
 20
105.8573531785
 11
95.3369121938
 21
105.8468396489
  0
LINE
  5
311
100
AcDbEntity
  8
0
100
AcDbLine
 62
7
  6
CONTINUOUS
 10
98.0440512908
 20
102.2538002224
 11
98.0845406686
 21
102.29271125
  0
LINE
  5
312
100
AcDbEntity
  8
0
100
AcDbLine
 62
7
  6
CONTINUOUS
 10
30.4937543184
 20
138.8890905593
 11
30.4844098115
 21
138.8424924275
  0
LINE
  5
313
100
AcDbEntity
  8
0
100
AcDbLine
 62
9
  6
CONTINUOUS
 10
98.0900114906
 20
102.2987438569
 11
98.0552271611
 21
102.2647531768
  0
LINE
  5
314
100
AcDbEntity
  8
0
100
AcDbLine
 62
9
  6
CONTINUOUS
 10
43.7400965007
 20
130.6337481382
 11
43.747788816
 21
130.6579928199
  0
LINE
  5
315
100
AcDbEntity
  8
0
100
AcDbLine
 62
9
  6
CONTINUOUS
 10
62.8771447238
 20
128.0757899373
 11
62.8458083236
 21
128.0109687001
  0
LINE
  5
316
100
AcDbEntity
  8
0
100
AcDbLine
 62
7
  6
CONTINUOUS
 10
63.281643226
 20
132.918500201
 11
63.2848478599
 21
132.9254954333
  0
LINE
  5
317
100
AcDbEntity
  8
0
100
AcDbLine
 62
9
  6
CONTINUOUS
 10
66.0656881698
 20
126.310838071
 11
66.0961965493
 21
126.3714169044
  0
LINE
  5
318
100
AcDbEntity
  8
0
100
AcDbLine
 62
7
  6
CONTINUOUS
 10
33.5282281283
 20
135.8444814615
 11
33.5252800191
 21
135.830197086
  0
LINE
  5
319
100
AcDbEntity
  8
0
100
AcDbLine
 62
9
  6
CONTINUOUS
 10
30.479526098
 20
138.8120188666
 11
30.4860590935
 21
138.8508530546
  0
LINE
  5
31A
100
AcDbEntity
  8
0
100
AcDbLine
 62
7
  6
CONTINUOUS
 10
98.0845406686
 20
102.29271125
 11
98.1234454929
 21
102.3331721597
  0
LINE
  5
31B
100
AcDbEntity
  8
0
100
AcDbLine
 62
7
  6
CONTINUOUS
 10
65.6544965291
 20
132.9044592447
 11
65.6512918952
 21
132.8974640125
  0
LINE
  5
31C
100
AcDbEntity
  8
0
100
AcDbLine
 62
9
  6
CONTINUOUS
 10
85.14207895
 20
110.9866974374
 11
85.157288475
 21
111.0069965261
  0
LINE
  5
31D
100
AcDbEntity
  8
0
100
AcDbLine
 62
9
  6
CONTINUOUS
 10
98.1235515252
 20
102.3338662894
 11
98.0900114906
 21
102.2987438569
  0
LINE
  5
31E
100
AcDbEntity
  8
0
100
AcDbLine
 62
7
  6
CONTINUOUS
 10
30.4844098115
 20
138.8424924275
 11
30.4772196012
 21
138.7964294494
  0
LINE
  5
31F
100
AcDbEntity
  8
0
100
AcDbLine
 62
9
  6
CONTINUOUS
 10
62.8458083236
 20
128.0109687001
 11
62.8168190967
 21
127.9449294134
  0
LINE
  5
320
100
AcDbEntity
  8
0
100
AcDbLine
 62
7
  6
CONTINUOUS
 10
95.3471065028
 20
105.8573429427
 11
95.3566858906
 21
105.8684103972
  0
LINE
  5
321
100
AcDbEntity
  8
0
100
AcDbLine
 62
9
  6
CONTINUOUS
 10
43.733580796
 20
130.6091824303
 11
43.7400965007
 21
130.6337481382
  0
LINE
  5
322
100
AcDbEntity
  8
0
100
AcDbLine
 62
9
  6
CONTINUOUS
 10
66.0961965493
 20
126.3714169044
 11
66.1243954774
 21
126.433035217
  0
LINE
  5
323
100
AcDbEntity
  8
0
100
AcDbLine
 62
9
  6
CONTINUOUS
 10
30.4744798207
 20
138.7735049429
 11
30.479526098
 21
138.8120188666
  0
LINE
  5
324
100
AcDbEntity
  8
0
100
AcDbLine
 62
7
  6
CONTINUOUS
 10
98.1234454929
 20
102.3331721597
 11
98.1605321077
 21
102.3749844259
  0
LINE
  5
325
100
AcDbEntity
  8
0
100
AcDbLine
 62
9
  6
CONTINUOUS
 10
98.1557711216
 20
102.3700214482
 11
98.1235515252
 21
102.3338662894
  0
LINE
  5
326
100
AcDbEntity
  8
0
100
AcDbLine
 62
7
  6
CONTINUOUS
 10
33.5231460871
 20
135.8157718406
 11
33.5252781671
 21
135.8301969736
  0
LINE
  5
327
100
AcDbEntity
  8
0
100
AcDbLine
 62
9
  6
CONTINUOUS
 10
62.8168190967
 20
127.9449294134
 11
62.7901932635
 21
127.8777060141
  0
LINE
  5
328
100
AcDbEntity
  8
0
100
AcDbLine
 62
9
  6
CONTINUOUS
 10
85.157288475
 20
111.0069965261
 11
85.1715220081
 21
111.028034047
  0
LINE
  5
329
100
AcDbEntity
  8
0
100
AcDbLine
 62
7
  6
CONTINUOUS
 10
30.4772196012
 20
138.7964294494
 11
30.4721275515
 21
138.7510592392
  0
LINE
  5
32A
100
AcDbEntity
  8
0
100
AcDbLine
 62
9
  6
CONTINUOUS
 10
66.1243954774
 20
126.433035217
 11
66.150273207
 21
126.4956572245
  0
LINE
  5
32B
100
AcDbEntity
  8
0
100
AcDbLine
 62
9
  6
CONTINUOUS
 10
43.7282573821
 20
130.5843547573
 11
43.733580796
 21
130.6091824303
  0
LINE
  5
32C
100
AcDbEntity
  8
0
100
AcDbLine
 62
9
  6
CONTINUOUS
 10
30.4709258433
 20
138.7356827013
 11
30.4744798207
 21
138.7735049429
  0
LINE
  5
32D
100
AcDbEntity
  8
0
100
AcDbLine
 62
7
  6
CONTINUOUS
 10
95.3656526679
 20
105.8800420362
 11
95.3566932899
 21
105.8684194508
  0
LINE
  5
32E
100
AcDbEntity
  8
0
100
AcDbLine
 62
9
  6
CONTINUOUS
 10
98.1865988745
 20
102.4071045197
 11
98.1557711216
 21
102.3700214482
  0
LINE
  5
32F
100
AcDbEntity
  8
0
100
AcDbLine
 62
7
  6
CONTINUOUS
 10
98.1605321077
 20
102.3749844259
 11
98.1957170839
 21
102.4179550199
  0
LINE
  5
330
100
AcDbEntity
  8
0
100
AcDbLine
 62
9
  6
CONTINUOUS
 10
62.7901932635
 20
127.8777060141
 11
62.7659636174
 21
127.8093682114
  0
LINE
  5
331
100
AcDbEntity
  8
0
100
AcDbLine
 62
9
  6
CONTINUOUS
 10
85.1715220081
 20
111.028034047
 11
85.1847397969
 21
111.0497535078
  0
LINE
  5
332
100
AcDbEntity
  8
0
100
AcDbLine
 62
9
  6
CONTINUOUS
 10
30.4709258433
 20
103.0809004458
 11
30.4744798207
 21
103.0430782042
  0
LINE
  5
333
100
AcDbEntity
  8
0
100
AcDbLine
 62
9
  6
CONTINUOUS
 10
98.4652139118
 20
138.7356827013
 11
98.4616599344
 21
138.7735049429
  0
LINE
  5
334
100
AcDbEntity
  8
0
100
AcDbLine
 62
9
  6
CONTINUOUS
 10
62.6658327441
 20
127.0232305875
 11
62.6721228253
 21
126.9557558629
  0
LINE
  5
335
100
AcDbEntity
  8
0
100
AcDbLine
 62
7
  6
CONTINUOUS
 10
33.5231468867
 20
106.0008045781
 11
33.5218410052
 21
106.0153003517
  0
LINE
  5
336
100
AcDbEntity
  8
0
100
AcDbLine
 62
7
  6
CONTINUOUS
 10
95.4129928684
 20
135.815778569
 11
95.4142987499
 21
135.8012827955
  0
LINE
  5
337
100
AcDbEntity
  8
0
100
AcDbLine
 62
9
  6
CONTINUOUS
 10
66.2701416835
 20
127.3056202574
 11
66.2635564646
 21
127.3793728663
  0
LINE
  5
338
100
AcDbEntity
  8
0
100
AcDbLine
 62
7
  6
CONTINUOUS
 10
30.4690706414
 20
103.1099571904
 11
30.4721275515
 21
103.0655239079
  0
LINE
  5
339
100
AcDbEntity
  8
0
100
AcDbLine
 62
7
  6
CONTINUOUS
 10
98.4670691137
 20
138.7066259567
 11
98.4640122036
 21
138.7510592392
  0
LINE
  5
33A
100
AcDbEntity
  8
0
100
AcDbLine
 62
9
  6
CONTINUOUS
 10
43.682759746
 20
111.2660666677
 11
43.6810810432
 21
111.2912676622
  0
LINE
  5
33B
100
AcDbEntity
  8
0
100
AcDbLine
 62
9
  6
CONTINUOUS
 10
85.21657135
 20
130.508986311
 11
85.2148971321
 21
130.5341903571
  0
LINE
  5
33C
100
AcDbEntity
  8
0
100
AcDbLine
 62
9
  6
CONTINUOUS
 10
30.4688187442
 20
103.1177007399
 11
30.4709258433
 21
103.0809004458
  0
LINE
  5
33D
100
AcDbEntity
  8
0
100
AcDbLine
 62
9
  6
CONTINUOUS
 10
98.4673210108
 20
138.6988824072
 11
98.4652139118
 21
138.7356827013
  0
LINE
  5
33E
100
AcDbEntity
  8
0
100
AcDbLine
 62
9
  6
CONTINUOUS
 10
62.6620468878
 20
127.0907695721
 11
62.6658327441
 21
127.0232305875
  0
LINE
  5
33F
100
AcDbEntity
  8
0
100
AcDbLine
 62
9
  6
CONTINUOUS
 10
66.2740738882
 20
127.2319291706
 11
66.2701416835
 21
127.3056202574
  0
LINE
  5
340
100
AcDbEntity
  8
0
100
AcDbLine
 62
7
  6
CONTINUOUS
 10
33.5213626039
 20
106.0297810364
 11
33.5218510783
 21
106.0152649841
  0
LINE
  5
341
100
AcDbEntity
  8
0
100
AcDbLine
 62
7
  6
CONTINUOUS
 10
95.4147771512
 20
135.7868021107
 11
95.4142886768
 21
135.8013181631
  0
LINE
  5
342
100
AcDbEntity
  8
0
100
AcDbLine
 62
9
  6
CONTINUOUS
 10
94.5264039162
 20
107.9677835412
 11
94.5221762279
 21
108.1027415054
  0
LINE
  5
343
100
AcDbEntity
  8
0
100
AcDbLine
 62
9
  6
CONTINUOUS
 10
94.5221762279
 20
108.1027415054
 11
94.5109769118
 21
108.4647942229
  0
LINE
  5
344
100
AcDbEntity
  8
0
100
AcDbLine
 62
9
  6
CONTINUOUS
 10
34.4280174882
 20
133.2561930282
 11
34.4097359162
 21
133.8487998347
  0
LINE
  5
345
100
AcDbEntity
  8
0
100
AcDbLine
 62
9
  6
CONTINUOUS
 10
94.5109769118
 20
108.4647942229
 11
94.5049123871
 21
108.67153593
  0
LINE
  5
346
100
AcDbEntity
  8
0
100
AcDbLine
 62
9
  6
CONTINUOUS
 10
34.4334102686
 20
133.0651607105
 11
34.4280174882
 21
133.2561930282
  0
LINE
  5
347
100
AcDbEntity
  8
0
100
AcDbLine
 62
9
  6
CONTINUOUS
 10
34.4378906965
 20
132.8978043285
 11
34.4334102686
 21
133.0651607105
  0
LINE
  5
348
100
AcDbEntity
  8
0
100
AcDbLine
 62
9
  6
CONTINUOUS
 10
94.5049123871
 20
108.67153593
 11
94.5000584293
 21
108.8529727679
  0
LINE
  5
349
100
AcDbEntity
  8
0
100
AcDbLine
 62
9
  6
CONTINUOUS
 10
94.5000584293
 20
108.8529727679
 11
94.4960689818
 21
109.012759109
  0
LINE
  5
34A
100
AcDbEntity
  8
0
100
AcDbLine
 62
9
  6
CONTINUOUS
 10
34.4396958233
 20
132.8208126411
 11
34.4378906965
 21
132.8978043285
  0
LINE
  5
34B
100
AcDbEntity
  8
0
100
AcDbLine
 62
7
  6
CONTINUOUS
 10
30.4680698779
 20
103.1535349319
 11
30.4690706414
 21
103.1099571904
  0
LINE
  5
34C
100
AcDbEntity
  8
0
100
AcDbLine
 62
7
  6
CONTINUOUS
 10
98.4680698772
 20
138.6630482152
 11
98.4670691137
 21
138.7066259567
  0
LINE
  5
34D
100
AcDbEntity
  8
0
100
AcDbLine
 62
9
  6
CONTINUOUS
 10
62.6607609776
 20
127.1582915736
 11
62.6620468878
 21
127.0907695721
  0
LINE
  5
34E
100
AcDbEntity
  8
0
100
AcDbLine
 62
9
  6
CONTINUOUS
 10
66.2753787775
 20
127.1582915736
 11
66.2740738882
 21
127.2319291706
  0
LINE
  5
34F
100
AcDbEntity
  8
0
100
AcDbLine
 62
9
  6
CONTINUOUS
 10
34.4408294078
 20
132.7455132037
 11
34.4396958233
 21
132.8208126411
  0
LINE
  5
350
100
AcDbEntity
  8
0
100
AcDbLine
 62
9
  6
CONTINUOUS
 10
94.4960689818
 20
109.012759109
 11
94.494908545
 21
109.0931980319
  0
LINE
  5
351
100
AcDbEntity
  8
0
100
AcDbLine
 62
7
  6
CONTINUOUS
 10
33.5192624246
 20
106.3906315505
 11
33.5190635436
 21
106.4131930008
  0
LINE
  5
352
100
AcDbEntity
  8
0
100
AcDbLine
 62
7
  6
CONTINUOUS
 10
33.5196115029
 20
106.3456604423
 11
33.5194186894
 21
106.3681101173
  0
LINE
  5
353
100
AcDbEntity
  8
0
100
AcDbLine
 62
9
  6
CONTINUOUS
 10
34.4414524433
 20
132.6685389618
 11
34.4408294078
 21
132.7455132037
  0
LINE
  5
354
100
AcDbEntity
  8
0
100
AcDbLine
 62
7
  6
CONTINUOUS
 10
33.5210379081
 20
106.0978905714
 11
33.5189223297
 21
106.4402646916
  0
LINE
  5
355
100
AcDbEntity
  8
0
100
AcDbLine
 62
7
  6
CONTINUOUS
 10
95.4147771512
 20
135.7868021107
 11
95.4172932399
 21
135.353774331
  0
LINE
  5
356
100
AcDbEntity
  8
0
100
AcDbLine
 62
7
  6
CONTINUOUS
 10
33.5213626039
 20
106.0297810364
 11
33.5210379081
 21
106.0978905714
  0
LINE
  5
357
100
AcDbEntity
  8
0
100
AcDbLine
 62
9
  6
CONTINUOUS
 10
43.7195684385
 20
130.5089862979
 11
43.7265800749
 21
128.7732616098
  0
LINE
  5
358
100
AcDbEntity
  8
0
100
AcDbLine
 62
9
  6
CONTINUOUS
 10
85.2444644757
 20
114.2457901807
 11
85.2486883973
 21
113.1444278779
  0
LINE
  5
359
100
AcDbEntity
  8
0
100
AcDbLine
 62
9
  6
CONTINUOUS
 10
85.2227581152
 20
119.7934383469
 11
85.2444644757
 21
114.2457901807
  0
LINE
  5
35A
100
AcDbEntity
  8
0
100
AcDbLine
 62
9
  6
CONTINUOUS
 10
85.2486883973
 20
113.1444278779
 11
85.252946149
 21
111.9370258064
  0
LINE
  5
35B
100
AcDbEntity
  8
0
100
AcDbLine
 62
9
  6
CONTINUOUS
 10
85.252946149
 20
111.9370258064
 11
85.2550586552
 21
111.2912676736
  0
LINE
  5
35C
100
AcDbEntity
  8
0
100
AcDbLine
 62
9
  6
CONTINUOUS
 10
43.7265800749
 20
128.7732616098
 11
43.7280752376
 21
128.3027127406
  0
LINE
  5
35D
100
AcDbEntity
  8
0
100
AcDbLine
 62
9
  6
CONTINUOUS
 10
94.494908545
 20
109.0931980319
 11
94.4947179825
 21
109.1767846838
  0
LINE
  5
35E
100
AcDbEntity
  8
0
100
AcDbLine
 62
7
  6
CONTINUOUS
 10
33.5190635436
 20
106.4131930008
 11
33.5164387252
 21
107.6762681187
  0
LINE
  5
35F
100
AcDbEntity
  8
0
100
AcDbLine
 62
9
  6
CONTINUOUS
 10
43.7280752376
 20
128.3027127406
 11
43.7288751734
 21
127.9216008149
  0
LINE
  5
360
100
AcDbEntity
  8
0
100
AcDbLine
 62
7
  6
CONTINUOUS
 10
95.417708934
 20
135.1371916332
 11
95.4177708958
 21
135.1050223002
  0
LINE
  5
361
100
AcDbEntity
  8
0
100
AcDbLine
 62
7
  6
CONTINUOUS
 10
95.4171932648
 20
135.3808533504
 11
95.419443403
 21
134.280966598
  0
LINE
  5
362
100
AcDbEntity
  8
0
100
AcDbLine
 62
9
  6
CONTINUOUS
 10
85.2075771766
 20
128.0949546773
 11
85.2227581152
 21
119.7934383469
  0
LINE
  5
363
100
AcDbEntity
  8
0
100
AcDbLine
 62
7
  6
CONTINUOUS
 10
33.5164852486
 20
107.650159892
 11
33.5160484139
 21
107.9184756723
  0
LINE
  5
364
100
AcDbEntity
  8
0
100
AcDbLine
 62
7
  6
CONTINUOUS
 10
95.4193818387
 20
134.3132017905
 11
95.4203222498
 21
133.7186647509
  0
LINE
  5
365
100
AcDbEntity
  8
0
100
AcDbLine
 62
7
  6
CONTINUOUS
 10
33.5160717968
 20
107.9038045147
 11
33.5155810084
 21
108.3960317818
  0
LINE
  5
366
100
AcDbEntity
  8
0
100
AcDbLine
 62
9
  6
CONTINUOUS
 10
43.7288751734
 20
127.9216008149
 11
43.7292349062
 21
127.5561656052
  0
LINE
  5
367
100
AcDbEntity
  8
0
100
AcDbLine
 62
9
  6
CONTINUOUS
 10
34.4415131395
 20
132.5863470697
 11
34.4414524433
 21
132.6685389618
  0
LINE
  5
368
100
AcDbEntity
  8
0
100
AcDbLine
 62
9
  6
CONTINUOUS
 10
94.4947692099
 20
132.4114907537
 11
94.4946266156
 21
132.5863470697
  0
LINE
  5
369
100
AcDbEntity
  8
0
100
AcDbLine
 62
7
  6
CONTINUOUS
 10
95.4203130237
 20
133.7239745596
 11
95.4205898774
 21
133.3127805863
  0
LINE
  5
36A
100
AcDbEntity
  8
0
100
AcDbLine
 62
7
  6
CONTINUOUS
 10
30.4673134252
 20
104.6257599977
 11
30.4680698779
 21
103.1535349319
  0
LINE
  5
36B
100
AcDbEntity
  8
0
100
AcDbLine
 62
7
  6
CONTINUOUS
 10
98.46882633
 20
137.1908239488
 11
98.4680698772
 21
138.6630482152
  0
LINE
  5
36C
100
AcDbEntity
  8
0
100
AcDbLine
 62
7
  6
CONTINUOUS
 10
30.4669472944
 20
106.165373762
 11
30.4673134252
 21
104.6257599977
  0
LINE
  5
36D
100
AcDbEntity
  8
0
100
AcDbLine
 62
7
  6
CONTINUOUS
 10
33.5180854733
 20
120.9082915736
 11
33.5157195788
 21
133.6228164008
  0
LINE
  5
36E
100
AcDbEntity
  8
0
100
AcDbLine
 62
7
  6
CONTINUOUS
 10
95.4180542833
 20
120.9082840516
 11
95.4206417916
 21
108.3953235142
  0
LINE
  5
36F
100
AcDbEntity
  8
0
100
AcDbLine
 62
7
  6
CONTINUOUS
 10
98.4691924609
 20
135.6512110757
 11
98.46882633
 21
137.1908239488
  0
LINE
  5
370
100
AcDbEntity
  8
0
100
AcDbLine
 62
7
  6
CONTINUOUS
 10
30.4675755374
 20
130.6245436237
 11
30.4679776728
 21
116.8182297525
  0
LINE
  5
371
100
AcDbEntity
  8
0
100
AcDbLine
 62
7
  6
CONTINUOUS
 10
30.4669475926
 20
135.6489736863
 11
30.4675755374
 21
130.6245436237
  0
LINE
  5
372
100
AcDbEntity
  8
0
100
AcDbLine
 62
9
  6
CONTINUOUS
 10
34.4412312101
 20
109.0931980319
 11
34.4413628929
 21
132.5007132811
  0
LINE
  5
373
100
AcDbEntity
  8
DEFAULT_1
100
AcDbLine
 62
7
  6
CENTER
 10
64.468062018
 20
127.1582915736
 11
64.4681339396
 21
143.7854998945
  0
LINE
  5
374
100
AcDbEntity
  8
DEFAULT_1
100
AcDbLine
 62
7
  6
CENTER
 10
64.4680698775
 20
127.1582915736
 11
64.4680698775
 21
125.3453501014
  0
LINE
  5
375
100
AcDbEntity
  8
0
100
AcDbLine
 62
9
  6
CONTINUOUS
 10
64.4680698775
 20
125.3453501014
 11
64.4680698775
 21
125.1714409207
  0
LINE
  5
376
100
AcDbEntity
  8
DEFAULT_1
100
AcDbLine
 62
7
  6
CENTER
 10
64.4680698775
 20
98.364046352
 11
64.4680698775
 21
125.1714409207
  0
LINE
  5
377
100
AcDbEntity
  8
0
100
AcDbLine
 62
9
  6
CONTINUOUS
 10
64.4681013711
 20
105.5604434027
 11
64.4681189861
 21
105.3405313111
  0
LINE
  5
378
100
AcDbEntity
  8
0
100
AcDbLine
 62
9
  6
CONTINUOUS
 10
94.4947550296
 20
109.5536149189
 11
94.4947692099
 21
132.4114907537
  0
LINE
  5
379
100
AcDbEntity
  8
0
100
AcDbLine
 62
7
  6
CONTINUOUS
 10
98.4680976737
 20
118.8308275679
 11
98.4681620827
 21
124.9983623615
  0
LINE
  5
37A
100
AcDbEntity
  8
0
100
AcDbLine
 62
7
  6
CONTINUOUS
 10
98.4684001504
 20
113.0010753841
 11
98.4680976737
 21
118.8308275679
  0
LINE
  5
37B
100
AcDbEntity
  8
0
100
AcDbLine
 62
7
  6
CONTINUOUS
 10
98.4691921622
 20
106.1676111786
 11
98.4684001504
 21
113.0010753841
  0
LINE
  5
37C
100
AcDbEntity
  8
0
100
AcDbLine
 62
7
  6
CONTINUOUS
 10
30.4673859985
 20
109.4467673859
 11
30.4670744017
 21
107.7723760088
  0
LINE
  5
37D
100
AcDbEntity
  8
0
100
AcDbLine
 62
7
  6
CONTINUOUS
 10
30.4670744017
 20
107.7723760088
 11
30.4669472944
 21
106.165373762
  0
LINE
  5
37E
100
AcDbEntity
  8
0
100
AcDbLine
 62
7
  6
CONTINUOUS
 10
30.4679776728
 20
116.8182297525
 11
30.4673859985
 21
109.4467673859
  0
LINE
  5
37F
100
AcDbEntity
  8
0
100
AcDbLine
 62
7
  6
CONTINUOUS
 10
33.5156022363
 20
108.2975402271
 11
33.5180854733
 21
120.9082915736
  0
LINE
  5
380
100
AcDbEntity
  8
0
100
AcDbLine
 62
9
  6
CONTINUOUS
 10
94.4947179825
 20
109.1767846838
 11
94.4947550296
 21
109.5536149189
  0
LINE
  5
381
100
AcDbEntity
  8
0
100
AcDbLine
 62
7
  6
CONTINUOUS
 10
95.4205646732
 20
133.4100686353
 11
95.4180542818
 21
120.9082915736
  0
LINE
  5
382
100
AcDbEntity
  8
0
100
AcDbLine
 62
7
  6
CONTINUOUS
 10
98.468753757
 20
132.3698195097
 11
98.4690653537
 21
134.0442098119
  0
LINE
  5
383
100
AcDbEntity
  8
0
100
AcDbLine
 62
7
  6
CONTINUOUS
 10
98.4681620827
 20
124.9983623615
 11
98.468753757
 21
132.3698195097
  0
LINE
  5
384
100
AcDbEntity
  8
0
100
AcDbLine
 62
7
  6
CONTINUOUS
 10
98.4690653537
 20
134.0442098119
 11
98.4691924609
 21
135.6512110757
  0
LINE
  5
385
100
AcDbEntity
  8
0
100
AcDbLine
 62
7
  6
CONTINUOUS
 10
30.4673135997
 20
137.1895654172
 11
30.4669475926
 21
135.6489736863
  0
LINE
  5
386
100
AcDbEntity
  8
0
100
AcDbLine
 62
7
  6
CONTINUOUS
 10
33.5155624097
 20
108.6380055839
 11
33.5156035625
 21
108.7608327249
  0
LINE
  5
387
100
AcDbEntity
  8
0
100
AcDbLine
 62
9
  6
CONTINUOUS
 10
43.7292349062
 20
127.5561656052
 11
43.7291387832
 21
127.1912788637
  0
LINE
  5
388
100
AcDbEntity
  8
0
100
AcDbLine
 62
7
  6
CONTINUOUS
 10
95.4205125772
 20
108.6154038175
 11
95.4205517882
 21
108.7321944812
  0
LINE
  5
389
100
AcDbEntity
  8
0
100
AcDbLine
 62
7
  6
CONTINUOUS
 10
95.4205796549
 20
133.2004921109
 11
95.4205515987
 21
133.0837164377
  0
LINE
  5
38A
100
AcDbEntity
  8
0
100
AcDbLine
 62
7
  6
CONTINUOUS
 10
98.4688261552
 20
104.6270185446
 11
98.4691921622
 21
106.1676111786
  0
LINE
  5
38B
100
AcDbEntity
  8
0
100
AcDbLine
 62
7
  6
CONTINUOUS
 10
30.4680698779
 20
138.6630482152
 11
30.4673135997
 21
137.1895654172
  0
LINE
  5
38C
100
AcDbEntity
  8
0
100
AcDbLine
 62
7
  6
CONTINUOUS
 10
98.4680698772
 20
103.1535349319
 11
98.4688261552
 21
104.6270185446
  0
LINE
  5
38D
100
AcDbEntity
  8
0
100
AcDbLine
 62
9
  6
CONTINUOUS
 10
94.4946266156
 20
132.5863470697
 11
94.4946873118
 21
132.6685389618
  0
LINE
  5
38E
100
AcDbEntity
  8
0
100
AcDbLine
 62
7
  6
CONTINUOUS
 10
95.4205840101
 20
108.520773988
 11
95.420071458
 21
107.9046290256
  0
LINE
  5
38F
100
AcDbEntity
  8
0
100
AcDbLine
 62
9
  6
CONTINUOUS
 10
43.7291387832
 20
127.1912788637
 11
43.7270507853
 21
125.4109465408
  0
LINE
  5
390
100
AcDbEntity
  8
0
100
AcDbLine
 62
7
  6
CONTINUOUS
 10
33.5156397023
 20
133.524727252
 11
33.5167568191
 21
134.3126295476
  0
LINE
  5
391
100
AcDbEntity
  8
0
100
AcDbLine
 62
7
  6
CONTINUOUS
 10
95.4200904517
 20
107.9178584831
 11
95.419796313
 21
107.7312730286
  0
LINE
  5
392
100
AcDbEntity
  8
0
100
AcDbLine
 62
9
  6
CONTINUOUS
 10
34.4413628929
 20
132.5007132811
 11
34.4415131395
 21
132.5863470697
  0
LINE
  5
393
100
AcDbEntity
  8
0
100
AcDbLine
 62
9
  6
CONTINUOUS
 10
43.7270507853
 20
125.4109465408
 11
43.7243750186
 21
123.8510179319
  0
LINE
  5
394
100
AcDbEntity
  8
0
100
AcDbLine
 62
7
  6
CONTINUOUS
 10
95.4198318563
 20
107.7523930716
 11
95.4195176992
 21
107.5751746961
  0
LINE
  5
395
100
AcDbEntity
  8
0
100
AcDbLine
 62
7
  6
CONTINUOUS
 10
33.5164840373
 20
134.1657466174
 11
33.5166220558
 21
134.2414084363
  0
LINE
  5
396
100
AcDbEntity
  8
0
100
AcDbLine
 62
7
  6
CONTINUOUS
 10
33.5167004544
 20
134.2815082637
 11
33.5189232538
 21
135.3764990639
  0
LINE
  5
397
100
AcDbEntity
  8
0
100
AcDbLine
 62
7
  6
CONTINUOUS
 10
95.4171053364
 20
106.4174793332
 11
95.4195692412
 21
107.6031448272
  0
LINE
  5
398
100
AcDbEntity
  8
0
100
AcDbLine
 62
9
  6
CONTINUOUS
 10
43.7243750186
 20
123.8510179319
 11
43.7210330908
 21
122.3654745159
  0
LINE
  5
399
100
AcDbEntity
  8
0
100
AcDbLine
 62
9
  6
CONTINUOUS
 10
43.7210330908
 20
122.3654745159
 11
43.716869395
 21
120.8707903838
  0
LINE
  5
39A
100
AcDbEntity
  8
0
100
AcDbLine
 62
9
  6
CONTINUOUS
 10
85.2095596802
 20
128.7732616098
 11
85.2075771766
 21
128.0949546773
  0
LINE
  5
39B
100
AcDbEntity
  8
0
100
AcDbLine
 62
9
  6
CONTINUOUS
 10
43.6853139868
 20
112.5549863652
 11
43.6810810998
 21
111.2912676736
  0
LINE
  5
39C
100
AcDbEntity
  8
0
100
AcDbLine
 62
9
  6
CONTINUOUS
 10
43.716869395
 20
120.8707903838
 11
43.7133816399
 21
119.7934383469
  0
LINE
  5
39D
100
AcDbEntity
  8
0
100
AcDbLine
 62
7
  6
CONTINUOUS
 10
33.5188815274
 20
135.3539666022
 11
33.5187996521
 21
135.3314527375
  0
LINE
  5
39E
100
AcDbEntity
  8
0
100
AcDbLine
 62
9
  6
CONTINUOUS
 10
43.7133816399
 20
119.7934383469
 11
43.7088084782
 21
118.5215752728
  0
LINE
  5
39F
100
AcDbEntity
  8
0
100
AcDbLine
 62
9
  6
CONTINUOUS
 10
43.6916752794
 20
114.2457901807
 11
43.6853139868
 21
112.5549863652
  0
LINE
  5
3A0
100
AcDbEntity
  8
0
100
AcDbLine
 62
9
  6
CONTINUOUS
 10
43.7012512067
 20
116.6071036942
 11
43.6916752794
 21
114.2457901807
  0
LINE
  5
3A1
100
AcDbEntity
  8
0
100
AcDbLine
 62
9
  6
CONTINUOUS
 10
43.7088084782
 20
118.5215752728
 11
43.7012512067
 21
116.6071036942
  0
LINE
  5
3A2
100
AcDbEntity
  8
0
100
AcDbLine
 62
9
  6
CONTINUOUS
 10
85.2165713165
 20
130.5089862979
 11
85.2136409528
 21
129.7625220698
  0
LINE
  5
3A3
100
AcDbEntity
  8
0
100
AcDbLine
 62
9
  6
CONTINUOUS
 10
85.2136409528
 20
129.7625220698
 11
85.2095596802
 21
128.7732616098
  0
LINE
  5
3A4
100
AcDbEntity
  8
0
100
AcDbLine
 62
7
  6
CONTINUOUS
 10
33.5196101607
 20
135.4707326827
 11
33.521362352
 21
135.7867508052
  0
LINE
  5
3A5
100
AcDbEntity
  8
0
100
AcDbLine
 62
7
  6
CONTINUOUS
 10
95.4165295943
 20
106.3458504632
 11
95.414777403
 21
106.029832342
  0
LINE
  5
3A6
100
AcDbEntity
  8
0
100
AcDbLine
 62
7
  6
CONTINUOUS
 10
33.5203153884
 20
135.5806309286
 11
33.5201681043
 21
135.5571625898
  0
LINE
  5
3A7
100
AcDbEntity
  8
0
100
AcDbLine
 62
7
  6
CONTINUOUS
 10
33.5188603428
 20
135.358223202
 11
33.5194366247
 21
135.4482900327
  0
LINE
  5
3A8
100
AcDbEntity
  8
0
100
AcDbLine
 62
7
  6
CONTINUOUS
 10
33.5213626042
 20
135.7868021183
 11
33.5211182658
 21
135.7509652441
  0
LINE
  5
3A9
100
AcDbEntity
  8
0
100
AcDbLine
 62
7
  6
CONTINUOUS
 10
95.4147771508
 20
106.0297810288
 11
95.4150214892
 21
106.0656179032
  0
LINE
  5
3AA
100
AcDbEntity
  8
0
100
AcDbLine
 62
7
  6
CONTINUOUS
 10
95.4163906065
 20
106.3272163739
 11
95.4171943033
 21
106.4359175482
  0
LINE
  5
3AB
100
AcDbEntity
  8
0
100
AcDbLine
 62
7
  6
CONTINUOUS
 10
33.5194366247
 20
135.4482900327
 11
33.5197491485
 21
135.4893667743
  0
LINE
  5
3AC
100
AcDbEntity
  8
0
100
AcDbLine
 62
9
  6
CONTINUOUS
 10
94.4946873118
 20
132.6685389618
 11
94.4953103472
 21
132.7455132037
  0
LINE
  5
3AD
100
AcDbEntity
  8
0
100
AcDbLine
 62
7
  6
CONTINUOUS
 10
33.5192287735
 20
135.4217298169
 11
33.5190344187
 21
135.3991038153
  0
LINE
  5
3AE
100
AcDbEntity
  8
0
100
AcDbLine
 62
7
  6
CONTINUOUS
 10
33.5195830909
 20
135.466927794
 11
33.5193810541
 21
135.4443505284
  0
LINE
  5
3AF
100
AcDbEntity
  8
0
100
AcDbLine
 62
9
  6
CONTINUOUS
 10
34.4400707733
 20
109.012759109
 11
34.4412312101
 21
109.0931980319
  0
LINE
  5
3B0
100
AcDbEntity
  8
0
100
AcDbLine
 62
9
  6
CONTINUOUS
 10
94.4953103472
 20
132.7455132037
 11
94.4964439318
 21
132.8208126411
  0
LINE
  5
3B1
100
AcDbEntity
  8
0
100
AcDbLine
 62
9
  6
CONTINUOUS
 10
62.6620664445
 20
127.2319430474
 11
62.6607609776
 21
127.1582915736
  0
LINE
  5
3B2
100
AcDbEntity
  8
0
100
AcDbLine
 62
9
  6
CONTINUOUS
 10
66.2740930204
 20
127.0907738781
 11
66.2753787775
 21
127.1582915736
  0
LINE
  5
3B3
100
AcDbEntity
  8
0
100
AcDbLine
 62
7
  6
CONTINUOUS
 10
30.4690706414
 20
138.7066259567
 11
30.4680698779
 21
138.6630482152
  0
LINE
  5
3B4
100
AcDbEntity
  8
0
100
AcDbLine
 62
7
  6
CONTINUOUS
 10
98.4670691137
 20
103.1099571904
 11
98.4680698772
 21
103.1535349319
  0
LINE
  5
3B5
100
AcDbEntity
  8
0
100
AcDbLine
 62
9
  6
CONTINUOUS
 10
94.4964439318
 20
132.8208126411
 11
94.4982490586
 21
132.8978043285
  0
LINE
  5
3B6
100
AcDbEntity
  8
0
100
AcDbLine
 62
9
  6
CONTINUOUS
 10
34.4337964929
 20
108.7651719698
 11
34.4400707733
 21
109.012759109
  0
LINE
  5
3B7
100
AcDbEntity
  8
0
100
AcDbLine
 62
9
  6
CONTINUOUS
 10
94.4982490586
 20
132.8978043285
 11
94.5052670656
 21
133.1575788638
  0
LINE
  5
3B8
100
AcDbEntity
  8
0
100
AcDbLine
 62
9
  6
CONTINUOUS
 10
34.4283387776
 20
108.5714713232
 11
34.4337964929
 21
108.7651719698
  0
LINE
  5
3B9
100
AcDbEntity
  8
0
100
AcDbLine
 62
9
  6
CONTINUOUS
 10
94.5052670656
 20
133.1575788638
 11
94.5112604465
 21
133.3611863491
  0
LINE
  5
3BA
100
AcDbEntity
  8
0
100
AcDbLine
 62
9
  6
CONTINUOUS
 10
34.4139635272
 20
108.1027415054
 11
34.4283387776
 21
108.5714713232
  0
LINE
  5
3BB
100
AcDbEntity
  8
0
100
AcDbLine
 62
9
  6
CONTINUOUS
 10
94.5112604465
 20
133.3611863491
 11
94.5264038389
 21
133.8487998347
  0
LINE
  5
3BC
100
AcDbEntity
  8
0
100
AcDbLine
 62
9
  6
CONTINUOUS
 10
34.4097358388
 20
107.9677835412
 11
34.4139635272
 21
108.1027415054
  0
LINE
  5
3BD
100
AcDbEntity
  8
0
100
AcDbLine
 62
7
  6
CONTINUOUS
 10
33.5213623578
 20
135.7867508052
 11
33.5218406603
 21
135.8012771832
  0
LINE
  5
3BE
100
AcDbEntity
  8
0
100
AcDbLine
 62
7
  6
CONTINUOUS
 10
95.4147773972
 20
106.0298323419
 11
95.4142990948
 21
106.0153059639
  0
LINE
  5
3BF
100
AcDbEntity
  8
0
100
AcDbLine
 62
9
  6
CONTINUOUS
 10
62.6659998024
 20
127.3056422715
 11
62.6620664445
 21
127.2319430474
  0
LINE
  5
3C0
100
AcDbEntity
  8
0
100
AcDbLine
 62
9
  6
CONTINUOUS
 10
66.2703075919
 20
127.0232384949
 11
66.2740930204
 21
127.0907738781
  0
LINE
  5
3C1
100
AcDbEntity
  8
0
100
AcDbLine
 62
9
  6
CONTINUOUS
 10
30.4688187442
 20
138.6988824072
 11
30.4709258433
 21
138.7356827013
  0
LINE
  5
3C2
100
AcDbEntity
  8
0
100
AcDbLine
 62
9
  6
CONTINUOUS
 10
98.4673210108
 20
103.1177007399
 11
98.4652139118
 21
103.0809004458
  0
LINE
  5
3C3
100
AcDbEntity
  8
0
100
AcDbLine
 62
9
  6
CONTINUOUS
 10
43.719568405
 20
130.508986311
 11
43.7212426229
 21
130.5341903571
  0
LINE
  5
3C4
100
AcDbEntity
  8
0
100
AcDbLine
 62
9
  6
CONTINUOUS
 10
85.253380009
 20
111.2660666677
 11
85.2550587119
 21
111.2912676622
  0
LINE
  5
3C5
100
AcDbEntity
  8
0
100
AcDbLine
 62
7
  6
CONTINUOUS
 10
30.4721275515
 20
138.7510592392
 11
30.4690706414
 21
138.7066259567
  0
LINE
  5
3C6
100
AcDbEntity
  8
0
100
AcDbLine
 62
7
  6
CONTINUOUS
 10
98.4640122036
 20
103.0655239079
 11
98.4670691137
 21
103.1099571904
  0
LINE
  5
3C7
100
AcDbEntity
  8
0
100
AcDbLine
 62
9
  6
CONTINUOUS
 10
62.6725858515
 20
127.3793960244
 11
62.6659998024
 21
127.3056422715
  0
LINE
  5
3C8
100
AcDbEntity
  8
0
100
AcDbLine
 62
7
  6
CONTINUOUS
 10
33.5231463317
 20
135.8157738994
 11
33.5218505033
 21
135.8013132362
  0
LINE
  5
3C9
100
AcDbEntity
  8
0
100
AcDbLine
 62
7
  6
CONTINUOUS
 10
95.4129934233
 20
106.0008092477
 11
95.4142892518
 21
106.0152699109
  0
LINE
  5
3CA
100
AcDbEntity
  8
0
100
AcDbLine
 62
9
  6
CONTINUOUS
 10
66.2640181348
 20
126.9557666276
 11
66.2703075919
 21
127.0232384949
  0
LINE
  5
3CB
100
AcDbEntity
  8
0
100
AcDbLine
 62
9
  6
CONTINUOUS
 10
98.4652139118
 20
103.0809004458
 11
98.4616599344
 21
103.0430782042
  0
LINE
  5
3CC
100
AcDbEntity
  8
0
100
AcDbLine
 62
7
  6
CONTINUOUS
 10
98.4589201539
 20
103.0201536977
 11
98.4640122036
 21
103.0655239079
  0
LINE
  5
3CD
100
AcDbEntity
  8
0
100
AcDbLine
 62
9
  6
CONTINUOUS
 10
43.7212426229
 20
130.5341903571
 11
43.7241411108
 21
130.5593344551
  0
LINE
  5
3CE
100
AcDbEntity
  8
0
100
AcDbLine
 62
9
  6
CONTINUOUS
 10
85.2504783072
 20
111.2409254825
 11
85.253380009
 21
111.2660666677
  0
LINE
  5
3CF
100
AcDbEntity
  8
0
100
AcDbLine
 62
9
  6
CONTINUOUS
 10
62.6818022175
 20
127.4528754114
 11
62.6725858515
 21
127.3793960244
  0
LINE
  5
3D0
100
AcDbEntity
  8
0
100
AcDbLine
 62
9
  6
CONTINUOUS
 10
66.2552113308
 20
126.8884830457
 11
66.2640181348
 21
126.9557666276
  0
LINE
  5
3D1
100
AcDbEntity
  8
0
100
AcDbLine
 62
9
  6
CONTINUOUS
 10
98.4616599344
 20
103.0430782042
 11
98.4566136571
 21
103.0045642805
  0
LINE
  5
3D2
100
AcDbEntity
  8
0
100
AcDbLine
 62
7
  6
CONTINUOUS
 10
95.412993668
 20
106.0008113065
 11
95.4108615879
 21
105.9863861735
  0
LINE
  5
3D3
100
AcDbEntity
  8
0
100
AcDbLine
 62
7
  6
CONTINUOUS
 10
63.2805698775
 20
132.9114797229
 11
63.281643226
 21
132.918500201
  0
LINE
  5
3D4
100
AcDbEntity
  8
0
100
AcDbLine
 62
7
  6
CONTINUOUS
 10
65.6555698775
 20
132.9114797229
 11
65.6544965291
 21
132.9044592447
  0
LINE
  5
3D5
100
AcDbEntity
  8
0
100
AcDbLine
 62
7
  6
CONTINUOUS
 10
98.4517299436
 20
102.9740907196
 11
98.4589201539
 21
103.0201536977
  0
LINE
  5
3D6
100
AcDbEntity
  8
0
100
AcDbLine
 62
9
  6
CONTINUOUS
 10
62.6935745848
 20
127.5257968423
 11
62.6818022175
 21
127.4528754114
  0
LINE
  5
3D7
100
AcDbEntity
  8
0
100
AcDbLine
 62
9
  6
CONTINUOUS
 10
43.7241411108
 20
130.5593344551
 11
43.7282573821
 21
130.5843547573
  0
LINE
  5
3D8
100
AcDbEntity
  8
0
100
AcDbLine
 62
9
  6
CONTINUOUS
 10
85.2463612784
 20
111.2159078514
 11
85.2504783072
 21
111.2409254825
  0
LINE
  5
3D9
100
AcDbEntity
  8
0
100
AcDbLine
 62
9
  6
CONTINUOUS
 10
98.4566136571
 20
103.0045642805
 11
98.4500806615
 21
102.9657300925
  0
LINE
  5
3DA
100
AcDbEntity
  8
0
100
AcDbLine
 62
9
  6
CONTINUOUS
 10
66.2438785373
 20
126.8214945825
 11
66.2552113308
 21
126.8884830457
  0
LINE
  5
3DB
100
AcDbEntity
  8
0
100
AcDbLine
 62
9
  6
CONTINUOUS
 10
62.7079123526
 20
127.5980524727
 11
62.6935745848
 21
127.5257968423
  0
LINE
  5
3DC
100
AcDbEntity
  8
0
100
AcDbLine
 62
7
  6
CONTINUOUS
 10
98.4423854366
 20
102.9274925878
 11
98.4517299436
 21
102.9740907196
  0
LINE
  5
3DD
100
AcDbEntity
  8
0
100
AcDbLine
 62
9
  6
CONTINUOUS
 10
98.4500806615
 20
102.9657300925
 11
98.441996468
 21
102.9264143404
  0
LINE
  5
3DE
100
AcDbEntity
  8
0
100
AcDbLine
 62
7
  6
CONTINUOUS
 10
95.4079116267
 20
105.9721016856
 11
95.4108597359
 21
105.9863860611
  0
LINE
  5
3DF
100
AcDbEntity
  8
0
100
AcDbLine
 62
9
  6
CONTINUOUS
 10
66.2300413279
 20
126.7549441255
 11
66.2438785373
 21
126.8214945825
  0
LINE
  5
3E0
100
AcDbEntity
  8
0
100
AcDbLine
 62
9
  6
CONTINUOUS
 10
85.2410376575
 20
111.1910829719
 11
85.2463612784
 21
111.2159078514
  0
LINE
  5
3E1
100
AcDbEntity
  8
0
100
AcDbLine
 62
9
  6
CONTINUOUS
 10
62.7247845527
 20
127.6694664075
 11
62.7079123526
 21
127.5980524727
  0
LINE
  5
3E2
100
AcDbEntity
  8
0
100
AcDbLine
 62
7
  6
CONTINUOUS
 10
98.4308869853
 20
102.8805375519
 11
98.4423854366
 21
102.9274925878
  0
LINE
  5
3E3
100
AcDbEntity
  8
0
100
AcDbLine
 62
9
  6
CONTINUOUS
 10
66.2137268181
 20
126.6889686736
 11
66.2300413279
 21
126.7549441255
  0
LINE
  5
3E4
100
AcDbEntity
  8
0
100
AcDbLine
 62
9
  6
CONTINUOUS
 10
85.2345209508
 20
111.1665203626
 11
85.2410376575
 21
111.1910829719
  0
LINE
  5
3E5
100
AcDbEntity
  8
0
100
AcDbLine
 62
7
  6
CONTINUOUS
 10
95.4079127835
 20
105.9721065802
 11
95.4041661254
 21
105.9580461518
  0
LINE
  5
3E6
100
AcDbEntity
  8
0
100
AcDbLine
 62
9
  6
CONTINUOUS
 10
62.7441532926
 20
127.7399521249
 11
62.7247845527
 21
127.6694664075
  0
LINE
  5
3E7
100
AcDbEntity
  8
0
100
AcDbLine
 62
9
  6
CONTINUOUS
 10
98.4322788579
 20
102.8865054737
 11
98.4209312705
 21
102.8462541724
  0
LINE
  5
3E8
100
AcDbEntity
  8
0
100
AcDbLine
 62
9
  6
CONTINUOUS
 10
66.1949661729
 20
126.6236839901
 11
66.2137268181
 21
126.6889686736
  0
LINE
  5
3E9
100
AcDbEntity
  8
0
100
AcDbLine
 62
7
  6
CONTINUOUS
 10
98.4172218475
 20
102.8334375803
 11
98.4308869853
 21
102.8805375519
  0
LINE
  5
3EA
100
AcDbEntity
  8
0
100
AcDbLine
 62
9
  6
CONTINUOUS
 10
62.7659636174
 20
127.8093682114
 11
62.7441532926
 21
127.7399521249
  0
LINE
  5
3EB
100
AcDbEntity
  8
0
100
AcDbLine
 62
9
  6
CONTINUOUS
 10
85.2268294469
 20
111.1422782777
 11
85.2345209508
 21
111.1665203626
  0
LINE
  5
3EC
100
AcDbEntity
  8
0
100
AcDbLine
 62
9
  6
CONTINUOUS
 10
98.4209312705
 20
102.8462541724
 11
98.4079796094
 21
102.805888207
  0
LINE
  5
3ED
100
AcDbEntity
  8
0
100
AcDbLine
 62
7
  6
CONTINUOUS
 10
95.4041661254
 20
105.9580461518
 11
95.3996369498
 21
105.9442417416
  0
LINE
  5
3EE
100
AcDbEntity
  8
0
100
AcDbLine
 62
9
  6
CONTINUOUS
 10
66.1738074512
 20
126.5592316765
 11
66.1949661729
 21
126.6236839901
  0
LINE
  5
3EF
100
AcDbEntity
  8
0
100
AcDbLine
 62
7
  6
CONTINUOUS
 10
98.4013731705
 20
102.7862491307
 11
98.4172218475
 21
102.8334375803
  0
LINE
  5
3F0
100
AcDbEntity
  8
0
100
AcDbLine
 62
9
  6
CONTINUOUS
 10
98.4079796094
 20
102.805888207
 11
98.3933786687
 21
102.7653780705
  0
LINE
  5
3F1
100
AcDbEntity
  8
0
100
AcDbLine
 62
9
  6
CONTINUOUS
 10
66.150273207
 20
126.4956572245
 11
66.1738074512
 21
126.5592316765
  0
LINE
  5
3F2
100
AcDbEntity
  8
0
100
AcDbLine
 62
9
  6
CONTINUOUS
 10
85.2179814378
 20
111.1184152844
 11
85.2268294469
 21
111.1422782777
  0
LINE
  5
3F3
100
AcDbEntity
  8
0
100
AcDbLine
 62
7
  6
CONTINUOUS
 10
98.3833257348
 20
102.7390780273
 11
98.4013731705
 21
102.7862491307
  0
LINE
  5
3F4
100
AcDbEntity
  8
0
100
AcDbLine
 62
7
  6
CONTINUOUS
 10
95.394352072
 20
105.9307481784
 11
95.3996340477
 21
105.9442336741
  0
LINE
  5
3F5
100
AcDbEntity
  8
0
100
AcDbLine
 62
9
  6
CONTINUOUS
 10
98.3933786687
 20
102.7653780705
 11
98.3770947982
 21
102.7247537797
  0
LINE
  5
3F6
100
AcDbEntity
  8
0
100
AcDbLine
 62
9
  6
CONTINUOUS
 10
85.2079985018
 20
111.0949987507
 11
85.2179814378
 21
111.1184152844
  0
LINE
  5
3F7
100
AcDbEntity
  8
0
100
AcDbLine
 62
7
  6
CONTINUOUS
 10
98.3630618984
 20
102.6919881384
 11
98.3833257348
 21
102.7390780273
  0
LINE
  5
3F8
100
AcDbEntity
  8
0
100
AcDbLine
 62
9
  6
CONTINUOUS
 10
98.3770947982
 20
102.7247537797
 11
98.3591084769
 21
102.6840890659
  0
LINE
  5
3F9
100
AcDbEntity
  8
0
100
AcDbLine
 62
7
  6
CONTINUOUS
 10
95.3943535176
 20
105.9307581712
 11
95.3883119178
 21
105.9175769655
  0
LINE
  5
3FA
100
AcDbEntity
  8
0
100
AcDbLine
 62
7
  6
CONTINUOUS
 10
98.340539853
 20
102.6450122143
 11
98.3630618984
 21
102.6919881384
  0
LINE
  5
3FB
100
AcDbEntity
  8
0
100
AcDbLine
 62
9
  6
CONTINUOUS
 10
85.1969082237
 20
111.072093354
 11
85.2079985018
 21
111.0949987507
  0
LINE
  5
3FC
100
AcDbEntity
  8
0
100
AcDbLine
 62
9
  6
CONTINUOUS
 10
98.3591084769
 20
102.6840890659
 11
98.3393777704
 21
102.6434059649
  0
LINE
  5
3FD
100
AcDbEntity
  8
0
100
AcDbLine
 62
7
  6
CONTINUOUS
 10
95.3883119178
 20
105.9175769655
 11
95.3814938175
 21
105.9046785823
  0
LINE
  5
3FE
100
AcDbEntity
  8
0
100
AcDbLine
 62
9
  6
CONTINUOUS
 10
98.3393777704
 20
102.6434059649
 11
98.3179572284
 21
102.6029069733
  0
LINE
  5
3FF
100
AcDbEntity
  8
0
100
AcDbLine
 62
7
  6
CONTINUOUS
 10
98.315816879
 20
102.5983494326
 11
98.340539853
 21
102.6450122143
  0
LINE
  5
400
100
AcDbEntity
  8
0
100
AcDbLine
 62
9
  6
CONTINUOUS
 10
85.1847397969
 20
111.0497535078
 11
85.1969082237
 21
111.072093354
  0
LINE
  5
401
100
AcDbEntity
  8
0
100
AcDbLine
 62
9
  6
CONTINUOUS
 10
98.3179572284
 20
102.6029069733
 11
98.2949277704
 21
102.5627995396
  0
LINE
  5
402
100
AcDbEntity
  8
0
100
AcDbLine
 62
7
  6
CONTINUOUS
 10
98.2889160329
 20
102.5521589966
 11
98.315816879
 21
102.5983494326
  0
LINE
  5
403
100
AcDbEntity
  8
0
100
AcDbLine
 62
7
  6
CONTINUOUS
 10
95.3814938175
 20
105.9046785823
 11
95.3739322138
 21
105.8921488286
  0
LINE
  5
404
100
AcDbEntity
  8
0
100
AcDbLine
 62
9
  6
CONTINUOUS
 10
98.2949277704
 20
102.5627995396
 11
98.2702595649
 21
102.5230807216
  0
LINE
  5
405
100
AcDbEntity
  8
0
100
AcDbLine
 62
7
  6
CONTINUOUS
 10
98.2598981775
 20
102.506593579
 11
98.2889160329
 21
102.5521589966
  0
LINE
  5
406
100
AcDbEntity
  8
0
100
AcDbLine
 62
9
  6
CONTINUOUS
 10
98.2702595649
 20
102.5230807216
 11
98.243912363
 21
102.4837542723
  0
LINE
  5
407
100
AcDbEntity
  8
0
100
AcDbLine
 62
7
  6
CONTINUOUS
 10
95.3739322138
 20
105.8921488286
 11
95.3656526679
 21
105.8800420362
  0
LINE
  5
408
100
AcDbEntity
  8
0
100
AcDbLine
 62
7
  6
CONTINUOUS
 10
98.2288296863
 20
102.4618384873
 11
98.2598981775
 21
102.506593579
  0
LINE
  5
409
100
AcDbEntity
  8
0
100
AcDbLine
 62
9
  6
CONTINUOUS
 10
98.243912363
 20
102.4837542723
 11
98.215988164
 21
102.4450339571
  0
LINE
  5
40A
100
AcDbEntity
  8
0
100
AcDbLine
 62
7
  6
CONTINUOUS
 10
98.1957170839
 20
102.4179550199
 11
98.2288296863
 21
102.4618384873
  0
LINE
  5
40B
100
AcDbEntity
  8
0
100
AcDbLine
 62
9
  6
CONTINUOUS
 10
98.215988164
 20
102.4450339571
 11
98.1865988745
 21
102.4071045197
  0
LINE
  5
40C
100
AcDbEntity
  8
0
100
AcDbLine
 62
9
  6
CONTINUOUS
 10
89.4943366534
 20
132.613051586
 11
89.1003602415
 21
132.5015285392
  0
LINE
  5
40D
100
AcDbEntity
  8
0
100
AcDbLine
 62
9
  6
CONTINUOUS
 10
39.8169153545
 20
109.309647964
 11
39.4252947925
 21
109.1989211778
  0
LINE
  5
40E
100
AcDbEntity
  8
0
100
AcDbLine
 62
9
  6
CONTINUOUS
 10
35.1953784131
 20
108.1956674005
 11
35.0466531467
 21
108.1537476981
  0
LINE
  5
40F
100
AcDbEntity
  8
0
100
AcDbLine
 62
9
  6
CONTINUOUS
 10
93.8893523735
 20
133.6627972352
 11
93.7405900687
 21
133.6208678667
  0
LINE
  5
410
100
AcDbEntity
  8
0
100
AcDbLine
 62
9
  6
CONTINUOUS
 10
89.8964974384
 20
132.7239900849
 11
89.4943366534
 21
132.613051586
  0
LINE
  5
411
100
AcDbEntity
  8
0
100
AcDbLine
 62
9
  6
CONTINUOUS
 10
39.4252947925
 20
109.1989211778
 11
39.0256043662
 21
109.0887713815
  0
LINE
  5
412
100
AcDbEntity
  8
0
100
AcDbLine
 62
9
  6
CONTINUOUS
 10
35.3376212441
 20
108.2347725323
 11
35.1953784131
 21
108.1956674005
  0
LINE
  5
413
100
AcDbEntity
  8
0
100
AcDbLine
 62
9
  6
CONTINUOUS
 10
93.7405900687
 20
133.6208678667
 11
93.5983242468
 21
133.5817579346
  0
LINE
  5
414
100
AcDbEntity
  8
0
100
AcDbLine
 62
9
  6
CONTINUOUS
 10
90.3067971796
 20
132.8343323413
 11
89.8964974384
 21
132.7239900849
  0
LINE
  5
415
100
AcDbEntity
  8
0
100
AcDbLine
 62
9
  6
CONTINUOUS
 10
39.0256043662
 20
109.0887713815
 11
38.6178886729
 21
108.9792100479
  0
LINE
  5
416
100
AcDbEntity
  8
0
100
AcDbLine
 62
9
  6
CONTINUOUS
 10
35.4719307934
 20
108.2706551004
 11
35.3376212441
 21
108.2347725323
  0
LINE
  5
417
100
AcDbEntity
  8
0
100
AcDbLine
 62
9
  6
CONTINUOUS
 10
93.5983242468
 20
133.5817579346
 11
93.4640292004
 21
133.5458809018
  0
LINE
  5
418
100
AcDbEntity
  8
0
100
AcDbLine
 62
9
  6
CONTINUOUS
 10
38.6178886729
 20
108.9792100479
 11
38.2021878027
 21
108.8702481241
  0
LINE
  5
419
100
AcDbEntity
  8
0
100
AcDbLine
 62
9
  6
CONTINUOUS
 10
90.7251951873
 20
132.9440672286
 11
90.3067971796
 21
132.8343323413
  0
LINE
  5
41A
100
AcDbEntity
  8
0
100
AcDbLine
 62
7
  6
CONTINUOUS
 10
65.5284180432
 20
132.8370755151
 11
65.5047741369
 21
132.8308793269
  0
LINE
  5
41B
100
AcDbEntity
  8
0
100
AcDbLine
 62
7
  6
CONTINUOUS
 10
65.5284153994
 20
132.9608585387
 11
65.5047661335
 21
132.9546608416
  0
LINE
  5
41C
100
AcDbEntity
  8
0
100
AcDbLine
 62
7
  6
CONTINUOUS
 10
63.4077217119
 20
132.9858839306
 11
63.4313656181
 21
132.9920801188
  0
LINE
  5
41D
100
AcDbEntity
  8
0
100
AcDbLine
 62
9
  6
CONTINUOUS
 10
84.7146567518
 20
130.9949850999
 11
84.7019638995
 21
130.9916932738
  0
LINE
  5
41E
100
AcDbEntity
  8
0
100
AcDbLine
 62
9
  6
CONTINUOUS
 10
35.5982239375
 20
108.303193332
 11
35.4719307934
 21
108.2706551004
  0
LINE
  5
41F
100
AcDbEntity
  8
0
100
AcDbLine
 62
9
  6
CONTINUOUS
 10
93.4640292004
 20
133.5458809018
 11
93.3377679606
 21
133.5133524626
  0
LINE
  5
420
100
AcDbEntity
  8
0
100
AcDbLine
 62
9
  6
CONTINUOUS
 10
91.1516344639
 20
133.0531808021
 11
90.7251951873
 21
132.9440672286
  0
LINE
  5
421
100
AcDbEntity
  8
0
100
AcDbLine
 62
9
  6
CONTINUOUS
 10
38.2021878027
 20
108.8702481241
 11
37.7785573586
 21
108.7618992045
  0
LINE
  5
422
100
AcDbEntity
  8
0
100
AcDbLine
 62
9
  6
CONTINUOUS
 10
44.1968460285
 20
110.808819306
 11
44.1836399019
 21
110.8054506476
  0
LINE
  5
423
100
AcDbEntity
  8
0
100
AcDbLine
 62
9
  6
CONTINUOUS
 10
64.0732361022
 20
129.0327555412
 11
64.0087014701
 21
129.016351863
  0
LINE
  5
424
100
AcDbEntity
  8
0
100
AcDbLine
 62
9
  6
CONTINUOUS
 10
97.4965920356
 20
101.9460191596
 11
97.4558137778
 21
101.9358303696
  0
LINE
  5
425
100
AcDbEntity
  8
0
100
AcDbLine
 62
9
  6
CONTINUOUS
 10
31.4395477195
 20
139.8705639875
 11
31.4803259772
 21
139.8807527775
  0
LINE
  5
426
100
AcDbEntity
  8
0
100
AcDbLine
 62
9
  6
CONTINUOUS
 10
91.5860356285
 20
133.1616532012
 11
91.1516344639
 21
133.0531808021
  0
LINE
  5
427
100
AcDbEntity
  8
0
100
AcDbLine
 62
9
  6
CONTINUOUS
 10
37.7785573586
 20
108.7618992045
 11
37.3470749274
 21
108.6541826873
  0
LINE
  5
428
100
AcDbEntity
  8
0
100
AcDbLine
 62
9
  6
CONTINUOUS
 10
64.8696773389
 20
125.3906934188
 11
64.9352177721
 21
125.4069807214
  0
LINE
  5
429
100
AcDbEntity
  8
0
100
AcDbLine
 62
9
  6
CONTINUOUS
 10
35.7155990031
 20
108.3322238924
 11
35.5982239375
 21
108.303193332
  0
LINE
  5
42A
100
AcDbEntity
  8
0
100
AcDbLine
 62
9
  6
CONTINUOUS
 10
93.3377679606
 20
133.5133524626
 11
93.2204321683
 21
133.4843332273
  0
LINE
  5
42B
100
AcDbEntity
  8
0
100
AcDbLine
 62
7
  6
CONTINUOUS
 10
97.4475598196
 20
101.9338580669
 11
97.4945643602
 21
101.9453337177
  0
LINE
  5
42C
100
AcDbEntity
  8
0
100
AcDbLine
 62
7
  6
CONTINUOUS
 10
31.4885799354
 20
139.8827250802
 11
31.4415753949
 21
139.8712494294
  0
LINE
  5
42D
100
AcDbEntity
  8
0
100
AcDbLine
 62
9
  6
CONTINUOUS
 10
37.3470749274
 20
108.6541826873
 11
36.9077146469
 21
108.5470921066
  0
LINE
  5
42E
100
AcDbEntity
  8
0
100
AcDbLine
 62
9
  6
CONTINUOUS
 10
92.0284251414
 20
133.2694910462
 11
91.5860356285
 21
133.1616532012
  0
LINE
  5
42F
100
AcDbEntity
  8
0
100
AcDbLine
 62
7
  6
CONTINUOUS
 10
95.2114208937
 20
105.779582735
 11
95.2248256874
 21
105.7828382548
  0
LINE
  5
430
100
AcDbEntity
  8
0
100
AcDbLine
 62
7
  6
CONTINUOUS
 10
33.7247188614
 20
136.0370004121
 11
33.7113140677
 21
136.0337448923
  0
LINE
  5
431
100
AcDbEntity
  8
0
100
AcDbLine
 62
7
  6
CONTINUOUS
 10
65.5047741369
 20
132.8308793269
 11
65.4792594975
 21
132.8248285821
  0
LINE
  5
432
100
AcDbEntity
  8
0
100
AcDbLine
 62
7
  6
CONTINUOUS
 10
65.5047661335
 20
132.9546608416
 11
65.4792593444
 21
132.9486118155
  0
LINE
  5
433
100
AcDbEntity
  8
0
100
AcDbLine
 62
7
  6
CONTINUOUS
 10
63.4313656181
 20
132.9920801188
 11
63.4568802575
 21
132.9981308636
  0
LINE
  5
434
100
AcDbEntity
  8
0
100
AcDbLine
 62
9
  6
CONTINUOUS
 10
35.8250270014
 20
108.3579729809
 11
35.7155990031
 21
108.3322238924
  0
LINE
  5
435
100
AcDbEntity
  8
0
100
AcDbLine
 62
9
  6
CONTINUOUS
 10
93.2204321683
 20
133.4843332273
 11
93.111044152
 21
133.4585944459
  0
LINE
  5
436
100
AcDbEntity
  8
0
100
AcDbLine
 62
9
  6
CONTINUOUS
 10
84.8527991981
 20
110.8052048414
 11
84.8766071505
 21
110.810765412
  0
LINE
  5
437
100
AcDbEntity
  8
0
100
AcDbLine
 62
9
  6
CONTINUOUS
 10
44.0981829593
 20
130.9895384889
 11
44.1220069884
 21
130.9950918077
  0
LINE
  5
438
100
AcDbEntity
  8
0
100
AcDbLine
 62
9
  6
CONTINUOUS
 10
36.9077146469
 20
108.5470921066
 11
36.8605725519
 21
108.5361235434
  0
LINE
  5
439
100
AcDbEntity
  8
0
100
AcDbLine
 62
9
  6
CONTINUOUS
 10
92.0755661356
 20
133.2804593546
 11
92.0284251414
 21
133.2694910462
  0
LINE
  5
43A
100
AcDbEntity
  8
0
100
AcDbLine
 62
9
  6
CONTINUOUS
 10
84.7019638995
 20
130.9916932738
 11
84.6872193946
 21
130.9882660831
  0
LINE
  5
43B
100
AcDbEntity
  8
0
100
AcDbLine
 62
9
  6
CONTINUOUS
 10
44.2122300313
 20
110.8123295673
 11
44.1968460285
 21
110.808819306
  0
LINE
  5
43C
100
AcDbEntity
  8
0
100
AcDbLine
 62
9
  6
CONTINUOUS
 10
35.927028656
 20
108.3806090686
 11
35.8250270014
 21
108.3579729809
  0
LINE
  5
43D
100
AcDbEntity
  8
0
100
AcDbLine
 62
9
  6
CONTINUOUS
 10
93.111044152
 20
133.4585944459
 11
93.0090715108
 21
133.4359656711
  0
LINE
  5
43E
100
AcDbEntity
  8
0
100
AcDbLine
 62
9
  6
CONTINUOUS
 10
36.8605725519
 20
108.5361235434
 11
36.8111275475
 21
108.5253707148
  0
LINE
  5
43F
100
AcDbEntity
  8
0
100
AcDbLine
 62
9
  6
CONTINUOUS
 10
92.1250097556
 20
133.2912119103
 11
92.0755661356
 21
133.2804593546
  0
LINE
  5
440
100
AcDbEntity
  8
0
100
AcDbLine
 62
7
  6
CONTINUOUS
 10
65.4792594975
 20
132.8248285821
 11
65.451925086
 21
132.8189337778
  0
LINE
  5
441
100
AcDbEntity
  8
0
100
AcDbLine
 62
7
  6
CONTINUOUS
 10
65.4792593444
 20
132.9486118155
 11
65.4519318306
 21
132.9427186752
  0
LINE
  5
442
100
AcDbEntity
  8
0
100
AcDbLine
 62
7
  6
CONTINUOUS
 10
63.4568802575
 20
132.9981308636
 11
63.4842146691
 21
133.004025668
  0
LINE
  5
443
100
AcDbEntity
  8
0
100
AcDbLine
 62
9
  6
CONTINUOUS
 10
64.1382869858
 20
129.046661081
 11
64.0732361022
 21
129.0327555412
  0
LINE
  5
444
100
AcDbEntity
  8
0
100
AcDbLine
 62
9
  6
CONTINUOUS
 10
97.4558137778
 20
101.9358303696
 11
97.4155359569
 21
101.9273251752
  0
LINE
  5
445
100
AcDbEntity
  8
0
100
AcDbLine
 62
9
  6
CONTINUOUS
 10
31.4803259772
 20
139.8807527775
 11
31.5206037981
 21
139.8892579719
  0
LINE
  5
446
100
AcDbEntity
  8
0
100
AcDbLine
 62
9
  6
CONTINUOUS
 10
84.6872193946
 20
130.9882660831
 11
84.6702842363
 21
130.9847093838
  0
LINE
  5
447
100
AcDbEntity
  8
0
100
AcDbLine
 62
9
  6
CONTINUOUS
 10
64.8035774596
 20
125.376874292
 11
64.8696773389
 21
125.3906934188
  0
LINE
  5
448
100
AcDbEntity
  8
0
100
AcDbLine
 62
9
  6
CONTINUOUS
 10
36.0220220105
 20
108.4003806984
 11
35.927028656
 21
108.3806090686
  0
LINE
  5
449
100
AcDbEntity
  8
0
100
AcDbLine
 62
9
  6
CONTINUOUS
 10
93.0090715108
 20
133.4359656711
 11
92.9141008526
 21
133.4161990041
  0
LINE
  5
44A
100
AcDbEntity
  8
0
100
AcDbLine
 62
9
  6
CONTINUOUS
 10
44.229940481
 20
110.8159755173
 11
44.2122300313
 21
110.8123295673
  0
LINE
  5
44B
100
AcDbEntity
  8
0
100
AcDbLine
 62
9
  6
CONTINUOUS
 10
36.8111275475
 20
108.5253707148
 11
36.7593500234
 21
108.5148279463
  0
LINE
  5
44C
100
AcDbEntity
  8
0
100
AcDbLine
 62
9
  6
CONTINUOUS
 10
92.1767851456
 20
133.3017543099
 11
92.1250097556
 21
133.2912119103
  0
LINE
  5
44D
100
AcDbEntity
  8
0
100
AcDbLine
 62
7
  6
CONTINUOUS
 10
97.4009978267
 20
101.924550542
 11
97.4475598196
 21
101.9338580669
  0
LINE
  5
44E
100
AcDbEntity
  8
0
100
AcDbLine
 62
7
  6
CONTINUOUS
 10
31.5351419284
 20
139.8920326051
 11
31.4885799354
 21
139.8827250802
  0
LINE
  5
44F
100
AcDbEntity
  8
0
100
AcDbLine
 62
7
  6
CONTINUOUS
 10
65.451925086
 20
132.8189337778
 11
65.4228153075
 21
132.8132059726
  0
LINE
  5
450
100
AcDbEntity
  8
0
100
AcDbLine
 62
7
  6
CONTINUOUS
 10
65.4519318306
 20
132.9427186752
 11
65.4228119236
 21
132.9369890814
  0
LINE
  5
451
100
AcDbEntity
  8
0
100
AcDbLine
 62
7
  6
CONTINUOUS
 10
63.4842146691
 20
133.004025668
 11
63.5133244476
 21
133.0097534732
  0
LINE
  5
452
100
AcDbEntity
  8
0
100
AcDbLine
 62
9
  6
CONTINUOUS
 10
36.1105039605
 20
108.4173621412
 11
36.0220220105
 21
108.4003806984
  0
LINE
  5
453
100
AcDbEntity
  8
0
100
AcDbLine
 62
9
  6
CONTINUOUS
 10
92.9141008526
 20
133.4161990041
 11
92.8256358578
 21
133.3992208047
  0
LINE
  5
454
100
AcDbEntity
  8
0
100
AcDbLine
 62
9
  6
CONTINUOUS
 10
84.6702842363
 20
130.9847093838
 11
84.6510083063
 21
130.9810246747
  0
LINE
  5
455
100
AcDbEntity
  8
0
100
AcDbLine
 62
9
  6
CONTINUOUS
 10
36.7593500234
 20
108.5148279463
 11
36.7053288109
 21
108.5045122612
  0
LINE
  5
456
100
AcDbEntity
  8
0
100
AcDbLine
 62
9
  6
CONTINUOUS
 10
92.230804873
 20
133.3120697639
 11
92.1767851456
 21
133.3017543099
  0
LINE
  5
457
100
AcDbEntity
  8
0
100
AcDbLine
 62
9
  6
CONTINUOUS
 10
44.2501359712
 20
110.8197551276
 11
44.229940481
 21
110.8159755173
  0
LINE
  5
458
100
AcDbEntity
  8
0
100
AcDbLine
 62
7
  6
CONTINUOUS
 10
95.2114269899
 20
105.7795840417
 11
95.1980732232
 21
105.7770905961
  0
LINE
  5
459
100
AcDbEntity
  8
0
100
AcDbLine
 62
7
  6
CONTINUOUS
 10
33.7247127652
 20
136.0369991055
 11
33.7380665319
 21
136.039492551
  0
LINE
  5
45A
100
AcDbEntity
  8
0
100
AcDbLine
 62
7
  6
CONTINUOUS
 10
65.4228153075
 20
132.8132059726
 11
65.3919873358
 21
132.8076550243
  0
LINE
  5
45B
100
AcDbEntity
  8
0
100
AcDbLine
 62
7
  6
CONTINUOUS
 10
65.4228119236
 20
132.9369890814
 11
65.3919748473
 21
132.9314363804
  0
LINE
  5
45C
100
AcDbEntity
  8
0
100
AcDbLine
 62
7
  6
CONTINUOUS
 10
63.5133244476
 20
133.0097534732
 11
63.5441524193
 21
133.0153044215
  0
LINE
  5
45D
100
AcDbEntity
  8
0
100
AcDbLine
 62
9
  6
CONTINUOUS
 10
84.8288359207
 20
110.8009043097
 11
84.8527991981
 21
110.8052048414
  0
LINE
  5
45E
100
AcDbEntity
  8
0
100
AcDbLine
 62
9
  6
CONTINUOUS
 10
36.7053288109
 20
108.5045122612
 11
36.6491196533
 21
108.494435397
  0
LINE
  5
45F
100
AcDbEntity
  8
0
100
AcDbLine
 62
9
  6
CONTINUOUS
 10
92.2870149538
 20
133.3221468445
 11
92.230804873
 21
133.3120697639
  0
LINE
  5
460
100
AcDbEntity
  8
0
100
AcDbLine
 62
9
  6
CONTINUOUS
 10
44.1220069884
 20
130.9950918077
 11
44.1459872527
 21
130.9993777604
  0
LINE
  5
461
100
AcDbEntity
  8
0
100
AcDbLine
 62
9
  6
CONTINUOUS
 10
84.6510083063
 20
130.9810246747
 11
84.6292546137
 21
130.9772163821
  0
LINE
  5
462
100
AcDbEntity
  8
0
100
AcDbLine
 62
9
  6
CONTINUOUS
 10
36.1928349363
 20
108.4317013428
 11
36.1105039605
 21
108.4173621412
  0
LINE
  5
463
100
AcDbEntity
  8
0
100
AcDbLine
 62
9
  6
CONTINUOUS
 10
92.8256358578
 20
133.3992208047
 11
92.7433159952
 21
133.3848836372
  0
LINE
  5
464
100
AcDbEntity
  8
0
100
AcDbLine
 62
9
  6
CONTINUOUS
 10
64.2037636042
 20
129.0580550476
 11
64.1382869858
 21
129.046661081
  0
LINE
  5
465
100
AcDbEntity
  8
0
100
AcDbLine
 62
9
  6
CONTINUOUS
 10
97.4155359569
 20
101.9273251752
 11
97.3757082881
 21
101.9204384267
  0
LINE
  5
466
100
AcDbEntity
  8
0
100
AcDbLine
 62
9
  6
CONTINUOUS
 10
31.5206037981
 20
139.8892579719
 11
31.560431467
 21
139.8961447204
  0
LINE
  5
467
100
AcDbEntity
  8
0
100
AcDbLine
 62
9
  6
CONTINUOUS
 10
44.2729655092
 20
110.8236641379
 11
44.2501359712
 21
110.8197551276
  0
LINE
  5
468
100
AcDbEntity
  8
0
100
AcDbLine
 62
9
  6
CONTINUOUS
 10
64.737012633
 20
125.3655427397
 11
64.8035774596
 21
125.376874292
  0
LINE
  5
469
100
AcDbEntity
  8
0
100
AcDbLine
 62
9
  6
CONTINUOUS
 10
36.6491196533
 20
108.494435397
 11
36.5907922049
 21
108.4846075366
  0
LINE
  5
46A
100
AcDbEntity
  8
0
100
AcDbLine
 62
9
  6
CONTINUOUS
 10
92.345344187
 20
133.3319750642
 11
92.2870149538
 21
133.3221468445
  0
LINE
  5
46B
100
AcDbEntity
  8
0
100
AcDbLine
 62
7
  6
CONTINUOUS
 10
65.3919873358
 20
132.8076550243
 11
65.3594921548
 21
132.8022914277
  0
LINE
  5
46C
100
AcDbEntity
  8
0
100
AcDbLine
 62
7
  6
CONTINUOUS
 10
65.3919748473
 20
132.9314363804
 11
65.3594916409
 21
132.9260746215
  0
LINE
  5
46D
100
AcDbEntity
  8
0
100
AcDbLine
 62
7
  6
CONTINUOUS
 10
63.5441524193
 20
133.0153044215
 11
63.5766476003
 21
133.0206680181
  0
LINE
  5
46E
100
AcDbEntity
  8
0
100
AcDbLine
 62
9
  6
CONTINUOUS
 10
84.6292546137
 20
130.9772163821
 11
84.6048872462
 21
130.9732886576
  0
LINE
  5
46F
100
AcDbEntity
  8
0
100
AcDbLine
 62
9
  6
CONTINUOUS
 10
36.5907922049
 20
108.4846075366
 11
36.5304457301
 21
108.4750445375
  0
LINE
  5
470
100
AcDbEntity
  8
0
100
AcDbLine
 62
9
  6
CONTINUOUS
 10
92.4056922276
 20
133.341538339
 11
92.345344187
 21
133.3319750642
  0
LINE
  5
471
100
AcDbEntity
  8
0
100
AcDbLine
 62
9
  6
CONTINUOUS
 10
44.2985762026
 20
110.8276985097
 11
44.2729655092
 21
110.8236641379
  0
LINE
  5
472
100
AcDbEntity
  8
0
100
AcDbLine
 62
7
  6
CONTINUOUS
 10
97.3550723139
 20
101.9174095503
 11
97.4009978267
 21
101.924550542
  0
LINE
  5
473
100
AcDbEntity
  8
0
100
AcDbLine
 62
7
  6
CONTINUOUS
 10
31.5810674412
 20
139.8991735968
 11
31.5351419284
 21
139.8920326051
  0
LINE
  5
474
100
AcDbEntity
  8
0
100
AcDbLine
 62
9
  6
CONTINUOUS
 10
36.2694217166
 20
108.4435764726
 11
36.1928349363
 21
108.4317013428
  0
LINE
  5
475
100
AcDbEntity
  8
0
100
AcDbLine
 62
9
  6
CONTINUOUS
 10
92.7433159952
 20
133.3848836372
 11
92.6667346196
 21
133.3730090825
  0
LINE
  5
476
100
AcDbEntity
  8
0
100
AcDbLine
 62
7
  6
CONTINUOUS
 10
65.3594921548
 20
132.8022914277
 11
65.3253927391
 21
132.7971243302
  0
LINE
  5
477
100
AcDbEntity
  8
0
100
AcDbLine
 62
7
  6
CONTINUOUS
 10
65.3594916409
 20
132.9260746215
 11
65.3254031912
 21
132.9209093565
  0
LINE
  5
478
100
AcDbEntity
  8
0
100
AcDbLine
 62
7
  6
CONTINUOUS
 10
63.5766476003
 20
133.0206680181
 11
63.610747016
 21
133.0258351156
  0
LINE
  5
479
100
AcDbEntity
  8
0
100
AcDbLine
 62
9
  6
CONTINUOUS
 10
36.5304457301
 20
108.4750445375
 11
36.4680471409
 21
108.4657411139
  0
LINE
  5
47A
100
AcDbEntity
  8
0
100
AcDbLine
 62
9
  6
CONTINUOUS
 10
84.6048872462
 20
130.9732886576
 11
84.5777528495
 21
130.9692438237
  0
LINE
  5
47B
100
AcDbEntity
  8
0
100
AcDbLine
 62
9
  6
CONTINUOUS
 10
92.4680925238
 20
133.3508420302
 11
92.4056922276
 21
133.341538339
  0
LINE
  5
47C
100
AcDbEntity
  8
0
100
AcDbLine
 62
9
  6
CONTINUOUS
 10
44.3271323445
 20
110.8318555494
 11
44.2985762026
 21
110.8276985097
  0
LINE
  5
47D
100
AcDbEntity
  8
0
100
AcDbLine
 62
7
  6
CONTINUOUS
 10
65.3253927391
 20
132.7971243302
 11
65.2897462841
 21
132.792163587
  0
LINE
  5
47E
100
AcDbEntity
  8
0
100
AcDbLine
 62
7
  6
CONTINUOUS
 10
65.3254031912
 20
132.9209093565
 11
65.2897425674
 21
132.9159468304
  0
LINE
  5
47F
100
AcDbEntity
  8
0
100
AcDbLine
 62
7
  6
CONTINUOUS
 10
63.610747016
 20
133.0258351156
 11
63.646393471
 21
133.0307958588
  0
LINE
  5
480
100
AcDbEntity
  8
0
100
AcDbLine
 62
9
  6
CONTINUOUS
 10
84.5777528495
 20
130.9692438237
 11
84.5477073666
 21
130.9650845893
  0
LINE
  5
481
100
AcDbEntity
  8
0
100
AcDbLine
 62
9
  6
CONTINUOUS
 10
44.3587872772
 20
110.8361322328
 11
44.3271323445
 21
110.8318555494
  0
LINE
  5
482
100
AcDbEntity
  8
0
100
AcDbLine
 62
9
  6
CONTINUOUS
 10
97.3757082881
 20
101.9204384267
 11
97.3362209564
 21
101.9151129384
  0
LINE
  5
483
100
AcDbEntity
  8
0
100
AcDbLine
 62
9
  6
CONTINUOUS
 10
31.560431467
 20
139.8961447204
 11
31.5999187987
 21
139.9014702087
  0
LINE
  5
484
100
AcDbEntity
  8
0
100
AcDbLine
 62
9
  6
CONTINUOUS
 10
64.2695867942
 20
129.0669266194
 11
64.2037636042
 21
129.0580550476
  0
LINE
  5
485
100
AcDbEntity
  8
0
100
AcDbLine
 62
9
  6
CONTINUOUS
 10
36.3405893048
 20
108.4531172601
 11
36.2694217166
 21
108.4435764726
  0
LINE
  5
486
100
AcDbEntity
  8
0
100
AcDbLine
 62
9
  6
CONTINUOUS
 10
92.6667346196
 20
133.3730090825
 11
92.5955668854
 21
133.3634679181
  0
LINE
  5
487
100
AcDbEntity
  8
0
100
AcDbLine
 62
7
  6
CONTINUOUS
 10
95.1848759916
 20
105.7753390048
 11
95.1980714331
 21
105.7770941297
  0
LINE
  5
488
100
AcDbEntity
  8
0
100
AcDbLine
 62
7
  6
CONTINUOUS
 10
33.7512637634
 20
136.0412441423
 11
33.7380683219
 21
136.0394890174
  0
LINE
  5
489
100
AcDbEntity
  8
0
100
AcDbLine
 62
9
  6
CONTINUOUS
 10
64.6700711181
 20
125.3567138578
 11
64.737012633
 21
125.3655427397
  0
LINE
  5
48A
100
AcDbEntity
  8
0
100
AcDbLine
 62
9
  6
CONTINUOUS
 10
84.5477073666
 20
130.9650845893
 11
84.5145869934
 21
130.9608139461
  0
LINE
  5
48B
100
AcDbEntity
  8
0
100
AcDbLine
 62
7
  6
CONTINUOUS
 10
65.2897462841
 20
132.792163587
 11
65.2526211116
 21
132.7874175693
  0
LINE
  5
48C
100
AcDbEntity
  8
0
100
AcDbLine
 62
7
  6
CONTINUOUS
 10
65.2897425674
 20
132.9159468304
 11
65.2526042618
 21
132.911199014
  0
LINE
  5
48D
100
AcDbEntity
  8
0
100
AcDbLine
 62
7
  6
CONTINUOUS
 10
63.646393471
 20
133.0307958588
 11
63.6835186435
 21
133.0355418765
  0
LINE
  5
48E
100
AcDbEntity
  8
0
100
AcDbLine
 62
9
  6
CONTINUOUS
 10
84.8048245272
 20
110.7978795373
 11
84.8288359207
 21
110.8009043097
  0
LINE
  5
48F
100
AcDbEntity
  8
0
100
AcDbLine
 62
9
  6
CONTINUOUS
 10
44.3937209609
 20
110.8405255123
 11
44.3587872772
 21
110.8361322328
  0
LINE
  5
490
100
AcDbEntity
  8
0
100
AcDbLine
 62
9
  6
CONTINUOUS
 10
44.1459872527
 20
130.9993777604
 11
44.1700147869
 21
131.0023855546
  0
LINE
  5
491
100
AcDbEntity
  8
0
100
AcDbLine
 62
9
  6
CONTINUOUS
 10
84.5145869934
 20
130.9608139461
 11
84.4782424548
 21
130.9564347471
  0
LINE
  5
492
100
AcDbEntity
  8
0
100
AcDbLine
 62
9
  6
CONTINUOUS
 10
44.432094377
 20
110.8450324067
 11
44.3937209609
 21
110.8405255123
  0
LINE
  5
493
100
AcDbEntity
  8
0
100
AcDbLine
 62
7
  6
CONTINUOUS
 10
65.2526211116
 20
132.7874175693
 11
65.2140802161
 21
132.7828954217
  0
LINE
  5
494
100
AcDbEntity
  8
0
100
AcDbLine
 62
7
  6
CONTINUOUS
 10
65.2526042618
 20
132.911199014
 11
65.2140794591
 21
132.9066786173
  0
LINE
  5
495
100
AcDbEntity
  8
0
100
AcDbLine
 62
7
  6
CONTINUOUS
 10
63.6835186435
 20
133.0355418765
 11
63.722059539
 21
133.040064024
  0
LINE
  5
496
100
AcDbEntity
  8
0
100
AcDbLine
 62
9
  6
CONTINUOUS
 10
84.4782424548
 20
130.9564347471
 11
84.4384861062
 21
130.9519501173
  0
LINE
  5
497
100
AcDbEntity
  8
0
100
AcDbLine
 62
7
  6
CONTINUOUS
 10
97.3099519379
 20
101.9123581363
 11
97.3550723139
 21
101.9174095503
  0
LINE
  5
498
100
AcDbEntity
  8
0
100
AcDbLine
 62
7
  6
CONTINUOUS
 10
31.6261878172
 20
139.9042250108
 11
31.5810674412
 21
139.8991735968
  0
LINE
  5
499
100
AcDbEntity
  8
0
100
AcDbLine
 62
9
  6
CONTINUOUS
 10
36.4068583033
 20
108.4604650231
 11
36.3405893048
 21
108.4531172601
  0
LINE
  5
49A
100
AcDbEntity
  8
0
100
AcDbLine
 62
9
  6
CONTINUOUS
 10
92.5955668854
 20
133.3634679181
 11
92.5292923561
 21
133.3561191579
  0
LINE
  5
49B
100
AcDbEntity
  8
0
100
AcDbLine
 62
9
  6
CONTINUOUS
 10
44.4741178031
 20
110.849649692
 11
44.432094377
 21
110.8450324067
  0
LINE
  5
49C
100
AcDbEntity
  8
0
100
AcDbLine
 62
7
  6
CONTINUOUS
 10
65.2140802161
 20
132.7828954217
 11
65.1741967744
 21
132.778604679
  0
LINE
  5
49D
100
AcDbEntity
  8
0
100
AcDbLine
 62
7
  6
CONTINUOUS
 10
65.2140794591
 20
132.9066786173
 11
65.1742111527
 21
132.9023896676
  0
LINE
  5
49E
100
AcDbEntity
  8
0
100
AcDbLine
 62
7
  6
CONTINUOUS
 10
63.722059539
 20
133.040064024
 11
63.7619429807
 21
133.0443547668
  0
LINE
  5
49F
100
AcDbEntity
  8
0
100
AcDbLine
 62
9
  6
CONTINUOUS
 10
84.4384861062
 20
130.9519501173
 11
84.3951547373
 21
130.9473628119
  0
LINE
  5
4A0
100
AcDbEntity
  8
0
100
AcDbLine
 62
9
  6
CONTINUOUS
 10
44.5199735883
 20
110.8543748532
 11
44.4741178031
 21
110.849649692
  0
LINE
  5
4A1
100
AcDbEntity
  8
0
100
AcDbLine
 62
9
  6
CONTINUOUS
 10
84.3951547373
 20
130.9473628119
 11
84.3480257705
 21
130.9426767942
  0
LINE
  5
4A2
100
AcDbEntity
  8
0
100
AcDbLine
 62
7
  6
CONTINUOUS
 10
65.1741967744
 20
132.778604679
 11
65.1330391265
 21
132.7745537093
  0
LINE
  5
4A3
100
AcDbEntity
  8
0
100
AcDbLine
 62
7
  6
CONTINUOUS
 10
65.1742111527
 20
132.9023896676
 11
65.1330355554
 21
132.8983371077
  0
LINE
  5
4A4
100
AcDbEntity
  8
0
100
AcDbLine
 62
7
  6
CONTINUOUS
 10
63.7619429807
 20
133.0443547668
 11
63.8031006285
 21
133.0484057364
  0
LINE
  5
4A5
100
AcDbEntity
  8
0
100
AcDbLine
 62
9
  6
CONTINUOUS
 10
97.3362209564
 20
101.9151129384
 11
97.2974241027
 21
101.9113510048
  0
LINE
  5
4A6
100
AcDbEntity
  8
0
100
AcDbLine
 62
9
  6
CONTINUOUS
 10
31.5999187987
 20
139.9014702087
 11
31.6387156523
 21
139.9052321423
  0
LINE
  5
4A7
100
AcDbEntity
  8
0
100
AcDbLine
 62
9
  6
CONTINUOUS
 10
44.5699064984
 20
110.8592027818
 11
44.5199735883
 21
110.8543748532
  0
LINE
  5
4A8
100
AcDbEntity
  8
0
100
AcDbLine
 62
9
  6
CONTINUOUS
 10
64.335647009
 20
129.0732663093
 11
64.2695867942
 21
129.0669266194
  0
LINE
  5
4A9
100
AcDbEntity
  8
0
100
AcDbLine
 62
9
  6
CONTINUOUS
 10
64.6028631763
 20
125.3504012598
 11
64.6700711181
 21
125.3567138578
  0
LINE
  5
4AA
100
AcDbEntity
  8
0
100
AcDbLine
 62
9
  6
CONTINUOUS
 10
84.3480257705
 20
130.9426767942
 11
84.296912418
 21
130.9378949223
  0
LINE
  5
4AB
100
AcDbEntity
  8
0
100
AcDbLine
 62
9
  6
CONTINUOUS
 10
44.6241121713
 20
110.8641294244
 11
44.5699064984
 21
110.8592027818
  0
LINE
  5
4AC
100
AcDbEntity
  8
0
100
AcDbLine
 62
7
  6
CONTINUOUS
 10
65.1330391265
 20
132.7745537093
 11
65.0906847768
 21
132.7707491565
  0
LINE
  5
4AD
100
AcDbEntity
  8
0
100
AcDbLine
 62
7
  6
CONTINUOUS
 10
65.1330355554
 20
132.8983371077
 11
65.0906641933
 21
132.8945309013
  0
LINE
  5
4AE
100
AcDbEntity
  8
0
100
AcDbLine
 62
7
  6
CONTINUOUS
 10
63.8031006285
 20
133.0484057364
 11
63.8454549783
 21
133.0522102893
  0
LINE
  5
4AF
100
AcDbEntity
  8
0
100
AcDbLine
 62
9
  6
CONTINUOUS
 10
84.296912418
 20
130.9378949223
 11
84.2415440992
 21
130.933023268
  0
LINE
  5
4B0
100
AcDbEntity
  8
0
100
AcDbLine
 62
9
  6
CONTINUOUS
 10
36.4680477123
 20
108.4657411145
 11
36.4068583033
 21
108.4604650231
  0
LINE
  5
4B1
100
AcDbEntity
  8
0
100
AcDbLine
 62
9
  6
CONTINUOUS
 10
92.5292923561
 20
133.3561191579
 11
92.4680919781
 21
133.3508420295
  0
LINE
  5
4B2
100
AcDbEntity
  8
0
100
AcDbLine
 62
9
  6
CONTINUOUS
 10
44.6829203397
 20
110.8691491008
 11
44.6241121713
 21
110.8641294244
  0
LINE
  5
4B3
100
AcDbEntity
  8
0
100
AcDbLine
 62
9
  6
CONTINUOUS
 10
84.2415440992
 20
130.933023268
 11
84.1817017588
 21
130.9280655076
  0
LINE
  5
4B4
100
AcDbEntity
  8
0
100
AcDbLine
 62
7
  6
CONTINUOUS
 10
65.0906847768
 20
132.7707491565
 11
65.0472069182
 21
132.767198552
  0
LINE
  5
4B5
100
AcDbEntity
  8
0
100
AcDbLine
 62
7
  6
CONTINUOUS
 10
65.0906641933
 20
132.8945309013
 11
65.0472061023
 21
132.8909817734
  0
LINE
  5
4B6
100
AcDbEntity
  8
0
100
AcDbLine
 62
7
  6
CONTINUOUS
 10
63.8454549783
 20
133.0522102893
 11
63.8889328368
 21
133.0557608938
  0
LINE
  5
4B7
100
AcDbEntity
  8
0
100
AcDbLine
 62
7
  6
CONTINUOUS
 10
95.1719618299
 20
105.7742854283
 11
95.1848759916
 21
105.7753390048
  0
LINE
  5
4B8
100
AcDbEntity
  8
0
100
AcDbLine
 62
7
  6
CONTINUOUS
 10
33.7641779251
 20
136.0422977188
 11
33.7512637634
 21
136.0412441423
  0
LINE
  5
4B9
100
AcDbEntity
  8
0
100
AcDbLine
 62
9
  6
CONTINUOUS
 10
44.7466131277
 20
110.8742603917
 11
44.6829203397
 21
110.8691491008
  0
LINE
  5
4BA
100
AcDbEntity
  8
0
100
AcDbLine
 62
9
  6
CONTINUOUS
 10
84.1817017588
 20
130.9280655076
 11
84.1170440327
 21
130.9230316854
  0
LINE
  5
4BB
100
AcDbEntity
  8
0
100
AcDbLine
 62
9
  6
CONTINUOUS
 10
44.8155289983
 20
110.8794464609
 11
44.7466131277
 21
110.8742603917
  0
LINE
  5
4BC
100
AcDbEntity
  8
0
100
AcDbLine
 62
7
  6
CONTINUOUS
 10
65.0472069182
 20
132.767198552
 11
65.0026868245
 21
132.7639076009
  0
LINE
  5
4BD
100
AcDbEntity
  8
0
100
AcDbLine
 62
7
  6
CONTINUOUS
 10
65.0472061023
 20
132.8909817734
 11
65.0027049652
 21
132.8876923825
  0
LINE
  5
4BE
100
AcDbEntity
  8
0
100
AcDbLine
 62
7
  6
CONTINUOUS
 10
63.8889328368
 20
133.0557608938
 11
63.9334529306
 21
133.0590518449
  0
LINE
  5
4BF
100
AcDbEntity
  8
0
100
AcDbLine
 62
9
  6
CONTINUOUS
 10
84.1170440327
 20
130.9230316854
 11
84.0473090859
 21
130.9179272918
  0
LINE
  5
4C0
100
AcDbEntity
  8
0
100
AcDbLine
 62
9
  6
CONTINUOUS
 10
84.7808112342
 20
110.796133628
 11
84.8048245272
 21
110.7978795373
  0
LINE
  5
4C1
100
AcDbEntity
  8
0
100
AcDbLine
 62
9
  6
CONTINUOUS
 10
44.1700147869
 20
131.0023855546
 11
44.194042274
 21
131.0041203395
  0
LINE
  5
4C2
100
AcDbEntity
  8
0
100
AcDbLine
 62
9
  6
CONTINUOUS
 10
44.8898727543
 20
110.8846945751
 11
44.8155289983
 21
110.8794464609
  0
LINE
  5
4C3
100
AcDbEntity
  8
0
100
AcDbLine
 62
7
  6
CONTINUOUS
 10
97.2658991621
 20
101.9093091276
 11
97.3099519379
 21
101.9123581363
  0
LINE
  5
4C4
100
AcDbEntity
  8
0
100
AcDbLine
 62
7
  6
CONTINUOUS
 10
31.6702405929
 20
139.9072740196
 11
31.6261878172
 21
139.9042250108
  0
LINE
  5
4C5
100
AcDbEntity
  8
0
100
AcDbLine
 62
9
  6
CONTINUOUS
 10
84.0473090859
 20
130.9179272918
 11
83.9720392757
 21
130.9127696638
  0
LINE
  5
4C6
100
AcDbEntity
  8
0
100
AcDbLine
 62
7
  6
CONTINUOUS
 10
65.0026868245
 20
132.7639076009
 11
64.9572020143
 21
132.7608829438
  0
LINE
  5
4C7
100
AcDbEntity
  8
0
100
AcDbLine
 62
7
  6
CONTINUOUS
 10
65.0027049652
 20
132.8876923825
 11
64.9571990594
 21
132.8846664886
  0
LINE
  5
4C8
100
AcDbEntity
  8
0
100
AcDbLine
 62
7
  6
CONTINUOUS
 10
63.9334529306
 20
133.0590518449
 11
63.9789377407
 21
133.062076502
  0
LINE
  5
4C9
100
AcDbEntity
  8
0
100
AcDbLine
 62
9
  6
CONTINUOUS
 10
44.9703275005
 20
110.889991007
 11
44.8898727543
 21
110.8846945751
  0
LINE
  5
4CA
100
AcDbEntity
  8
0
100
AcDbLine
 62
9
  6
CONTINUOUS
 10
83.9720392757
 20
130.9127696638
 11
83.8902752806
 21
130.9075365681
  0
LINE
  5
4CB
100
AcDbEntity
  8
0
100
AcDbLine
 62
9
  6
CONTINUOUS
 10
45.0587430824
 20
110.895394887
 11
44.9703275005
 21
110.889991007
  0
LINE
  5
4CC
100
AcDbEntity
  8
0
100
AcDbLine
 62
9
  6
CONTINUOUS
 10
83.8902752806
 20
130.9075365681
 11
83.8032603027
 21
130.9023522049
  0
LINE
  5
4CD
100
AcDbEntity
  8
0
100
AcDbLine
 62
9
  6
CONTINUOUS
 10
97.2974241027
 20
101.9113510048
 11
97.2596415208
 21
101.9091068594
  0
LINE
  5
4CE
100
AcDbEntity
  8
0
100
AcDbLine
 62
7
  6
CONTINUOUS
 10
64.9572020143
 20
132.7608829438
 11
64.9108369449
 21
132.7581293059
  0
LINE
  5
4CF
100
AcDbEntity
  8
0
100
AcDbLine
 62
7
  6
CONTINUOUS
 10
64.9571990594
 20
132.8846664886
 11
64.9108136374
 21
132.881911511
  0
LINE
  5
4D0
100
AcDbEntity
  8
0
100
AcDbLine
 62
7
  6
CONTINUOUS
 10
63.9789377407
 20
133.062076502
 11
64.0253028102
 21
133.0648301399
  0
LINE
  5
4D1
100
AcDbEntity
  8
0
100
AcDbLine
 62
9
  6
CONTINUOUS
 10
31.6387156523
 20
139.9052321423
 11
31.6764982342
 21
139.9074762877
  0
LINE
  5
4D2
100
AcDbEntity
  8
0
100
AcDbLine
 62
9
  6
CONTINUOUS
 10
64.4018435238
 20
129.0770687642
 11
64.335647009
 21
129.0732663093
  0
LINE
  5
4D3
100
AcDbEntity
  8
0
100
AcDbLine
 62
9
  6
CONTINUOUS
 10
45.1518240815
 20
110.9006749094
 11
45.0587430824
 21
110.895394887
  0
LINE
  5
4D4
100
AcDbEntity
  8
0
100
AcDbLine
 62
9
  6
CONTINUOUS
 10
64.535499355
 20
125.3466128735
 11
64.6028631763
 21
125.3504012598
  0
LINE
  5
4D5
100
AcDbEntity
  8
0
100
AcDbLine
 62
9
  6
CONTINUOUS
 10
83.8032603027
 20
130.9023522049
 11
83.7104363186
 21
130.8972605179
  0
LINE
  5
4D6
100
AcDbEntity
  8
0
100
AcDbLine
 62
7
  6
CONTINUOUS
 10
64.9108369449
 20
132.7581293059
 11
64.8636729022
 21
132.7556523888
  0
LINE
  5
4D7
100
AcDbEntity
  8
0
100
AcDbLine
 62
7
  6
CONTINUOUS
 10
64.9108136374
 20
132.881911511
 11
64.8636722225
 21
132.8794356433
  0
LINE
  5
4D8
100
AcDbEntity
  8
0
100
AcDbLine
 62
7
  6
CONTINUOUS
 10
64.0253028102
 20
133.0648301399
 11
64.0724668529
 21
133.0673070569
  0
LINE
  5
4D9
100
AcDbEntity
  8
0
100
AcDbLine
 62
9
  6
CONTINUOUS
 10
45.2482200842
 20
110.9056680054
 11
45.1518240815
 21
110.9006749094
  0
LINE
  5
4DA
100
AcDbEntity
  8
0
100
AcDbLine
 62
9
  6
CONTINUOUS
 10
83.7104363186
 20
130.8972605179
 11
83.6162476832
 21
130.8924800437
  0
LINE
  5
4DB
100
AcDbEntity
  8
0
100
AcDbLine
 62
9
  6
CONTINUOUS
 10
45.3439459205
 20
110.9102285958
 11
45.2482200842
 21
110.9056680054
  0
LINE
  5
4DC
100
AcDbEntity
  8
0
100
AcDbLine
 62
9
  6
CONTINUOUS
 10
83.6162476832
 20
130.8924800437
 11
83.5246923912
 21
130.8882574522
  0
LINE
  5
4DD
100
AcDbEntity
  8
0
100
AcDbLine
 62
7
  6
CONTINUOUS
 10
64.8636729022
 20
132.7556523888
 11
64.8157969184
 21
132.7534559041
  0
LINE
  5
4DE
100
AcDbEntity
  8
0
100
AcDbLine
 62
7
  6
CONTINUOUS
 10
64.8636722225
 20
132.8794356433
 11
64.81581828
 21
132.8772403232
  0
LINE
  5
4DF
100
AcDbEntity
  8
0
100
AcDbLine
 62
7
  6
CONTINUOUS
 10
64.0724668529
 20
133.0673070569
 11
64.1203428366
 21
133.0695035417
  0
LINE
  5
4E0
100
AcDbEntity
  8
0
100
AcDbLine
 62
9
  6
CONTINUOUS
 10
45.4342094823
 20
110.9141165631
 11
45.3439459205
 21
110.9102285958
  0
LINE
  5
4E1
100
AcDbEntity
  8
0
100
AcDbLine
 62
9
  6
CONTINUOUS
 10
83.5246923912
 20
130.8882574522
 11
83.4365514999
 21
130.8845522876
  0
LINE
  5
4E2
100
AcDbEntity
  8
0
100
AcDbLine
 62
7
  6
CONTINUOUS
 10
64.8157969184
 20
132.7534559041
 11
64.7672934611
 21
132.7515445734
  0
LINE
  5
4E3
100
AcDbEntity
  8
0
100
AcDbLine
 62
7
  6
CONTINUOUS
 10
64.81581828
 20
132.8772403232
 11
64.7672915147
 21
132.8753282312
  0
LINE
  5
4E4
100
AcDbEntity
  8
0
100
AcDbLine
 62
7
  6
CONTINUOUS
 10
64.1203428366
 20
133.0695035417
 11
64.1688462939
 21
133.0714148724
  0
LINE
  5
4E5
100
AcDbEntity
  8
0
100
AcDbLine
 62
9
  6
CONTINUOUS
 10
45.52008117
 20
110.9174524538
 11
45.4342094823
 21
110.9141165631
  0
LINE
  5
4E6
100
AcDbEntity
  8
0
100
AcDbLine
 62
9
  6
CONTINUOUS
 10
83.4365514999
 20
130.8845522876
 11
83.3544066008
 21
130.8814389273
  0
LINE
  5
4E7
100
AcDbEntity
  8
0
100
AcDbLine
 62
9
  6
CONTINUOUS
 10
45.6008502271
 20
110.9202593526
 11
45.52008117
 21
110.9174524538
  0
LINE
  5
4E8
100
AcDbEntity
  8
0
100
AcDbLine
 62
9
  6
CONTINUOUS
 10
83.3544066008
 20
130.8814389273
 11
83.2768540855
 21
130.8788195409
  0
LINE
  5
4E9
100
AcDbEntity
  8
0
100
AcDbLine
 62
7
  6
CONTINUOUS
 10
64.7672934611
 20
132.7515445734
 11
64.7182515106
 21
132.7499210676
  0
LINE
  5
4EA
100
AcDbEntity
  8
0
100
AcDbLine
 62
7
  6
CONTINUOUS
 10
64.7672915147
 20
132.8753282312
 11
64.7182267326
 21
132.873703833
  0
LINE
  5
4EB
100
AcDbEntity
  8
0
100
AcDbLine
 62
7
  6
CONTINUOUS
 10
64.1688462939
 20
133.0714148724
 11
64.2178882444
 21
133.0730383782
  0
LINE
  5
4EC
100
AcDbEntity
  8
0
100
AcDbLine
 62
9
  6
CONTINUOUS
 10
45.6770680155
 20
110.9225895264
 11
45.6008502271
 21
110.9202593526
  0
LINE
  5
4ED
100
AcDbEntity
  8
0
100
AcDbLine
 62
7
  6
CONTINUOUS
 10
95.1719721831
 20
105.7742982017
 11
95.1593581323
 21
105.7739159702
  0
LINE
  5
4EE
100
AcDbEntity
  8
0
100
AcDbLine
 62
7
  6
CONTINUOUS
 10
33.764167572
 20
136.0422849454
 11
33.7767816228
 21
136.0426671769
  0
LINE
  5
4EF
100
AcDbEntity
  8
0
100
AcDbLine
 62
9
  6
CONTINUOUS
 10
83.2768540855
 20
130.8788195409
 11
83.2033549947
 21
130.8766273071
  0
LINE
  5
4F0
100
AcDbEntity
  8
0
100
AcDbLine
 62
7
  6
CONTINUOUS
 10
64.7182515106
 20
132.7499210676
 11
64.6687581073
 21
132.7485890944
  0
LINE
  5
4F1
100
AcDbEntity
  8
0
100
AcDbLine
 62
7
  6
CONTINUOUS
 10
64.7182267326
 20
132.873703833
 11
64.6687577231
 21
132.8723723748
  0
LINE
  5
4F2
100
AcDbEntity
  8
0
100
AcDbLine
 62
7
  6
CONTINUOUS
 10
64.2178882444
 20
133.0730383782
 11
64.2673816477
 21
133.0743703514
  0
LINE
  5
4F3
100
AcDbEntity
  8
0
100
AcDbLine
 62
9
  6
CONTINUOUS
 10
45.748995884
 20
110.9244947628
 11
45.6770680155
 21
110.9225895264
  0
LINE
  5
4F4
100
AcDbEntity
  8
0
100
AcDbLine
 62
9
  6
CONTINUOUS
 10
83.2033549947
 20
130.8766273071
 11
83.1338969734
 21
130.8748435748
  0
LINE
  5
4F5
100
AcDbEntity
  8
0
100
AcDbLine
 62
7
  6
CONTINUOUS
 10
97.2228264988
 20
101.9082915815
 11
97.2658991621
 21
101.9093091276
  0
LINE
  5
4F6
100
AcDbEntity
  8
0
100
AcDbLine
 62
7
  6
CONTINUOUS
 10
31.7133132562
 20
139.9082915656
 11
31.6702405929
 21
139.9072740196
  0
LINE
  5
4F7
100
AcDbEntity
  8
0
100
AcDbLine
 62
9
  6
CONTINUOUS
 10
45.8167931156
 20
110.925999585
 11
45.748995884
 21
110.9244947628
  0
LINE
  5
4F8
100
AcDbEntity
  8
0
100
AcDbLine
 62
9
  6
CONTINUOUS
 10
83.1338969734
 20
130.8748435748
 11
83.068337275
 21
130.8734336788
  0
LINE
  5
4F9
100
AcDbEntity
  8
0
100
AcDbLine
 62
7
  6
CONTINUOUS
 10
64.6687581073
 20
132.7485890944
 11
64.6189035385
 21
132.7475502648
  0
LINE
  5
4FA
100
AcDbEntity
  8
0
100
AcDbLine
 62
7
  6
CONTINUOUS
 10
64.6687577231
 20
132.8723723748
 11
64.6189272408
 21
132.8713341959
  0
LINE
  5
4FB
100
AcDbEntity
  8
0
100
AcDbLine
 62
7
  6
CONTINUOUS
 10
64.2673816477
 20
133.0743703514
 11
64.3172362166
 21
133.0754091809
  0
LINE
  5
4FC
100
AcDbEntity
  8
0
100
AcDbLine
 62
9
  6
CONTINUOUS
 10
64.4680698775
 20
129.0783355708
 11
64.4018435238
 21
129.0770687642
  0
LINE
  5
4FD
100
AcDbEntity
  8
0
100
AcDbLine
 62
9
  6
CONTINUOUS
 10
64.4680698775
 20
125.3453500937
 11
64.535499355
 21
125.3466128735
  0
LINE
  5
4FE
100
AcDbEntity
  8
0
100
AcDbLine
 62
9
  6
CONTINUOUS
 10
45.8806650192
 20
110.9271395848
 11
45.8167931156
 21
110.925999585
  0
LINE
  5
4FF
100
AcDbEntity
  8
0
100
AcDbLine
 62
9
  6
CONTINUOUS
 10
83.068337275
 20
130.8734336788
 11
83.0065281159
 21
130.8723788399
  0
LINE
  5
500
100
AcDbEntity
  8
0
100
AcDbLine
 62
7
  6
CONTINUOUS
 10
64.6189035385
 20
132.7475502648
 11
64.5687767902
 21
132.746807246
  0
LINE
  5
501
100
AcDbEntity
  8
0
100
AcDbLine
 62
7
  6
CONTINUOUS
 10
64.6189272408
 20
132.8713341959
 11
64.5687761113
 21
132.8705909651
  0
LINE
  5
502
100
AcDbEntity
  8
0
100
AcDbLine
 62
7
  6
CONTINUOUS
 10
64.3172362166
 20
133.0754091809
 11
64.3673629648
 21
133.0761521997
  0
LINE
  5
503
100
AcDbEntity
  8
0
100
AcDbLine
 62
9
  6
CONTINUOUS
 10
45.9407348655
 20
110.9279333442
 11
45.8806650192
 21
110.9271395848
  0
LINE
  5
504
100
AcDbEntity
  8
0
100
AcDbLine
 62
7
  6
CONTINUOUS
 10
94.6061618291
 20
105.7693367724
 11
94.7479032903
 21
105.77111561
  0
LINE
  5
505
100
AcDbEntity
  8
0
100
AcDbLine
 62
9
  6
CONTINUOUS
 10
83.0065281159
 20
130.8723788399
 11
82.9482497097
 21
130.8716449317
  0
LINE
  5
506
100
AcDbEntity
  8
0
100
AcDbLine
 62
7
  6
CONTINUOUS
 10
34.3299779248
 20
136.0472463747
 11
34.1882364641
 21
136.0454675371
  0
LINE
  5
507
100
AcDbEntity
  8
0
100
AcDbLine
 62
9
  6
CONTINUOUS
 10
36.6907891675
 20
107.9905895268
 11
36.4400846293
 21
107.9876862866
  0
LINE
  5
508
100
AcDbEntity
  8
0
100
AcDbLine
 62
9
  6
CONTINUOUS
 10
92.5873650799
 20
133.8298557939
 11
92.2718291487
 21
133.8262177715
  0
LINE
  5
509
100
AcDbEntity
  8
0
100
AcDbLine
 62
9
  6
CONTINUOUS
 10
94.4454372175
 20
133.8479784627
 11
94.0914303843
 21
133.8442182596
  0
LINE
  5
50A
100
AcDbEntity
  8
0
100
AcDbLine
 62
9
  6
CONTINUOUS
 10
36.4400846293
 20
107.9876862866
 11
36.3365769304
 21
107.9865986551
  0
LINE
  5
50B
100
AcDbEntity
  8
0
100
AcDbLine
 62
9
  6
CONTINUOUS
 10
36.3365769304
 20
107.9865986551
 11
36.2772100654
 21
107.9859785577
  0
LINE
  5
50C
100
AcDbEntity
  8
0
100
AcDbLine
 62
9
  6
CONTINUOUS
 10
36.2772100654
 20
107.9859785577
 11
36.2462354171
 21
107.9856577057
  0
LINE
  5
50D
100
AcDbEntity
  8
0
100
AcDbLine
 62
9
  6
CONTINUOUS
 10
36.2462354171
 20
107.9856577057
 11
36.181761271
 21
107.9849928577
  0
LINE
  5
50E
100
AcDbEntity
  8
0
100
AcDbLine
 62
9
  6
CONTINUOUS
 10
36.181761271
 20
107.9849928577
 11
36.1483312204
 21
107.9846495434
  0
LINE
  5
50F
100
AcDbEntity
  8
0
100
AcDbLine
 62
9
  6
CONTINUOUS
 10
35.1866150265
 20
107.9757480773
 11
34.4097358291
 21
107.9677832293
  0
LINE
  5
510
100
AcDbEntity
  8
0
100
AcDbLine
 62
9
  6
CONTINUOUS
 10
92.8131890894
 20
133.8321948167
 11
92.5873650799
 21
133.8298557939
  0
LINE
  5
511
100
AcDbEntity
  8
0
100
AcDbLine
 62
9
  6
CONTINUOUS
 10
94.526403838
 20
133.8487997924
 11
94.4454372175
 21
133.8479784627
  0
LINE
  5
512
100
AcDbEntity
  8
0
100
AcDbLine
 62
9
  6
CONTINUOUS
 10
94.0914303843
 20
133.8442182596
 11
93.9714541817
 21
133.8430064673
  0
LINE
  5
513
100
AcDbEntity
  8
0
100
AcDbLine
 62
9
  6
CONTINUOUS
 10
36.1483312204
 20
107.9846495434
 11
35.8634237787
 21
107.9818227078
  0
LINE
  5
514
100
AcDbEntity
  8
0
100
AcDbLine
 62
7
  6
CONTINUOUS
 10
94.6325322844
 20
105.7696511471
 11
94.5961343394
 21
105.7692931581
  0
LINE
  5
515
100
AcDbEntity
  8
0
100
AcDbLine
 62
9
  6
CONTINUOUS
 10
93.0907436698
 20
133.8349159886
 11
92.8131890894
 21
133.8321948167
  0
LINE
  5
516
100
AcDbEntity
  8
0
100
AcDbLine
 62
9
  6
CONTINUOUS
 10
93.9714541817
 20
133.8430064673
 11
93.5511305897
 21
133.8389654577
  0
LINE
  5
517
100
AcDbEntity
  8
0
100
AcDbLine
 62
9
  6
CONTINUOUS
 10
35.5587051838
 20
107.9791868558
 11
35.1866150265
 21
107.9757480773
  0
LINE
  5
518
100
AcDbEntity
  8
0
100
AcDbLine
 62
9
  6
CONTINUOUS
 10
93.5511305897
 20
133.8389654577
 11
93.4329048793
 21
133.8378924785
  0
LINE
  5
519
100
AcDbEntity
  8
0
100
AcDbLine
 62
7
  6
CONTINUOUS
 10
64.5687767902
 20
132.746807246
 11
64.5184688063
 21
132.7463605776
  0
LINE
  5
51A
100
AcDbEntity
  8
0
100
AcDbLine
 62
7
  6
CONTINUOUS
 10
64.5687761113
 20
132.8705909651
 11
64.5184439102
 21
132.870143939
  0
LINE
  5
51B
100
AcDbEntity
  8
0
100
AcDbLine
 62
7
  6
CONTINUOUS
 10
64.3673629648
 20
133.0761521997
 11
64.4176709487
 21
133.0765988682
  0
LINE
  5
51C
100
AcDbEntity
  8
0
100
AcDbLine
 62
9
  6
CONTINUOUS
 10
93.4329048793
 20
133.8378924785
 11
93.2775029374
 21
133.8365147054
  0
LINE
  5
51D
100
AcDbEntity
  8
0
100
AcDbLine
 62
9
  6
CONTINUOUS
 10
35.6366329498
 20
107.9798755106
 11
35.5587051838
 21
107.9791868558
  0
LINE
  5
51E
100
AcDbEntity
  8
0
100
AcDbLine
 62
9
  6
CONTINUOUS
 10
93.2775029374
 20
133.8365147054
 11
93.2018657283
 21
133.8358569842
  0
LINE
  5
51F
100
AcDbEntity
  8
0
100
AcDbLine
 62
7
  6
CONTINUOUS
 10
94.8968287943
 20
105.7723259235
 11
94.7399356563
 21
105.770988789
  0
LINE
  5
520
100
AcDbEntity
  8
0
100
AcDbLine
 62
9
  6
CONTINUOUS
 10
35.8634237787
 20
107.9818227078
 11
35.6366329498
 21
107.9798755106
  0
LINE
  5
521
100
AcDbEntity
  8
0
100
AcDbLine
 62
9
  6
CONTINUOUS
 10
45.9972183251
 20
110.928415115
 11
45.9407348655
 21
110.9279333442
  0
LINE
  5
522
100
AcDbEntity
  8
0
100
AcDbLine
 62
7
  6
CONTINUOUS
 10
34.3674179142
 20
136.0474814684
 11
34.3036074718
 21
136.046932
  0
LINE
  5
523
100
AcDbEntity
  8
0
100
AcDbLine
 62
9
  6
CONTINUOUS
 10
93.2018657283
 20
133.8358569842
 11
93.0907436698
 21
133.8349159886
  0
LINE
  5
524
100
AcDbEntity
  8
0
100
AcDbLine
 62
7
  6
CONTINUOUS
 10
34.1962040991
 20
136.0455943581
 11
33.9893022053
 21
136.0439104229
  0
LINE
  5
525
100
AcDbEntity
  8
0
100
AcDbLine
 62
7
  6
CONTINUOUS
 10
94.8598512823
 20
105.7720506047
 11
94.9018484043
 21
105.7723680821
  0
LINE
  5
526
100
AcDbEntity
  8
0
100
AcDbLine
 62
9
  6
CONTINUOUS
 10
92.2718291487
 20
133.8262177715
 11
92.2312571787
 21
133.825909343
  0
LINE
  5
527
100
AcDbEntity
  8
0
100
AcDbLine
 62
7
  6
CONTINUOUS
 10
94.820744333
 20
105.7717872493
 11
94.8598512823
 21
105.7720506047
  0
LINE
  5
528
100
AcDbEntity
  8
0
100
AcDbLine
 62
7
  6
CONTINUOUS
 10
94.5961343394
 20
105.7692931581
 11
94.5583948475
 21
105.7690521294
  0
LINE
  5
529
100
AcDbEntity
  8
0
100
AcDbLine
 62
7
  6
CONTINUOUS
 10
94.5687218395
 20
105.7691016787
 11
94.6061618291
 21
105.7693367724
  0
LINE
  5
52A
100
AcDbEntity
  8
0
100
AcDbLine
 62
7
  6
CONTINUOUS
 10
34.3400054173
 20
136.047289989
 11
34.3777449097
 21
136.0475310178
  0
LINE
  5
52B
100
AcDbEntity
  8
0
100
AcDbLine
 62
7
  6
CONTINUOUS
 10
95.1593079435
 20
105.7739157197
 11
94.8968287943
 21
105.7723259235
  0
LINE
  5
52C
100
AcDbEntity
  8
0
100
AcDbLine
 62
7
  6
CONTINUOUS
 10
33.7768318116
 20
136.0426674274
 11
33.9935536598
 21
136.0439388678
  0
LINE
  5
52D
100
AcDbEntity
  8
0
100
AcDbLine
 62
9
  6
CONTINUOUS
 10
82.9482497097
 20
130.8716449317
 11
80.6168888694
 21
130.86083447
  0
LINE
  5
52E
100
AcDbEntity
  8
0
100
AcDbLine
 62
9
  6
CONTINUOUS
 10
92.0460080619
 20
133.8254213837
 11
91.6773689264
 21
133.8238443752
  0
LINE
  5
52F
100
AcDbEntity
  8
0
100
AcDbLine
 62
9
  6
CONTINUOUS
 10
80.6168888694
 20
130.86083447
 11
78.3309950174
 21
130.8517967912
  0
LINE
  5
530
100
AcDbEntity
  8
0
100
AcDbLine
 62
9
  6
CONTINUOUS
 10
36.7587642513
 20
107.990844283
 11
36.6907891675
 21
107.9905895268
  0
LINE
  5
531
100
AcDbEntity
  8
0
100
AcDbLine
 62
9
  6
CONTINUOUS
 10
37.3326173503
 20
107.9927821999
 11
36.8127863185
 21
107.9909713248
  0
LINE
  5
532
100
AcDbEntity
  8
0
100
AcDbLine
 62
9
  6
CONTINUOUS
 10
78.3309950174
 20
130.8517967912
 11
76.0352044925
 21
130.8441259678
  0
LINE
  5
533
100
AcDbEntity
  8
0
100
AcDbLine
 62
9
  6
CONTINUOUS
 10
92.2312571787
 20
133.825909343
 11
92.1772633598
 21
133.825738664
  0
LINE
  5
534
100
AcDbEntity
  8
0
100
AcDbLine
 62
7
  6
CONTINUOUS
 10
64.5184688063
 20
132.7463605776
 11
64.4680698775
 21
132.7462118667
  0
LINE
  5
535
100
AcDbEntity
  8
0
100
AcDbLine
 62
7
  6
CONTINUOUS
 10
64.5184439102
 20
132.870143939
 11
64.4680698775
 21
132.8699951569
  0
LINE
  5
536
100
AcDbEntity
  8
0
100
AcDbLine
 62
7
  6
CONTINUOUS
 10
64.4176709487
 20
133.0765988682
 11
64.4680698775
 21
133.0767475791
  0
LINE
  5
537
100
AcDbEntity
  8
0
100
AcDbLine
 62
9
  6
CONTINUOUS
 10
76.0352044925
 20
130.8441259678
 11
73.7315851049
 21
130.837834977
  0
LINE
  5
538
100
AcDbEntity
  8
0
100
AcDbLine
 62
9
  6
CONTINUOUS
 10
92.1229478231
 20
133.825611476
 11
92.0460080619
 21
133.8254213837
  0
LINE
  5
539
100
AcDbEntity
  8
0
100
AcDbLine
 62
9
  6
CONTINUOUS
 10
92.1772633598
 20
133.825738664
 11
92.1502844574
 21
133.8256721358
  0
LINE
  5
53A
100
AcDbEntity
  8
0
100
AcDbLine
 62
9
  6
CONTINUOUS
 10
36.8127863185
 20
107.9909713248
 11
36.7587642513
 21
107.990844283
  0
LINE
  5
53B
100
AcDbEntity
  8
0
100
AcDbLine
 62
9
  6
CONTINUOUS
 10
73.7315851049
 20
130.837834977
 11
71.4214103854
 21
130.8329339206
  0
LINE
  5
53C
100
AcDbEntity
  8
0
100
AcDbLine
 62
9
  6
CONTINUOUS
 10
92.1502844574
 20
133.8256721358
 11
92.1229478231
 21
133.825611476
  0
LINE
  5
53D
100
AcDbEntity
  8
0
100
AcDbLine
 62
9
  6
CONTINUOUS
 10
71.4214103854
 20
130.8329339206
 11
69.1063739018
 21
130.8294270989
  0
LINE
  5
53E
100
AcDbEntity
  8
0
100
AcDbLine
 62
9
  6
CONTINUOUS
 10
69.1063739018
 20
130.8294270989
 11
66.7888584923
 21
130.8273231378
  0
LINE
  5
53F
100
AcDbEntity
  8
0
100
AcDbLine
 62
7
  6
CONTINUOUS
 10
96.1134653432
 20
101.9076027913
 11
97.2228264988
 21
101.9082915815
  0
LINE
  5
540
100
AcDbEntity
  8
0
100
AcDbLine
 62
7
  6
CONTINUOUS
 10
32.8226748838
 20
139.9089803558
 11
31.7133132562
 21
139.9082915656
  0
LINE
  5
541
100
AcDbEntity
  8
0
100
AcDbLine
 62
7
  6
CONTINUOUS
 10
94.9619465151
 20
101.9072228757
 11
96.1134653432
 21
101.9076027913
  0
LINE
  5
542
100
AcDbEntity
  8
0
100
AcDbLine
 62
9
  6
CONTINUOUS
 10
49.0569899722
 20
110.9297163123
 11
45.9972183251
 21
110.928415115
  0
LINE
  5
543
100
AcDbEntity
  8
0
100
AcDbLine
 62
9
  6
CONTINUOUS
 10
52.0920236378
 20
110.9306547302
 11
49.0569899722
 21
110.9297163123
  0
LINE
  5
544
100
AcDbEntity
  8
0
100
AcDbLine
 62
9
  6
CONTINUOUS
 10
66.7888584923
 20
130.8273231378
 11
64.4680698775
 21
130.8266191621
  0
LINE
  5
545
100
AcDbEntity
  8
0
100
AcDbLine
 62
7
  6
CONTINUOUS
 10
33.9741942185
 20
139.9093602714
 11
32.8226748838
 21
139.9089803558
  0
LINE
  5
546
100
AcDbEntity
  8
0
100
AcDbLine
 62
7
  6
CONTINUOUS
 10
94.147631756
 20
105.7689915042
 11
94.2011881526
 21
105.7690062829
  0
LINE
  5
547
100
AcDbEntity
  8
0
100
AcDbLine
 62
7
  6
CONTINUOUS
 10
94.194206599
 20
105.7690048894
 11
94.5687218395
 21
105.7691016787
  0
LINE
  5
548
100
AcDbEntity
  8
0
100
AcDbLine
 62
7
  6
CONTINUOUS
 10
94.194206599
 20
105.7690048894
 11
64.4680843234
 21
105.7628666427
  0
LINE
  5
549
100
AcDbEntity
  8
0
100
AcDbLine
 62
9
  6
CONTINUOUS
 10
55.157954532
 20
110.9313900752
 11
52.0920236378
 21
110.9306547302
  0
LINE
  5
54A
100
AcDbEntity
  8
0
100
AcDbLine
 62
9
  6
CONTINUOUS
 10
58.246352573
 20
110.931918323
 11
55.157954532
 21
110.9313900752
  0
LINE
  5
54B
100
AcDbEntity
  8
0
100
AcDbLine
 62
9
  6
CONTINUOUS
 10
91.5364908849
 20
133.8238301929
 11
91.4897089081
 21
133.8238202818
  0
LINE
  5
54C
100
AcDbEntity
  8
0
100
AcDbLine
 62
7
  6
CONTINUOUS
 10
34.8484333598
 20
136.0476031417
 11
34.3674179142
 21
136.0474814684
  0
LINE
  5
54D
100
AcDbEntity
  8
0
100
AcDbLine
 62
7
  6
CONTINUOUS
 10
34.9054048581
 20
136.0476155049
 11
34.8448119356
 21
136.0476022797
  0
LINE
  5
54E
100
AcDbEntity
  8
0
100
AcDbLine
 62
7
  6
CONTINUOUS
 10
64.4680698775
 20
136.0537165074
 11
34.9044399246
 21
136.0476152233
  0
LINE
  5
54F
100
AcDbEntity
  8
0
100
AcDbLine
 62
7
  6
CONTINUOUS
 10
34.8448119356
 20
136.0476022797
 11
34.788507997
 21
136.0475916429
  0
LINE
  5
550
100
AcDbEntity
  8
0
100
AcDbLine
 62
7
  6
CONTINUOUS
 10
33.7649047418
 20
101.9072074087
 11
35.9525302854
 21
101.9073595178
  0
LINE
  5
551
100
AcDbEntity
  8
0
100
AcDbLine
 62
7
  6
CONTINUOUS
 10
35.9525302854
 20
101.9073595178
 11
84.0188421387
 21
101.9078638445
  0
LINE
  5
552
100
AcDbEntity
  8
0
100
AcDbLine
 62
9
  6
CONTINUOUS
 10
91.485986327
 20
107.9927638496
 11
37.5203996583
 21
107.9927625899
  0
LINE
  5
553
100
AcDbEntity
  8
0
100
AcDbLine
 62
9
  6
CONTINUOUS
 10
61.3487876791
 20
110.9322354492
 11
58.246352573
 21
110.931918323
  0
LINE
  5
554
100
AcDbEntity
  8
0
100
AcDbLine
 62
9
  6
CONTINUOUS
 10
64.4680698775
 20
110.9323427952
 11
61.3487876791
 21
110.9322354492
  0
LINE
  5
555
100
AcDbEntity
  8
0
100
AcDbLine
 62
9
  6
CONTINUOUS
 10
64.4680698775
 20
110.9323427952
 11
67.587352076
 21
110.9322354492
  0
LINE
  5
556
100
AcDbEntity
  8
0
100
AcDbLine
 62
9
  6
CONTINUOUS
 10
95.6254819759
 20
120.9083019642
 11
95.8453940684
 21
120.9083198772
  0
LINE
  5
557
100
AcDbEntity
  8
DEFAULT_1
100
AcDbLine
 62
7
  6
CENTER
 10
26.6573148743
 20
120.9082915736
 11
101.9511755736
 21
120.9082915736
  0
LINE
  5
558
100
AcDbEntity
  8
DEFAULT_1
100
AcDbLine
 62
7
  6
CENTER
 10
60.8680698775
 20
127.1582915736
 11
68.0680698775
 21
127.1582915736
  0
LINE
  5
559
100
AcDbEntity
  8
0
100
AcDbLine
 62
9
  6
CONTINUOUS
 10
91.6773689264
 20
133.8238443752
 11
91.5364908849
 21
133.8238301929
  0
LINE
  5
55A
100
AcDbEntity
  8
0
100
AcDbLine
 62
9
  6
CONTINUOUS
 10
91.4897089081
 20
133.8238202818
 11
91.4663188663
 21
133.8238184766
  0
LINE
  5
55B
100
AcDbEntity
  8
0
100
AcDbLine
 62
9
  6
CONTINUOUS
 10
37.5166505526
 20
133.8238206148
 11
37.8584254805
 21
133.8238217183
  0
LINE
  5
55C
100
AcDbEntity
  8
0
100
AcDbLine
 62
9
  6
CONTINUOUS
 10
91.4663188663
 20
133.8238184766
 11
37.8584254805
 21
133.8238217183
  0
LINE
  5
55D
100
AcDbEntity
  8
0
100
AcDbLine
 62
7
  6
CONTINUOUS
 10
94.0954546123
 20
139.909376824
 11
84.0187747114
 21
139.9087192849
  0
LINE
  5
55E
100
AcDbEntity
  8
0
100
AcDbLine
 62
7
  6
CONTINUOUS
 10
84.0187747114
 20
139.9087192849
 11
70.5851792472
 21
139.9083262243
  0
LINE
  5
55F
100
AcDbEntity
  8
0
100
AcDbLine
 62
7
  6
CONTINUOUS
 10
70.5851792472
 20
139.9083262243
 11
64.468080536
 21
139.9082915736
  0
LINE
  5
560
100
AcDbEntity
  8
0
100
AcDbLine
 62
7
  6
CONTINUOUS
 10
95.1712359796
 20
139.9093757385
 11
94.0954546123
 21
139.909376824
  0
LINE
  5
561
100
AcDbEntity
  8
0
100
AcDbLine
 62
7
  6
CONTINUOUS
 10
64.468080536
 20
139.9082915736
 11
44.9173043363
 21
139.9087193023
  0
LINE
  5
562
100
AcDbEntity
  8
0
100
AcDbLine
 62
7
  6
CONTINUOUS
 10
84.0188421387
 20
101.9078638445
 11
92.5324358417
 21
101.9073896683
  0
LINE
  5
563
100
AcDbEntity
  8
0
100
AcDbLine
 62
7
  6
CONTINUOUS
 10
92.5324358417
 20
101.9073896683
 11
94.9619465151
 21
101.9072228757
  0
LINE
  5
564
100
AcDbEntity
  8
0
100
AcDbLine
 62
7
  6
CONTINUOUS
 10
64.4680843234
 20
105.7628666367
 11
34.3720385553
 21
105.7690780328
  0
LINE
  5
565
100
AcDbEntity
  8
0
100
AcDbLine
 62
7
  6
CONTINUOUS
 10
34.5888264131
 20
105.76903599
 11
34.6848630453
 21
105.7690153104
  0
LINE
  5
566
100
AcDbEntity
  8
0
100
AcDbLine
 62
9
  6
CONTINUOUS
 10
37.5203996583
 20
107.9927625899
 11
37.3326173503
 21
107.9927821999
  0
LINE
  5
567
100
AcDbEntity
  8
0
100
AcDbLine
 62
9
  6
CONTINUOUS
 10
67.587352076
 20
110.9322354492
 11
70.6897871821
 21
110.931918323
  0
LINE
  5
568
100
AcDbEntity
  8
0
100
AcDbLine
 62
9
  6
CONTINUOUS
 10
70.6897871821
 20
110.931918323
 11
73.7781852231
 21
110.9313900752
  0
LINE
  5
569
100
AcDbEntity
  8
0
100
AcDbLine
 62
7
  6
CONTINUOUS
 10
94.2512767045
 20
136.0475678367
 11
94.5641012012
 21
136.0475051143
  0
LINE
  5
56A
100
AcDbEntity
  8
0
100
AcDbLine
 62
7
  6
CONTINUOUS
 10
64.4680698775
 20
136.0537165074
 11
94.2950862759
 21
136.0475642199
  0
LINE
  5
56B
100
AcDbEntity
  8
0
100
AcDbLine
 62
7
  6
CONTINUOUS
 10
44.9173043363
 20
139.9087193023
 11
36.403706009
 21
139.9091934787
  0
LINE
  5
56C
100
AcDbEntity
  8
0
100
AcDbLine
 62
7
  6
CONTINUOUS
 10
36.403706009
 20
139.9091934787
 11
33.9741942185
 21
139.9093602714
  0
LINE
  5
56D
100
AcDbEntity
  8
0
100
AcDbLine
 62
7
  6
CONTINUOUS
 10
32.7221047419
 20
101.9075949599
 11
33.7649047418
 21
101.9072074087
  0
LINE
  5
56E
100
AcDbEntity
  8
0
100
AcDbLine
 62
9
  6
CONTINUOUS
 10
73.7781852231
 20
110.9313900752
 11
76.8441161172
 21
110.9306547302
  0
LINE
  5
56F
100
AcDbEntity
  8
0
100
AcDbLine
 62
9
  6
CONTINUOUS
 10
76.8441161172
 20
110.9306547302
 11
79.8791497829
 21
110.9297163123
  0
LINE
  5
570
100
AcDbEntity
  8
0
100
AcDbLine
 62
9
  6
CONTINUOUS
 10
62.1472812627
 20
130.8273231378
 11
64.4680698775
 21
130.8266191621
  0
LINE
  5
571
100
AcDbEntity
  8
0
100
AcDbLine
 62
7
  6
CONTINUOUS
 10
94.2011706409
 20
136.0475768676
 11
94.1492246354
 21
136.0475910221
  0
LINE
  5
572
100
AcDbEntity
  8
0
100
AcDbLine
 62
7
  6
CONTINUOUS
 10
96.2140354845
 20
139.9089881873
 11
95.1712359796
 21
139.9093757385
  0
LINE
  5
573
100
AcDbEntity
  8
0
100
AcDbLine
 62
9
  6
CONTINUOUS
 10
79.8791497829
 20
110.9297163123
 11
82.93892143
 21
110.928415115
  0
LINE
  5
574
100
AcDbEntity
  8
0
100
AcDbLine
 62
7
  6
CONTINUOUS
 10
31.7133132566
 20
101.9082915815
 11
32.7221047419
 21
101.9075949599
  0
LINE
  5
575
100
AcDbEntity
  8
0
100
AcDbLine
 62
9
  6
CONTINUOUS
 10
91.485986327
 20
107.9927638496
 11
91.7215107362
 21
107.9925929935
  0
LINE
  5
576
100
AcDbEntity
  8
0
100
AcDbLine
 62
9
  6
CONTINUOUS
 10
37.2116204972
 20
133.8240042079
 11
37.5166505526
 21
133.8238206148
  0
LINE
  5
577
100
AcDbEntity
  8
0
100
AcDbLine
 62
7
  6
CONTINUOUS
 10
97.2228264985
 20
139.9082915656
 11
96.2140354845
 21
139.9089881873
  0
LINE
  5
578
100
AcDbEntity
  8
0
100
AcDbLine
 62
9
  6
CONTINUOUS
 10
59.8297658532
 20
130.8294270989
 11
62.1472812627
 21
130.8273231378
  0
LINE
  5
579
100
AcDbEntity
  8
0
100
AcDbLine
 62
9
  6
CONTINUOUS
 10
57.5147293697
 20
130.8329339206
 11
59.8297658532
 21
130.8294270989
  0
LINE
  5
57A
100
AcDbEntity
  8
0
100
AcDbLine
 62
9
  6
CONTINUOUS
 10
55.2045546501
 20
130.837834977
 11
57.5147293697
 21
130.8329339206
  0
LINE
  5
57B
100
AcDbEntity
  8
0
100
AcDbLine
 62
9
  6
CONTINUOUS
 10
92.0962067545
 20
107.9910319214
 11
92.1503608504
 21
107.9909107755
  0
LINE
  5
57C
100
AcDbEntity
  8
0
100
AcDbLine
 62
9
  6
CONTINUOUS
 10
36.8131919319
 20
133.825611476
 11
36.8272637956
 21
133.8255795486
  0
LINE
  5
57D
100
AcDbEntity
  8
0
100
AcDbLine
 62
9
  6
CONTINUOUS
 10
92.0684349268
 20
107.9911006188
 11
92.0962067545
 21
107.9910319214
  0
LINE
  5
57E
100
AcDbEntity
  8
0
100
AcDbLine
 62
9
  6
CONTINUOUS
 10
92.0391525365
 20
107.9911807081
 11
92.0684349268
 21
107.9911006188
  0
LINE
  5
57F
100
AcDbEntity
  8
0
100
AcDbLine
 62
9
  6
CONTINUOUS
 10
52.9009352625
 20
130.8441259678
 11
55.2045546501
 21
130.837834977
  0
LINE
  5
580
100
AcDbEntity
  8
0
100
AcDbLine
 62
7
  6
CONTINUOUS
 10
64.4680698775
 20
132.7462118667
 11
64.4176709487
 21
132.7463605776
  0
LINE
  5
581
100
AcDbEntity
  8
0
100
AcDbLine
 62
7
  6
CONTINUOUS
 10
64.4680698775
 20
132.8699951569
 11
64.4176958449
 21
132.870143939
  0
LINE
  5
582
100
AcDbEntity
  8
0
100
AcDbLine
 62
7
  6
CONTINUOUS
 10
64.4680698775
 20
133.0767475791
 11
64.5184688063
 21
133.0765988682
  0
LINE
  5
583
100
AcDbEntity
  8
0
100
AcDbLine
 62
9
  6
CONTINUOUS
 10
36.8272637956
 20
133.8255795486
 11
36.9949006512
 21
133.8250702974
  0
LINE
  5
584
100
AcDbEntity
  8
0
100
AcDbLine
 62
9
  6
CONTINUOUS
 10
36.6913816741
 20
133.8259901144
 11
36.8131919319
 21
133.825611476
  0
LINE
  5
585
100
AcDbEntity
  8
0
100
AcDbLine
 62
9
  6
CONTINUOUS
 10
91.9721030258
 20
107.9913971519
 11
92.0391525365
 21
107.9911807081
  0
LINE
  5
586
100
AcDbEntity
  8
0
100
AcDbLine
 62
9
  6
CONTINUOUS
 10
50.6051447377
 20
130.8517967912
 11
52.9009352625
 21
130.8441259678
  0
LINE
  5
587
100
AcDbEntity
  8
0
100
AcDbLine
 62
9
  6
CONTINUOUS
 10
92.1503608504
 20
107.9909107755
 11
92.2453505876
 21
107.9905895268
  0
LINE
  5
588
100
AcDbEntity
  8
0
100
AcDbLine
 62
9
  6
CONTINUOUS
 10
48.3192508857
 20
130.86083447
 11
50.6051447377
 21
130.8517967912
  0
LINE
  5
589
100
AcDbEntity
  8
0
100
AcDbLine
 62
9
  6
CONTINUOUS
 10
45.9878900453
 20
130.8716449317
 11
48.3192508857
 21
130.86083447
  0
LINE
  5
58A
100
AcDbEntity
  8
0
100
AcDbLine
 62
9
  6
CONTINUOUS
 10
91.7215107362
 20
107.9925929935
 11
91.9721030258
 21
107.9913971519
  0
LINE
  5
58B
100
AcDbEntity
  8
0
100
AcDbLine
 62
9
  6
CONTINUOUS
 10
36.9949006512
 20
133.8250702974
 11
37.2116204972
 21
133.8240042079
  0
LINE
  5
58C
100
AcDbEntity
  8
0
100
AcDbLine
 62
7
  6
CONTINUOUS
 10
34.0376195419
 20
105.7723448841
 11
33.7767816228
 21
105.7739159825
  0
LINE
  5
58D
100
AcDbEntity
  8
0
100
AcDbLine
 62
7
  6
CONTINUOUS
 10
95.1593581323
 20
136.0426671646
 11
94.8162718461
 21
136.0448310986
  0
LINE
  5
58E
100
AcDbEntity
  8
0
100
AcDbLine
 62
7
  6
CONTINUOUS
 10
34.0801832538
 20
105.7720207951
 11
34.1198679088
 21
105.7717520485
  0
LINE
  5
58F
100
AcDbEntity
  8
0
100
AcDbLine
 62
7
  6
CONTINUOUS
 10
34.3731597915
 20
105.7690726525
 11
34.3340595794
 21
105.7693427815
  0
LINE
  5
590
100
AcDbEntity
  8
0
100
AcDbLine
 62
7
  6
CONTINUOUS
 10
94.5629799615
 20
136.0475104947
 11
94.602080177
 21
136.0472403656
  0
LINE
  5
591
100
AcDbEntity
  8
0
100
AcDbLine
 62
9
  6
CONTINUOUS
 10
82.93892143
 20
110.928415115
 11
82.9954048896
 21
110.9279333442
  0
LINE
  5
592
100
AcDbEntity
  8
0
100
AcDbLine
 62
7
  6
CONTINUOUS
 10
64.4176709487
 20
132.7463605776
 11
64.3673629648
 21
132.746807246
  0
LINE
  5
593
100
AcDbEntity
  8
0
100
AcDbLine
 62
7
  6
CONTINUOUS
 10
64.4176958449
 20
132.870143939
 11
64.3673636437
 21
132.8705909651
  0
LINE
  5
594
100
AcDbEntity
  8
0
100
AcDbLine
 62
7
  6
CONTINUOUS
 10
64.5184688063
 20
133.0765988682
 11
64.5687767902
 21
133.0761521997
  0
LINE
  5
595
100
AcDbEntity
  8
0
100
AcDbLine
 62
9
  6
CONTINUOUS
 10
92.8920236631
 20
107.9835605479
 11
93.6936060431
 21
107.9762857289
  0
LINE
  5
596
100
AcDbEntity
  8
0
100
AcDbLine
 62
9
  6
CONTINUOUS
 10
35.1718331161
 20
133.8409768649
 11
35.8453960853
 21
133.8349159886
  0
LINE
  5
597
100
AcDbEntity
  8
0
100
AcDbLine
 62
9
  6
CONTINUOUS
 10
36.6507295718
 20
133.8263632682
 11
36.6913816741
 21
133.8259901144
  0
LINE
  5
598
100
AcDbEntity
  8
0
100
AcDbLine
 62
9
  6
CONTINUOUS
 10
92.2453505876
 20
107.9905895268
 11
92.2862732596
 21
107.9902081503
  0
LINE
  5
599
100
AcDbEntity
  8
0
100
AcDbLine
 62
9
  6
CONTINUOUS
 10
35.8453960853
 20
133.8349159886
 11
36.0236944368
 21
133.8332339646
  0
LINE
  5
59A
100
AcDbEntity
  8
0
100
AcDbLine
 62
9
  6
CONTINUOUS
 10
35.0734411175
 20
133.8419309676
 11
35.1718331161
 21
133.8409768649
  0
LINE
  5
59B
100
AcDbEntity
  8
0
100
AcDbLine
 62
9
  6
CONTINUOUS
 10
93.6936060431
 20
107.9762857289
 11
94.1633124959
 21
107.9716268045
  0
LINE
  5
59C
100
AcDbEntity
  8
0
100
AcDbLine
 62
7
  6
CONTINUOUS
 10
34.3359138025
 20
105.7692882284
 11
34.035962882
 21
105.7723498187
  0
LINE
  5
59D
100
AcDbEntity
  8
0
100
AcDbLine
 62
7
  6
CONTINUOUS
 10
94.600225951
 20
136.0472949188
 11
94.9001768733
 21
136.0442333284
  0
LINE
  5
59E
100
AcDbEntity
  8
0
100
AcDbLine
 62
9
  6
CONTINUOUS
 10
92.5714904609
 20
107.9868891551
 11
92.8567779213
 21
107.9839364622
  0
LINE
  5
59F
100
AcDbEntity
  8
0
100
AcDbLine
 62
9
  6
CONTINUOUS
 10
34.4097359171
 20
133.8487997924
 11
35.0734411175
 21
133.8419309676
  0
LINE
  5
5A0
100
AcDbEntity
  8
0
100
AcDbLine
 62
9
  6
CONTINUOUS
 10
36.2154808237
 20
133.8312424063
 11
36.2994038385
 21
133.8303744785
  0
LINE
  5
5A1
100
AcDbEntity
  8
0
100
AcDbLine
 62
9
  6
CONTINUOUS
 10
36.0236944368
 20
133.8332339646
 11
36.2154808237
 21
133.8312424063
  0
LINE
  5
5A2
100
AcDbEntity
  8
0
100
AcDbLine
 62
9
  6
CONTINUOUS
 10
92.5196230048
 20
107.9874374068
 11
92.5447503103
 21
107.9871729033
  0
LINE
  5
5A3
100
AcDbEntity
  8
0
100
AcDbLine
 62
9
  6
CONTINUOUS
 10
94.1633124959
 20
107.9716268045
 11
94.526403926
 21
107.9677832293
  0
LINE
  5
5A4
100
AcDbEntity
  8
0
100
AcDbLine
 62
9
  6
CONTINUOUS
 10
92.5447503103
 20
107.9871729033
 11
92.5714904609
 21
107.9868891551
  0
LINE
  5
5A5
100
AcDbEntity
  8
0
100
AcDbLine
 62
9
  6
CONTINUOUS
 10
92.8567779213
 20
107.9839364622
 11
92.8920236631
 21
107.9835605479
  0
LINE
  5
5A6
100
AcDbEntity
  8
0
100
AcDbLine
 62
9
  6
CONTINUOUS
 10
36.2994038385
 20
133.8303744785
 11
36.4316311223
 21
133.8289846327
  0
LINE
  5
5A7
100
AcDbEntity
  8
0
100
AcDbLine
 62
9
  6
CONTINUOUS
 10
92.2862732596
 20
107.9902081503
 11
92.5196230048
 21
107.9874374068
  0
LINE
  5
5A8
100
AcDbEntity
  8
0
100
AcDbLine
 62
9
  6
CONTINUOUS
 10
36.4316311223
 20
133.8289846327
 11
36.6507295718
 21
133.8263632682
  0
LINE
  5
5A9
100
AcDbEntity
  8
0
100
AcDbLine
 62
9
  6
CONTINUOUS
 10
45.9296116391
 20
130.8723788399
 11
45.9878900453
 21
130.8716449317
  0
LINE
  5
5AA
100
AcDbEntity
  8
0
100
AcDbLine
 62
9
  6
CONTINUOUS
 10
82.9954048896
 20
110.9279333442
 11
83.0554747359
 21
110.9271395848
  0
LINE
  5
5AB
100
AcDbEntity
  8
0
100
AcDbLine
 62
7
  6
CONTINUOUS
 10
64.3673629648
 20
132.746807246
 11
64.3172362166
 21
132.7475502648
  0
LINE
  5
5AC
100
AcDbEntity
  8
0
100
AcDbLine
 62
7
  6
CONTINUOUS
 10
64.3673636437
 20
132.8705909651
 11
64.3172125143
 21
132.8713341959
  0
LINE
  5
5AD
100
AcDbEntity
  8
0
100
AcDbLine
 62
7
  6
CONTINUOUS
 10
64.5687767902
 20
133.0761521997
 11
64.6189035385
 21
133.0754091809
  0
LINE
  5
5AE
100
AcDbEntity
  8
0
100
AcDbLine
 62
7
  6
CONTINUOUS
 10
34.2291360877
 20
105.7706156363
 11
34.2644849182
 21
105.7700842327
  0
LINE
  5
5AF
100
AcDbEntity
  8
0
100
AcDbLine
 62
7
  6
CONTINUOUS
 10
94.7070036669
 20
136.0459675108
 11
94.6716548361
 21
136.0464989144
  0
LINE
  5
5B0
100
AcDbEntity
  8
0
100
AcDbLine
 62
9
  6
CONTINUOUS
 10
45.8678024801
 20
130.8734336788
 11
45.9296116391
 21
130.8723788399
  0
LINE
  5
5B1
100
AcDbEntity
  8
0
100
AcDbLine
 62
9
  6
CONTINUOUS
 10
83.0554747359
 20
110.9271395848
 11
83.1193466394
 21
110.925999585
  0
LINE
  5
5B2
100
AcDbEntity
  8
0
100
AcDbLine
 62
9
  6
CONTINUOUS
 10
64.4006408465
 20
125.3466128568
 11
64.4680698775
 21
125.3453500937
  0
LINE
  5
5B3
100
AcDbEntity
  8
0
100
AcDbLine
 62
9
  6
CONTINUOUS
 10
64.5342962911
 20
129.0770687639
 11
64.4680698775
 21
129.0783355708
  0
LINE
  5
5B4
100
AcDbEntity
  8
0
100
AcDbLine
 62
7
  6
CONTINUOUS
 10
64.3172362166
 20
132.7475502648
 11
64.2673816477
 21
132.7485890944
  0
LINE
  5
5B5
100
AcDbEntity
  8
0
100
AcDbLine
 62
7
  6
CONTINUOUS
 10
64.3172125143
 20
132.8713341959
 11
64.2673820319
 21
132.8723723748
  0
LINE
  5
5B6
100
AcDbEntity
  8
0
100
AcDbLine
 62
7
  6
CONTINUOUS
 10
64.6189035385
 20
133.0754091809
 11
64.6687581073
 21
133.0743703514
  0
LINE
  5
5B7
100
AcDbEntity
  8
0
100
AcDbLine
 62
9
  6
CONTINUOUS
 10
45.8022427816
 20
130.8748435748
 11
45.8678024801
 21
130.8734336788
  0
LINE
  5
5B8
100
AcDbEntity
  8
0
100
AcDbLine
 62
9
  6
CONTINUOUS
 10
83.1193466394
 20
110.925999585
 11
83.187143871
 21
110.9244947628
  0
LINE
  5
5B9
100
AcDbEntity
  8
0
100
AcDbLine
 62
7
  6
CONTINUOUS
 10
31.670240593
 20
101.9093091275
 11
31.7133132566
 21
101.9082915815
  0
LINE
  5
5BA
100
AcDbEntity
  8
0
100
AcDbLine
 62
7
  6
CONTINUOUS
 10
97.265899162
 20
139.9072740196
 11
97.2228264985
 21
139.9082915656
  0
LINE
  5
5BB
100
AcDbEntity
  8
0
100
AcDbLine
 62
9
  6
CONTINUOUS
 10
45.7327847604
 20
130.8766273071
 11
45.8022427816
 21
130.8748435748
  0
LINE
  5
5BC
100
AcDbEntity
  8
0
100
AcDbLine
 62
9
  6
CONTINUOUS
 10
83.187143871
 20
110.9244947628
 11
83.2590717396
 21
110.9225895264
  0
LINE
  5
5BD
100
AcDbEntity
  8
0
100
AcDbLine
 62
7
  6
CONTINUOUS
 10
64.2673816477
 20
132.7485890944
 11
64.2178882444
 21
132.7499210676
  0
LINE
  5
5BE
100
AcDbEntity
  8
0
100
AcDbLine
 62
7
  6
CONTINUOUS
 10
64.2673820319
 20
132.8723723748
 11
64.2179130225
 21
132.873703833
  0
LINE
  5
5BF
100
AcDbEntity
  8
0
100
AcDbLine
 62
7
  6
CONTINUOUS
 10
64.6687581073
 20
133.0743703514
 11
64.7182515106
 21
133.0730383782
  0
LINE
  5
5C0
100
AcDbEntity
  8
0
100
AcDbLine
 62
7
  6
CONTINUOUS
 10
33.7641935139
 20
105.7742844251
 11
33.7768317883
 21
105.7739157208
  0
LINE
  5
5C1
100
AcDbEntity
  8
0
100
AcDbLine
 62
7
  6
CONTINUOUS
 10
95.1719462411
 20
136.042298722
 11
95.1593079668
 21
136.0426674263
  0
LINE
  5
5C2
100
AcDbEntity
  8
0
100
AcDbLine
 62
9
  6
CONTINUOUS
 10
45.6592856695
 20
130.8788195409
 11
45.7327847604
 21
130.8766273071
  0
LINE
  5
5C3
100
AcDbEntity
  8
0
100
AcDbLine
 62
9
  6
CONTINUOUS
 10
83.2590717396
 20
110.9225895264
 11
83.335289528
 21
110.9202593526
  0
LINE
  5
5C4
100
AcDbEntity
  8
0
100
AcDbLine
 62
7
  6
CONTINUOUS
 10
64.2178882444
 20
132.7499210676
 11
64.1688462939
 21
132.7515445734
  0
LINE
  5
5C5
100
AcDbEntity
  8
0
100
AcDbLine
 62
7
  6
CONTINUOUS
 10
64.2179130225
 20
132.873703833
 11
64.1688482403
 21
132.8753282312
  0
LINE
  5
5C6
100
AcDbEntity
  8
0
100
AcDbLine
 62
7
  6
CONTINUOUS
 10
64.7182515106
 20
133.0730383782
 11
64.7672934611
 21
133.0714148724
  0
LINE
  5
5C7
100
AcDbEntity
  8
0
100
AcDbLine
 62
9
  6
CONTINUOUS
 10
45.5817331543
 20
130.8814389273
 11
45.6592856695
 21
130.8788195409
  0
LINE
  5
5C8
100
AcDbEntity
  8
0
100
AcDbLine
 62
9
  6
CONTINUOUS
 10
83.335289528
 20
110.9202593526
 11
83.4160585851
 21
110.9174524538
  0
LINE
  5
5C9
100
AcDbEntity
  8
0
100
AcDbLine
 62
9
  6
CONTINUOUS
 10
45.4995882552
 20
130.8845522876
 11
45.5817331543
 21
130.8814389273
  0
LINE
  5
5CA
100
AcDbEntity
  8
0
100
AcDbLine
 62
9
  6
CONTINUOUS
 10
83.4160585851
 20
110.9174524538
 11
83.5019302727
 21
110.9141165631
  0
LINE
  5
5CB
100
AcDbEntity
  8
0
100
AcDbLine
 62
7
  6
CONTINUOUS
 10
64.1688462939
 20
132.7515445734
 11
64.1203428366
 21
132.7534559041
  0
LINE
  5
5CC
100
AcDbEntity
  8
0
100
AcDbLine
 62
7
  6
CONTINUOUS
 10
64.1688482403
 20
132.8753282312
 11
64.120321475
 21
132.8772403232
  0
LINE
  5
5CD
100
AcDbEntity
  8
0
100
AcDbLine
 62
7
  6
CONTINUOUS
 10
64.7672934611
 20
133.0714148724
 11
64.8157969184
 21
133.0695035417
  0
LINE
  5
5CE
100
AcDbEntity
  8
0
100
AcDbLine
 62
9
  6
CONTINUOUS
 10
45.4114473639
 20
130.8882574522
 11
45.4995882552
 21
130.8845522876
  0
LINE
  5
5CF
100
AcDbEntity
  8
0
100
AcDbLine
 62
9
  6
CONTINUOUS
 10
83.5019302727
 20
110.9141165631
 11
83.5921938346
 21
110.9102285958
  0
LINE
  5
5D0
100
AcDbEntity
  8
0
100
AcDbLine
 62
7
  6
CONTINUOUS
 10
64.1203428366
 20
132.7534559041
 11
64.0724668529
 21
132.7556523888
  0
LINE
  5
5D1
100
AcDbEntity
  8
0
100
AcDbLine
 62
7
  6
CONTINUOUS
 10
64.120321475
 20
132.8772403232
 11
64.0724675326
 21
132.8794356433
  0
LINE
  5
5D2
100
AcDbEntity
  8
0
100
AcDbLine
 62
7
  6
CONTINUOUS
 10
64.8157969184
 20
133.0695035417
 11
64.8636729022
 21
133.0673070569
  0
LINE
  5
5D3
100
AcDbEntity
  8
0
100
AcDbLine
 62
9
  6
CONTINUOUS
 10
45.3198920719
 20
130.8924800437
 11
45.4114473639
 21
130.8882574522
  0
LINE
  5
5D4
100
AcDbEntity
  8
0
100
AcDbLine
 62
9
  6
CONTINUOUS
 10
83.5921938346
 20
110.9102285958
 11
83.6879196709
 21
110.9056680054
  0
LINE
  5
5D5
100
AcDbEntity
  8
0
100
AcDbLine
 62
9
  6
CONTINUOUS
 10
45.2257034365
 20
130.8972605179
 11
45.3198920719
 21
130.8924800437
  0
LINE
  5
5D6
100
AcDbEntity
  8
0
100
AcDbLine
 62
9
  6
CONTINUOUS
 10
83.6879196709
 20
110.9056680054
 11
83.7843156736
 21
110.9006749094
  0
LINE
  5
5D7
100
AcDbEntity
  8
0
100
AcDbLine
 62
7
  6
CONTINUOUS
 10
64.0724668529
 20
132.7556523888
 11
64.0253028102
 21
132.7581293059
  0
LINE
  5
5D8
100
AcDbEntity
  8
0
100
AcDbLine
 62
7
  6
CONTINUOUS
 10
64.0724675326
 20
132.8794356433
 11
64.0253261176
 21
132.881911511
  0
LINE
  5
5D9
100
AcDbEntity
  8
0
100
AcDbLine
 62
7
  6
CONTINUOUS
 10
64.8636729022
 20
133.0673070569
 11
64.9108369449
 21
133.0648301399
  0
LINE
  5
5DA
100
AcDbEntity
  8
0
100
AcDbLine
 62
9
  6
CONTINUOUS
 10
45.1328794524
 20
130.9023522049
 11
45.2257034365
 21
130.8972605179
  0
LINE
  5
5DB
100
AcDbEntity
  8
0
100
AcDbLine
 62
9
  6
CONTINUOUS
 10
64.3332772023
 20
125.350401213
 11
64.4006408465
 21
125.3466128568
  0
LINE
  5
5DC
100
AcDbEntity
  8
0
100
AcDbLine
 62
9
  6
CONTINUOUS
 10
83.7843156736
 20
110.9006749094
 11
83.8773966726
 21
110.895394887
  0
LINE
  5
5DD
100
AcDbEntity
  8
0
100
AcDbLine
 62
9
  6
CONTINUOUS
 10
64.6004932352
 20
129.0732662718
 11
64.5342962911
 21
129.0770687639
  0
LINE
  5
5DE
100
AcDbEntity
  8
0
100
AcDbLine
 62
9
  6
CONTINUOUS
 10
31.6387156523
 20
101.9113510048
 11
31.6764982342
 21
101.9091068594
  0
LINE
  5
5DF
100
AcDbEntity
  8
0
100
AcDbLine
 62
7
  6
CONTINUOUS
 10
64.0253028102
 20
132.7581293059
 11
63.9789377407
 21
132.7608829438
  0
LINE
  5
5E0
100
AcDbEntity
  8
0
100
AcDbLine
 62
7
  6
CONTINUOUS
 10
64.0253261176
 20
132.881911511
 11
63.9789406957
 21
132.8846664886
  0
LINE
  5
5E1
100
AcDbEntity
  8
0
100
AcDbLine
 62
7
  6
CONTINUOUS
 10
64.9108369449
 20
133.0648301399
 11
64.9572020143
 21
133.062076502
  0
LINE
  5
5E2
100
AcDbEntity
  8
0
100
AcDbLine
 62
9
  6
CONTINUOUS
 10
97.2974241027
 20
139.9052321423
 11
97.2596415208
 21
139.9074762877
  0
LINE
  5
5E3
100
AcDbEntity
  8
0
100
AcDbLine
 62
9
  6
CONTINUOUS
 10
45.0458644744
 20
130.9075365681
 11
45.1328794524
 21
130.9023522049
  0
LINE
  5
5E4
100
AcDbEntity
  8
0
100
AcDbLine
 62
9
  6
CONTINUOUS
 10
83.8773966726
 20
110.895394887
 11
83.9658122546
 21
110.889991007
  0
LINE
  5
5E5
100
AcDbEntity
  8
0
100
AcDbLine
 62
9
  6
CONTINUOUS
 10
44.9641004793
 20
130.9127696638
 11
45.0458644744
 21
130.9075365681
  0
LINE
  5
5E6
100
AcDbEntity
  8
0
100
AcDbLine
 62
9
  6
CONTINUOUS
 10
83.9658122546
 20
110.889991007
 11
84.0462670008
 21
110.8846945751
  0
LINE
  5
5E7
100
AcDbEntity
  8
0
100
AcDbLine
 62
7
  6
CONTINUOUS
 10
63.9789377407
 20
132.7608829438
 11
63.9334529306
 21
132.7639076009
  0
LINE
  5
5E8
100
AcDbEntity
  8
0
100
AcDbLine
 62
7
  6
CONTINUOUS
 10
63.9789406957
 20
132.8846664886
 11
63.9334347899
 21
132.8876923825
  0
LINE
  5
5E9
100
AcDbEntity
  8
0
100
AcDbLine
 62
7
  6
CONTINUOUS
 10
64.9572020143
 20
133.062076502
 11
65.0026868245
 21
133.0590518449
  0
LINE
  5
5EA
100
AcDbEntity
  8
0
100
AcDbLine
 62
9
  6
CONTINUOUS
 10
44.8888306692
 20
130.9179272918
 11
44.9641004793
 21
130.9127696638
  0
LINE
  5
5EB
100
AcDbEntity
  8
0
100
AcDbLine
 62
7
  6
CONTINUOUS
 10
31.6261878172
 20
101.9123581363
 11
31.670240593
 21
101.9093091275
  0
LINE
  5
5EC
100
AcDbEntity
  8
0
100
AcDbLine
 62
7
  6
CONTINUOUS
 10
97.3099519379
 20
139.9042250108
 11
97.265899162
 21
139.9072740196
  0
LINE
  5
5ED
100
AcDbEntity
  8
0
100
AcDbLine
 62
9
  6
CONTINUOUS
 10
84.0462670008
 20
110.8846945751
 11
84.1206107567
 21
110.8794464609
  0
LINE
  5
5EE
100
AcDbEntity
  8
0
100
AcDbLine
 62
9
  6
CONTINUOUS
 10
84.7661249681
 20
131.0023855546
 11
84.7420974811
 21
131.0041203395
  0
LINE
  5
5EF
100
AcDbEntity
  8
0
100
AcDbLine
 62
9
  6
CONTINUOUS
 10
44.1553285209
 20
110.796133628
 11
44.1313152279
 21
110.7978795373
  0
LINE
  5
5F0
100
AcDbEntity
  8
0
100
AcDbLine
 62
9
  6
CONTINUOUS
 10
44.8190957224
 20
130.9230316854
 11
44.8888306692
 21
130.9179272918
  0
LINE
  5
5F1
100
AcDbEntity
  8
0
100
AcDbLine
 62
7
  6
CONTINUOUS
 10
63.9334529306
 20
132.7639076009
 11
63.8889328368
 21
132.767198552
  0
LINE
  5
5F2
100
AcDbEntity
  8
0
100
AcDbLine
 62
7
  6
CONTINUOUS
 10
63.9334347899
 20
132.8876923825
 11
63.8889336528
 21
132.8909817734
  0
LINE
  5
5F3
100
AcDbEntity
  8
0
100
AcDbLine
 62
7
  6
CONTINUOUS
 10
65.0026868245
 20
133.0590518449
 11
65.0472069182
 21
133.0557608938
  0
LINE
  5
5F4
100
AcDbEntity
  8
0
100
AcDbLine
 62
9
  6
CONTINUOUS
 10
84.1206107567
 20
110.8794464609
 11
84.1895266273
 21
110.8742603917
  0
LINE
  5
5F5
100
AcDbEntity
  8
0
100
AcDbLine
 62
9
  6
CONTINUOUS
 10
44.7544379963
 20
130.9280655076
 11
44.8190957224
 21
130.9230316854
  0
LINE
  5
5F6
100
AcDbEntity
  8
0
100
AcDbLine
 62
9
  6
CONTINUOUS
 10
84.1895266273
 20
110.8742603917
 11
84.2532194154
 21
110.8691491008
  0
LINE
  5
5F7
100
AcDbEntity
  8
0
100
AcDbLine
 62
7
  6
CONTINUOUS
 10
33.7641853143
 20
105.774297224
 11
33.7512918514
 21
105.7753360215
  0
LINE
  5
5F8
100
AcDbEntity
  8
0
100
AcDbLine
 62
7
  6
CONTINUOUS
 10
95.1719544407
 20
136.0422859231
 11
95.1848479037
 21
136.0412471257
  0
LINE
  5
5F9
100
AcDbEntity
  8
0
100
AcDbLine
 62
7
  6
CONTINUOUS
 10
63.8889328368
 20
132.767198552
 11
63.8454549783
 21
132.7707491565
  0
LINE
  5
5FA
100
AcDbEntity
  8
0
100
AcDbLine
 62
7
  6
CONTINUOUS
 10
63.8889336528
 20
132.8909817734
 11
63.8454755618
 21
132.8945309013
  0
LINE
  5
5FB
100
AcDbEntity
  8
0
100
AcDbLine
 62
7
  6
CONTINUOUS
 10
65.0472069182
 20
133.0557608938
 11
65.0906847768
 21
133.0522102893
  0
LINE
  5
5FC
100
AcDbEntity
  8
0
100
AcDbLine
 62
9
  6
CONTINUOUS
 10
44.6945956558
 20
130.933023268
 11
44.7544379963
 21
130.9280655076
  0
LINE
  5
5FD
100
AcDbEntity
  8
0
100
AcDbLine
 62
9
  6
CONTINUOUS
 10
84.2532194154
 20
110.8691491008
 11
84.3120275837
 21
110.8641294244
  0
LINE
  5
5FE
100
AcDbEntity
  8
0
100
AcDbLine
 62
9
  6
CONTINUOUS
 10
92.4680920427
 20
108.4657411145
 11
92.5292814517
 21
108.4604650231
  0
LINE
  5
5FF
100
AcDbEntity
  8
0
100
AcDbLine
 62
9
  6
CONTINUOUS
 10
36.406847399
 20
133.3561191579
 11
36.468047777
 21
133.3508420295
  0
LINE
  5
600
100
AcDbEntity
  8
0
100
AcDbLine
 62
9
  6
CONTINUOUS
 10
44.639227337
 20
130.9378949223
 11
44.6945956558
 21
130.933023268
  0
LINE
  5
601
100
AcDbEntity
  8
0
100
AcDbLine
 62
7
  6
CONTINUOUS
 10
63.8454549783
 20
132.7707491565
 11
63.8031006285
 21
132.7745537093
  0
LINE
  5
602
100
AcDbEntity
  8
0
100
AcDbLine
 62
7
  6
CONTINUOUS
 10
63.8454755618
 20
132.8945309013
 11
63.8031041997
 21
132.8983371077
  0
LINE
  5
603
100
AcDbEntity
  8
0
100
AcDbLine
 62
7
  6
CONTINUOUS
 10
65.0906847768
 20
133.0522102893
 11
65.1330391265
 21
133.0484057364
  0
LINE
  5
604
100
AcDbEntity
  8
0
100
AcDbLine
 62
9
  6
CONTINUOUS
 10
84.3120275837
 20
110.8641294244
 11
84.3662332567
 21
110.8592027818
  0
LINE
  5
605
100
AcDbEntity
  8
0
100
AcDbLine
 62
9
  6
CONTINUOUS
 10
44.5881139846
 20
130.9426767942
 11
44.639227337
 21
130.9378949223
  0
LINE
  5
606
100
AcDbEntity
  8
0
100
AcDbLine
 62
9
  6
CONTINUOUS
 10
64.2660690583
 20
125.3567138103
 11
64.3332772023
 21
125.350401213
  0
LINE
  5
607
100
AcDbEntity
  8
0
100
AcDbLine
 62
9
  6
CONTINUOUS
 10
64.6665543586
 20
129.0669264569
 11
64.6004932352
 21
129.0732662718
  0
LINE
  5
608
100
AcDbEntity
  8
0
100
AcDbLine
 62
9
  6
CONTINUOUS
 10
84.3662332567
 20
110.8592027818
 11
84.4161661668
 21
110.8543748532
  0
LINE
  5
609
100
AcDbEntity
  8
0
100
AcDbLine
 62
9
  6
CONTINUOUS
 10
31.5999187987
 20
101.9151129384
 11
31.6387156523
 21
101.9113510048
  0
LINE
  5
60A
100
AcDbEntity
  8
0
100
AcDbLine
 62
9
  6
CONTINUOUS
 10
97.3362209564
 20
139.9014702087
 11
97.2974241027
 21
139.9052321423
  0
LINE
  5
60B
100
AcDbEntity
  8
0
100
AcDbLine
 62
7
  6
CONTINUOUS
 10
63.8031006285
 20
132.7745537093
 11
63.7619429807
 21
132.778604679
  0
LINE
  5
60C
100
AcDbEntity
  8
0
100
AcDbLine
 62
7
  6
CONTINUOUS
 10
63.8031041997
 20
132.8983371077
 11
63.7619286024
 21
132.9023896676
  0
LINE
  5
60D
100
AcDbEntity
  8
0
100
AcDbLine
 62
7
  6
CONTINUOUS
 10
65.1330391265
 20
133.0484057364
 11
65.1741967744
 21
133.0443547668
  0
LINE
  5
60E
100
AcDbEntity
  8
0
100
AcDbLine
 62
9
  6
CONTINUOUS
 10
44.5409850177
 20
130.9473628119
 11
44.5881139846
 21
130.9426767942
  0
LINE
  5
60F
100
AcDbEntity
  8
0
100
AcDbLine
 62
9
  6
CONTINUOUS
 10
84.4161661668
 20
110.8543748532
 11
84.462021952
 21
110.849649692
  0
LINE
  5
610
100
AcDbEntity
  8
0
100
AcDbLine
 62
9
  6
CONTINUOUS
 10
44.4976536489
 20
130.9519501173
 11
44.5409850177
 21
130.9473628119
  0
LINE
  5
611
100
AcDbEntity
  8
0
100
AcDbLine
 62
7
  6
CONTINUOUS
 10
63.7619429807
 20
132.778604679
 11
63.722059539
 21
132.7828954217
  0
LINE
  5
612
100
AcDbEntity
  8
0
100
AcDbLine
 62
7
  6
CONTINUOUS
 10
63.7619286024
 20
132.9023896676
 11
63.7220602959
 21
132.9066786173
  0
LINE
  5
613
100
AcDbEntity
  8
0
100
AcDbLine
 62
7
  6
CONTINUOUS
 10
65.1741967744
 20
133.0443547668
 11
65.2140802161
 21
133.040064024
  0
LINE
  5
614
100
AcDbEntity
  8
0
100
AcDbLine
 62
9
  6
CONTINUOUS
 10
84.462021952
 20
110.849649692
 11
84.504045378
 21
110.8450324067
  0
LINE
  5
615
100
AcDbEntity
  8
0
100
AcDbLine
 62
9
  6
CONTINUOUS
 10
92.5292814517
 20
108.4604650231
 11
92.5955504503
 21
108.4531172601
  0
LINE
  5
616
100
AcDbEntity
  8
0
100
AcDbLine
 62
9
  6
CONTINUOUS
 10
36.3405728697
 20
133.3634679181
 11
36.406847399
 21
133.3561191579
  0
LINE
  5
617
100
AcDbEntity
  8
0
100
AcDbLine
 62
7
  6
CONTINUOUS
 10
31.5810674412
 20
101.9174095503
 11
31.6261878172
 21
101.9123581363
  0
LINE
  5
618
100
AcDbEntity
  8
0
100
AcDbLine
 62
7
  6
CONTINUOUS
 10
97.3550723139
 20
139.8991735968
 11
97.3099519379
 21
139.9042250108
  0
LINE
  5
619
100
AcDbEntity
  8
0
100
AcDbLine
 62
9
  6
CONTINUOUS
 10
44.4578973003
 20
130.9564347471
 11
44.4976536489
 21
130.9519501173
  0
LINE
  5
61A
100
AcDbEntity
  8
0
100
AcDbLine
 62
7
  6
CONTINUOUS
 10
63.722059539
 20
132.7828954217
 11
63.6835186435
 21
132.7874175693
  0
LINE
  5
61B
100
AcDbEntity
  8
0
100
AcDbLine
 62
7
  6
CONTINUOUS
 10
63.7220602959
 20
132.9066786173
 11
63.6835354932
 21
132.911199014
  0
LINE
  5
61C
100
AcDbEntity
  8
0
100
AcDbLine
 62
7
  6
CONTINUOUS
 10
65.2140802161
 20
133.040064024
 11
65.2526211116
 21
133.0355418765
  0
LINE
  5
61D
100
AcDbEntity
  8
0
100
AcDbLine
 62
9
  6
CONTINUOUS
 10
84.504045378
 20
110.8450324067
 11
84.5424187942
 21
110.8405255123
  0
LINE
  5
61E
100
AcDbEntity
  8
0
100
AcDbLine
 62
9
  6
CONTINUOUS
 10
44.4215527617
 20
130.9608139461
 11
44.4578973003
 21
130.9564347471
  0
LINE
  5
61F
100
AcDbEntity
  8
0
100
AcDbLine
 62
9
  6
CONTINUOUS
 10
84.7901525023
 20
130.9993777604
 11
84.7661249681
 21
131.0023855546
  0
LINE
  5
620
100
AcDbEntity
  8
0
100
AcDbLine
 62
9
  6
CONTINUOUS
 10
84.5424187942
 20
110.8405255123
 11
84.5773524778
 21
110.8361322328
  0
LINE
  5
621
100
AcDbEntity
  8
0
100
AcDbLine
 62
9
  6
CONTINUOUS
 10
44.1313152279
 20
110.7978795373
 11
44.1073038343
 21
110.8009043097
  0
LINE
  5
622
100
AcDbEntity
  8
0
100
AcDbLine
 62
7
  6
CONTINUOUS
 10
63.6835186435
 20
132.7874175693
 11
63.646393471
 21
132.792163587
  0
LINE
  5
623
100
AcDbEntity
  8
0
100
AcDbLine
 62
7
  6
CONTINUOUS
 10
63.6835354932
 20
132.911199014
 11
63.6463971877
 21
132.9159468304
  0
LINE
  5
624
100
AcDbEntity
  8
0
100
AcDbLine
 62
7
  6
CONTINUOUS
 10
65.2526211116
 20
133.0355418765
 11
65.2897462841
 21
133.0307958588
  0
LINE
  5
625
100
AcDbEntity
  8
0
100
AcDbLine
 62
9
  6
CONTINUOUS
 10
44.3884323884
 20
130.9650845893
 11
44.4215527617
 21
130.9608139461
  0
LINE
  5
626
100
AcDbEntity
  8
0
100
AcDbLine
 62
9
  6
CONTINUOUS
 10
64.1991272976
 20
125.3655427131
 11
64.2660690583
 21
125.3567138103
  0
LINE
  5
627
100
AcDbEntity
  8
0
100
AcDbLine
 62
7
  6
CONTINUOUS
 10
33.7512918514
 20
105.7753360215
 11
33.7381121378
 21
105.7770833331
  0
LINE
  5
628
100
AcDbEntity
  8
0
100
AcDbLine
 62
7
  6
CONTINUOUS
 10
95.1848479037
 20
136.0412471257
 11
95.1980276172
 21
136.0394998141
  0
LINE
  5
629
100
AcDbEntity
  8
0
100
AcDbLine
 62
9
  6
CONTINUOUS
 10
92.5955504503
 20
108.4531172601
 11
92.6667180384
 21
108.4435764726
  0
LINE
  5
62A
100
AcDbEntity
  8
0
100
AcDbLine
 62
9
  6
CONTINUOUS
 10
36.2694051354
 20
133.3730090825
 11
36.3405728697
 21
133.3634679181
  0
LINE
  5
62B
100
AcDbEntity
  8
0
100
AcDbLine
 62
9
  6
CONTINUOUS
 10
31.560431467
 20
101.9204384267
 11
31.5999187987
 21
101.9151129384
  0
LINE
  5
62C
100
AcDbEntity
  8
0
100
AcDbLine
 62
9
  6
CONTINUOUS
 10
64.7323785848
 20
129.0580546721
 11
64.6665543586
 21
129.0669264569
  0
LINE
  5
62D
100
AcDbEntity
  8
0
100
AcDbLine
 62
9
  6
CONTINUOUS
 10
97.3757082881
 20
139.8961447204
 11
97.3362209564
 21
139.9014702087
  0
LINE
  5
62E
100
AcDbEntity
  8
0
100
AcDbLine
 62
9
  6
CONTINUOUS
 10
84.5773524778
 20
110.8361322328
 11
84.6090074106
 21
110.8318555494
  0
LINE
  5
62F
100
AcDbEntity
  8
0
100
AcDbLine
 62
9
  6
CONTINUOUS
 10
44.3583869056
 20
130.9692438237
 11
44.3884323884
 21
130.9650845893
  0
LINE
  5
630
100
AcDbEntity
  8
0
100
AcDbLine
 62
7
  6
CONTINUOUS
 10
63.6463971877
 20
132.9159468304
 11
63.6107365638
 21
132.9209093565
  0
LINE
  5
631
100
AcDbEntity
  8
0
100
AcDbLine
 62
7
  6
CONTINUOUS
 10
63.646393471
 20
132.792163587
 11
63.610747016
 21
132.7971243302
  0
LINE
  5
632
100
AcDbEntity
  8
0
100
AcDbLine
 62
7
  6
CONTINUOUS
 10
65.2897462841
 20
133.0307958588
 11
65.3253927391
 21
133.0258351156
  0
LINE
  5
633
100
AcDbEntity
  8
0
100
AcDbLine
 62
9
  6
CONTINUOUS
 10
84.6090074106
 20
110.8318555494
 11
84.6375635525
 21
110.8276985097
  0
LINE
  5
634
100
AcDbEntity
  8
0
100
AcDbLine
 62
9
  6
CONTINUOUS
 10
92.405694025
 20
108.4750445375
 11
92.4680926142
 21
108.4657411139
  0
LINE
  5
635
100
AcDbEntity
  8
0
100
AcDbLine
 62
9
  6
CONTINUOUS
 10
44.3312525089
 20
130.9732886576
 11
44.3583869056
 21
130.9692438237
  0
LINE
  5
636
100
AcDbEntity
  8
0
100
AcDbLine
 62
9
  6
CONTINUOUS
 10
36.4680472312
 20
133.3508420302
 11
36.5304475275
 21
133.341538339
  0
LINE
  5
637
100
AcDbEntity
  8
0
100
AcDbLine
 62
7
  6
CONTINUOUS
 10
63.610747016
 20
132.7971243302
 11
63.5766476003
 21
132.8022914277
  0
LINE
  5
638
100
AcDbEntity
  8
0
100
AcDbLine
 62
7
  6
CONTINUOUS
 10
63.6107365638
 20
132.9209093565
 11
63.5766481141
 21
132.9260746215
  0
LINE
  5
639
100
AcDbEntity
  8
0
100
AcDbLine
 62
7
  6
CONTINUOUS
 10
65.3253927391
 20
133.0258351156
 11
65.3594921548
 21
133.0206680181
  0
LINE
  5
63A
100
AcDbEntity
  8
0
100
AcDbLine
 62
9
  6
CONTINUOUS
 10
92.6667180384
 20
108.4435764726
 11
92.7433048188
 21
108.4317013428
  0
LINE
  5
63B
100
AcDbEntity
  8
0
100
AcDbLine
 62
9
  6
CONTINUOUS
 10
36.1928237598
 20
133.3848836372
 11
36.2694051354
 21
133.3730090825
  0
LINE
  5
63C
100
AcDbEntity
  8
0
100
AcDbLine
 62
7
  6
CONTINUOUS
 10
31.5351419284
 20
101.924550542
 11
31.5810674412
 21
101.9174095503
  0
LINE
  5
63D
100
AcDbEntity
  8
0
100
AcDbLine
 62
7
  6
CONTINUOUS
 10
97.4009978267
 20
139.8920326051
 11
97.3550723139
 21
139.8991735968
  0
LINE
  5
63E
100
AcDbEntity
  8
0
100
AcDbLine
 62
9
  6
CONTINUOUS
 10
84.6375635525
 20
110.8276985097
 11
84.6631742459
 21
110.8236641379
  0
LINE
  5
63F
100
AcDbEntity
  8
0
100
AcDbLine
 62
9
  6
CONTINUOUS
 10
92.3453475502
 20
108.4846075366
 11
92.405694025
 21
108.4750445375
  0
LINE
  5
640
100
AcDbEntity
  8
0
100
AcDbLine
 62
9
  6
CONTINUOUS
 10
36.5304475275
 20
133.341538339
 11
36.590795568
 21
133.3319750642
  0
LINE
  5
641
100
AcDbEntity
  8
0
100
AcDbLine
 62
9
  6
CONTINUOUS
 10
44.3068851414
 20
130.9772163821
 11
44.3312525089
 21
130.9732886576
  0
LINE
  5
642
100
AcDbEntity
  8
0
100
AcDbLine
 62
7
  6
CONTINUOUS
 10
63.5766476003
 20
132.8022914277
 11
63.5441524193
 21
132.8076550243
  0
LINE
  5
643
100
AcDbEntity
  8
0
100
AcDbLine
 62
7
  6
CONTINUOUS
 10
65.3594921548
 20
133.0206680181
 11
65.3919873358
 21
133.0153044215
  0
LINE
  5
644
100
AcDbEntity
  8
0
100
AcDbLine
 62
7
  6
CONTINUOUS
 10
63.5766481141
 20
132.9260746215
 11
63.5441649077
 21
132.9314363804
  0
LINE
  5
645
100
AcDbEntity
  8
0
100
AcDbLine
 62
9
  6
CONTINUOUS
 10
92.2870201017
 20
108.494435397
 11
92.3453475502
 21
108.4846075366
  0
LINE
  5
646
100
AcDbEntity
  8
0
100
AcDbLine
 62
9
  6
CONTINUOUS
 10
36.590795568
 20
133.3319750642
 11
36.6491248013
 21
133.3221468445
  0
LINE
  5
647
100
AcDbEntity
  8
0
100
AcDbLine
 62
9
  6
CONTINUOUS
 10
64.1325625029
 20
125.3768742526
 11
64.1991272976
 21
125.3655427131
  0
LINE
  5
648
100
AcDbEntity
  8
0
100
AcDbLine
 62
9
  6
CONTINUOUS
 10
84.6631742459
 20
110.8236641379
 11
84.6860037839
 21
110.8197551276
  0
LINE
  5
649
100
AcDbEntity
  8
0
100
AcDbLine
 62
9
  6
CONTINUOUS
 10
31.5206037981
 20
101.9273251752
 11
31.560431467
 21
101.9204384267
  0
LINE
  5
64A
100
AcDbEntity
  8
0
100
AcDbLine
 62
9
  6
CONTINUOUS
 10
97.4155359569
 20
139.8892579719
 11
97.3757082881
 21
139.8961447204
  0
LINE
  5
64B
100
AcDbEntity
  8
0
100
AcDbLine
 62
9
  6
CONTINUOUS
 10
64.7978560719
 20
129.0466604404
 11
64.7323785848
 21
129.0580546721
  0
LINE
  5
64C
100
AcDbEntity
  8
0
100
AcDbLine
 62
9
  6
CONTINUOUS
 10
92.7433048188
 20
108.4317013428
 11
92.8256357946
 21
108.4173621412
  0
LINE
  5
64D
100
AcDbEntity
  8
0
100
AcDbLine
 62
9
  6
CONTINUOUS
 10
36.1105038973
 20
133.3992208047
 11
36.1928237598
 21
133.3848836372
  0
LINE
  5
64E
100
AcDbEntity
  8
0
100
AcDbLine
 62
9
  6
CONTINUOUS
 10
44.2851314487
 20
130.9810246747
 11
44.3068851414
 21
130.9772163821
  0
LINE
  5
64F
100
AcDbEntity
  8
0
100
AcDbLine
 62
9
  6
CONTINUOUS
 10
84.8141327666
 20
130.9950918077
 11
84.7901525023
 21
130.9993777604
  0
LINE
  5
650
100
AcDbEntity
  8
0
100
AcDbLine
 62
9
  6
CONTINUOUS
 10
92.2308109442
 20
108.5045122612
 11
92.2870201017
 21
108.494435397
  0
LINE
  5
651
100
AcDbEntity
  8
0
100
AcDbLine
 62
9
  6
CONTINUOUS
 10
36.6491248013
 20
133.3221468445
 11
36.7053348821
 21
133.3120697639
  0
LINE
  5
652
100
AcDbEntity
  8
0
100
AcDbLine
 62
9
  6
CONTINUOUS
 10
44.1073038343
 20
110.8009043097
 11
44.083340557
 21
110.8052048414
  0
LINE
  5
653
100
AcDbEntity
  8
0
100
AcDbLine
 62
7
  6
CONTINUOUS
 10
63.5441524193
 20
132.8076550243
 11
63.5133244476
 21
132.8132059726
  0
LINE
  5
654
100
AcDbEntity
  8
0
100
AcDbLine
 62
7
  6
CONTINUOUS
 10
63.5441649077
 20
132.9314363804
 11
63.5133278315
 21
132.9369890814
  0
LINE
  5
655
100
AcDbEntity
  8
0
100
AcDbLine
 62
7
  6
CONTINUOUS
 10
65.3919873358
 20
133.0153044215
 11
65.4228153075
 21
133.0097534732
  0
LINE
  5
656
100
AcDbEntity
  8
0
100
AcDbLine
 62
7
  6
CONTINUOUS
 10
33.7247669255
 20
105.7795724383
 11
33.7381088615
 21
105.7770875565
  0
LINE
  5
657
100
AcDbEntity
  8
0
100
AcDbLine
 62
7
  6
CONTINUOUS
 10
95.2113728295
 20
136.0370107088
 11
95.1980308936
 21
136.0394955907
  0
LINE
  5
658
100
AcDbEntity
  8
0
100
AcDbLine
 62
9
  6
CONTINUOUS
 10
84.6860037839
 20
110.8197551276
 11
84.7061992741
 21
110.8159755173
  0
LINE
  5
659
100
AcDbEntity
  8
0
100
AcDbLine
 62
9
  6
CONTINUOUS
 10
92.1767897317
 20
108.5148279463
 11
92.2308109442
 21
108.5045122612
  0
LINE
  5
65A
100
AcDbEntity
  8
0
100
AcDbLine
 62
9
  6
CONTINUOUS
 10
36.7053348821
 20
133.3120697639
 11
36.7593546095
 21
133.3017543099
  0
LINE
  5
65B
100
AcDbEntity
  8
0
100
AcDbLine
 62
9
  6
CONTINUOUS
 10
44.2658555187
 20
130.9847093838
 11
44.2851314487
 21
130.9810246747
  0
LINE
  5
65C
100
AcDbEntity
  8
0
100
AcDbLine
 62
9
  6
CONTINUOUS
 10
92.8256357946
 20
108.4173621412
 11
92.9141177446
 21
108.4003806984
  0
LINE
  5
65D
100
AcDbEntity
  8
0
100
AcDbLine
 62
9
  6
CONTINUOUS
 10
36.0220389024
 20
133.4161990041
 11
36.1105038973
 21
133.3992208047
  0
LINE
  5
65E
100
AcDbEntity
  8
0
100
AcDbLine
 62
7
  6
CONTINUOUS
 10
63.5133244476
 20
132.8132059726
 11
63.4842146691
 21
132.8189337778
  0
LINE
  5
65F
100
AcDbEntity
  8
0
100
AcDbLine
 62
7
  6
CONTINUOUS
 10
63.5133278315
 20
132.9369890814
 11
63.4842079244
 21
132.9427186752
  0
LINE
  5
660
100
AcDbEntity
  8
0
100
AcDbLine
 62
7
  6
CONTINUOUS
 10
65.4228153075
 20
133.0097534732
 11
65.451925086
 21
133.004025668
  0
LINE
  5
661
100
AcDbEntity
  8
0
100
AcDbLine
 62
7
  6
CONTINUOUS
 10
31.4885799354
 20
101.9338580669
 11
31.5351419284
 21
101.924550542
  0
LINE
  5
662
100
AcDbEntity
  8
0
100
AcDbLine
 62
7
  6
CONTINUOUS
 10
97.4475598196
 20
139.8827250802
 11
97.4009978267
 21
139.8920326051
  0
LINE
  5
663
100
AcDbEntity
  8
0
100
AcDbLine
 62
9
  6
CONTINUOUS
 10
92.1250122076
 20
108.5253707148
 11
92.1767897317
 21
108.5148279463
  0
LINE
  5
664
100
AcDbEntity
  8
0
100
AcDbLine
 62
9
  6
CONTINUOUS
 10
36.7593546095
 20
133.3017543099
 11
36.8111299994
 21
133.2912119103
  0
LINE
  5
665
100
AcDbEntity
  8
0
100
AcDbLine
 62
9
  6
CONTINUOUS
 10
84.7061992741
 20
110.8159755173
 11
84.7239097238
 21
110.8123295673
  0
LINE
  5
666
100
AcDbEntity
  8
0
100
AcDbLine
 62
9
  6
CONTINUOUS
 10
92.9141177446
 20
108.4003806984
 11
93.009111099
 21
108.3806090686
  0
LINE
  5
667
100
AcDbEntity
  8
0
100
AcDbLine
 62
9
  6
CONTINUOUS
 10
35.9270682442
 20
133.4359656711
 11
36.0220389024
 21
133.4161990041
  0
LINE
  5
668
100
AcDbEntity
  8
0
100
AcDbLine
 62
9
  6
CONTINUOUS
 10
64.0664628471
 20
125.3906933203
 11
64.1325625029
 21
125.3768742526
  0
LINE
  5
669
100
AcDbEntity
  8
0
100
AcDbLine
 62
9
  6
CONTINUOUS
 10
44.2489203604
 20
130.9882660831
 11
44.2658555187
 21
130.9847093838
  0
LINE
  5
66A
100
AcDbEntity
  8
0
100
AcDbLine
 62
9
  6
CONTINUOUS
 10
31.4803259772
 20
101.9358303696
 11
31.5206037981
 21
101.9273251752
  0
LINE
  5
66B
100
AcDbEntity
  8
0
100
AcDbLine
 62
9
  6
CONTINUOUS
 10
97.4558137778
 20
139.8807527775
 11
97.4155359569
 21
139.8892579719
  0
LINE
  5
66C
100
AcDbEntity
  8
0
100
AcDbLine
 62
9
  6
CONTINUOUS
 10
64.8629076122
 20
129.0327546152
 11
64.7978560719
 21
129.0466604404
  0
LINE
  5
66D
100
AcDbEntity
  8
0
100
AcDbLine
 62
7
  6
CONTINUOUS
 10
63.4842146691
 20
132.8189337778
 11
63.4568802575
 21
132.8248285821
  0
LINE
  5
66E
100
AcDbEntity
  8
0
100
AcDbLine
 62
7
  6
CONTINUOUS
 10
63.4842079244
 20
132.9427186752
 11
63.4568804107
 21
132.9486118155
  0
LINE
  5
66F
100
AcDbEntity
  8
0
100
AcDbLine
 62
7
  6
CONTINUOUS
 10
65.451925086
 20
133.004025668
 11
65.4792594975
 21
132.9981308636
  0
LINE
  5
670
100
AcDbEntity
  8
0
100
AcDbLine
 62
9
  6
CONTINUOUS
 10
92.0755672032
 20
108.5361235434
 11
92.1250122076
 21
108.5253707148
  0
LINE
  5
671
100
AcDbEntity
  8
0
100
AcDbLine
 62
9
  6
CONTINUOUS
 10
36.8111299994
 20
133.2912119103
 11
36.8605736194
 21
133.2804593546
  0
LINE
  5
672
100
AcDbEntity
  8
0
100
AcDbLine
 62
9
  6
CONTINUOUS
 10
93.009111099
 20
108.3806090686
 11
93.1111127537
 21
108.3579729809
  0
LINE
  5
673
100
AcDbEntity
  8
0
100
AcDbLine
 62
9
  6
CONTINUOUS
 10
35.8250956031
 20
133.4585944459
 11
35.9270682442
 21
133.4359656711
  0
LINE
  5
674
100
AcDbEntity
  8
0
100
AcDbLine
 62
9
  6
CONTINUOUS
 10
84.7239097238
 20
110.8123295673
 11
84.7392937266
 21
110.808819306
  0
LINE
  5
675
100
AcDbEntity
  8
0
100
AcDbLine
 62
9
  6
CONTINUOUS
 10
44.2341758556
 20
130.9916932738
 11
44.2489203604
 21
130.9882660831
  0
LINE
  5
676
100
AcDbEntity
  8
0
100
AcDbLine
 62
9
  6
CONTINUOUS
 10
92.0284251081
 20
108.5470921066
 11
92.0755672032
 21
108.5361235434
  0
LINE
  5
677
100
AcDbEntity
  8
0
100
AcDbLine
 62
9
  6
CONTINUOUS
 10
36.8605736194
 20
133.2804593546
 11
36.9077146136
 21
133.2694910462
  0
LINE
  5
678
100
AcDbEntity
  8
0
100
AcDbLine
 62
9
  6
CONTINUOUS
 10
84.8379567958
 20
130.9895384889
 11
84.8141327666
 21
130.9950918077
  0
LINE
  5
679
100
AcDbEntity
  8
0
100
AcDbLine
 62
9
  6
CONTINUOUS
 10
44.083340557
 20
110.8052048414
 11
44.0595326046
 21
110.810765412
  0
LINE
  5
67A
100
AcDbEntity
  8
0
100
AcDbLine
 62
9
  6
CONTINUOUS
 10
93.1111127537
 20
108.3579729809
 11
93.2205407519
 21
108.3322238924
  0
LINE
  5
67B
100
AcDbEntity
  8
0
100
AcDbLine
 62
9
  6
CONTINUOUS
 10
35.7157075868
 20
133.4843332273
 11
35.8250956031
 21
133.4585944459
  0
LINE
  5
67C
100
AcDbEntity
  8
0
100
AcDbLine
 62
7
  6
CONTINUOUS
 10
63.4568802575
 20
132.8248285821
 11
63.4313656181
 21
132.8308793269
  0
LINE
  5
67D
100
AcDbEntity
  8
0
100
AcDbLine
 62
7
  6
CONTINUOUS
 10
63.4568804107
 20
132.9486118155
 11
63.4313736216
 21
132.9546608416
  0
LINE
  5
67E
100
AcDbEntity
  8
0
100
AcDbLine
 62
7
  6
CONTINUOUS
 10
65.4792594975
 20
132.9981308636
 11
65.5047741369
 21
132.9920801188
  0
LINE
  5
67F
100
AcDbEntity
  8
0
100
AcDbLine
 62
7
  6
CONTINUOUS
 10
33.7247665703
 20
105.7795725143
 11
33.7113592022
 21
105.7828236319
  0
LINE
  5
680
100
AcDbEntity
  8
0
100
AcDbLine
 62
7
  6
CONTINUOUS
 10
95.2113731848
 20
136.0370106328
 11
95.2247805529
 21
136.0337595152
  0
LINE
  5
681
100
AcDbEntity
  8
0
100
AcDbLine
 62
9
  6
CONTINUOUS
 10
91.5890648276
 20
108.6541826873
 11
92.0284251081
 21
108.5470921066
  0
LINE
  5
682
100
AcDbEntity
  8
0
100
AcDbLine
 62
9
  6
CONTINUOUS
 10
36.9077146136
 20
133.2694910462
 11
37.3501041265
 21
133.1616532012
  0
LINE
  5
683
100
AcDbEntity
  8
0
100
AcDbLine
 62
7
  6
CONTINUOUS
 10
31.4415753949
 20
101.9453337177
 11
31.4885799354
 21
101.9338580669
  0
LINE
  5
684
100
AcDbEntity
  8
0
100
AcDbLine
 62
7
  6
CONTINUOUS
 10
97.4945643602
 20
139.8712494294
 11
97.4475598196
 21
139.8827250802
  0
LINE
  5
685
100
AcDbEntity
  8
0
100
AcDbLine
 62
9
  6
CONTINUOUS
 10
93.2205407519
 20
108.3322238924
 11
93.3379158176
 21
108.303193332
  0
LINE
  5
686
100
AcDbEntity
  8
0
100
AcDbLine
 62
9
  6
CONTINUOUS
 10
35.5983717944
 20
133.5133524626
 11
35.7157075868
 21
133.4843332273
  0
LINE
  5
687
100
AcDbEntity
  8
0
100
AcDbLine
 62
9
  6
CONTINUOUS
 10
64.0009229088
 20
125.4069804727
 11
64.0664628471
 21
125.3906933203
  0
LINE
  5
688
100
AcDbEntity
  8
0
100
AcDbLine
 62
9
  6
CONTINUOUS
 10
91.1575823965
 20
108.7618992045
 11
91.5890648276
 21
108.6541826873
  0
LINE
  5
689
100
AcDbEntity
  8
0
100
AcDbLine
 62
9
  6
CONTINUOUS
 10
37.3501041265
 20
133.1616532012
 11
37.7845052911
 21
133.0531808021
  0
LINE
  5
68A
100
AcDbEntity
  8
0
100
AcDbLine
 62
9
  6
CONTINUOUS
 10
31.4395477195
 20
101.9460191596
 11
31.4803259772
 21
101.9358303696
  0
LINE
  5
68B
100
AcDbEntity
  8
0
100
AcDbLine
 62
9
  6
CONTINUOUS
 10
97.4965920356
 20
139.8705639875
 11
97.4558137778
 21
139.8807527775
  0
LINE
  5
68C
100
AcDbEntity
  8
0
100
AcDbLine
 62
9
  6
CONTINUOUS
 10
64.9274424797
 20
129.0163507115
 11
64.8629076122
 21
129.0327546152
  0
LINE
  5
68D
100
AcDbEntity
  8
0
100
AcDbLine
 62
9
  6
CONTINUOUS
 10
84.7392937266
 20
110.808819306
 11
84.7524998531
 21
110.8054506476
  0
LINE
  5
68E
100
AcDbEntity
  8
0
100
AcDbLine
 62
9
  6
CONTINUOUS
 10
90.7339519523
 20
108.8702481241
 11
91.1575823965
 21
108.7618992045
  0
LINE
  5
68F
100
AcDbEntity
  8
0
100
AcDbLine
 62
9
  6
CONTINUOUS
 10
37.7845052911
 20
133.0531808021
 11
38.2109445678
 21
132.9440672286
  0
LINE
  5
690
100
AcDbEntity
  8
0
100
AcDbLine
 62
9
  6
CONTINUOUS
 10
93.3379158176
 20
108.303193332
 11
93.4642089617
 21
108.2706551004
  0
LINE
  5
691
100
AcDbEntity
  8
0
100
AcDbLine
 62
9
  6
CONTINUOUS
 10
35.4721105547
 20
133.5458809018
 11
35.5983717944
 21
133.5133524626
  0
LINE
  5
692
100
AcDbEntity
  8
0
100
AcDbLine
 62
9
  6
CONTINUOUS
 10
44.2214830033
 20
130.9949850999
 11
44.2341758556
 21
130.9916932738
  0
LINE
  5
693
100
AcDbEntity
  8
0
100
AcDbLine
 62
9
  6
CONTINUOUS
 10
90.3182510822
 20
108.9792100479
 11
90.7339519523
 21
108.8702481241
  0
LINE
  5
694
100
AcDbEntity
  8
0
100
AcDbLine
 62
7
  6
CONTINUOUS
 10
63.4313656181
 20
132.8308793269
 11
63.4077217119
 21
132.8370755151
  0
LINE
  5
695
100
AcDbEntity
  8
0
100
AcDbLine
 62
7
  6
CONTINUOUS
 10
63.4313736216
 20
132.9546608416
 11
63.4077243556
 21
132.9608585387
  0
LINE
  5
696
100
AcDbEntity
  8
0
100
AcDbLine
 62
7
  6
CONTINUOUS
 10
65.5047741369
 20
132.9920801188
 11
65.5284180432
 21
132.9858839306
  0
LINE
  5
697
100
AcDbEntity
  8
0
100
AcDbLine
 62
9
  6
CONTINUOUS
 10
38.2109445678
 20
132.9440672286
 11
38.6293425755
 21
132.8343323413
  0
LINE
  5
698
100
AcDbEntity
  8
0
100
AcDbLine
 62
9
  6
CONTINUOUS
 10
93.4642089617
 20
108.2706551004
 11
93.598518511
 21
108.2347725323
  0
LINE
  5
699
100
AcDbEntity
  8
0
100
AcDbLine
 62
9
  6
CONTINUOUS
 10
35.3378155083
 20
133.5817579346
 11
35.4721105547
 21
133.5458809018
  0
LINE
  5
69A
100
AcDbEntity
  8
0
100
AcDbLine
 62
9
  6
CONTINUOUS
 10
89.9105353889
 20
109.0887713815
 11
90.3182510822
 21
108.9792100479
  0
LINE
  5
69B
100
AcDbEntity
  8
0
100
AcDbLine
 62
9
  6
CONTINUOUS
 10
38.6293425755
 20
132.8343323413
 11
39.0396423167
 21
132.7239900849
  0
LINE
  5
69C
100
AcDbEntity
  8
0
100
AcDbLine
 62
9
  6
CONTINUOUS
 10
93.598518511
 20
108.2347725323
 11
93.7407613419
 21
108.1956674005
  0
LINE
  5
69D
100
AcDbEntity
  8
0
100
AcDbLine
 62
9
  6
CONTINUOUS
 10
35.1955496863
 20
133.6208678667
 11
35.3378155083
 21
133.5817579346
  0
LINE
  5
69E
100
AcDbEntity
  8
0
100
AcDbLine
 62
9
  6
CONTINUOUS
 10
89.5108449625
 20
109.1989211778
 11
89.9105353889
 21
109.0887713815
  0
LINE
  5
69F
100
AcDbEntity
  8
0
100
AcDbLine
 62
9
  6
CONTINUOUS
 10
39.0396423167
 20
132.7239900849
 11
39.4418031017
 21
132.613051586
  0
LINE
  5
6A0
100
AcDbEntity
  8
0
100
AcDbLine
 62
9
  6
CONTINUOUS
 10
93.7407613419
 20
108.1956674005
 11
93.8894866084
 21
108.1537476981
  0
LINE
  5
6A1
100
AcDbEntity
  8
0
100
AcDbLine
 62
9
  6
CONTINUOUS
 10
35.0467873815
 20
133.6627972352
 11
35.1955496863
 21
133.6208678667
  0
LINE
  5
6A2
100
AcDbEntity
  8
0
100
AcDbLine
 62
9
  6
CONTINUOUS
 10
89.1192244006
 20
109.309647964
 11
89.5108449625
 21
109.1989211778
  0
LINE
  5
6A3
100
AcDbEntity
  8
0
100
AcDbLine
 62
9
  6
CONTINUOUS
 10
39.4418031017
 20
132.613051586
 11
39.8357795135
 21
132.5015285392
  0
LINE
  5
6A4
100
AcDbEntity
  8
0
100
AcDbLine
 62
9
  6
CONTINUOUS
 10
93.8894866084
 20
108.1537476981
 11
94.0436419837
 21
108.1095004589
  0
LINE
  5
6A5
100
AcDbEntity
  8
0
100
AcDbLine
 62
9
  6
CONTINUOUS
 10
34.892599453
 20
133.7070532848
 11
35.0467873815
 21
133.6627972352
  0
LINE
  5
6A6
100
AcDbEntity
  8
0
100
AcDbLine
 62
9
  6
CONTINUOUS
 10
44.0595326046
 20
110.810765412
 11
44.0359801991
 21
110.8175626505
  0
LINE
  5
6A7
100
AcDbEntity
  8
0
100
AcDbLine
 62
9
  6
CONTINUOUS
 10
84.7524998531
 20
110.8054506476
 11
84.7637071799
 21
110.8022161949
  0
LINE
  5
6A8
100
AcDbEntity
  8
0
100
AcDbLine
 62
9
  6
CONTINUOUS
 10
84.8615233456
 20
130.9827396028
 11
84.8379567958
 21
130.9895384889
  0
LINE
  5
6A9
100
AcDbEntity
  8
0
100
AcDbLine
 62
9
  6
CONTINUOUS
 10
63.936030038
 20
125.4257141587
 11
64.0009229088
 21
125.4069804727
  0
LINE
  5
6AA
100
AcDbEntity
  8
0
100
AcDbLine
 62
7
  6
CONTINUOUS
 10
31.394353465
 20
101.9589998088
 11
31.4415753949
 21
101.9453337177
  0
LINE
  5
6AB
100
AcDbEntity
  8
0
100
AcDbLine
 62
7
  6
CONTINUOUS
 10
97.54178629
 20
139.8575833383
 11
97.4945643602
 21
139.8712494294
  0
LINE
  5
6AC
100
AcDbEntity
  8
0
100
AcDbLine
 62
9
  6
CONTINUOUS
 10
88.7357157831
 20
109.420939722
 11
89.1192244006
 21
109.309647964
  0
LINE
  5
6AD
100
AcDbEntity
  8
0
100
AcDbLine
 62
9
  6
CONTINUOUS
 10
39.8357795135
 20
132.5015285392
 11
40.2215287363
 21
132.3894331859
  0
LINE
  5
6AE
100
AcDbEntity
  8
0
100
AcDbLine
 62
9
  6
CONTINUOUS
 10
94.0436419837
 20
108.1095004589
 11
94.2019768301
 21
108.0633839555
  0
LINE
  5
6AF
100
AcDbEntity
  8
0
100
AcDbLine
 62
9
  6
CONTINUOUS
 10
34.7342310535
 20
133.7531792245
 11
34.892599453
 21
133.7070532848
  0
LINE
  5
6B0
100
AcDbEntity
  8
0
100
AcDbLine
 62
7
  6
CONTINUOUS
 10
63.4077217119
 20
132.8370755151
 11
63.3859860452
 21
132.8434056038
  0
LINE
  5
6B1
100
AcDbEntity
  8
0
100
AcDbLine
 62
7
  6
CONTINUOUS
 10
63.4077243556
 20
132.9608585387
 11
63.3859824359
 21
132.9671902236
  0
LINE
  5
6B2
100
AcDbEntity
  8
0
100
AcDbLine
 62
7
  6
CONTINUOUS
 10
65.5284180432
 20
132.9858839306
 11
65.5501537099
 21
132.979553842
  0
LINE
  5
6B3
100
AcDbEntity
  8
0
100
AcDbLine
 62
9
  6
CONTINUOUS
 10
44.2106714605
 20
130.9981502064
 11
44.2214830033
 21
130.9949850999
  0
LINE
  5
6B4
100
AcDbEntity
  8
0
100
AcDbLine
 62
9
  6
CONTINUOUS
 10
94.2019768301
 20
108.0633839555
 11
94.5264039214
 21
107.9677832294
  0
LINE
  5
6B5
100
AcDbEntity
  8
0
100
AcDbLine
 62
9
  6
CONTINUOUS
 10
34.4097361816
 20
133.848799793
 11
34.7342310535
 21
133.7531792245
  0
LINE
  5
6B6
100
AcDbEntity
  8
0
100
AcDbLine
 62
9
  6
CONTINUOUS
 10
64.9913860747
 20
128.9974627383
 11
64.9274424797
 21
129.0163507115
  0
LINE
  5
6B7
100
AcDbEntity
  8
0
100
AcDbLine
 62
9
  6
CONTINUOUS
 10
88.3603629378
 20
109.5327845676
 11
88.7357157831
 21
109.420939722
  0
LINE
  5
6B8
100
AcDbEntity
  8
0
100
AcDbLine
 62
9
  6
CONTINUOUS
 10
40.2215287363
 20
132.3894331859
 11
40.5990062583
 21
132.2767776029
  0
LINE
  5
6B9
100
AcDbEntity
  8
0
100
AcDbLine
 62
7
  6
CONTINUOUS
 10
33.6979642674
 20
105.7868518785
 11
33.7113583025
 21
105.7828268663
  0
LINE
  5
6BA
100
AcDbEntity
  8
0
100
AcDbLine
 62
7
  6
CONTINUOUS
 10
95.2381754876
 20
136.0297312686
 11
95.2247814526
 21
136.0337562808
  0
LINE
  5
6BB
100
AcDbEntity
  8
0
100
AcDbLine
 62
9
  6
CONTINUOUS
 10
87.9932052191
 20
109.6451706268
 11
88.3603629378
 21
109.5327845676
  0
LINE
  5
6BC
100
AcDbEntity
  8
0
100
AcDbLine
 62
9
  6
CONTINUOUS
 10
40.5990062583
 20
132.2767776029
 11
40.96817175
 21
132.1635739789
  0
LINE
  5
6BD
100
AcDbEntity
  8
0
100
AcDbLine
 62
9
  6
CONTINUOUS
 10
87.6342839934
 20
109.7580860788
 11
87.9932052191
 21
109.6451706268
  0
LINE
  5
6BE
100
AcDbEntity
  8
0
100
AcDbLine
 62
9
  6
CONTINUOUS
 10
40.96817175
 20
132.1635739789
 11
41.3289829013
 21
132.049834419
  0
LINE
  5
6BF
100
AcDbEntity
  8
0
100
AcDbLine
 62
9
  6
CONTINUOUS
 10
87.2836370533
 20
109.8715188783
 11
87.6342839934
 21
109.7580860788
  0
LINE
  5
6C0
100
AcDbEntity
  8
0
100
AcDbLine
 62
9
  6
CONTINUOUS
 10
41.3289829013
 20
132.049834419
 11
41.6814011435
 21
131.9355712508
  0
LINE
  5
6C1
100
AcDbEntity
  8
0
100
AcDbLine
 62
7
  6
CONTINUOUS
 10
63.3859860452
 20
132.8434056038
 11
63.3662029991
 21
132.8498585321
  0
LINE
  5
6C2
100
AcDbEntity
  8
0
100
AcDbLine
 62
7
  6
CONTINUOUS
 10
63.3859824359
 20
132.9671902236
 11
63.3670321142
 21
132.9733713584
  0
LINE
  5
6C3
100
AcDbEntity
  8
0
100
AcDbLine
 62
7
  6
CONTINUOUS
 10
65.5501537099
 20
132.979553842
 11
65.569936756
 21
132.9731009136
  0
LINE
  5
6C4
100
AcDbEntity
  8
0
100
AcDbLine
 62
9
  6
CONTINUOUS
 10
84.7637071799
 20
110.8022161949
 11
84.7731728819
 21
110.7991098434
  0
LINE
  5
6C5
100
AcDbEntity
  8
0
100
AcDbLine
 62
9
  6
CONTINUOUS
 10
31.3572574692
 20
101.9714418103
 11
31.3984680104
 21
101.9578932404
  0
LINE
  5
6C6
100
AcDbEntity
  8
0
100
AcDbLine
 62
9
  6
CONTINUOUS
 10
97.5788822859
 20
139.8451413369
 11
97.5376717446
 21
139.8586899067
  0
LINE
  5
6C7
100
AcDbEntity
  8
0
100
AcDbLine
 62
9
  6
CONTINUOUS
 10
63.8718711796
 20
125.4468701844
 11
63.936030038
 21
125.4257141587
  0
LINE
  5
6C8
100
AcDbEntity
  8
0
100
AcDbLine
 62
9
  6
CONTINUOUS
 10
44.2014974662
 20
131.0011961229
 11
44.2106714605
 21
130.9981502064
  0
LINE
  5
6C9
100
AcDbEntity
  8
0
100
AcDbLine
 62
9
  6
CONTINUOUS
 10
86.9413037591
 20
109.9854571726
 11
87.2836370533
 21
109.8715188783
  0
LINE
  5
6CA
100
AcDbEntity
  8
0
100
AcDbLine
 62
9
  6
CONTINUOUS
 10
41.6814011435
 20
131.9355712508
 11
42.0253862017
 21
131.820796631
  0
LINE
  5
6CB
100
AcDbEntity
  8
0
100
AcDbLine
 62
7
  6
CONTINUOUS
 10
31.3469891255
 20
101.9748711296
 11
31.394353465
 21
101.9589998088
  0
LINE
  5
6CC
100
AcDbEntity
  8
0
100
AcDbLine
 62
7
  6
CONTINUOUS
 10
97.5891506296
 20
139.8417120175
 11
97.54178629
 21
139.8575833383
  0
LINE
  5
6CD
100
AcDbEntity
  8
0
100
AcDbLine
 62
9
  6
CONTINUOUS
 10
65.0546605258
 20
128.9761047157
 11
64.9913860747
 21
128.9974627383
  0
LINE
  5
6CE
100
AcDbEntity
  8
0
100
AcDbLine
 62
9
  6
CONTINUOUS
 10
86.6073207744
 20
110.0998885627
 11
86.9413037591
 21
109.9854571726
  0
LINE
  5
6CF
100
AcDbEntity
  8
0
100
AcDbLine
 62
9
  6
CONTINUOUS
 10
42.0253862017
 20
131.820796631
 11
42.3609008843
 21
131.705523178
  0
LINE
  5
6D0
100
AcDbEntity
  8
0
100
AcDbLine
 62
9
  6
CONTINUOUS
 10
44.0359801991
 20
110.8175626505
 11
44.0127477124
 21
110.8255779226
  0
LINE
  5
6D1
100
AcDbEntity
  8
0
100
AcDbLine
 62
9
  6
CONTINUOUS
 10
84.8847676851
 20
130.9747155873
 11
84.8615233456
 21
130.9827396028
  0
LINE
  5
6D2
100
AcDbEntity
  8
0
100
AcDbLine
 62
9
  6
CONTINUOUS
 10
86.2817266705
 20
110.2148007312
 11
86.6073207744
 21
110.0998885627
  0
LINE
  5
6D3
100
AcDbEntity
  8
0
100
AcDbLine
 62
9
  6
CONTINUOUS
 10
42.3609008843
 20
131.705523178
 11
42.687906068
 21
131.5897634136
  0
LINE
  5
6D4
100
AcDbEntity
  8
0
100
AcDbLine
 62
7
  6
CONTINUOUS
 10
33.6979656379
 20
105.7868514252
 11
33.6846904326
 21
105.791650781
  0
LINE
  5
6D5
100
AcDbEntity
  8
0
100
AcDbLine
 62
7
  6
CONTINUOUS
 10
95.2514515991
 20
136.0249316063
 11
95.2381754876
 21
136.0297312686
  0
LINE
  5
6D6
100
AcDbEntity
  8
0
100
AcDbLine
 62
9
  6
CONTINUOUS
 10
85.9645550852
 20
110.3301815811
 11
86.2817266705
 21
110.2148007312
  0
LINE
  5
6D7
100
AcDbEntity
  8
0
100
AcDbLine
 62
9
  6
CONTINUOUS
 10
42.687906068
 20
131.5897634136
 11
43.0063672725
 21
131.4735297848
  0
LINE
  5
6D8
100
AcDbEntity
  8
0
100
AcDbLine
 62
7
  6
CONTINUOUS
 10
63.3662029991
 20
132.8498585321
 11
63.348402911
 21
132.8564223562
  0
LINE
  5
6D9
100
AcDbEntity
  8
0
100
AcDbLine
 62
7
  6
CONTINUOUS
 10
65.569936756
 20
132.9731009136
 11
65.587736844
 21
132.9665370896
  0
LINE
  5
6DA
100
AcDbEntity
  8
0
100
AcDbLine
 62
9
  6
CONTINUOUS
 10
31.3159657223
 20
101.9866852676
 11
31.3572574692
 21
101.9714418103
  0
LINE
  5
6DB
100
AcDbEntity
  8
0
100
AcDbLine
 62
9
  6
CONTINUOUS
 10
97.6201740328
 20
139.8298978795
 11
97.5788822859
 21
139.8451413369
  0
LINE
  5
6DC
100
AcDbEntity
  8
0
100
AcDbLine
 62
9
  6
CONTINUOUS
 10
63.8085373526
 20
125.4704193637
 11
63.8718711796
 21
125.4468701844
  0
LINE
  5
6DD
100
AcDbEntity
  8
0
100
AcDbLine
 62
9
  6
CONTINUOUS
 10
85.6558396478
 20
110.4460199055
 11
85.9645550852
 21
110.3301815811
  0
LINE
  5
6DE
100
AcDbEntity
  8
0
100
AcDbLine
 62
9
  6
CONTINUOUS
 10
43.0063672725
 20
131.4735297848
 11
43.3162499326
 21
131.3568338572
  0
LINE
  5
6DF
100
AcDbEntity
  8
0
100
AcDbLine
 62
9
  6
CONTINUOUS
 10
65.1171839936
 20
128.9522963035
 11
65.0546605258
 21
128.9761047157
  0
LINE
  5
6E0
100
AcDbEntity
  8
0
100
AcDbLine
 62
7
  6
CONTINUOUS
 10
31.2996069353
 20
101.9929617809
 11
31.3469891255
 21
101.9748711296
  0
LINE
  5
6E1
100
AcDbEntity
  8
0
100
AcDbLine
 62
7
  6
CONTINUOUS
 10
97.6365328198
 20
139.8236213662
 11
97.5891506296
 21
139.8417120175
  0
LINE
  5
6E2
100
AcDbEntity
  8
0
100
AcDbLine
 62
9
  6
CONTINUOUS
 10
85.3556189563
 20
110.5623007166
 11
85.6558396478
 21
110.4460199055
  0
LINE
  5
6E3
100
AcDbEntity
  8
0
100
AcDbLine
 62
9
  6
CONTINUOUS
 10
43.3162499326
 20
131.3568338572
 11
43.6175151808
 21
131.2396907966
  0
LINE
  5
6E4
100
AcDbEntity
  8
0
100
AcDbLine
 62
9
  6
CONTINUOUS
 10
84.7731728819
 20
110.7991098434
 11
84.7808112342
 21
110.7961336279
  0
LINE
  5
6E5
100
AcDbEntity
  8
0
100
AcDbLine
 62
9
  6
CONTINUOUS
 10
44.194042274
 20
131.0041203395
 11
44.2014974662
 21
131.0011961229
  0
LINE
  5
6E6
100
AcDbEntity
  8
0
100
AcDbLine
 62
9
  6
CONTINUOUS
 10
85.0639490444
 20
110.6790029503
 11
85.3556189563
 21
110.5623007166
  0
LINE
  5
6E7
100
AcDbEntity
  8
0
100
AcDbLine
 62
9
  6
CONTINUOUS
 10
43.6175151808
 20
131.2396907966
 11
43.9101063293
 21
131.1221220017
  0
LINE
  5
6E8
100
AcDbEntity
  8
0
100
AcDbLine
 62
9
  6
CONTINUOUS
 10
44.0127477124
 20
110.8255779226
 11
43.989919007
 21
110.8347833202
  0
LINE
  5
6E9
100
AcDbEntity
  8
0
100
AcDbLine
 62
9
  6
CONTINUOUS
 10
84.9076058118
 20
130.9654997029
 11
84.8847676851
 21
130.9747155873
  0
LINE
  5
6EA
100
AcDbEntity
  8
0
100
AcDbLine
 62
9
  6
CONTINUOUS
 10
31.2747093728
 20
102.0036204618
 11
31.3159657223
 21
101.9866852676
  0
LINE
  5
6EB
100
AcDbEntity
  8
0
100
AcDbLine
 62
9
  6
CONTINUOUS
 10
97.6614303823
 20
139.8129626853
 11
97.6201740328
 21
139.8298978795
  0
LINE
  5
6EC
100
AcDbEntity
  8
0
100
AcDbLine
 62
9
  6
CONTINUOUS
 10
84.7808112342
 20
110.7961336279
 11
85.0639490444
 21
110.6790029503
  0
LINE
  5
6ED
100
AcDbEntity
  8
0
100
AcDbLine
 62
9
  6
CONTINUOUS
 10
63.7461165146
 20
125.4963300458
 11
63.8085373526
 21
125.4704193637
  0
LINE
  5
6EE
100
AcDbEntity
  8
0
100
AcDbLine
 62
9
  6
CONTINUOUS
 10
43.9101063293
 20
131.1221220017
 11
44.194042274
 21
131.0041203395
  0
LINE
  5
6EF
100
AcDbEntity
  8
0
100
AcDbLine
 62
7
  6
CONTINUOUS
 10
63.348402911
 20
132.8564223562
 11
63.3326232624
 21
132.8630855312
  0
LINE
  5
6F0
100
AcDbEntity
  8
0
100
AcDbLine
 62
7
  6
CONTINUOUS
 10
65.587736844
 20
132.9665370896
 11
65.6035164927
 21
132.9598739145
  0
LINE
  5
6F1
100
AcDbEntity
  8
0
100
AcDbLine
 62
9
  6
CONTINUOUS
 10
65.1788767906
 20
128.9260558732
 11
65.1171839936
 21
128.9522963035
  0
LINE
  5
6F2
100
AcDbEntity
  8
0
100
AcDbLine
 62
7
  6
CONTINUOUS
 10
33.6715528664
 20
105.7972393033
 11
33.684688156
 21
105.7916515408
  0
LINE
  5
6F3
100
AcDbEntity
  8
0
100
AcDbLine
 62
7
  6
CONTINUOUS
 10
95.2514493224
 20
136.0249323661
 11
95.2645855478
 21
136.0193444588
  0
LINE
  5
6F4
100
AcDbEntity
  8
0
100
AcDbLine
 62
7
  6
CONTINUOUS
 10
31.2522833144
 20
102.0132961426
 11
31.2996069353
 21
101.9929617809
  0
LINE
  5
6F5
100
AcDbEntity
  8
0
100
AcDbLine
 62
7
  6
CONTINUOUS
 10
97.6838564406
 20
139.8032870045
 11
97.6365328198
 21
139.8236213662
  0
LINE
  5
6F6
100
AcDbEntity
  8
0
100
AcDbLine
 62
9
  6
CONTINUOUS
 10
31.2334828778
 20
102.0222947103
 11
31.2747093728
 21
102.0036204618
  0
LINE
  5
6F7
100
AcDbEntity
  8
0
100
AcDbLine
 62
9
  6
CONTINUOUS
 10
97.7026568773
 20
139.7942884368
 11
97.6614303823
 21
139.8129626853
  0
LINE
  5
6F8
100
AcDbEntity
  8
0
100
AcDbLine
 62
9
  6
CONTINUOUS
 10
63.6846979999
 20
125.524565922
 11
63.7461165146
 21
125.4963300458
  0
LINE
  5
6F9
100
AcDbEntity
  8
0
100
AcDbLine
 62
9
  6
CONTINUOUS
 10
43.989919007
 20
110.8347833202
 11
43.9675307842
 21
110.8451680513
  0
LINE
  5
6FA
100
AcDbEntity
  8
0
100
AcDbLine
 62
9
  6
CONTINUOUS
 10
84.9300042441
 20
130.9551098028
 11
84.9076058118
 21
130.9654997029
  0
LINE
  5
6FB
100
AcDbEntity
  8
0
100
AcDbLine
 62
9
  6
CONTINUOUS
 10
65.2396541506
 20
128.8974096869
 11
65.1788767906
 21
128.9260558732
  0
LINE
  5
6FC
100
AcDbEntity
  8
0
100
AcDbLine
 62
7
  6
CONTINUOUS
 10
31.2050666309
 20
102.0359277334
 11
31.2522833144
 21
102.0132961426
  0
LINE
  5
6FD
100
AcDbEntity
  8
0
100
AcDbLine
 62
7
  6
CONTINUOUS
 10
97.7310731242
 20
139.7806554137
 11
97.6838564406
 21
139.8032870045
  0
LINE
  5
6FE
100
AcDbEntity
  8
0
100
AcDbLine
 62
7
  6
CONTINUOUS
 10
63.3326232624
 20
132.8630855312
 11
63.318887003
 21
132.8698357982
  0
LINE
  5
6FF
100
AcDbEntity
  8
0
100
AcDbLine
 62
7
  6
CONTINUOUS
 10
65.6035164927
 20
132.9598739145
 11
65.617252752
 21
132.9531236476
  0
LINE
  5
700
100
AcDbEntity
  8
0
100
AcDbLine
 62
7
  6
CONTINUOUS
 10
33.6715542072
 20
105.7972386884
 11
33.6585850715
 21
105.8036334543
  0
LINE
  5
701
100
AcDbEntity
  8
0
100
AcDbLine
 62
7
  6
CONTINUOUS
 10
95.2645855478
 20
136.0193444588
 11
95.2775546836
 21
136.0129496928
  0
LINE
  5
702
100
AcDbEntity
  8
0
100
AcDbLine
 62
9
  6
CONTINUOUS
 10
31.1922450536
 20
102.0427775674
 11
31.2334828778
 21
102.0222947103
  0
LINE
  5
703
100
AcDbEntity
  8
0
100
AcDbLine
 62
9
  6
CONTINUOUS
 10
97.7438947015
 20
139.7738055797
 11
97.7026568773
 21
139.7942884368
  0
LINE
  5
704
100
AcDbEntity
  8
0
100
AcDbLine
 62
9
  6
CONTINUOUS
 10
63.6243691716
 20
125.5550876136
 11
63.6846979999
 21
125.524565922
  0
LINE
  5
705
100
AcDbEntity
  8
0
100
AcDbLine
 62
9
  6
CONTINUOUS
 10
65.2994301779
 20
128.8663844802
 11
65.2396541506
 21
128.8974096869
  0
LINE
  5
706
100
AcDbEntity
  8
0
100
AcDbLine
 62
9
  6
CONTINUOUS
 10
84.9519173227
 20
130.9435681968
 11
84.9300042441
 21
130.9551098028
  0
LINE
  5
707
100
AcDbEntity
  8
0
100
AcDbLine
 62
9
  6
CONTINUOUS
 10
43.9675307842
 20
110.8451680513
 11
43.9456299874
 21
110.8567107083
  0
LINE
  5
708
100
AcDbEntity
  8
0
100
AcDbLine
 62
7
  6
CONTINUOUS
 10
31.1581656001
 20
102.0607832387
 11
31.2050666309
 21
102.0359277334
  0
LINE
  5
709
100
AcDbEntity
  8
0
100
AcDbLine
 62
7
  6
CONTINUOUS
 10
97.7779741549
 20
139.7557999084
 11
97.7310731242
 21
139.7806554137
  0
LINE
  5
70A
100
AcDbEntity
  8
0
100
AcDbLine
 62
9
  6
CONTINUOUS
 10
31.151233106
 20
102.0649932485
 11
31.1922450536
 21
102.0427775674
  0
LINE
  5
70B
100
AcDbEntity
  8
0
100
AcDbLine
 62
9
  6
CONTINUOUS
 10
97.7849066491
 20
139.7515898986
 11
97.7438947015
 21
139.7738055797
  0
LINE
  5
70C
100
AcDbEntity
  8
0
100
AcDbLine
 62
9
  6
CONTINUOUS
 10
63.5652150428
 20
125.5878526011
 11
63.6243691716
 21
125.5550876136
  0
LINE
  5
70D
100
AcDbEntity
  8
0
100
AcDbLine
 62
7
  6
CONTINUOUS
 10
33.6585850715
 20
105.8036334543
 11
33.6458796532
 21
105.8108166715
  0
LINE
  5
70E
100
AcDbEntity
  8
0
100
AcDbLine
 62
7
  6
CONTINUOUS
 10
33.6458792247
 20
105.8108169301
 11
33.6585841684
 21
105.803636122
  0
LINE
  5
70F
100
AcDbEntity
  8
0
100
AcDbLine
 62
7
  6
CONTINUOUS
 10
95.2902605304
 20
136.005766217
 11
95.2775555867
 21
136.0129470252
  0
LINE
  5
710
100
AcDbEntity
  8
0
100
AcDbLine
 62
7
  6
CONTINUOUS
 10
95.2775546836
 20
136.0129496928
 11
95.2902601019
 21
136.0057664756
  0
LINE
  5
711
100
AcDbEntity
  8
0
100
AcDbLine
 62
9
  6
CONTINUOUS
 10
65.3581299382
 20
128.833008224
 11
65.2994301779
 21
128.8663844802
  0
LINE
  5
712
100
AcDbEntity
  8
0
100
AcDbLine
 62
7
  6
CONTINUOUS
 10
31.111752232
 20
102.0878332935
 11
31.1581656001
 21
102.0607832387
  0
LINE
  5
713
100
AcDbEntity
  8
0
100
AcDbLine
 62
7
  6
CONTINUOUS
 10
97.8243875231
 20
139.7287498536
 11
97.7779741549
 21
139.7557999084
  0
LINE
  5
714
100
AcDbEntity
  8
0
100
AcDbLine
 62
7
  6
CONTINUOUS
 10
63.318887003
 20
132.8698357982
 11
63.3072244445
 21
132.8766612116
  0
LINE
  5
715
100
AcDbEntity
  8
0
100
AcDbLine
 62
7
  6
CONTINUOUS
 10
65.617252752
 20
132.9531236476
 11
65.6289153105
 21
132.9462982342
  0
LINE
  5
716
100
AcDbEntity
  8
0
100
AcDbLine
 62
9
  6
CONTINUOUS
 10
31.1106576899
 20
102.088852358
 11
31.151233106
 21
102.0649932485
  0
LINE
  5
717
100
AcDbEntity
  8
0
100
AcDbLine
 62
9
  6
CONTINUOUS
 10
97.8254820652
 20
139.7277307891
 11
97.7849066491
 21
139.7515898986
  0
LINE
  5
718
100
AcDbEntity
  8
0
100
AcDbLine
 62
9
  6
CONTINUOUS
 10
84.9732998971
 20
130.930897564
 11
84.9519173227
 21
130.9435681968
  0
LINE
  5
719
100
AcDbEntity
  8
0
100
AcDbLine
 62
9
  6
CONTINUOUS
 10
43.9456299874
 20
110.8567107083
 11
43.9242596964
 21
110.8693841444
  0
LINE
  5
71A
100
AcDbEntity
  8
0
100
AcDbLine
 62
9
  6
CONTINUOUS
 10
63.5073190253
 20
125.6228152788
 11
63.5652150428
 21
125.5878526011
  0
LINE
  5
71B
100
AcDbEntity
  8
0
100
AcDbLine
 62
9
  6
CONTINUOUS
 10
65.4156706694
 20
128.7973118534
 11
65.3581299382
 21
128.833008224
  0
LINE
  5
71C
100
AcDbEntity
  8
0
100
AcDbLine
 62
9
  6
CONTINUOUS
 10
31.0705418675
 20
102.1143633607
 11
31.1106576899
 21
102.088852358
  0
LINE
  5
71D
100
AcDbEntity
  8
0
100
AcDbLine
 62
9
  6
CONTINUOUS
 10
97.8655978876
 20
139.7022197864
 11
97.8254820652
 21
139.7277307891
  0
LINE
  5
71E
100
AcDbEntity
  8
0
100
AcDbLine
 62
7
  6
CONTINUOUS
 10
31.065985012
 20
102.1169995676
 11
31.111752232
 21
102.0878332935
  0
LINE
  5
71F
100
AcDbEntity
  8
0
100
AcDbLine
 62
7
  6
CONTINUOUS
 10
97.8701547431
 20
139.6995835795
 11
97.8243875231
 21
139.7287498536
  0
LINE
  5
720
100
AcDbEntity
  8
0
100
AcDbLine
 62
7
  6
CONTINUOUS
 10
33.6458796532
 20
105.8108166715
 11
33.6335060865
 21
105.8187736154
  0
LINE
  5
721
100
AcDbEntity
  8
0
100
AcDbLine
 62
7
  6
CONTINUOUS
 10
95.2902601019
 20
136.0057664756
 11
95.3026336685
 21
135.9978095317
  0
LINE
  5
722
100
AcDbEntity
  8
0
100
AcDbLine
 62
9
  6
CONTINUOUS
 10
63.4507630051
 20
125.6599265724
 11
63.5073190253
 21
125.6228152788
  0
LINE
  5
723
100
AcDbEntity
  8
0
100
AcDbLine
 62
9
  6
CONTINUOUS
 10
84.9941177519
 20
130.9171135527
 11
84.9732998971
 21
130.930897564
  0
LINE
  5
724
100
AcDbEntity
  8
0
100
AcDbLine
 62
9
  6
CONTINUOUS
 10
43.9242596964
 20
110.8693841444
 11
43.9034538806
 21
110.8831704954
  0
LINE
  5
725
100
AcDbEntity
  8
0
100
AcDbLine
 62
9
  6
CONTINUOUS
 10
65.4719900098
 20
128.7593202695
 11
65.4156706694
 21
128.7973118534
  0
LINE
  5
726
100
AcDbEntity
  8
0
100
AcDbLine
 62
9
  6
CONTINUOUS
 10
31.0309131912
 20
102.1415417203
 11
31.0705418675
 21
102.1143633607
  0
LINE
  5
727
100
AcDbEntity
  8
0
100
AcDbLine
 62
9
  6
CONTINUOUS
 10
97.9052265638
 20
139.6750414268
 11
97.8655978876
 21
139.7022197864
  0
LINE
  5
728
100
AcDbEntity
  8
0
100
AcDbLine
 62
7
  6
CONTINUOUS
 10
31.0210587121
 20
102.1481975257
 11
31.065985012
 21
102.1169995676
  0
LINE
  5
729
100
AcDbEntity
  8
0
100
AcDbLine
 62
7
  6
CONTINUOUS
 10
97.9150810429
 20
139.6683856215
 11
97.8701547431
 21
139.6995835795
  0
LINE
  5
72A
100
AcDbEntity
  8
0
100
AcDbLine
 62
9
  6
CONTINUOUS
 10
63.3956269941
 20
125.6991343604
 11
63.4507630051
 21
125.6599265724
  0
LINE
  5
72B
100
AcDbEntity
  8
0
100
AcDbLine
 62
7
  6
CONTINUOUS
 10
63.3072244445
 20
132.8766612116
 11
63.297650984
 21
132.8835492856
  0
LINE
  5
72C
100
AcDbEntity
  8
0
100
AcDbLine
 62
7
  6
CONTINUOUS
 10
65.6289153105
 20
132.9462982342
 11
65.6384887711
 21
132.9394101602
  0
LINE
  5
72D
100
AcDbEntity
  8
0
100
AcDbLine
 62
7
  6
CONTINUOUS
 10
33.6215666957
 20
105.8274547681
 11
33.6335076548
 21
105.8187760765
  0
LINE
  5
72E
100
AcDbEntity
  8
0
100
AcDbLine
 62
7
  6
CONTINUOUS
 10
95.3145730594
 20
135.989128379
 11
95.3026321003
 21
135.9978070706
  0
LINE
  5
72F
100
AcDbEntity
  8
0
100
AcDbLine
 62
9
  6
CONTINUOUS
 10
65.527020751
 20
128.7190569826
 11
65.4719900098
 21
128.7593202695
  0
LINE
  5
730
100
AcDbEntity
  8
0
100
AcDbLine
 62
9
  6
CONTINUOUS
 10
85.0142927739
 20
130.9022631078
 11
84.9941177519
 21
130.9171135527
  0
LINE
  5
731
100
AcDbEntity
  8
0
100
AcDbLine
 62
9
  6
CONTINUOUS
 10
43.9034538806
 20
110.8831704954
 11
43.8832911568
 21
110.8980232289
  0
LINE
  5
732
100
AcDbEntity
  8
0
100
AcDbLine
 62
9
  6
CONTINUOUS
 10
30.9919860331
 20
102.1702710055
 11
31.0309131912
 21
102.1415417203
  0
LINE
  5
733
100
AcDbEntity
  8
0
100
AcDbLine
 62
9
  6
CONTINUOUS
 10
97.9441537219
 20
139.6463121416
 11
97.9052265638
 21
139.6750414268
  0
LINE
  5
734
100
AcDbEntity
  8
0
100
AcDbLine
 62
7
  6
CONTINUOUS
 10
30.9770364834
 20
102.1814164181
 11
31.0210587121
 21
102.1481975257
  0
LINE
  5
735
100
AcDbEntity
  8
0
100
AcDbLine
 62
7
  6
CONTINUOUS
 10
97.9591032716
 20
139.635166729
 11
97.9150810429
 21
139.6683856215
  0
LINE
  5
736
100
AcDbEntity
  8
0
100
AcDbLine
 62
9
  6
CONTINUOUS
 10
63.3419881967
 20
125.7403839878
 11
63.3956269941
 21
125.6991343604
  0
LINE
  5
737
100
AcDbEntity
  8
0
100
AcDbLine
 62
9
  6
CONTINUOUS
 10
65.580689349
 20
128.6765566345
 11
65.527020751
 21
128.7190569826
  0
LINE
  5
738
100
AcDbEntity
  8
0
100
AcDbLine
 62
9
  6
CONTINUOUS
 10
30.9539382772
 20
102.2004358422
 11
30.9919860331
 21
102.1702710055
  0
LINE
  5
739
100
AcDbEntity
  8
0
100
AcDbLine
 62
9
  6
CONTINUOUS
 10
97.9822014779
 20
139.6161473049
 11
97.9441537219
 21
139.6463121416
  0
LINE
  5
73A
100
AcDbEntity
  8
0
100
AcDbLine
 62
9
  6
CONTINUOUS
 10
85.0337563026
 20
130.8863961351
 11
85.0142927739
 21
130.9022631078
  0
LINE
  5
73B
100
AcDbEntity
  8
0
100
AcDbLine
 62
9
  6
CONTINUOUS
 10
43.8832911568
 20
110.8980232289
 11
43.8638387774
 21
110.9138914165
  0
LINE
  5
73C
100
AcDbEntity
  8
0
100
AcDbLine
 62
7
  6
CONTINUOUS
 10
33.6215655852
 20
105.8274556252
 11
33.6101548302
 21
105.8367955609
  0
LINE
  5
73D
100
AcDbEntity
  8
0
100
AcDbLine
 62
7
  6
CONTINUOUS
 10
95.3145741698
 20
135.9891275219
 11
95.3259849249
 21
135.9797875862
  0
LINE
  5
73E
100
AcDbEntity
  8
0
100
AcDbLine
 62
7
  6
CONTINUOUS
 10
30.9339653284
 20
102.2166736273
 11
30.9770364834
 21
102.1814164181
  0
LINE
  5
73F
100
AcDbEntity
  8
0
100
AcDbLine
 62
7
  6
CONTINUOUS
 10
98.0021744266
 20
139.5999095198
 11
97.9591032716
 21
139.635166729
  0
LINE
  5
740
100
AcDbEntity
  8
0
100
AcDbLine
 62
9
  6
CONTINUOUS
 10
63.2899219162
 20
125.7836178518
 11
63.3419881967
 21
125.7403839878
  0
LINE
  5
741
100
AcDbEntity
  8
0
100
AcDbLine
 62
9
  6
CONTINUOUS
 10
30.9168708575
 20
102.2319649512
 11
30.9539382772
 21
102.2004358422
  0
LINE
  5
742
100
AcDbEntity
  8
0
100
AcDbLine
 62
9
  6
CONTINUOUS
 10
98.0192688975
 20
139.584618196
 11
97.9822014779
 21
139.6161473049
  0
LINE
  5
743
100
AcDbEntity
  8
0
100
AcDbLine
 62
9
  6
CONTINUOUS
 10
65.6329300898
 20
128.6318434626
 11
65.580689349
 21
128.6765566345
  0
LINE
  5
744
100
AcDbEntity
  8
0
100
AcDbLine
 62
7
  6
CONTINUOUS
 10
30.8920884643
 20
102.2538002224
 11
30.9339653284
 21
102.2166736273
  0
LINE
  5
745
100
AcDbEntity
  8
0
100
AcDbLine
 62
7
  6
CONTINUOUS
 10
98.0440512908
 20
139.5627829248
 11
98.0021744266
 21
139.5999095198
  0
LINE
  5
746
100
AcDbEntity
  8
0
100
AcDbLine
 62
9
  6
CONTINUOUS
 10
63.2395009313
 20
125.8287758174
 11
63.2899219162
 21
125.7836178518
  0
LINE
  5
747
100
AcDbEntity
  8
0
100
AcDbLine
 62
9
  6
CONTINUOUS
 10
85.05246322
 20
130.8695500357
 11
85.0337563026
 21
130.8863961351
  0
LINE
  5
748
100
AcDbEntity
  8
0
100
AcDbLine
 62
9
  6
CONTINUOUS
 10
43.8638387774
 20
110.9138914165
 11
43.8451410456
 21
110.9307365388
  0
LINE
  5
749
100
AcDbEntity
  8
0
100
AcDbLine
 62
9
  6
CONTINUOUS
 10
30.880912594
 20
102.2647531768
 11
30.9168708575
 21
102.2319649512
  0
LINE
  5
74A
100
AcDbEntity
  8
0
100
AcDbLine
 62
9
  6
CONTINUOUS
 10
98.0552271611
 20
139.5518299703
 11
98.0192688975
 21
139.584618196
  0
LINE
  5
74B
100
AcDbEntity
  8
0
100
AcDbLine
 62
7
  6
CONTINUOUS
 10
33.5993134397
 20
105.8467560658
 11
33.6101573293
 21
105.8367944708
  0
LINE
  5
74C
100
AcDbEntity
  8
0
100
AcDbLine
 62
7
  6
CONTINUOUS
 10
95.3368263154
 20
135.9698270813
 11
95.3259824258
 21
135.9797886764
  0
LINE
  5
74D
100
AcDbEntity
  8
0
100
AcDbLine
 62
9
  6
CONTINUOUS
 10
65.6836492722
 20
128.5849754597
 11
65.6329300898
 21
128.6318434626
  0
LINE
  5
74E
100
AcDbEntity
  8
0
100
AcDbLine
 62
7
  6
CONTINUOUS
 10
63.297650984
 20
132.8835492856
 11
63.2901895446
 21
132.8904877601
  0
LINE
  5
74F
100
AcDbEntity
  8
0
100
AcDbLine
 62
7
  6
CONTINUOUS
 10
65.6384887711
 20
132.9394101602
 11
65.6459502104
 21
132.9324716857
  0
LINE
  5
750
100
AcDbEntity
  8
0
100
AcDbLine
 62
7
  6
CONTINUOUS
 10
30.8515990865
 20
102.29271125
 11
30.8920884643
 21
102.2538002224
  0
LINE
  5
751
100
AcDbEntity
  8
0
100
AcDbLine
 62
7
  6
CONTINUOUS
 10
98.0845406686
 20
139.5238718971
 11
98.0440512908
 21
139.5627829248
  0
LINE
  5
752
100
AcDbEntity
  8
0
100
AcDbLine
 62
9
  6
CONTINUOUS
 10
63.1907960843
 20
125.8757947468
 11
63.2395009313
 21
125.8287758174
  0
LINE
  5
753
100
AcDbEntity
  8
0
100
AcDbLine
 62
9
  6
CONTINUOUS
 10
30.8461282644
 20
102.2987438569
 11
30.880912594
 21
102.2647531768
  0
LINE
  5
754
100
AcDbEntity
  8
0
100
AcDbLine
 62
9
  6
CONTINUOUS
 10
98.0900114906
 20
139.5178392902
 11
98.0552271611
 21
139.5518299703
  0
LINE
  5
755
100
AcDbEntity
  8
0
100
AcDbLine
 62
9
  6
CONTINUOUS
 10
85.0703650144
 20
130.8517684849
 11
85.05246322
 21
130.8695500357
  0
LINE
  5
756
100
AcDbEntity
  8
0
100
AcDbLine
 62
9
  6
CONTINUOUS
 10
43.8451410456
 20
110.9307365388
 11
43.8272473663
 21
110.9485164984
  0
LINE
  5
757
100
AcDbEntity
  8
0
100
AcDbLine
 62
9
  6
CONTINUOUS
 10
65.7327583479
 20
128.5360071057
 11
65.6836492722
 21
128.5849754597
  0
LINE
  5
758
100
AcDbEntity
  8
0
100
AcDbLine
 62
7
  6
CONTINUOUS
 10
33.5890967636
 20
105.8572737093
 11
33.5993134397
 21
105.8467560658
  0
LINE
  5
759
100
AcDbEntity
  8
0
100
AcDbLine
 62
7
  6
CONTINUOUS
 10
95.3470429915
 20
135.9593094379
 11
95.3368263154
 21
135.9698270813
  0
LINE
  5
75A
100
AcDbEntity
  8
0
100
AcDbLine
 62
7
  6
CONTINUOUS
 10
30.8126942622
 20
102.3331721597
 11
30.8515990865
 21
102.29271125
  0
LINE
  5
75B
100
AcDbEntity
  8
0
100
AcDbLine
 62
7
  6
CONTINUOUS
 10
98.1234454929
 20
139.4834109874
 11
98.0845406686
 21
139.5238718971
  0
LINE
  5
75C
100
AcDbEntity
  8
0
100
AcDbLine
 62
9
  6
CONTINUOUS
 10
63.1438744783
 20
125.9246103748
 11
63.1907960843
 21
125.8757947468
  0
LINE
  5
75D
100
AcDbEntity
  8
0
100
AcDbLine
 62
9
  6
CONTINUOUS
 10
30.8125882299
 20
102.3338662894
 11
30.8461282644
 21
102.2987438569
  0
LINE
  5
75E
100
AcDbEntity
  8
0
100
AcDbLine
 62
9
  6
CONTINUOUS
 10
98.1235515252
 20
139.4827168577
 11
98.0900114906
 21
139.5178392902
  0
LINE
  5
75F
100
AcDbEntity
  8
0
100
AcDbLine
 62
9
  6
CONTINUOUS
 10
65.7801871173
 20
128.4849883842
 11
65.7327583479
 21
128.5360071057
  0
LINE
  5
760
100
AcDbEntity
  8
0
100
AcDbLine
 62
9
  6
CONTINUOUS
 10
85.0874150179
 20
130.8330978567
 11
85.0703650144
 21
130.8517684849
  0
LINE
  5
761
100
AcDbEntity
  8
0
100
AcDbLine
 62
9
  6
CONTINUOUS
 10
43.8272473663
 20
110.9485164984
 11
43.8102062863
 21
110.9671870761
  0
LINE
  5
762
100
AcDbEntity
  8
0
100
AcDbLine
 62
9
  6
CONTINUOUS
 10
63.0988013161
 20
125.9751555385
 11
63.1438744783
 21
125.9246103748
  0
LINE
  5
763
100
AcDbEntity
  8
0
100
AcDbLine
 62
9
  6
CONTINUOUS
 10
30.7803686335
 20
102.3700214482
 11
30.8125882299
 21
102.3338662894
  0
LINE
  5
764
100
AcDbEntity
  8
0
100
AcDbLine
 62
9
  6
CONTINUOUS
 10
98.1557711216
 20
139.4465616989
 11
98.1235515252
 21
139.4827168577
  0
LINE
  5
765
100
AcDbEntity
  8
0
100
AcDbLine
 62
7
  6
CONTINUOUS
 10
30.7756076474
 20
102.3749844259
 11
30.8126942622
 21
102.3331721597
  0
LINE
  5
766
100
AcDbEntity
  8
0
100
AcDbLine
 62
7
  6
CONTINUOUS
 10
98.1605321077
 20
139.4415987212
 11
98.1234454929
 21
139.4834109874
  0
LINE
  5
767
100
AcDbEntity
  8
0
100
AcDbLine
 62
7
  6
CONTINUOUS
 10
33.5890953487
 20
105.8572781748
 11
33.5795024526
 21
105.8683509671
  0
LINE
  5
768
100
AcDbEntity
  8
0
100
AcDbLine
 62
7
  6
CONTINUOUS
 10
95.3470444063
 20
135.9593049723
 11
95.3566373024
 21
135.94823218
  0
LINE
  5
769
100
AcDbEntity
  8
0
100
AcDbLine
 62
9
  6
CONTINUOUS
 10
65.8258634877
 20
128.4319678711
 11
65.7801871173
 21
128.4849883842
  0
LINE
  5
76A
100
AcDbEntity
  8
0
100
AcDbLine
 62
9
  6
CONTINUOUS
 10
30.7495408806
 20
102.4071045197
 11
30.7803686335
 21
102.3700214482
  0
LINE
  5
76B
100
AcDbEntity
  8
0
100
AcDbLine
 62
9
  6
CONTINUOUS
 10
98.1865988745
 20
139.4094786275
 11
98.1557711216
 21
139.4465616989
  0
LINE
  5
76C
100
AcDbEntity
  8
0
100
AcDbLine
 62
9
  6
CONTINUOUS
 10
85.1035687229
 20
130.8135869981
 11
85.0874150179
 21
130.8330978567
  0
LINE
  5
76D
100
AcDbEntity
  8
0
100
AcDbLine
 62
9
  6
CONTINUOUS
 10
43.8102062863
 20
110.9671870761
 11
43.7940608051
 21
110.9866974374
  0
LINE
  5
76E
100
AcDbEntity
  8
0
100
AcDbLine
 62
9
  6
CONTINUOUS
 10
63.0556387373
 20
126.0273618036
 11
63.0988013161
 21
125.9751555385
  0
LINE
  5
76F
100
AcDbEntity
  8
0
100
AcDbLine
 62
7
  6
CONTINUOUS
 10
30.7404226711
 20
102.4179550199
 11
30.7756076474
 21
102.3749844259
  0
LINE
  5
770
100
AcDbEntity
  8
0
100
AcDbLine
 62
7
  6
CONTINUOUS
 10
98.1957170839
 20
139.3986281272
 11
98.1605321077
 21
139.4415987212
  0
LINE
  5
771
100
AcDbEntity
  8
0
100
AcDbLine
 62
9
  6
CONTINUOUS
 10
65.8697120217
 20
128.3770114797
 11
65.8258634877
 21
128.4319678711
  0
LINE
  5
772
100
AcDbEntity
  8
0
100
AcDbLine
 62
9
  6
CONTINUOUS
 10
30.720151591
 20
102.4450339571
 11
30.7495408806
 21
102.4071045197
  0
LINE
  5
773
100
AcDbEntity
  8
0
100
AcDbLine
 62
9
  6
CONTINUOUS
 10
98.215988164
 20
139.37154919
 11
98.1865988745
 21
139.4094786275
  0
LINE
  5
774
100
AcDbEntity
  8
0
100
AcDbLine
 62
7
  6
CONTINUOUS
 10
33.5705371943
 20
105.8799743323
 11
33.5795054166
 21
105.8683473428
  0
LINE
  5
775
100
AcDbEntity
  8
0
100
AcDbLine
 62
7
  6
CONTINUOUS
 10
95.3566373024
 20
135.94823218
 11
95.365606329
 21
135.9366048776
  0
LINE
  5
776
100
AcDbEntity
  8
0
100
AcDbLine
 62
9
  6
CONTINUOUS
 10
63.0144491283
 20
126.0811548425
 11
63.0556387373
 21
126.0273618036
  0
LINE
  5
777
100
AcDbEntity
  8
0
100
AcDbLine
 62
7
  6
CONTINUOUS
 10
63.2901895446
 20
132.8904877601
 11
63.2848478599
 21
132.8974640125
  0
LINE
  5
778
100
AcDbEntity
  8
0
100
AcDbLine
 62
7
  6
CONTINUOUS
 10
65.6459502104
 20
132.9324716857
 11
65.6512918952
 21
132.9254954333
  0
LINE
  5
779
100
AcDbEntity
  8
0
100
AcDbLine
 62
7
  6
CONTINUOUS
 10
30.7073100687
 20
102.4618384873
 11
30.7404226711
 21
102.4179550199
  0
LINE
  5
77A
100
AcDbEntity
  8
0
100
AcDbLine
 62
7
  6
CONTINUOUS
 10
98.2288296863
 20
139.3547446598
 11
98.1957170839
 21
139.3986281272
  0
LINE
  5
77B
100
AcDbEntity
  8
0
100
AcDbLine
 62
9
  6
CONTINUOUS
 10
85.118784598
 20
130.7932861859
 11
85.1035687229
 21
130.8135869981
  0
LINE
  5
77C
100
AcDbEntity
  8
0
100
AcDbLine
 62
9
  6
CONTINUOUS
 10
43.7940608051
 20
110.9866974374
 11
43.77885128
 21
111.0069965261
  0
LINE
  5
77D
100
AcDbEntity
  8
0
100
AcDbLine
 62
9
  6
CONTINUOUS
 10
65.9116641369
 20
128.3201754056
 11
65.8697120217
 21
128.3770114797
  0
LINE
  5
77E
100
AcDbEntity
  8
0
100
AcDbLine
 62
9
  6
CONTINUOUS
 10
30.6922273921
 20
102.4837542723
 11
30.720151591
 21
102.4450339571
  0
LINE
  5
77F
100
AcDbEntity
  8
0
100
AcDbLine
 62
9
  6
CONTINUOUS
 10
98.243912363
 20
139.3328288748
 11
98.215988164
 21
139.37154919
  0
LINE
  5
780
100
AcDbEntity
  8
0
100
AcDbLine
 62
9
  6
CONTINUOUS
 10
62.9752821355
 20
126.1364724864
 11
63.0144491283
 21
126.0811548425
  0
LINE
  5
781
100
AcDbEntity
  8
0
100
AcDbLine
 62
7
  6
CONTINUOUS
 10
30.6762415775
 20
102.506593579
 11
30.7073100687
 21
102.4618384873
  0
LINE
  5
782
100
AcDbEntity
  8
0
100
AcDbLine
 62
7
  6
CONTINUOUS
 10
98.2598981775
 20
139.3099895681
 11
98.2288296863
 21
139.3547446598
  0
LINE
  5
783
100
AcDbEntity
  8
0
100
AcDbLine
 62
7
  6
CONTINUOUS
 10
33.5622470301
 20
105.8920874258
 11
33.5705371943
 21
105.8799743323
  0
LINE
  5
784
100
AcDbEntity
  8
0
100
AcDbLine
 62
7
  6
CONTINUOUS
 10
95.373892725
 20
135.9244957213
 11
95.3656025608
 21
135.9366088149
  0
LINE
  5
785
100
AcDbEntity
  8
0
100
AcDbLine
 62
9
  6
CONTINUOUS
 10
65.9516410898
 20
128.261545427
 11
65.9116641369
 21
128.3201754056
  0
LINE
  5
786
100
AcDbEntity
  8
0
100
AcDbLine
 62
9
  6
CONTINUOUS
 10
85.1330239486
 20
130.7722469397
 11
85.118784598
 21
130.7932861859
  0
LINE
  5
787
100
AcDbEntity
  8
0
100
AcDbLine
 62
9
  6
CONTINUOUS
 10
43.77885128
 20
111.0069965261
 11
43.764617747
 21
111.028034047
  0
LINE
  5
788
100
AcDbEntity
  8
0
100
AcDbLine
 62
9
  6
CONTINUOUS
 10
30.6658801902
 20
102.5230807216
 11
30.6922273921
 21
102.4837542723
  0
LINE
  5
789
100
AcDbEntity
  8
0
100
AcDbLine
 62
9
  6
CONTINUOUS
 10
98.2702595649
 20
139.2935024255
 11
98.243912363
 21
139.3328288748
  0
LINE
  5
78A
100
AcDbEntity
  8
0
100
AcDbLine
 62
9
  6
CONTINUOUS
 10
62.9381802221
 20
126.1932614346
 11
62.9752821355
 21
126.1364724864
  0
LINE
  5
78B
100
AcDbEntity
  8
0
100
AcDbLine
 62
7
  6
CONTINUOUS
 10
30.6472237222
 20
102.5521589966
 11
30.6762415775
 21
102.506593579
  0
LINE
  5
78C
100
AcDbEntity
  8
0
100
AcDbLine
 62
7
  6
CONTINUOUS
 10
98.2889160329
 20
139.2644241505
 11
98.2598981775
 21
139.3099895681
  0
LINE
  5
78D
100
AcDbEntity
  8
0
100
AcDbLine
 62
9
  6
CONTINUOUS
 10
65.9895810392
 20
128.2011884146
 11
65.9516410898
 21
128.261545427
  0
LINE
  5
78E
100
AcDbEntity
  8
0
100
AcDbLine
 62
9
  6
CONTINUOUS
 10
30.6412119846
 20
102.5627995396
 11
30.6658801902
 21
102.5230807216
  0
LINE
  5
78F
100
AcDbEntity
  8
0
100
AcDbLine
 62
9
  6
CONTINUOUS
 10
98.2949277704
 20
139.2537836076
 11
98.2702595649
 21
139.2935024255
  0
LINE
  5
790
100
AcDbEntity
  8
0
100
AcDbLine
 62
9
  6
CONTINUOUS
 10
85.1462481346
 20
130.7505264639
 11
85.1330239486
 21
130.7722469397
  0
LINE
  5
791
100
AcDbEntity
  8
0
100
AcDbLine
 62
9
  6
CONTINUOUS
 10
43.764617747
 20
111.028034047
 11
43.7513999582
 21
111.0497535078
  0
LINE
  5
792
100
AcDbEntity
  8
0
100
AcDbLine
 62
7
  6
CONTINUOUS
 10
33.5546731713
 20
105.9046322576
 11
33.5622470301
 21
105.8920874258
  0
LINE
  5
793
100
AcDbEntity
  8
0
100
AcDbLine
 62
7
  6
CONTINUOUS
 10
95.3738958754
 20
135.9244908239
 11
95.3814708361
 21
135.9119452028
  0
LINE
  5
794
100
AcDbEntity
  8
0
100
AcDbLine
 62
9
  6
CONTINUOUS
 10
62.9032184
 20
126.2514132964
 11
62.9381802221
 21
126.1932614346
  0
LINE
  5
795
100
AcDbEntity
  8
0
100
AcDbLine
 62
7
  6
CONTINUOUS
 10
30.6203228761
 20
102.5983494326
 11
30.6472237222
 21
102.5521589966
  0
LINE
  5
796
100
AcDbEntity
  8
0
100
AcDbLine
 62
7
  6
CONTINUOUS
 10
98.315816879
 20
139.2182337145
 11
98.2889160329
 21
139.2644241505
  0
LINE
  5
797
100
AcDbEntity
  8
0
100
AcDbLine
 62
9
  6
CONTINUOUS
 10
66.0253914531
 20
128.1392279345
 11
65.9895810392
 21
128.2011884146
  0
LINE
  5
798
100
AcDbEntity
  8
0
100
AcDbLine
 62
9
  6
CONTINUOUS
 10
30.6181825267
 20
102.6029069733
 11
30.6412119846
 21
102.5627995396
  0
LINE
  5
799
100
AcDbEntity
  8
0
100
AcDbLine
 62
9
  6
CONTINUOUS
 10
98.3179572284
 20
139.2136761738
 11
98.2949277704
 21
139.2537836076
  0
LINE
  5
79A
100
AcDbEntity
  8
0
100
AcDbLine
 62
9
  6
CONTINUOUS
 10
62.870457213
 20
126.3108273987
 11
62.9032184
 21
126.2514132964
  0
LINE
  5
79B
100
AcDbEntity
  8
0
100
AcDbLine
 62
9
  6
CONTINUOUS
 10
85.158421262
 20
130.7281848237
 11
85.1462481346
 21
130.7505264639
  0
LINE
  5
79C
100
AcDbEntity
  8
0
100
AcDbLine
 62
9
  6
CONTINUOUS
 10
43.7513999582
 20
111.0497535078
 11
43.7392315313
 21
111.072093354
  0
LINE
  5
79D
100
AcDbEntity
  8
0
100
AcDbLine
 62
7
  6
CONTINUOUS
 10
30.595599902
 20
102.6450122143
 11
30.6203228761
 21
102.5983494326
  0
LINE
  5
79E
100
AcDbEntity
  8
0
100
AcDbLine
 62
9
  6
CONTINUOUS
 10
66.0590019561
 20
128.0757762665
 11
66.0253914531
 21
128.1392279345
  0
LINE
  5
79F
100
AcDbEntity
  8
0
100
AcDbLine
 62
7
  6
CONTINUOUS
 10
98.340539853
 20
139.1715709328
 11
98.315816879
 21
139.2182337145
  0
LINE
  5
7A0
100
AcDbEntity
  8
0
100
AcDbLine
 62
9
  6
CONTINUOUS
 10
30.5967619847
 20
102.6434059649
 11
30.6181825267
 21
102.6029069733
  0
LINE
  5
7A1
100
AcDbEntity
  8
0
100
AcDbLine
 62
7
  6
CONTINUOUS
 10
33.5546689189
 20
105.9046379443
 11
33.5478380738
 21
105.9175561994
  0
LINE
  5
7A2
100
AcDbEntity
  8
0
100
AcDbLine
 62
7
  6
CONTINUOUS
 10
95.3882983497
 20
135.8990337053
 11
95.3814665837
 21
135.9119508895
  0
LINE
  5
7A3
100
AcDbEntity
  8
0
100
AcDbLine
 62
9
  6
CONTINUOUS
 10
98.3393777704
 20
139.1731771822
 11
98.3179572284
 21
139.2136761738
  0
LINE
  5
7A4
100
AcDbEntity
  8
0
100
AcDbLine
 62
9
  6
CONTINUOUS
 10
62.8399485678
 20
126.3714057444
 11
62.870457213
 21
126.3108273987
  0
LINE
  5
7A5
100
AcDbEntity
  8
0
100
AcDbLine
 62
9
  6
CONTINUOUS
 10
30.5770312782
 20
102.6840890659
 11
30.5967619847
 21
102.6434059649
  0
LINE
  5
7A6
100
AcDbEntity
  8
0
100
AcDbLine
 62
9
  6
CONTINUOUS
 10
98.3591084769
 20
139.1324940812
 11
98.3393777704
 21
139.1731771822
  0
LINE
  5
7A7
100
AcDbEntity
  8
0
100
AcDbLine
 62
9
  6
CONTINUOUS
 10
85.1695141872
 20
130.7052767125
 11
85.158421262
 21
130.7281848237
  0
LINE
  5
7A8
100
AcDbEntity
  8
0
100
AcDbLine
 62
9
  6
CONTINUOUS
 10
43.7392315313
 20
111.072093354
 11
43.7281412533
 21
111.0949987507
  0
LINE
  5
7A9
100
AcDbEntity
  8
0
100
AcDbLine
 62
9
  6
CONTINUOUS
 10
66.0903381432
 20
128.010954135
 11
66.0590019561
 21
128.0757762665
  0
LINE
  5
7AA
100
AcDbEntity
  8
0
100
AcDbLine
 62
7
  6
CONTINUOUS
 10
30.5730778566
 20
102.6919881384
 11
30.595599902
 21
102.6450122143
  0
LINE
  5
7AB
100
AcDbEntity
  8
0
100
AcDbLine
 62
7
  6
CONTINUOUS
 10
98.3630618984
 20
139.1245950087
 11
98.340539853
 21
139.1715709328
  0
LINE
  5
7AC
100
AcDbEntity
  8
0
100
AcDbLine
 62
7
  6
CONTINUOUS
 10
33.5417861729
 20
105.9307528983
 11
33.5478414053
 21
105.9175494418
  0
LINE
  5
7AD
100
AcDbEntity
  8
0
100
AcDbLine
 62
7
  6
CONTINUOUS
 10
95.3943535821
 20
135.8858302489
 11
95.3882983497
 21
135.8990337053
  0
LINE
  5
7AE
100
AcDbEntity
  8
0
100
AcDbLine
 62
7
  6
CONTINUOUS
 10
63.2848478599
 20
132.8974640125
 11
63.281643226
 21
132.9044592447
  0
LINE
  5
7AF
100
AcDbEntity
  8
0
100
AcDbLine
 62
7
  6
CONTINUOUS
 10
65.6512918952
 20
132.9254954333
 11
65.6544965291
 21
132.918500201
  0
LINE
  5
7B0
100
AcDbEntity
  8
0
100
AcDbLine
 62
9
  6
CONTINUOUS
 10
62.8117494284
 20
126.4330233842
 11
62.8399485678
 21
126.3714057444
  0
LINE
  5
7B1
100
AcDbEntity
  8
0
100
AcDbLine
 62
9
  6
CONTINUOUS
 10
30.5590449568
 20
102.7247537797
 11
30.5770312782
 21
102.6840890659
  0
LINE
  5
7B2
100
AcDbEntity
  8
0
100
AcDbLine
 62
9
  6
CONTINUOUS
 10
98.3770947982
 20
139.0918293674
 11
98.3591084769
 21
139.1324940812
  0
LINE
  5
7B3
100
AcDbEntity
  8
0
100
AcDbLine
 62
9
  6
CONTINUOUS
 10
66.1193271122
 20
127.9449139466
 11
66.0903381432
 21
128.010954135
  0
LINE
  5
7B4
100
AcDbEntity
  8
0
100
AcDbLine
 62
7
  6
CONTINUOUS
 10
30.5528140203
 20
102.7390780273
 11
30.5730778566
 21
102.6919881384
  0
LINE
  5
7B5
100
AcDbEntity
  8
0
100
AcDbLine
 62
7
  6
CONTINUOUS
 10
98.3833257348
 20
139.0775051198
 11
98.3630618984
 21
139.1245950087
  0
LINE
  5
7B6
100
AcDbEntity
  8
0
100
AcDbLine
 62
9
  6
CONTINUOUS
 10
43.7281412533
 20
111.0949987507
 11
43.7181583173
 21
111.1184152844
  0
LINE
  5
7B7
100
AcDbEntity
  8
0
100
AcDbLine
 62
9
  6
CONTINUOUS
 10
85.1794999481
 20
130.681857789
 11
85.1695141872
 21
130.7052767125
  0
LINE
  5
7B8
100
AcDbEntity
  8
0
100
AcDbLine
 62
9
  6
CONTINUOUS
 10
62.7858715044
 20
126.4956445674
 11
62.8117494284
 21
126.4330233842
  0
LINE
  5
7B9
100
AcDbEntity
  8
0
100
AcDbLine
 62
9
  6
CONTINUOUS
 10
30.5427610864
 20
102.7653780705
 11
30.5590449568
 21
102.7247537797
  0
LINE
  5
7BA
100
AcDbEntity
  8
0
100
AcDbLine
 62
9
  6
CONTINUOUS
 10
98.3933786687
 20
139.0512050766
 11
98.3770947982
 21
139.0918293674
  0
LINE
  5
7BB
100
AcDbEntity
  8
0
100
AcDbLine
 62
9
  6
CONTINUOUS
 10
66.1459525721
 20
127.8776898057
 11
66.1193271122
 21
127.9449139466
  0
LINE
  5
7BC
100
AcDbEntity
  8
0
100
AcDbLine
 62
7
  6
CONTINUOUS
 10
33.5417848572
 20
105.9307614214
 11
33.5364952102
 21
105.9442628592
  0
LINE
  5
7BD
100
AcDbEntity
  8
0
100
AcDbLine
 62
7
  6
CONTINUOUS
 10
95.3996416638
 20
135.8723282991
 11
95.3943535821
 21
135.8858302489
  0
LINE
  5
7BE
100
AcDbEntity
  8
0
100
AcDbLine
 62
7
  6
CONTINUOUS
 10
30.5347665845
 20
102.7862491307
 11
30.5528140203
 21
102.7390780273
  0
LINE
  5
7BF
100
AcDbEntity
  8
0
100
AcDbLine
 62
7
  6
CONTINUOUS
 10
98.4013731705
 20
139.0303340164
 11
98.3833257348
 21
139.0775051198
  0
LINE
  5
7C0
100
AcDbEntity
  8
0
100
AcDbLine
 62
9
  6
CONTINUOUS
 10
85.188350939
 20
130.6579928199
 11
85.1794999481
 21
130.681857789
  0
LINE
  5
7C1
100
AcDbEntity
  8
0
100
AcDbLine
 62
9
  6
CONTINUOUS
 10
43.7181583173
 20
111.1184152844
 11
43.7093103082
 21
111.1422782777
  0
LINE
  5
7C2
100
AcDbEntity
  8
0
100
AcDbLine
 62
9
  6
CONTINUOUS
 10
62.7623371418
 20
126.5592178217
 11
62.7858715044
 21
126.4956445674
  0
LINE
  5
7C3
100
AcDbEntity
  8
0
100
AcDbLine
 62
9
  6
CONTINUOUS
 10
30.5281601456
 20
102.805888207
 11
30.5427610864
 21
102.7653780705
  0
LINE
  5
7C4
100
AcDbEntity
  8
0
100
AcDbLine
 62
9
  6
CONTINUOUS
 10
98.4079796094
 20
139.0106949401
 11
98.3933786687
 21
139.0512050766
  0
LINE
  5
7C5
100
AcDbEntity
  8
0
100
AcDbLine
 62
9
  6
CONTINUOUS
 10
66.1701816226
 20
127.8093517982
 11
66.1459525721
 21
127.8776898057
  0
LINE
  5
7C6
100
AcDbEntity
  8
0
100
AcDbLine
 62
7
  6
CONTINUOUS
 10
30.5189179075
 20
102.8334375803
 11
30.5347665845
 21
102.7862491307
  0
LINE
  5
7C7
100
AcDbEntity
  8
0
100
AcDbLine
 62
7
  6
CONTINUOUS
 10
98.4172218475
 20
138.9831455668
 11
98.4013731705
 21
139.0303340164
  0
LINE
  5
7C8
100
AcDbEntity
  8
0
100
AcDbLine
 62
9
  6
CONTINUOUS
 10
62.7411781857
 20
126.6236690351
 11
62.7623371418
 21
126.5592178217
  0
LINE
  5
7C9
100
AcDbEntity
  8
0
100
AcDbLine
 62
7
  6
CONTINUOUS
 10
33.5319702681
 20
105.9580559251
 11
33.5364980912
 21
105.944254848
  0
LINE
  5
7CA
100
AcDbEntity
  8
0
100
AcDbLine
 62
7
  6
CONTINUOUS
 10
95.3996445449
 20
135.8723202879
 11
95.4041709478
 21
135.8585207595
  0
LINE
  5
7CB
100
AcDbEntity
  8
0
100
AcDbLine
 62
9
  6
CONTINUOUS
 10
30.5152084845
 20
102.8462541724
 11
30.5281601456
 21
102.805888207
  0
LINE
  5
7CC
100
AcDbEntity
  8
0
100
AcDbLine
 62
9
  6
CONTINUOUS
 10
98.4209312705
 20
138.9703289747
 11
98.4079796094
 21
139.0106949401
  0
LINE
  5
7CD
100
AcDbEntity
  8
0
100
AcDbLine
 62
9
  6
CONTINUOUS
 10
43.7093103082
 20
111.1422782777
 11
43.7016188043
 21
111.1665203626
  0
LINE
  5
7CE
100
AcDbEntity
  8
0
100
AcDbLine
 62
9
  6
CONTINUOUS
 10
85.1960432543
 20
130.6337481382
 11
85.188350939
 21
130.6579928199
  0
LINE
  5
7CF
100
AcDbEntity
  8
0
100
AcDbLine
 62
9
  6
CONTINUOUS
 10
66.1919913424
 20
127.739935552
 11
66.1701816226
 21
127.8093517982
  0
LINE
  5
7D0
100
AcDbEntity
  8
0
100
AcDbLine
 62
7
  6
CONTINUOUS
 10
30.5052527697
 20
102.8805375519
 11
30.5189179075
 21
102.8334375803
  0
LINE
  5
7D1
100
AcDbEntity
  8
0
100
AcDbLine
 62
7
  6
CONTINUOUS
 10
98.4308869853
 20
138.9360455952
 11
98.4172218475
 21
138.9831455668
  0
LINE
  5
7D2
100
AcDbEntity
  8
0
100
AcDbLine
 62
9
  6
CONTINUOUS
 10
62.7224170991
 20
126.6889530979
 11
62.7411781857
 21
126.6236690351
  0
LINE
  5
7D3
100
AcDbEntity
  8
0
100
AcDbLine
 62
9
  6
CONTINUOUS
 10
30.5038608971
 20
102.8865054737
 11
30.5152084845
 21
102.8462541724
  0
LINE
  5
7D4
100
AcDbEntity
  8
0
100
AcDbLine
 62
9
  6
CONTINUOUS
 10
98.4322788579
 20
138.9300776735
 11
98.4209312705
 21
138.9703289747
  0
LINE
  5
7D5
100
AcDbEntity
  8
0
100
AcDbLine
 62
9
  6
CONTINUOUS
 10
66.2113595656
 20
127.6694493321
 11
66.1919913424
 21
127.739935552
  0
LINE
  5
7D6
100
AcDbEntity
  8
0
100
AcDbLine
 62
7
  6
CONTINUOUS
 10
33.5319688073
 20
105.9580623876
 11
33.5282259713
 21
105.9721108128
  0
LINE
  5
7D7
100
AcDbEntity
  8
0
100
AcDbLine
 62
7
  6
CONTINUOUS
 10
95.407912764
 20
135.8444766493
 11
95.4041694869
 21
135.858527222
  0
LINE
  5
7D8
100
AcDbEntity
  8
0
100
AcDbLine
 62
9
  6
CONTINUOUS
 10
43.7016188043
 20
111.1665203626
 11
43.6951020976
 21
111.1910829719
  0
LINE
  5
7D9
100
AcDbEntity
  8
0
100
AcDbLine
 62
9
  6
CONTINUOUS
 10
85.202558959
 20
130.6091824303
 11
85.1960432543
 21
130.6337481382
  0
LINE
  5
7DA
100
AcDbEntity
  8
0
100
AcDbLine
 62
9
  6
CONTINUOUS
 10
62.7061019713
 20
126.7549285431
 11
62.7224170991
 21
126.6889530979
  0
LINE
  5
7DB
100
AcDbEntity
  8
0
100
AcDbLine
 62
7
  6
CONTINUOUS
 10
30.4937543184
 20
102.9274925878
 11
30.5052527697
 21
102.8805375519
  0
LINE
  5
7DC
100
AcDbEntity
  8
0
100
AcDbLine
 62
7
  6
CONTINUOUS
 10
98.4423854366
 20
138.8890905593
 11
98.4308869853
 21
138.9360455952
  0
LINE
  5
7DD
100
AcDbEntity
  8
0
100
AcDbLine
 62
9
  6
CONTINUOUS
 10
66.2282312974
 20
127.5980345365
 11
66.2113595656
 21
127.6694493321
  0
LINE
  5
7DE
100
AcDbEntity
  8
0
100
AcDbLine
 62
9
  6
CONTINUOUS
 10
43.6951020976
 20
111.1910829719
 11
43.6897784767
 21
111.2159078514
  0
LINE
  5
7DF
100
AcDbEntity
  8
0
100
AcDbLine
 62
9
  6
CONTINUOUS
 10
85.2078823729
 20
130.5843547573
 11
85.202558959
 21
130.6091824303
  0
LINE
  5
7E0
100
AcDbEntity
  8
0
100
AcDbLine
 62
9
  6
CONTINUOUS
 10
62.6922639778
 20
126.8214799544
 11
62.7061019713
 21
126.7549285431
  0
LINE
  5
7E1
100
AcDbEntity
  8
0
100
AcDbLine
 62
7
  6
CONTINUOUS
 10
33.5282259713
 20
105.9721108128
 11
33.5252786497
 21
105.9863834474
  0
LINE
  5
7E2
100
AcDbEntity
  8
0
100
AcDbLine
 62
7
  6
CONTINUOUS
 10
95.4079137838
 20
135.8444723343
 11
95.4108611053
 21
135.8301996997
  0
LINE
  5
7E3
100
AcDbEntity
  8
0
100
AcDbLine
 62
9
  6
CONTINUOUS
 10
30.4860590935
 20
102.9657300925
 11
30.4941432871
 21
102.9264143404
  0
LINE
  5
7E4
100
AcDbEntity
  8
0
100
AcDbLine
 62
9
  6
CONTINUOUS
 10
98.4500806615
 20
138.8508530546
 11
98.441996468
 21
138.8901688067
  0
LINE
  5
7E5
100
AcDbEntity
  8
0
100
AcDbLine
 62
7
  6
CONTINUOUS
 10
30.4844098115
 20
102.9740907196
 11
30.4937543184
 21
102.9274925878
  0
LINE
  5
7E6
100
AcDbEntity
  8
0
100
AcDbLine
 62
7
  6
CONTINUOUS
 10
98.4517299436
 20
138.8424924275
 11
98.4423854366
 21
138.8890905593
  0
LINE
  5
7E7
100
AcDbEntity
  8
0
100
AcDbLine
 62
9
  6
CONTINUOUS
 10
66.2425686555
 20
127.525777259
 11
66.2282312974
 21
127.5980345365
  0
LINE
  5
7E8
100
AcDbEntity
  8
0
100
AcDbLine
 62
9
  6
CONTINUOUS
 10
62.6809303738
 20
126.888470088
 11
62.6922639778
 21
126.8214799544
  0
LINE
  5
7E9
100
AcDbEntity
  8
0
100
AcDbLine
 62
9
  6
CONTINUOUS
 10
30.479526098
 20
103.0045642805
 11
30.4860590935
 21
102.9657300925
  0
LINE
  5
7EA
100
AcDbEntity
  8
0
100
AcDbLine
 62
9
  6
CONTINUOUS
 10
98.4566136571
 20
138.8120188666
 11
98.4500806615
 21
138.8508530546
  0
LINE
  5
7EB
100
AcDbEntity
  8
0
100
AcDbLine
 62
9
  6
CONTINUOUS
 10
43.6897784767
 20
111.2159078514
 11
43.6856614479
 21
111.2409254825
  0
LINE
  5
7EC
100
AcDbEntity
  8
0
100
AcDbLine
 62
9
  6
CONTINUOUS
 10
85.2119986443
 20
130.5593344551
 11
85.2078823729
 21
130.5843547573
  0
LINE
  5
7ED
100
AcDbEntity
  8
0
100
AcDbLine
 62
9
  6
CONTINUOUS
 10
66.2543405149
 20
127.452854241
 11
66.2425686555
 21
127.525777259
  0
LINE
  5
7EE
100
AcDbEntity
  8
0
100
AcDbLine
 62
7
  6
CONTINUOUS
 10
30.4772196012
 20
103.0201536977
 11
30.4844098115
 21
102.9740907196
  0
LINE
  5
7EF
100
AcDbEntity
  8
0
100
AcDbLine
 62
7
  6
CONTINUOUS
 10
98.4589201539
 20
138.7964294494
 11
98.4517299436
 21
138.8424924275
  0
LINE
  5
7F0
100
AcDbEntity
  8
0
100
AcDbLine
 62
7
  6
CONTINUOUS
 10
63.281643226
 20
132.9044592447
 11
63.2805698775
 21
132.9114797229
  0
LINE
  5
7F1
100
AcDbEntity
  8
0
100
AcDbLine
 62
7
  6
CONTINUOUS
 10
65.6544965291
 20
132.918500201
 11
65.6555698775
 21
132.9114797229
  0
LINE
  5
7F2
100
AcDbEntity
  8
0
100
AcDbLine
 62
7
  6
CONTINUOUS
 10
33.5252786497
 20
105.9863834474
 11
33.5231468867
 21
106.0008045781
  0
LINE
  5
7F3
100
AcDbEntity
  8
0
100
AcDbLine
 62
7
  6
CONTINUOUS
 10
33.5231470116
 20
106.000803527
 11
33.525280256
 21
105.9863842319
  0
LINE
  5
7F4
100
AcDbEntity
  8
0
100
AcDbLine
 62
7
  6
CONTINUOUS
 10
95.4108611053
 20
135.8301996997
 11
95.4129928684
 21
135.815778569
  0
LINE
  5
7F5
100
AcDbEntity
  8
0
100
AcDbLine
 62
7
  6
CONTINUOUS
 10
95.4129927435
 20
135.8157796201
 11
95.410859499
 21
135.8301989152
  0
LINE
  5
7F6
100
AcDbEntity
  8
0
100
AcDbLine
 62
9
  6
CONTINUOUS
 10
30.4744798207
 20
103.0430782042
 11
30.479526098
 21
103.0045642805
  0
LINE
  5
7F7
100
AcDbEntity
  8
0
100
AcDbLine
 62
9
  6
CONTINUOUS
 10
62.6721228253
 20
126.9557558629
 11
62.6809303738
 21
126.888470088
  0
LINE
  5
7F8
100
AcDbEntity
  8
0
100
AcDbLine
 62
9
  6
CONTINUOUS
 10
98.4616599344
 20
138.7735049429
 11
98.4566136571
 21
138.8120188666
  0
LINE
  5
7F9
100
AcDbEntity
  8
0
100
AcDbLine
 62
9
  6
CONTINUOUS
 10
66.2635564646
 20
127.3793728663
 11
66.2543405149
 21
127.452854241
  0
LINE
  5
7FA
100
AcDbEntity
  8
0
100
AcDbLine
 62
9
  6
CONTINUOUS
 10
43.6856614479
 20
111.2409254825
 11
43.682759746
 21
111.2660666677
  0
LINE
  5
7FB
100
AcDbEntity
  8
0
100
AcDbLine
 62
9
  6
CONTINUOUS
 10
85.2148971321
 20
130.5341903571
 11
85.2119986443
 21
130.5593344551
  0
LINE
  5
7FC
100
AcDbEntity
  8
0
100
AcDbLine
 62
7
  6
CONTINUOUS
 10
30.4721275515
 20
103.0655239079
 11
30.4772196012
 21
103.0201536977
  0
LINE
  5
7FD
100
AcDbEntity
  8
0
100
AcDbLine
 62
7
  6
CONTINUOUS
 10
98.4640122036
 20
138.7510592392
 11
98.4589201539
 21
138.7964294494
  0
CIRCLE
  5
7FE
100
AcDbEntity
  8
0
100
AcDbCircle
 62
9
  6
CONTINUOUS
 10
64.4680698775
 20
127.1582915736
 40
1.4482233047
  0
ENDSEC
  0
SECTION
  2
OBJECTS
  0
DICTIONARY
  5
C
100
AcDbDictionary
280
0
281
1
  3
ACAD_GROUP
350
D
  3
ACAD_MLINESTYLE
350
17
  3
ACAD_LAYOUT
350
1A
  3
ACAD_PLOTSETTINGS
350
19
  3
ACAD_PLOTSTYLENAME
350
E
  0
DICTIONARY
  5
D
102
{ACAD_REACTORS
330
C
102
}
100
AcDbDictionary
280
0
281
1
  0
ACDBDICTIONARYWDFLT
  5
E
102
{ACAD_REACTORS
330
C
102
}
100
AcDbDictionary
281
1
  3
Normal
350
F
100
AcDbDictionaryWithDefault
340
F
  0
DICTIONARY
  5
17
102
{ACAD_REACTORS
330
C
102
}
100
AcDbDictionary
280
0
281
1
  3
Standard
350
18
  0
DICTIONARY
  5
19
102
{ACAD_REACTORS
330
C
102
}
100
AcDbDictionary
281
1
  0
DICTIONARY
  5
1A
102
{ACAD_REACTORS
330
C
102
}
100
AcDbDictionary
281
1
  3
Model
350
7FF
  3
Layout1
350
800
  0
ACDBPLACEHOLDER
  5
F
102
{ACAD_REACTORS
330
E
102
}
  0
MLINESTYLE
  5
18
102
{ACAD_REACTORS
330
17
102
}
100
AcDbMlineStyle
  2
STANDARD
 70
0
  3

 62
256
 51
90.0
 52
90.0
 71
2
 49
0.5
 62
256
  6
BYLAYER
 49
-0.5
 62
256
  6
BYLAYER
  0
LAYOUT
  5
7FF
102
{ACAD_REACTORS
330
1A
102
}
100
AcDbPlotSettings
  1

  2
none_device
  4
ANSI_C_(22.00_x_17.00_Inches)
  6

 40
0.0
 41
0.0
 42
0.0
 43
0.0
 44
558.8
 45
431.8
 46
0.0
 47
0.0
 48
0.0
 49
0.0
140
0.0
141
0.0
142
1.0
143
1.0
 70
1024
 72
0
 73
0
 74
0
  7

 75
0
147
1.0
148
0.0
149
0.0
100
AcDbLayout
  1
Model
 70
0
 71
0
 10
0.0
 20
0.0
 11
22.0
 21
17.0
 12
0.0
 22
0.0
 32
0.0
 14
0.0
 24
0.0
 34
0.0
 15
0.0
 25
0.0
 35
0.0
146
0.0
 13
0.0
 23
0.0
 33
0.0
 16
1.0
 26
0.0
 36
0.0
 17
0.0
 27
1.0
 37
0.0
 76
0
330
212
345
0
346
0
  0
LAYOUT
  5
800
102
{ACAD_REACTORS
330
1A
102
}
100
AcDbPlotSettings
  1

  2
none_device
  4
ANSI_C_(22.00_x_17.00_Inches)
  6

 40
0.0
 41
0.0
 42
0.0
 43
0.0
 44
558.8
 45
431.8
 46
0.0
 47
0.0
 48
0.0
 49
0.0
140
0.0
141
0.0
142
1.0
143
1.0
 70
0
 72
0
 73
0
 74
0
  7

 75
0
147
1.0
148
0.0
149
0.0
100
AcDbLayout
  1
Layout1
 70
0
 71
1
 10
0.0
 20
0.0
 11
22.0
 21
17.0
 12
0.0
 22
0.0
 32
0.0
 14
0.0
 24
0.0
 34
0.0
 15
0.0
 25
0.0
 35
0.0
146
0.0
 13
0.0
 23
0.0
 33
0.0
 16
1.0
 26
0.0
 36
0.0
 17
0.0
 27
1.0
 37
0.0
 76
0
330
213
345
0
346
0
  0
ENDSEC
  0
EOF
