  0
SECTION
  2
HEADER
  9
$ACADVER
  1
AC1014
  9
$ACADMAINTVER
 70
     9
  9
$DWGCODEPAGE
  3
ANSI_1252
  9
$INSBASE
 10
7.847104587389015
 20
2.656319899324615
 30
0.0
  9
$EXTMIN
 10
-3.403839075709505
 20
-0.6717223872799885
 30
-0.0000000349181948
  9
$EXTMAX
 10
32.59820562414616
 20
24.29547123249559
 30
0.0000000814935746
  9
$LIMMIN
 10
0.0
 20
0.0
  9
$LIMMAX
 10
17.0
 20
11.0
  9
$ORTHOMODE
 70
     1
  9
$REGENMODE
 70
     1
  9
$FILLMODE
 70
     1
  9
$QTEXTMODE
 70
     0
  9
$MIRRTEXT
 70
     1
  9
$DRAGMODE
 70
     2
  9
$LTSCALE
 40
2.0
  9
$OSMODE
 70
    55
  9
$ATTMODE
 70
     1
  9
$TEXTSIZE
 40
0.0
  9
$TRACEWID
 40
0.05
  9
$TEXTSTYLE
  7
STANDARD
  9
$CLAYER
  8
0
  9
$CELTYPE
  6
BYLAYER
  9
$CECOLOR
 62
   256
  9
$CELTSCALE
 40
1.0
  9
$DELOBJ
 70
     1
  9
$DISPSILH
 70
     0
  9
$DIMSCALE
 40
16.0
  9
$DIMASZ
 40
0.18
  9
$DIMEXO
 40
0.0625
  9
$DIMDLI
 40
0.38
  9
$DIMRND
 40
0.0
  9
$DIMDLE
 40
0.0
  9
$DIMEXE
 40
0.18
  9
$DIMTP
 40
1.0
  9
$DIMTM
 40
1.0
  9
$DIMTXT
 40
0.125
  9
$DIMCEN
 40
0.09
  9
$DIMTSZ
 40
0.0
  9
$DIMTOL
 70
     0
  9
$DIMLIM
 70
     0
  9
$DIMTIH
 70
     1
  9
$DIMTOH
 70
     1
  9
$DIMSE1
 70
     0
  9
$DIMSE2
 70
     0
  9
$DIMTAD
 70
     0
  9
$DIMZIN
 70
     0
  9
$DIMBLK
  1

  9
$DIMASO
 70
     1
  9
$DIMSHO
 70
     1
  9
$DIMPOST
  1

  9
$DIMAPOST
  1
cm
  9
$DIMALT
 70
     1
  9
$DIMALTD
 70
     2
  9
$DIMALTF
 40
2.54
  9
$DIMLFAC
 40
1.0
  9
$DIMTOFL
 70
     0
  9
$DIMTVP
 40
0.0
  9
$DIMTIX
 70
     0
  9
$DIMSOXD
 70
     0
  9
$DIMSAH
 70
     0
  9
$DIMBLK1
  1

  9
$DIMBLK2
  1

  9
$DIMSTYLE
  2
STANDARD
  9
$DIMCLRD
 70
     0
  9
$DIMCLRE
 70
     0
  9
$DIMCLRT
 70
     0
  9
$DIMTFAC
 40
1.0
  9
$DIMGAP
 40
0.09
  9
$DIMJUST
 70
     0
  9
$DIMSD1
 70
     0
  9
$DIMSD2
 70
     0
  9
$DIMTOLJ
 70
     1
  9
$DIMTZIN
 70
     0
  9
$DIMALTZ
 70
     0
  9
$DIMALTTZ
 70
     0
  9
$DIMFIT
 70
     0
  9
$DIMUPT
 70
     0
  9
$DIMUNIT
 70
     5
  9
$DIMDEC
 70
     4
  9
$DIMTDEC
 70
     4
  9
$DIMALTU
 70
     2
  9
$DIMALTTD
 70
     2
  9
$DIMTXSTY
  7
STANDARD
  9
$DIMAUNIT
 70
     0
  9
$LUNITS
 70
     2
  9
$LUPREC
 70
     4
  9
$SKETCHINC
 40
0.1
  9
$FILLETRAD
 40
0.0
  9
$AUNITS
 70
     0
  9
$AUPREC
 70
     0
  9
$MENU
  1
acad
  9
$ELEVATION
 40
0.0
  9
$PELEVATION
 40
0.0
  9
$THICKNESS
 40
0.0
  9
$LIMCHECK
 70
     0
  9
$BLIPMODE
 70
     0
  9
$CHAMFERA
 40
0.0
  9
$CHAMFERB
 40
0.0
  9
$CHAMFERC
 40
0.0
  9
$CHAMFERD
 40
0.0
  9
$SKPOLY
 70
     0
  9
$TDCREATE
 40
2444971.833333333
  9
$TDUPDATE
 40
2453686.499009895
  9
$TDINDWG
 40
0.0300706829
  9
$TDUSRTIMER
 40
0.0300706829
  9
$USRTIMER
 70
     1
  9
$ANGBASE
 50
0.0
  9
$ANGDIR
 70
     0
  9
$PDMODE
 70
     0
  9
$PDSIZE
 40
0.0
  9
$PLINEWID
 40
0.0
  9
$COORDS
 70
     1
  9
$SPLFRAME
 70
     0
  9
$SPLINETYPE
 70
     6
  9
$SPLINESEGS
 70
     8
  9
$ATTDIA
 70
     0
  9
$ATTREQ
 70
     1
  9
$HANDLING
 70
 22529
  9
$HANDSEED
  5
12D
  9
$SURFTAB1
 70
     6
  9
$SURFTAB2
 70
     6
  9
$SURFTYPE
 70
     6
  9
$SURFU
 70
     6
  9
$SURFV
 70
     6
  9
$UCSNAME
  2

  9
$UCSORG
 10
0.0
 20
0.0
 30
0.0
  9
$UCSXDIR
 10
1.0
 20
0.0
 30
0.0
  9
$UCSYDIR
 10
0.0
 20
1.0
 30
0.0
  9
$PUCSNAME
  2

  9
$PUCSORG
 10
0.0
 20
0.0
 30
0.0
  9
$PUCSXDIR
 10
1.0
 20
0.0
 30
0.0
  9
$PUCSYDIR
 10
0.0
 20
1.0
 30
0.0
  9
$USERI1
 70
     0
  9
$USERI2
 70
     0
  9
$USERI3
 70
     0
  9
$USERI4
 70
     0
  9
$USERI5
 70
     0
  9
$USERR1
 40
0.0
  9
$USERR2
 40
0.0
  9
$USERR3
 40
0.0
  9
$USERR4
 40
0.0
  9
$USERR5
 40
0.0
  9
$WORLDVIEW
 70
     1
  9
$SHADEDGE
 70
     3
  9
$SHADEDIF
 70
    70
  9
$TILEMODE
 70
     1
  9
$MAXACTVP
 70
    16
  9
$PINSBASE
 10
0.0
 20
0.0
 30
0.0
  9
$PLIMCHECK
 70
     0
  9
$PEXTMIN
 10
1.000000000000000E+20
 20
1.000000000000000E+20
 30
1.000000000000000E+20
  9
$PEXTMAX
 10
-1.000000000000000E+20
 20
-1.000000000000000E+20
 30
-1.000000000000000E+20
  9
$PLIMMIN
 10
0.0
 20
0.0
  9
$PLIMMAX
 10
12.0
 20
9.0
  9
$UNITMODE
 70
     0
  9
$VISRETAIN
 70
     0
  9
$PLINEGEN
 70
     1
  9
$PSLTSCALE
 70
     0
  9
$TREEDEPTH
 70
  3020
  9
$PICKSTYLE
 70
     1
  9
$CMLSTYLE
  2
STANDARD
  9
$CMLJUST
 70
     0
  9
$CMLSCALE
 40
1.0
  9
$PROXYGRAPHICS
 70
     1
  9
$MEASUREMENT
 70
     0
  0
ENDSEC
  0
SECTION
  2
CLASSES
  0
CLASS
  1
LWPOLYLINE
  2
AcDbPolyline
  3
AutoCAD 2000
 90
        0
280
     0
281
     1
  0
CLASS
  1
IMAGE
  2
AcDbRasterImage
  3
ISM
 90
      127
280
     0
281
     1
  0
CLASS
  1
OLE2FRAME
  2
AcDbOle2Frame
  3
AutoCAD 2000
 90
        0
280
     0
281
     1
  0
CLASS
  1
HATCH
  2
AcDbHatch
  3
AutoCAD 2000
 90
        0
280
     0
281
     1
  0
CLASS
  1
DICTIONARYVAR
  2
AcDbDictionaryVar
  3
AutoCAD 2000
 90
        0
280
     0
281
     0
  0
CLASS
  1
RASTERVARIABLES
  2
AcDbRasterVariables
  3
ISM
 90
        0
280
     0
281
     0
  0
CLASS
  1
IMAGEDEF
  2
AcDbRasterImageDef
  3
ISM
 90
        0
280
     0
281
     0
  0
CLASS
  1
IMAGEDEF_REACTOR
  2
AcDbRasterImageDefReactor
  3
ISM
 90
        1
280
     0
281
     0
  0
CLASS
  1
IDBUFFER
  2
AcDbIdBuffer
  3
AutoCAD 2000
 90
        0
280
     0
281
     0
  0
CLASS
  1
SPATIAL_FILTER
  2
AcDbSpatialFilter
  3
AutoCAD 2000
 90
        0
280
     0
281
     0
  0
CLASS
  1
XRECORD
  2
AcDbXrecord
  3
AutoCAD 2000
 90
        0
280
     0
281
     0
  0
CLASS
  1
SORTENTSTABLE
  2
AcDbSortentsTable
  3
AutoCAD 2000
 90
        0
280
     0
281
     0
  0
CLASS
  1
LAYER_INDEX
  2
AcDbLayerIndex
  3
AutoCAD 2000
 90
        0
280
     0
281
     0
  0
CLASS
  1
SPATIAL_INDEX
  2
AcDbSpatialIndex
  3
AutoCAD 2000
 90
        0
280
     0
281
     0
  0
CLASS
  1
OBJECT_PTR
  2
CAseDLPNTableRecord
  3
ASE-LPNTableRecord
 90
        1
280
     0
281
     0
  0
CLASS
  1
LAYOUT
  2
AcDbLayout
  3
AutoCAD 2000
 90
        0
280
     0
281
     0
  0
CLASS
  1
PLOTSETTINGS
  2
AcDbPlotSettings
  3
AutoCAD 2000
 90
        0
280
     0
281
     0
  0
CLASS
  1
ACDBDICTIONARYWDFLT
  2
AcDbDictionaryWithDefault
  3
AutoCAD 2000
 90
        0
280
     0
281
     0
  0
CLASS
  1
ACDBPLACEHOLDER
  2
AcDbPlaceHolder
  3
AutoCAD 2000
 90
        0
280
     0
281
     0
  0
CLASS
  1
VBA_PROJECT
  2
AcDbVbaProject
  3
acadvba
 90
        0
280
     0
281
     0
  0
CLASS
  1
WIPEOUT
  2
AcDbWipeout
  3
WipeOut|AutoCAD Express Tool|expresstools@autodesk.com
 90
        0
280
     1
281
     1
  0
CLASS
  1
WIPEOUTVARIABLES
  2
AcDbWipeoutVariables
  3
WipeOut|AutoCAD Express Tool|expresstools@autodesk.com
 90
        0
280
     1
281
     0
  0
CLASS
  1
RTEXT
  2
RText
  3
RText|AutoCAD Express Tool|expresstools@autodesk.com
 90
        0
280
     1
281
     1
  0
CLASS
  1
ARCALIGNEDTEXT
  2
AcDbArcAlignedText
  3
ATEXT|AutoCAD Express Tool|expresstools@autodesk.com
 90
        0
280
     1
281
     1
  0
CLASS
  1
LONG_TRANSACTION
  2
AcDbLongTransaction
  3
AutoCAD 2000
 90
        0
280
     0
281
     0
  0
CLASS
  1
LWPOLYLINE
  2
AcDbPolyline
  3
AutoCAD 2000
 90
        0
280
     0
281
     1
  0
CLASS
  1
HATCH
  2
AcDbHatch
  3
AutoCAD 2000
 90
        0
280
     0
281
     1
  0
CLASS
  1
XRECORD
  2
AcDbXrecord
  3
AutoCAD 2000
 90
        0
280
     0
281
     0
  0
CLASS
  1
LONG_TRANSACTION
  2
AcDbLongTransaction
  3
AutoCAD 2000
 90
        0
280
     0
281
     0
  0
CLASS
  1
LWPOLYLINE
  2
AcDbPolyline
  3
AutoCAD 2000
 90
        0
280
     0
281
     1
  0
CLASS
  1
HATCH
  2
AcDbHatch
  3
AutoCAD 2000
 90
        0
280
     0
281
     1
  0
CLASS
  1
XRECORD
  2
AcDbXrecord
  3
AutoCAD 2000
 90
        0
280
     0
281
     0
  0
ENDSEC
  0
SECTION
  2
TABLES
  0
TABLE
  2
VPORT
  5
1D
330
0
100
AcDbSymbolTable
 70
     3
  0
VPORT
  5
109
330
1D
100
AcDbSymbolTableRecord
100
AcDbViewportTableRecord
  2
*ACTIVE
 70
     0
 10
0.0
 20
0.0
 11
1.0
 21
1.0
 12
14.59718329418024
 22
11.81187441802723
 13
0.0
 23
0.0
 14
1.0
 24
1.0
 15
0.0
 25
0.0
 16
0.0
 26
0.0
 36
1.0
 17
0.0
 27
0.0
 37
0.0
 40
35.60152542067813
 41
1.786792452830188
 42
50.0
 43
0.0
 44
0.0
 50
0.0
 51
0.0
 71
     0
 72
   100
 73
     1
 74
     1
 75
     0
 76
     0
 77
     0
 78
     0
  0
ENDTAB
  0
TABLE
  2
LTYPE
  5
18
330
0
100
AcDbSymbolTable
 70
     3
  0
LTYPE
  5
19
330
18
100
AcDbSymbolTableRecord
100
AcDbLinetypeTableRecord
  2
BYBLOCK
 70
     0
  3

 72
    65
 73
     0
 40
0.0
  0
LTYPE
  5
1A
330
18
100
AcDbSymbolTableRecord
100
AcDbLinetypeTableRecord
  2
BYLAYER
 70
     0
  3

 72
    65
 73
     0
 40
0.0
  0
LTYPE
  5
8
330
18
100
AcDbSymbolTableRecord
100
AcDbLinetypeTableRecord
  2
CONTINUOUS
 70
     0
  3
Solid line
 72
    65
 73
     0
 40
0.0
  0
LTYPE
  5
42
330
18
100
AcDbSymbolTableRecord
100
AcDbLinetypeTableRecord
  2
CENTER
 70
     0
  3
____ _ ____ _ ____ _ ____ _ ____ _ ____ _ ____
 72
    65
 73
     4
 40
0.6
 49
0.375
 74
     0
 49
-0.075
 74
     0
 49
0.075
 74
     0
 49
-0.075
 74
     0
  0
LTYPE
  5
4E
330
18
100
AcDbSymbolTableRecord
100
AcDbLinetypeTableRecord
  2
HIDDEN
 70
     0
  3
- - - - - - - - - - - - - - - - - - - -
 72
    65
 73
     2
 40
0.2
 49
0.1
 74
     0
 49
-0.1
 74
     0
  0
ENDTAB
  0
TABLE
  2
LAYER
  5
10
102
{ACAD_XDICTIONARY
360
11
102
}
330
0
100
AcDbSymbolTable
 70
     3
  0
LAYER
  5
4
330
10
100
AcDbSymbolTableRecord
100
AcDbLayerTableRecord
  2
0
 70
     0
 62
     7
  6
CONTINUOUS
  0
LAYER
  5
41
330
10
100
AcDbSymbolTableRecord
100
AcDbLayerTableRecord
  2
CENTER
 70
     0
 62
     1
  6
CENTER
  0
LAYER
  5
C9
330
10
100
AcDbSymbolTableRecord
100
AcDbLayerTableRecord
  2
DEFPOINTS
 70
     0
 62
     7
  6
CONTINUOUS
  0
ENDTAB
  0
TABLE
  2
STYLE
  5
15
330
0
100
AcDbSymbolTable
 70
     1
  0
STYLE
  5
16
330
15
100
AcDbSymbolTableRecord
100
AcDbTextStyleTableRecord
  2
STANDARD
 70
     0
 40
0.0
 41
1.0
 50
0.0
 71
     0
 42
0.0
  3
txt
  4

  0
ENDTAB
  0
TABLE
  2
VIEW
  5
1B
330
0
100
AcDbSymbolTable
 70
     0
  0
ENDTAB
  0
TABLE
  2
UCS
  5
1C
330
0
100
AcDbSymbolTable
 70
     0
  0
ENDTAB
  0
TABLE
  2
APPID
  5
1F
330
0
100
AcDbSymbolTable
 70
     1
  0
APPID
  5
20
330
1F
100
AcDbSymbolTableRecord
100
AcDbRegAppTableRecord
  2
ACAD
 70
     0
  0
ENDTAB
  0
TABLE
  2
DIMSTYLE
  5
21
330
0
100
AcDbSymbolTable
 70
     1
  0
DIMSTYLE
105
22
330
21
100
AcDbSymbolTableRecord
100
AcDbDimStyleTableRecord
  2
STANDARD
 70
     0
  3

  4
cm
  5

  6

  7

 40
16.0
 41
0.18
 42
0.0625
 43
0.38
 44
0.18
 45
0.0
 46
0.0
 47
1.0
 48
1.0
140
0.125
141
0.09
142
0.0
143
2.54
144
1.0
145
0.0
146
1.0
147
0.09
 71
     0
 72
     0
 73
     1
 74
     1
 75
     0
 76
     0
 77
     0
 78
     0
170
     1
171
     2
172
     0
173
     0
174
     0
175
     0
176
     0
177
     0
178
     0
270
     5
271
     4
272
     4
273
     2
274
     2
340
16
275
     0
280
     0
281
     0
282
     0
283
     1
284
     0
285
     0
286
     0
287
     0
288
     0
  0
ENDTAB
  0
TABLE
  2
BLOCK_RECORD
  5
1
330
0
100
AcDbSymbolTable
 70
     1
  0
BLOCK_RECORD
  5
2
102
{ACAD_XDICTIONARY
360
AF
102
}
330
1
100
AcDbSymbolTableRecord
100
AcDbBlockTableRecord
  2
*MODEL_SPACE
  0
BLOCK_RECORD
  5
C
102
{ACAD_XDICTIONARY
360
B5
102
}
330
1
100
AcDbSymbolTableRecord
100
AcDbBlockTableRecord
  2
*PAPER_SPACE
  0
BLOCK_RECORD
  5
CA
330
1
100
AcDbSymbolTableRecord
100
AcDbBlockTableRecord
  2
*D0
  0
ENDTAB
  0
ENDSEC
  0
SECTION
  2
BLOCKS
  0
BLOCK
  5
3
330
2
100
AcDbEntity
  8
0
100
AcDbBlockBegin
  2
*MODEL_SPACE
 70
     0
 10
0.0
 20
0.0
 30
0.0
  3
*MODEL_SPACE
  1

  0
ENDBLK
  5
9
330
2
100
AcDbEntity
  8
0
100
AcDbBlockEnd
  0
BLOCK
  5
D
330
C
100
AcDbEntity
 67
     1
  8
0
100
AcDbBlockBegin
  2
*PAPER_SPACE
 70
     0
 10
0.0
 20
0.0
 30
0.0
  3
*PAPER_SPACE
  1

  0
ENDBLK
  5
E
330
C
100
AcDbEntity
 67
     1
  8
0
100
AcDbBlockEnd
  0
BLOCK
  5
D5
330
CA
100
AcDbEntity
  8
0
100
AcDbBlockBegin
  2
*D0
 70
     1
 10
0.0
 20
0.0
 30
0.0
  3
*D0
  1

  0
LINE
  5
CB
330
CA
100
AcDbEntity
  8
0
 62
     0
100
AcDbLine
 10
7.847104587389015
 20
0.328625179621516
 30
0.0
 11
7.847104587389017
 21
32.36138575362931
 31
0.0
  0
LINE
  5
CC
330
CA
100
AcDbEntity
  8
0
 62
     0
100
AcDbLine
 10
-3.402895412610984
 20
21.20221833682461
 30
0.0
 11
-3.402895412610983
 21
32.36138575362931
 31
0.0
  0
LINE
  5
CD
330
CA
100
AcDbEntity
  8
0
 62
     0
100
AcDbLine
 10
10.72710458738901
 20
29.4813857536293
 30
0.0
 11
13.60710458738901
 21
29.4813857536293
 31
0.0
  0
LINE
  5
CE
330
CA
100
AcDbEntity
  8
0
 62
     0
100
AcDbLine
 10
-6.282895412610983
 20
29.4813857536293
 30
0.0
 11
-9.162895412610984
 21
29.4813857536293
 31
0.0
  0
SOLID
  5
CF
330
CA
100
AcDbEntity
  8
0
 62
     0
100
AcDbTrace
 10
10.72710458738901
 20
29.9613857536293
 30
0.0
 11
10.72710458738901
 21
29.0013857536293
 31
0.0
 12
7.847104587389017
 22
29.4813857536293
 32
0.0
 13
7.847104587389017
 23
29.4813857536293
 33
0.0
  0
SOLID
  5
D0
330
CA
100
AcDbEntity
  8
0
 62
     0
100
AcDbTrace
 10
-6.282895412610983
 20
29.9613857536293
 30
0.0
 11
-6.282895412610983
 21
29.0013857536293
 31
0.0
 12
-3.402895412610984
 22
29.4813857536293
 32
0.0
 13
-3.402895412610984
 23
29.4813857536293
 33
0.0
  0
MTEXT
  5
D1
330
CA
100
AcDbEntity
  8
0
 62
     0
100
AcDbMText
 10
-21.93622874594431
 20
29.4813857536293
 30
0.0
 40
2.0
 41
0.0
 71
     5
 72
     1
  1
\A1;11{\H1.000000x;\S1/4;} [28.58cm]
1001
ACAD
1000
MTEXTBEGIN
1070
    73
1070
     1
1070
    44
1040
1.0
1070
    74
1070
     1
1000
MTEXTEND
  0
POINT
  5
D2
330
CA
100
AcDbEntity
  8
DEFPOINTS
 62
     0
100
AcDbPoint
 10
7.847104587389015
 20
-0.671374820378484
 30
0.0
  0
POINT
  5
D3
330
CA
100
AcDbEntity
  8
DEFPOINTS
 62
     0
100
AcDbPoint
 10
-3.402895412610984
 20
20.20221833682461
 30
0.0
  0
POINT
  5
D4
330
CA
100
AcDbEntity
  8
DEFPOINTS
 62
     0
100
AcDbPoint
 10
-3.402895412610984
 20
29.4813857536293
 30
0.0
  0
ENDBLK
  5
D6
330
CA
100
AcDbEntity
  8
0
100
AcDbBlockEnd
  0
ENDSEC
  0
SECTION
  2
ENTITIES
  0
LINE
  5
29
330
2
100
AcDbEntity
  8
0
100
AcDbLine
 10
3.773163170589004
 20
3.630457207224596
 30
0.0
 11
1.493635414589011
 21
20.2008565288246
 31
0.0
  0
LINE
  5
2A
330
2
100
AcDbEntity
  8
0
100
AcDbLine
 10
25.32246601218902
 20
3.630457207224567
 30
0.0
 11
27.70057376018902
 21
20.20085652882458
 31
0.0
  0
LINE
  5
2C
330
2
100
AcDbEntity
  8
0
100
AcDbLine
 10
4.283770143389023
 20
3.186593336824616
 30
0.0
 11
24.81185903938901
 21
3.186593336824588
 31
0.0
  0
ARC
  5
2D
330
2
100
AcDbEntity
  8
0
100
AcDbCircle
 10
4.283770143389009
 20
3.702218336824595
 30
0.0
 40
0.515625
100
AcDbArc
 50
188.0000000000004
 51
270.0000000000006
  0
ARC
  5
2E
330
2
100
AcDbEntity
  8
0
100
AcDbCircle
 10
4.283767711389007
 20
3.702235644024577
 30
0.0
 40
0.5
100
AcDbArc
 50
188.0020028225004
 51
270.0002787294006
  0
LINE
  5
2F
330
2
100
AcDbEntity
  8
0
100
AcDbLine
 10
15.737310189789
 20
2.354294989624607
 30
0.0
 11
15.81668813538901
 21
3.186593336824616
 31
0.0
  0
LINE
  5
30
330
2
100
AcDbEntity
  8
0
100
AcDbLine
 10
13.33154783298902
 20
2.366506980024611
 30
0.0
 11
13.27659386978901
 21
3.186593336824616
 31
0.0
  0
LINE
  5
31
330
2
100
AcDbEntity
  8
0
100
AcDbLine
 10
13.54781459138901
 20
2.202218336824616
 30
0.0
 11
15.54781459138901
 21
2.202218336824616
 31
0.0
  0
ARC
  5
32
330
2
100
AcDbEntity
  8
0
100
AcDbCircle
 10
15.54781459138898
 20
2.396317461624599
 30
0.0
 40
0.1940991248
100
AcDbArc
 50
270.0000000000006
 51
347.4964524984007
  0
ARC
  5
33
330
2
100
AcDbEntity
  8
0
100
AcDbCircle
 10
13.54781459138898
 20
2.426707589624593
 30
0.0
 40
0.2244892528
100
AcDbArc
 50
195.5552215363004
 51
270.0000000000006
  0
LINE
  5
34
330
2
100
AcDbEntity
  8
0
100
AcDbLine
 10
6.52388128738902
 20
2.686593336824616
 30
0.0
 11
9.17032788738901
 21
2.686593336824616
 31
0.0
  0
LINE
  5
35
330
2
100
AcDbEntity
  8
0
100
AcDbLine
 10
7.547814591389016
 20
2.202218336824616
 30
0.0
 11
5.547814591389016
 21
2.202218336824616
 31
0.0
  0
LINE
  5
36
330
2
100
AcDbEntity
  8
0
100
AcDbLine
 10
6.424444396189006
 20
2.727781445624602
 30
0.0
 11
6.034279352989006
 21
3.117946488824602
 31
0.0
  0
LINE
  5
37
330
2
100
AcDbEntity
  8
0
100
AcDbLine
 10
5.360308272989005
 20
2.351976925624599
 30
0.0
 11
5.309776554589024
 21
3.186593336824616
 31
0.0
  0
ARC
  5
38
330
2
100
AcDbEntity
  8
0
100
AcDbCircle
 10
6.523881287389006
 20
2.827218336824595
 30
0.0
 40
0.140625
100
AcDbArc
 50
225.0000000000005
 51
270.0000000000006
  0
ARC
  5
39
330
2
100
AcDbEntity
  8
0
100
AcDbCircle
 10
5.868551200989006
 20
2.952218336824595
 30
0.0
 40
0.234375
100
AcDbArc
 50
45.00000000000009
 51
90.00000000000019
  0
ARC
  5
3A
330
2
100
AcDbEntity
  8
0
100
AcDbCircle
 10
5.547814591389002
 20
2.394481948024585
 30
0.0
 40
0.1922636112
100
AcDbArc
 50
192.7722861794004
 51
270.0000000000006
  0
ARC
  5
3B
330
2
100
AcDbEntity
  8
0
100
AcDbCircle
 10
9.170327895388997
 20
2.827218336824595
 30
0.0
 40
0.140625
100
AcDbArc
 50
270.0000000000006
 51
315.0000000000007
  0
LINE
  5
3C
330
2
100
AcDbEntity
  8
0
  6
CONTINUOUS
 62
     7
100
AcDbLine
 10
7.735298994589005
 20
2.34692375442461
 30
0.0
 11
7.761939848989005
 21
2.687106895224589
 31
0.0
  0
ARC
  5
3D
330
2
100
AcDbEntity
  8
0
  6
CONTINUOUS
 62
     7
100
AcDbCircle
 10
7.547814591389002
 20
2.396026076024591
 30
0.0
 40
0.1938077392
100
AcDbArc
 50
270.0000000000006
 51
345.3238174441007
  0
LINE
  5
3E
330
2
100
AcDbEntity
  8
0
100
AcDbLine
 10
9.269764786589025
 20
2.727781445624602
 30
0.0
 11
9.659929829789025
 21
3.117946488824602
 31
0.0
  0
ARC
  5
3F
330
2
100
AcDbEntity
  8
0
100
AcDbCircle
 10
9.825657981788996
 20
2.952218336824595
 30
0.0
 40
0.234375
100
AcDbArc
 50
90.00000000000019
 51
135.0000000000003
  0
LINE
  5
40
330
2
100
AcDbEntity
  8
CENTER
 48
4.0
100
AcDbLine
 10
7.847104587389015
 20
7.044561494027707
 30
0.0
 11
7.847104587389015
 21
-0.671374820378484
 31
0.0
  0
LINE
  5
43
330
2
100
AcDbEntity
  8
0
100
AcDbLine
 10
23.71283164898903
 20
2.333185855224572
 30
0.0
 11
23.817907415389
 21
3.186593336824588
 31
0.0
  0
ARC
  5
44
330
2
100
AcDbEntity
  8
0
100
AcDbCircle
 10
24.81186147138901
 20
3.70223564402457
 30
0.0
 40
0.515625
100
AcDbArc
 50
269.9997297167006
 51
351.9980578691007
  0
LINE
  5
45
330
2
100
AcDbEntity
  8
0
100
AcDbLine
 10
23.54781459138901
 20
2.202218336824588
 30
0.0
 11
21.54781459138901
 21
2.202218336824588
 31
0.0
  0
ARC
  5
46
330
2
100
AcDbEntity
  8
0
100
AcDbCircle
 10
21.54781459138898
 20
2.384981184824598
 30
0.0
 40
0.182762848
100
AcDbArc
 50
194.8342856318003
 51
270.0000000000006
  0
ARC
  5
47
330
2
100
AcDbEntity
  8
0
100
AcDbCircle
 10
23.54781459138898
 20
2.37166157362458
 30
0.0
 40
0.1694432368
100
AcDbArc
 50
270.0000000000006
 51
346.8752842756007
  0
LINE
  5
48
330
2
100
AcDbEntity
  8
0
100
AcDbLine
 10
21.37114316258901
 20
2.338189463224582
 30
0.0
 11
21.296089044189
 21
3.186593336824588
 31
0.0
  0
LINE
  5
49
330
2
100
AcDbEntity
  8
0
100
AcDbLine
 10
32.07533783858902
 20
24.2022183368246
 30
0.0
 11
-2.881128663810994
 21
24.20221833682461
 31
0.0
  0
LINE
  5
4C
330
2
100
AcDbEntity
  8
CENTER
 48
4.0
100
AcDbLine
 10
-2.699486057937255
 20
19.41516188002461
 30
0.0
 11
5.668641223031185
 21
20.9892747936246
 31
0.0
  0
ARC
  5
4F
330
2
100
AcDbEntity
  8
0
  6
HIDDEN
100
AcDbCircle
 10
0.5124158721890133
 20
23.7022183368246
 30
0.0
 40
0.5
100
AcDbArc
 50
7.999999999999998
 51
90.00000000000019
  0
LINE
  5
52
330
2
100
AcDbEntity
  8
0
  6
HIDDEN
100
AcDbLine
 10
1.007549907389023
 20
23.77180488722462
 30
0.0
 11
1.509222580546964
 21
20.20221833682461
 31
0.0
  0
SPLINE
  5
53
330
2
100
AcDbEntity
  8
0
100
AcDbSpline
210
0.0
220
0.0
230
1.0
 70
     8
 71
     3
 72
     9
 73
     5
 74
     3
 42
0.0000000001
 43
0.0000000001
 44
0.0000000001
 40
0.0
 40
0.0
 40
0.0
 40
0.0
 40
0.0013855808683753
 40
0.0056881382247656
 40
0.0056881382247656
 40
0.0056881382247656
 40
0.0056881382247656
 10
-3.022124622210995
 20
24.1383080904246
 30
0.0
 10
-3.017070856516781
 20
24.14374041254506
 30
0.0
 10
-2.996323949222968
 20
24.16604138378959
 30
0.0
 10
-2.968697406922927
 20
24.17966169935529
 30
0.0
 10
-2.947800449410991
 20
24.18996422482462
 30
0.0
 11
-3.022124622210995
 21
24.1383080904246
 31
0.0
 11
-3.006555110210982
 21
24.15408997522459
 31
0.0
 11
-2.947800449410991
 21
24.18996422482462
 31
0.0
  0
LINE
  5
54
330
2
100
AcDbEntity
  8
0
100
AcDbLine
 10
-3.067915169410991
 20
24.03106003922459
 30
0.0
 11
-3.402895412610984
 21
20.20221833682461
 31
0.0
  0
SPLINE
  5
55
330
2
100
AcDbEntity
  8
0
100
AcDbSpline
210
0.0
220
0.0
230
1.0
 70
    24
 71
     3
 72
     8
 73
     4
 74
     2
 42
0.0000000001
 43
0.0000000001
 44
0.0000000001
 40
0.0
 40
0.0
 40
0.0
 40
0.0
 40
0.0030317195845261
 40
0.0030317195845261
 40
0.0030317195845261
 40
0.0030317195845261
 10
-3.049116116610989
 20
24.09800377202458
 30
0.0
 10
-3.04011895181101
 20
24.11143854482459
 30
0.0
 10
-3.031121787011016
 20
24.12487331762459
 30
0.0
 10
-3.022124622210995
 20
24.1383080904246
 30
0.0
 11
-3.049116116610989
 21
24.09800377202458
 31
0.0
 11
-3.022124622210995
 21
24.1383080904246
 31
0.0
  0
ARC
  5
56
330
2
100
AcDbEntity
  8
0
100
AcDbCircle
 10
-2.881128663810994
 20
24.01471833682461
 30
0.0
 40
0.1875
100
AcDbArc
 50
153.6876791892003
 51
175.0000000000003
  0
ARC
  5
61
330
2
100
AcDbEntity
  8
0
100
AcDbCircle
 10
-2.881128663810994
 20
24.01471833682461
 30
0.0
 40
0.1875
100
AcDbArc
 50
90.00000000000019
 51
123.0133293148003
  0
ARC
  5
63
330
2
100
AcDbEntity
  8
0
  6
HIDDEN
100
AcDbCircle
 10
28.71298134277531
 20
23.68541421952965
 30
0.0
 40
0.5177443283162689
100
AcDbArc
 50
93.45349131632428
 51
170.638696879672
  0
LINE
  5
64
330
2
100
AcDbEntity
  8
0
  6
HIDDEN
100
AcDbLine
 10
25.42277452978901
 20
21.19945680402459
 30
0.0
 11
25.42246269298901
 21
20.58885211442456
 31
0.0
  0
LINE
  5
65
330
2
100
AcDbEntity
  8
0
  6
HIDDEN
100
AcDbLine
 10
24.17277452978901
 20
21.19945680402459
 30
0.0
 11
24.17277452978901
 21
20.69945680402459
 31
0.0
  0
ARC
  5
66
330
2
100
AcDbEntity
  8
0
  6
HIDDEN
 48
0.5
100
AcDbCircle
 10
24.99009647058902
 20
20.83996851922458
 30
0.0
 40
0.5
100
AcDbArc
 50
287.9977788489006
 51
329.8521682252007
  0
ARC
  5
67
330
2
100
AcDbEntity
  8
0
  6
HIDDEN
 48
0.5
100
AcDbCircle
 10
24.967055616189
 20
20.99373789042457
 30
0.0
 40
0.5
100
AcDbArc
 50
24.29518894540004
 51
65.70481105460014
  0
ARC
  5
68
330
2
100
AcDbEntity
  8
0
  6
HIDDEN
 48
0.5
100
AcDbCircle
 10
24.63997533458901
 20
20.87756746642458
 30
0.0
 40
0.5
100
AcDbArc
 50
200.8683150864004
 51
244.1316849136005
  0
ARC
  5
69
330
2
100
AcDbEntity
  8
0
  6
HIDDEN
 48
0.5
100
AcDbCircle
 10
24.62849344338902
 20
20.99373789042457
 30
0.0
 40
0.5
100
AcDbArc
 50
114.2951889454002
 51
155.7048110546003
  0
LINE
  5
6A
330
2
100
AcDbEntity
  8
0
  6
HIDDEN
100
AcDbLine
 10
27.86027452978901
 20
21.44945680402459
 30
0.0
 11
24.42277198098903
 21
21.44946166802459
 31
0.0
  0
LINE
  5
6B
330
2
100
AcDbEntity
  8
0
  6
HIDDEN
100
AcDbLine
 10
24.42182278418902
 20
20.42767144402459
 30
0.0
 11
27.67665097778901
 21
20.14290733682459
 31
0.0
  0
LINE
  5
6C
330
2
100
AcDbEntity
  8
0
  6
HIDDEN
100
AcDbLine
 10
28.20213220658901
 20
23.76963030802458
 30
0.0
 11
27.70057376018902
 21
20.20085652882458
 31
0.0
  0
LINE
  5
6D
330
2
100
AcDbEntity
  8
0
100
AcDbLine
 10
32.26212434418904
 20
24.03106003922458
 30
0.0
 11
32.59710458738901
 21
20.2022183368246
 31
0.0
  0
SPLINE
  5
76
330
2
100
AcDbEntity
  8
0
100
AcDbSpline
210
0.0
220
0.0
230
1.0
 70
    24
 71
     3
 72
     8
 73
     4
 74
     2
 42
0.0000000001
 43
0.0000000001
 44
0.0000000001
 40
0.0
 40
0.0
 40
0.0
 40
0.0
 40
0.0042367856403781
 40
0.0042367856403781
 40
0.0042367856403781
 40
0.0042367856403781
 10
32.142009624189
 20
24.18996422482468
 30
0.0
 10
32.11978569565568
 20
24.1940489288246
 30
0.0
 10
32.09756176712236
 20
24.19813363282463
 30
0.0
 10
32.07533783858903
 20
24.20221833682467
 30
0.0
 11
32.142009624189
 21
24.18996422482468
 31
0.0
 11
32.07533783858903
 21
24.20221833682467
 31
0.0
  0
SPLINE
  5
77
330
2
100
AcDbEntity
  8
0
100
AcDbSpline
210
0.0
220
0.0
230
1.0
 70
     8
 71
     3
 72
     9
 73
     5
 74
     3
 42
0.0000000001
 43
0.0000000001
 44
0.0000000001
 40
0.0
 40
0.0
 40
0.0
 40
0.0
 40
0.0013855808683753
 40
0.0056881382247656
 40
0.0056881382247656
 40
0.0056881382247656
 40
0.0056881382247656
 10
32.21633379698895
 20
24.13830809042468
 30
0.0
 10
32.21128003129482
 20
24.14374041254507
 30
0.0
 10
32.19053312400095
 20
24.16604138378966
 30
0.0
 10
32.1629065817008
 20
24.17966169935533
 30
0.0
 10
32.142009624189
 20
24.18996422482468
 30
0.0
 11
32.21633379698895
 21
24.13830809042468
 31
0.0
 11
32.20076428498899
 21
24.15408997522462
 31
0.0
 11
32.142009624189
 21
24.18996422482468
 31
0.0
  0
SPLINE
  5
78
330
2
100
AcDbEntity
  8
0
100
AcDbSpline
210
0.0
220
0.0
230
1.0
 70
    24
 71
     3
 72
     8
 73
     4
 74
     2
 42
0.0000000001
 43
0.0000000001
 44
0.0000000001
 40
0.0
 40
0.0
 40
0.0
 40
0.0
 40
0.0030317195845251
 40
0.0030317195845251
 40
0.0030317195845251
 40
0.0030317195845251
 10
32.24332529138908
 20
24.09800377202464
 30
0.0
 10
32.23432812658896
 20
24.11143854482463
 30
0.0
 10
32.22533096178906
 20
24.12487331762469
 30
0.0
 10
32.21633379698895
 20
24.13830809042468
 30
0.0
 11
32.24332529138908
 21
24.09800377202464
 31
0.0
 11
32.21633379698895
 21
24.13830809042468
 31
0.0
  0
SPLINE
  5
79
330
2
100
AcDbEntity
  8
0
100
AcDbSpline
210
0.0
220
0.0
230
1.0
 70
    24
 71
     3
 72
     8
 73
     4
 74
     2
 42
0.0000000001
 43
0.0000000001
 44
0.0000000001
 40
0.0
 40
0.0
 40
0.0
 40
0.0
 40
0.0043458258292505
 40
0.0043458258292505
 40
0.0043458258292505
 40
0.0043458258292505
 10
32.26212434418894
 20
24.03106003922465
 30
0.0
 10
32.25585799325577
 20
24.05337461682467
 30
0.0
 10
32.24959164232226
 20
24.07568919442462
 30
0.0
 10
32.24332529138908
 20
24.09800377202464
 30
0.0
 11
32.26212434418894
 21
24.03106003922465
 31
0.0
 11
32.24332529138908
 21
24.09800377202464
 31
0.0
  0
ARC
  5
7D
330
2
100
AcDbEntity
  8
0
100
AcDbCircle
 10
32.07533783858902
 20
24.01471833682458
 30
0.0
 40
0.1875
100
AcDbArc
 50
64.43432535800011
 51
64.56591055860013
  0
ARC
  5
7E
330
2
100
AcDbEntity
  8
0
100
AcDbCircle
 10
32.07533783858902
 20
24.01471833682458
 30
0.0
 40
0.1875
100
AcDbArc
 50
47.76561351960009
 51
59.41885018770012
  0
ARC
  5
7F
330
2
100
AcDbEntity
  8
0
100
AcDbCircle
 10
32.07533783858902
 20
24.01471833682458
 30
0.0
 40
0.1875
100
AcDbArc
 50
64.56591055860013
 51
90.00000000000019
  0
ARC
  5
80
330
2
100
AcDbEntity
  8
0
100
AcDbCircle
 10
32.07533783858902
 20
24.01471833682458
 30
0.0
 40
0.1875
100
AcDbArc
 50
4.999999999999994
 51
30.43408944140006
  0
ARC
  5
81
330
2
100
AcDbEntity
  8
0
100
AcDbCircle
 10
32.07533783858902
 20
24.01471833682458
 30
0.0
 40
0.1875
100
AcDbArc
 50
59.41885018770012
 51
64.43432535800011
  0
ARC
  5
82
330
2
100
AcDbEntity
  8
0
100
AcDbCircle
 10
32.07533783858902
 20
24.01471833682458
 30
0.0
 40
0.1875
100
AcDbArc
 50
37.99511876190009
 51
47.76561351960009
  0
ARC
  5
84
330
2
100
AcDbEntity
  8
0
100
AcDbCircle
 10
32.07533783858902
 20
24.01471833682458
 30
0.0
 40
0.1875
100
AcDbArc
 50
30.43408944140006
 51
37.99511876190009
  0
LINE
  5
C7
330
2
100
AcDbEntity
  8
0
100
AcDbLine
 10
-3.402895412610982
 20
20.20221833682462
 30
0.0
 11
32.59710458738901
 21
20.20221833682461
 31
0.0
  0
ENDSEC
  0
SECTION
  2
OBJECTS
  0
DICTIONARY
  5
7
330
0
100
AcDbDictionary
  3
ACAD_GROUP
350
24
  3
ACAD_LAYOUT
350
B
  3
ACAD_MLINESTYLE
350
25
  3
ACAD_PLOTSETTINGS
350
26
  3
ACAD_PLOTSTYLENAME
350
6
  3
ACDBHEADERROUNDTRIPXREC
350
10A
  3
ACDBVARIABLEDICTIONARY
350
85
  0
DICTIONARY
  5
11
330
10
100
AcDbDictionary
280
     1
  3
ACAD_LAYERFILTERS
360
12
  0
DICTIONARY
  5
AF
330
2
100
AcDbDictionary
280
     1
  3
ACAD_LAYOUTSELFREF
360
12B
  0
DICTIONARY
  5
B5
330
C
100
AcDbDictionary
280
     1
  3
ACAD_LAYOUTSELFREF
360
12C
  0
DICTIONARY
  5
24
102
{ACAD_REACTORS
330
7
102
}
330
7
100
AcDbDictionary
  0
DICTIONARY
  5
B
102
{ACAD_REACTORS
330
7
102
}
330
7
100
AcDbDictionary
  0
DICTIONARY
  5
25
102
{ACAD_REACTORS
330
7
102
}
330
7
100
AcDbDictionary
  3
STANDARD
350
27
  0
DICTIONARY
  5
26
102
{ACAD_REACTORS
330
7
102
}
330
7
100
AcDbDictionary
  0
ACDBDICTIONARYWDFLT
  5
6
102
{ACAD_REACTORS
330
7
102
}
330
7
100
AcDbDictionary
281
     1
  3
Normal
350
5
100
AcDbDictionaryWithDefault
340
5
  0
DICTIONARY
  5
10A
102
{ACAD_REACTORS
330
7
102
}
330
7
100
AcDbDictionary
  3
CEPSNTYPE
350
114
  3
DIMSTYLEDATA
350
118
  3
FINGERPRINTGUID
350
115
  3
HYPERLINKBASE
350
10D
  3
INSUNITS
350
113
  3
LAYOUTDICT
350
10F
  3
LWETCUNION
350
112
  3
PLOTSETDICT
350
110
  3
PLOTSTYLNAMDICT
350
111
  3
PSVPSCALE
350
117
  3
PUCSBASE
350
11B
  3
PUCSORGBACK
350
121
  3
PUCSORGBOTTOM
350
11D
  3
PUCSORGFRONT
350
120
  3
PUCSORGLEFT
350
11E
  3
PUCSORGRIGHT
350
11F
  3
PUCSORGTOP
350
11C
  3
PUCSORTHOREF
350
119
  3
PUCSORTHOVIEW
350
11A
  3
STYLESHEET
350
10E
  3
TSTACKALIGN
350
10B
  3
TSTACKSIZE
350
10C
  3
UCSBASE
350
124
  3
UCSORGBACK
350
12A
  3
UCSORGBOTTOM
350
126
  3
UCSORGFRONT
350
129
  3
UCSORGLEFT
350
127
  3
UCSORGRIGHT
350
128
  3
UCSORGTOP
350
125
  3
UCSORTHOREF
350
122
  3
UCSORTHOVIEW
350
123
  3
VERSIONGUID
350
116
  0
DICTIONARY
  5
85
102
{ACAD_REACTORS
330
7
102
}
330
7
100
AcDbDictionary
  3
DIMASSOC
350
87
  3
HIDETEXT
350
86
  0
DICTIONARY
  5
12
102
{ACAD_REACTORS
330
11
102
}
330
11
100
AcDbDictionary
280
     1
  3
DIM-1_12
360
13
  3
DIM-1_16
360
14
  0
XRECORD
  5
12B
102
{ACAD_REACTORS
330
AF
102
}
330
AF
100
AcDbXrecord
340
2
  0
XRECORD
  5
12C
102
{ACAD_REACTORS
330
B5
102
}
330
B5
100
AcDbXrecord
340
C
  0
MLINESTYLE
  5
27
102
{ACAD_REACTORS
330
25
102
}
330
25
100
AcDbMlineStyle
  2
STANDARD
 70
     0
  3

 62
     0
 51
90.00000000000019
 52
90.00000000000019
 71
     2
 49
0.5
 62
   256
  6
BYLAYER
 49
-0.5
 62
   256
  6
BYLAYER
  0
ACDBPLACEHOLDER
  5
5
102
{ACAD_REACTORS
330
6
102
}
330
6
100
AcDbPlaceHolder
280
     0
  0
XRECORD
  5
114
102
{ACAD_REACTORS
330
10A
102
}
330
10A
100
AcDbXrecord
 90
        0
  0
XRECORD
  5
118
102
{ACAD_REACTORS
330
10A
102
}
330
10A
100
AcDbXrecord
1000
DSTYLE
1002
{
1070
   276
 70
     1
1070
   277
 70
     5
1070
   289
 70
     0
1002
}
  0
XRECORD
  5
115
102
{ACAD_REACTORS
330
10A
102
}
330
10A
100
AcDbXrecord
  1
{C9ECA382-FF7D-46B2-AF67-BB00792412CF}
  0
XRECORD
  5
10D
102
{ACAD_REACTORS
330
10A
102
}
330
10A
100
AcDbXrecord
  1

  0
XRECORD
  5
113
102
{ACAD_REACTORS
330
10A
102
}
330
10A
100
AcDbXrecord
 90
        0
  0
XRECORD
  5
10F
102
{ACAD_REACTORS
330
10A
102
}
330
10A
100
AcDbXrecord
340
B
  0
XRECORD
  5
112
102
{ACAD_REACTORS
330
10A
102
}
330
10A
100
AcDbXrecord
 90
    10781
  0
XRECORD
  5
110
102
{ACAD_REACTORS
330
10A
102
}
330
10A
100
AcDbXrecord
340
26
  0
XRECORD
  5
111
102
{ACAD_REACTORS
330
10A
102
}
330
10A
100
AcDbXrecord
340
6
  0
XRECORD
  5
117
102
{ACAD_REACTORS
330
10A
102
}
330
10A
100
AcDbXrecord
 40
0.0
  0
XRECORD
  5
11B
102
{ACAD_REACTORS
330
10A
102
}
330
10A
100
AcDbXrecord
340
0
  0
XRECORD
  5
121
102
{ACAD_REACTORS
330
10A
102
}
330
10A
100
AcDbXrecord
 10
0.0
 20
0.0
 30
0.0
  0
XRECORD
  5
11D
102
{ACAD_REACTORS
330
10A
102
}
330
10A
100
AcDbXrecord
 10
0.0
 20
0.0
 30
0.0
  0
XRECORD
  5
120
102
{ACAD_REACTORS
330
10A
102
}
330
10A
100
AcDbXrecord
 10
0.0
 20
0.0
 30
0.0
  0
XRECORD
  5
11E
102
{ACAD_REACTORS
330
10A
102
}
330
10A
100
AcDbXrecord
 10
0.0
 20
0.0
 30
0.0
  0
XRECORD
  5
11F
102
{ACAD_REACTORS
330
10A
102
}
330
10A
100
AcDbXrecord
 10
0.0
 20
0.0
 30
0.0
  0
XRECORD
  5
11C
102
{ACAD_REACTORS
330
10A
102
}
330
10A
100
AcDbXrecord
 10
0.0
 20
0.0
 30
0.0
  0
XRECORD
  5
119
102
{ACAD_REACTORS
330
10A
102
}
330
10A
100
AcDbXrecord
340
0
  0
XRECORD
  5
11A
102
{ACAD_REACTORS
330
10A
102
}
330
10A
100
AcDbXrecord
 70
     0
  0
XRECORD
  5
10E
102
{ACAD_REACTORS
330
10A
102
}
330
10A
100
AcDbXrecord
  1

  0
XRECORD
  5
10B
102
{ACAD_REACTORS
330
10A
102
}
330
10A
100
AcDbXrecord
 90
        1
  0
XRECORD
  5
10C
102
{ACAD_REACTORS
330
10A
102
}
330
10A
100
AcDbXrecord
 90
       70
  0
XRECORD
  5
124
102
{ACAD_REACTORS
330
10A
102
}
330
10A
100
AcDbXrecord
340
0
  0
XRECORD
  5
12A
102
{ACAD_REACTORS
330
10A
102
}
330
10A
100
AcDbXrecord
 10
0.0
 20
0.0
 30
0.0
  0
XRECORD
  5
126
102
{ACAD_REACTORS
330
10A
102
}
330
10A
100
AcDbXrecord
 10
0.0
 20
0.0
 30
0.0
  0
XRECORD
  5
129
102
{ACAD_REACTORS
330
10A
102
}
330
10A
100
AcDbXrecord
 10
0.0
 20
0.0
 30
0.0
  0
XRECORD
  5
127
102
{ACAD_REACTORS
330
10A
102
}
330
10A
100
AcDbXrecord
 10
0.0
 20
0.0
 30
0.0
  0
XRECORD
  5
128
102
{ACAD_REACTORS
330
10A
102
}
330
10A
100
AcDbXrecord
 10
0.0
 20
0.0
 30
0.0
  0
XRECORD
  5
125
102
{ACAD_REACTORS
330
10A
102
}
330
10A
100
AcDbXrecord
 10
0.0
 20
0.0
 30
0.0
  0
XRECORD
  5
122
102
{ACAD_REACTORS
330
10A
102
}
330
10A
100
AcDbXrecord
340
0
  0
XRECORD
  5
123
102
{ACAD_REACTORS
330
10A
102
}
330
10A
100
AcDbXrecord
 70
     0
  0
XRECORD
  5
116
102
{ACAD_REACTORS
330
10A
102
}
330
10A
100
AcDbXrecord
  1
{ED1B55DA-56BF-4A8C-92DA-7C5E95EF2702}
  0
DICTIONARYVAR
  5
87
102
{ACAD_REACTORS
330
85
102
}
330
85
100
DictionaryVariables
280
     0
  1
1
  0
DICTIONARYVAR
  5
86
102
{ACAD_REACTORS
330
85
102
}
330
85
100
DictionaryVariables
280
     0
  1
1
  0
XRECORD
  5
13
102
{ACAD_REACTORS
330
12
102
}
330
12
100
AcDbXrecord
  1
DIM-1_12
  1
DIM-1_12
  1
*
  1
*
 70
     0
  1
*
  1
*
  0
XRECORD
  5
14
102
{ACAD_REACTORS
330
12
102
}
330
12
100
AcDbXrecord
  1
dim-1_16
  1
*
  1
*
  1
*
 70
     0
  1
*
  1
*
  0
ENDSEC
  0
EOF
