  0
SECTION
  2
HEADER
  9
$ACADVER
  1
AC1015
  9
$ACADMAINTVER
 70
    13
  9
$DWGCODEPAGE
  3
ANSI_1252
  9
$INSBASE
 10
4.4375
 20
7.687829052699999
 30
0.0
  9
$EXTMIN
 10
-31.56596916144119
 20
-3.564300226542925
 30
-0.0000000349181948
  9
$EXTMAX
 10
40.44339349029274
 20
32.43900293973384
 30
0.0000000814935746
  9
$LIMMIN
 10
0.0
 20
0.0
  9
$LIMMAX
 10
17.0
 20
11.0
  9
$ORTHOMODE
 70
     1
  9
$REGENMODE
 70
     1
  9
$FILLMODE
 70
     1
  9
$QTEXTMODE
 70
     0
  9
$MIRRTEXT
 70
     1
  9
$LTSCALE
 40
2.0
  9
$ATTMODE
 70
     1
  9
$TEXTSIZE
 40
0.0
  9
$TRACEWID
 40
0.05
  9
$TEXTSTYLE
  7
STANDARD
  9
$CLAYER
  8
0
  9
$CELTYPE
  6
BYLAYER
  9
$CECOLOR
 62
   256
  9
$CELTSCALE
 40
1.0
  9
$DISPSILH
 70
     0
  9
$DIMSCALE
 40
1.0
  9
$DIMASZ
 40
0.18
  9
$DIMEXO
 40
0.0625
  9
$DIMDLI
 40
0.38
  9
$DIMRND
 40
0.0
  9
$DIMDLE
 40
0.0
  9
$DIMEXE
 40
0.18
  9
$DIMTP
 40
1.0
  9
$DIMTM
 40
1.0
  9
$DIMTXT
 40
0.125
  9
$DIMCEN
 40
0.09
  9
$DIMTSZ
 40
0.0
  9
$DIMTOL
 70
     0
  9
$DIMLIM
 70
     0
  9
$DIMTIH
 70
     1
  9
$DIMTOH
 70
     1
  9
$DIMSE1
 70
     0
  9
$DIMSE2
 70
     0
  9
$DIMTAD
 70
     0
  9
$DIMZIN
 70
     0
  9
$DIMBLK
  1

  9
$DIMASO
 70
     1
  9
$DIMSHO
 70
     1
  9
$DIMPOST
  1

  9
$DIMAPOST
  1
cm
  9
$DIMALT
 70
     1
  9
$DIMALTD
 70
     2
  9
$DIMALTF
 40
2.54
  9
$DIMLFAC
 40
1.0
  9
$DIMTOFL
 70
     0
  9
$DIMTVP
 40
0.0
  9
$DIMTIX
 70
     0
  9
$DIMSOXD
 70
     0
  9
$DIMSAH
 70
     0
  9
$DIMBLK1
  1

  9
$DIMBLK2
  1

  9
$DIMSTYLE
  2
STANDARD
  9
$DIMCLRD
 70
     0
  9
$DIMCLRE
 70
     0
  9
$DIMCLRT
 70
     0
  9
$DIMTFAC
 40
1.0
  9
$DIMGAP
 40
0.09
  9
$DIMJUST
 70
     0
  9
$DIMSD1
 70
     0
  9
$DIMSD2
 70
     0
  9
$DIMTOLJ
 70
     1
  9
$DIMTZIN
 70
     0
  9
$DIMALTZ
 70
     0
  9
$DIMALTTZ
 70
     0
  9
$DIMUPT
 70
     0
  9
$DIMDEC
 70
     4
  9
$DIMTDEC
 70
     4
  9
$DIMALTU
 70
     2
  9
$DIMALTTD
 70
     2
  9
$DIMTXSTY
  7
STANDARD
  9
$DIMAUNIT
 70
     0
  9
$DIMADEC
 70
     0
  9
$DIMALTRND
 40
0.0
  9
$DIMAZIN
 70
     0
  9
$DIMDSEP
 70
    46
  9
$DIMATFIT
 70
     0
  9
$DIMFRAC
 70
     1
  9
$DIMLDRBLK
  1

  9
$DIMLUNIT
 70
     5
  9
$DIMLWD
 70
    -2
  9
$DIMLWE
 70
    -2
  9
$DIMTMOVE
 70
     0
  9
$LUNITS
 70
     2
  9
$LUPREC
 70
     4
  9
$SKETCHINC
 40
0.1
  9
$FILLETRAD
 40
0.0
  9
$AUNITS
 70
     0
  9
$AUPREC
 70
     0
  9
$MENU
  1
acad
  9
$ELEVATION
 40
0.0
  9
$PELEVATION
 40
0.0
  9
$THICKNESS
 40
0.0
  9
$LIMCHECK
 70
     0
  9
$CHAMFERA
 40
0.0
  9
$CHAMFERB
 40
0.0
  9
$CHAMFERC
 40
0.0
  9
$CHAMFERD
 40
0.0
  9
$SKPOLY
 70
     0
  9
$TDCREATE
 40
2444971.833333333
  9
$TDUCREATE
 40
2444972.041666666
  9
$TDUPDATE
 40
2453686.598449086
  9
$TDUUPDATE
 40
2453686.806782418
  9
$TDINDWG
 40
0.0259030671
  9
$TDUSRTIMER
 40
0.0259030671
  9
$USRTIMER
 70
     1
  9
$ANGBASE
 50
0.0
  9
$ANGDIR
 70
     0
  9
$PDMODE
 70
     0
  9
$PDSIZE
 40
0.0
  9
$PLINEWID
 40
0.0
  9
$SPLFRAME
 70
     0
  9
$SPLINETYPE
 70
     6
  9
$SPLINESEGS
 70
     8
  9
$HANDSEED
  5
104
  9
$SURFTAB1
 70
     6
  9
$SURFTAB2
 70
     6
  9
$SURFTYPE
 70
     6
  9
$SURFU
 70
     6
  9
$SURFV
 70
     6
  9
$UCSBASE
  2

  9
$UCSNAME
  2

  9
$UCSORG
 10
0.0
 20
0.0
 30
0.0
  9
$UCSXDIR
 10
1.0
 20
0.0
 30
0.0
  9
$UCSYDIR
 10
0.0
 20
1.0
 30
0.0
  9
$UCSORTHOREF
  2

  9
$UCSORTHOVIEW
 70
     0
  9
$UCSORGTOP
 10
0.0
 20
0.0
 30
0.0
  9
$UCSORGBOTTOM
 10
0.0
 20
0.0
 30
0.0
  9
$UCSORGLEFT
 10
0.0
 20
0.0
 30
0.0
  9
$UCSORGRIGHT
 10
0.0
 20
0.0
 30
0.0
  9
$UCSORGFRONT
 10
0.0
 20
0.0
 30
0.0
  9
$UCSORGBACK
 10
0.0
 20
0.0
 30
0.0
  9
$PUCSBASE
  2

  9
$PUCSNAME
  2

  9
$PUCSORG
 10
0.0
 20
0.0
 30
0.0
  9
$PUCSXDIR
 10
1.0
 20
0.0
 30
0.0
  9
$PUCSYDIR
 10
0.0
 20
1.0
 30
0.0
  9
$PUCSORTHOREF
  2

  9
$PUCSORTHOVIEW
 70
     0
  9
$PUCSORGTOP
 10
0.0
 20
0.0
 30
0.0
  9
$PUCSORGBOTTOM
 10
0.0
 20
0.0
 30
0.0
  9
$PUCSORGLEFT
 10
0.0
 20
0.0
 30
0.0
  9
$PUCSORGRIGHT
 10
0.0
 20
0.0
 30
0.0
  9
$PUCSORGFRONT
 10
0.0
 20
0.0
 30
0.0
  9
$PUCSORGBACK
 10
0.0
 20
0.0
 30
0.0
  9
$USERI1
 70
     0
  9
$USERI2
 70
     0
  9
$USERI3
 70
     0
  9
$USERI4
 70
     0
  9
$USERI5
 70
     0
  9
$USERR1
 40
0.0
  9
$USERR2
 40
0.0
  9
$USERR3
 40
0.0
  9
$USERR4
 40
0.0
  9
$USERR5
 40
0.0
  9
$WORLDVIEW
 70
     1
  9
$SHADEDGE
 70
     3
  9
$SHADEDIF
 70
    70
  9
$TILEMODE
 70
     1
  9
$MAXACTVP
 70
    16
  9
$PINSBASE
 10
0.0
 20
0.0
 30
0.0
  9
$PLIMCHECK
 70
     0
  9
$PEXTMIN
 10
1.000000000000000E+20
 20
1.000000000000000E+20
 30
1.000000000000000E+20
  9
$PEXTMAX
 10
-1.000000000000000E+20
 20
-1.000000000000000E+20
 30
-1.000000000000000E+20
  9
$PLIMMIN
 10
0.0
 20
0.0
  9
$PLIMMAX
 10
12.0
 20
9.0
  9
$UNITMODE
 70
     0
  9
$VISRETAIN
 70
     0
  9
$PLINEGEN
 70
     1
  9
$PSLTSCALE
 70
     0
  9
$TREEDEPTH
 70
  3020
  9
$CMLSTYLE
  2
STANDARD
  9
$CMLJUST
 70
     0
  9
$CMLSCALE
 40
1.0
  9
$PROXYGRAPHICS
 70
     1
  9
$MEASUREMENT
 70
     0
  9
$CELWEIGHT
370
    -1
  9
$ENDCAPS
280
     0
  9
$JOINSTYLE
280
     0
  9
$LWDISPLAY
290
     0
  9
$INSUNITS
 70
     0
  9
$HYPERLINKBASE
  1

  9
$STYLESHEET
  1

  9
$XEDIT
290
     1
  9
$CEPSNTYPE
380
     0
  9
$PSTYLEMODE
290
     1
  9
$FINGERPRINTGUID
  2
{C9ECA382-FF7D-46B2-AF67-BB00792412CF}
  9
$VERSIONGUID
  2
{55742EA7-F7FF-4BF4-939D-AF9C7910904A}
  9
$EXTNAMES
290
     1
  9
$PSVPSCALE
 40
0.0
  9
$OLESTARTUP
290
     0
  0
ENDSEC
  0
SECTION
  2
CLASSES
  0
CLASS
  1
LWPOLYLINE
  2
AcDbPolyline
  3
AutoCAD 2000
 90
    32768
280
     0
281
     1
  0
CLASS
  1
IMAGE
  2
AcDbRasterImage
  3
ISM
 90
    32895
280
     0
281
     1
  0
CLASS
  1
OLE2FRAME
  2
AcDbOle2Frame
  3
AutoCAD 2000
 90
    32768
280
     0
281
     1
  0
CLASS
  1
HATCH
  2
AcDbHatch
  3
AutoCAD 2000
 90
    32768
280
     0
281
     1
  0
CLASS
  1
DICTIONARYVAR
  2
AcDbDictionaryVar
  3
AutoCAD 2000
 90
        0
280
     0
281
     0
  0
CLASS
  1
RASTERVARIABLES
  2
AcDbRasterVariables
  3
ISM
 90
    32768
280
     0
281
     0
  0
CLASS
  1
IMAGEDEF
  2
AcDbRasterImageDef
  3
ISM
 90
    32768
280
     0
281
     0
  0
CLASS
  1
IMAGEDEF_REACTOR
  2
AcDbRasterImageDefReactor
  3
ISM
 90
    32769
280
     0
281
     0
  0
CLASS
  1
IDBUFFER
  2
AcDbIdBuffer
  3
AutoCAD 2000
 90
    32768
280
     0
281
     0
  0
CLASS
  1
SPATIAL_FILTER
  2
AcDbSpatialFilter
  3
AutoCAD 2000
 90
    32768
280
     0
281
     0
  0
CLASS
  1
XRECORD
  2
AcDbXrecord
  3
AutoCAD 2000
 90
    32768
280
     0
281
     0
  0
CLASS
  1
SORTENTSTABLE
  2
AcDbSortentsTable
  3
AutoCAD 2000
 90
    32768
280
     0
281
     0
  0
CLASS
  1
LAYER_INDEX
  2
AcDbLayerIndex
  3
AutoCAD 2000
 90
    32768
280
     0
281
     0
  0
CLASS
  1
SPATIAL_INDEX
  2
AcDbSpatialIndex
  3
AutoCAD 2000
 90
    32768
280
     0
281
     0
  0
CLASS
  1
OBJECT_PTR
  2
CAseDLPNTableRecord
  3
ASE-LPNTableRecord
 90
    32769
280
     0
281
     0
  0
CLASS
  1
LAYOUT
  2
AcDbLayout
  3
AutoCAD 2000
 90
        0
280
     0
281
     0
  0
CLASS
  1
PLOTSETTINGS
  2
AcDbPlotSettings
  3
AutoCAD 2000
 90
    32768
280
     0
281
     0
  0
CLASS
  1
ACDBDICTIONARYWDFLT
  2
AcDbDictionaryWithDefault
  3
AutoCAD 2000
 90
        0
280
     0
281
     0
  0
CLASS
  1
ACDBPLACEHOLDER
  2
AcDbPlaceHolder
  3
AutoCAD 2000
 90
        0
280
     0
281
     0
  0
CLASS
  1
VBA_PROJECT
  2
AcDbVbaProject
  3
acadvba
 90
    32768
280
     0
281
     0
  0
CLASS
  1
WIPEOUT
  2
AcDbWipeout
  3
WipeOut|AutoCAD Express Tool|expresstools@autodesk.com
 90
    32768
280
     1
281
     1
  0
CLASS
  1
WIPEOUTVARIABLES
  2
AcDbWipeoutVariables
  3
WipeOut|AutoCAD Express Tool|expresstools@autodesk.com
 90
    32768
280
     1
281
     0
  0
CLASS
  1
RTEXT
  2
RText
  3
RText|AutoCAD Express Tool|expresstools@autodesk.com
 90
    32768
280
     1
281
     1
  0
CLASS
  1
ARCALIGNEDTEXT
  2
AcDbArcAlignedText
  3
ATEXT|AutoCAD Express Tool|expresstools@autodesk.com
 90
    32768
280
     1
281
     1
  0
CLASS
  1
LONG_TRANSACTION
  2
AcDbLongTransaction
  3
AutoCAD 2000
 90
    32768
280
     0
281
     0
  0
CLASS
  1
LWPOLYLINE
  2
AcDbPolyline
  3
AutoCAD 2000
 90
    32768
280
     0
281
     1
  0
CLASS
  1
HATCH
  2
AcDbHatch
  3
AutoCAD 2000
 90
    32768
280
     0
281
     1
  0
CLASS
  1
XRECORD
  2
AcDbXrecord
  3
AutoCAD 2000
 90
    32768
280
     0
281
     0
  0
ENDSEC
  0
SECTION
  2
TABLES
  0
TABLE
  2
VPORT
  5
1D
330
0
100
AcDbSymbolTable
 70
     3
  0
VPORT
  5
103
330
1D
100
AcDbSymbolTableRecord
100
AcDbViewportTableRecord
  2
*Active
 70
     0
 10
0.0
 20
0.0
 11
1.0
 21
1.0
 12
4.438712125730518
 22
14.43735136098024
 13
0.0
 23
0.0
 14
1.0
 24
1.0
 15
0.0
 25
0.0
 16
0.0
 26
0.0
 36
1.0
 17
0.0
 27
0.0
 37
0.0
 40
48.66692154206214
 41
1.786792452830188
 42
50.0
 43
0.0
 44
0.0
 50
0.0
 51
0.0
 71
     0
 72
   100
 73
     1
 74
     1
 75
     0
 76
     0
 77
     0
 78
     0
281
     0
 65
     1
110
0.0
120
0.0
130
0.0
111
1.0
121
0.0
131
0.0
112
0.0
122
1.0
132
0.0
 79
     0
146
0.0
  0
ENDTAB
  0
TABLE
  2
LTYPE
  5
18
330
0
100
AcDbSymbolTable
 70
     3
  0
LTYPE
  5
19
330
18
100
AcDbSymbolTableRecord
100
AcDbLinetypeTableRecord
  2
BYBLOCK
 70
     0
  3

 72
    65
 73
     0
 40
0.0
  0
LTYPE
  5
1A
330
18
100
AcDbSymbolTableRecord
100
AcDbLinetypeTableRecord
  2
BYLAYER
 70
     0
  3

 72
    65
 73
     0
 40
0.0
  0
LTYPE
  5
8
330
18
100
AcDbSymbolTableRecord
100
AcDbLinetypeTableRecord
  2
CONTINUOUS
 70
     0
  3
Solid line
 72
    65
 73
     0
 40
0.0
  0
LTYPE
  5
34
330
18
100
AcDbSymbolTableRecord
100
AcDbLinetypeTableRecord
  2
CENTER
 70
     0
  3
____ _ ____ _ ____ _ ____ _ ____ _ ____ _ ____
 72
    65
 73
     4
 40
0.6
 49
0.375
 74
     0
 49
-0.075
 74
     0
 49
0.075
 74
     0
 49
-0.075
 74
     0
  0
ENDTAB
  0
TABLE
  2
LAYER
  5
10
102
{ACAD_XDICTIONARY
360
11
102
}
330
0
100
AcDbSymbolTable
 70
     3
  0
LAYER
  5
4
330
10
100
AcDbSymbolTableRecord
100
AcDbLayerTableRecord
  2
0
 70
     0
 62
     7
  6
CONTINUOUS
370
    -3
390
5
  0
LAYER
  5
33
330
10
100
AcDbSymbolTableRecord
100
AcDbLayerTableRecord
  2
CENTER
 70
     0
 62
     1
  6
CENTER
370
    13
390
5
  0
LAYER
  5
BA
330
10
100
AcDbSymbolTableRecord
100
AcDbLayerTableRecord
  2
DEFPOINTS
 70
     0
 62
     7
  6
CONTINUOUS
290
     0
370
    -3
390
5
  0
ENDTAB
  0
TABLE
  2
STYLE
  5
15
330
0
100
AcDbSymbolTable
 70
     1
  0
STYLE
  5
16
330
15
100
AcDbSymbolTableRecord
100
AcDbTextStyleTableRecord
  2
STANDARD
 70
     0
 40
0.0
 41
1.0
 50
0.0
 71
     0
 42
0.0
  3
txt
  4

  0
ENDTAB
  0
TABLE
  2
VIEW
  5
1B
330
0
100
AcDbSymbolTable
 70
     0
  0
ENDTAB
  0
TABLE
  2
UCS
  5
1C
330
0
100
AcDbSymbolTable
 70
     0
  0
ENDTAB
  0
TABLE
  2
APPID
  5
1F
330
0
100
AcDbSymbolTable
 70
     2
  0
APPID
  5
20
330
1F
100
AcDbSymbolTableRecord
100
AcDbRegAppTableRecord
  2
ACAD
 70
     0
  0
APPID
  5
101
330
1F
100
AcDbSymbolTableRecord
100
AcDbRegAppTableRecord
  2
DCO15
 70
     0
  0
ENDTAB
  0
TABLE
  2
DIMSTYLE
  5
21
330
0
100
AcDbSymbolTable
 70
     1
100
AcDbDimStyleTable
 71
     0
  0
DIMSTYLE
105
22
330
21
100
AcDbSymbolTableRecord
100
AcDbDimStyleTableRecord
  2
STANDARD
 70
     0
  4
cm
 47
1.0
 48
1.0
140
0.125
143
2.54
144
16.0
170
     1
276
     1
277
     5
289
     0
340
16
  0
ENDTAB
  0
TABLE
  2
BLOCK_RECORD
  5
1
330
0
100
AcDbSymbolTable
 70
     1
  0
BLOCK_RECORD
  5
2
102
{ACAD_XDICTIONARY
360
9C
102
}
330
1
100
AcDbSymbolTableRecord
100
AcDbBlockTableRecord
  2
*MODEL_SPACE
340
A
  0
BLOCK_RECORD
  5
C
102
{ACAD_XDICTIONARY
360
A2
102
}
330
1
100
AcDbSymbolTableRecord
100
AcDbBlockTableRecord
  2
*PAPER_SPACE
340
F
  0
ENDTAB
  0
ENDSEC
  0
SECTION
  2
BLOCKS
  0
BLOCK
  5
3
330
2
100
AcDbEntity
  8
0
100
AcDbBlockBegin
  2
*MODEL_SPACE
 70
     0
 10
0.0
 20
0.0
 30
0.0
  3
*MODEL_SPACE
  1

  0
ENDBLK
  5
9
330
2
100
AcDbEntity
  8
0
100
AcDbBlockEnd
  0
BLOCK
  5
D
330
C
100
AcDbEntity
 67
     1
  8
0
100
AcDbBlockBegin
  2
*PAPER_SPACE
 70
     0
 10
0.0
 20
0.0
 30
0.0
  3
*PAPER_SPACE
  1

  0
ENDBLK
  5
E
330
C
100
AcDbEntity
 67
     1
  8
0
100
AcDbBlockEnd
  0
ENDSEC
  0
SECTION
  2
ENTITIES
  0
LINE
  5
28
330
2
100
AcDbEntity
  8
0
100
AcDbLine
 10
40.250713496
 20
32.43782905270001
 30
0.0
 11
-31.375713496
 21
32.43782905270001
 31
0.0
  0
LINE
  5
29
330
2
100
AcDbEntity
  8
0
100
AcDbLine
 10
-31.0407332512
 20
32.10284880949998
 30
0.0
 11
39.91573325119999
 21
32.10284880949998
 31
0.0
  0
LINE
  5
2A
330
2
100
AcDbEntity
  8
0
100
AcDbLine
 10
38.49352450879999
 20
28.52251776630001
 30
0.0
 11
-29.6185245088
 21
28.52251776630001
 31
0.0
  0
LINE
  5
2B
330
2
100
AcDbEntity
  8
0
100
AcDbLine
 10
-17.00774900319999
 20
3.678650569499996
 30
0.0
 11
25.8827490032
 21
3.678650569499996
 31
0.0
  0
LINE
  5
2C
330
2
100
AcDbEntity
  8
0
100
AcDbLine
 10
-31.0407332512
 20
-3.227190704099992
 30
0.0
 11
39.91573325119999
 21
-3.227190704099992
 31
0.0
  0
LINE
  5
2D
330
2
100
AcDbEntity
  8
0
100
AcDbLine
 10
40.250713496
 20
-3.5621709473
 30
0.0
 11
-31.375713496
 21
-3.5621709473
 31
0.0
  0
LINE
  5
2E
330
2
100
AcDbEntity
  8
0
100
AcDbLine
 10
38.49352450879999
 20
0.3531403374999975
 30
0.0
 11
-29.6185245088
 21
0.3531403374999975
 31
0.0
  0
ARC
  5
2F
330
2
100
AcDbEntity
  8
0
  6
Continuous
 48
0.5
100
AcDbCircle
 10
4.4375
 20
38.38403899510001
 30
0.0
 40
13.12054
100
AcDbArc
 50
241.7525634181005
 51
298.2474365819006
  0
ARC
  5
31
330
2
100
AcDbEntity
  8
0
  6
Continuous
 48
0.5
100
AcDbCircle
 10
4.4375
 20
38.38403899510001
 30
0.0
 40
14.37054
100
AcDbArc
 50
245.3218291812005
 51
294.6781708188007
  0
LINE
  5
32
330
2
100
AcDbEntity
  8
CENTER
 48
4.0
100
AcDbLine
 10
8.796776480737804
 20
7.687829052699999
 30
0.0
 11
0.0782235192621954
 21
7.687829052699999
 31
0.0
  0
LINE
  5
35
330
2
100
AcDbEntity
  8
0
100
AcDbLine
 10
-31.22751975679999
 20
-3.040404198499995
 30
0.0
 11
-31.22751975679999
 21
31.91606230229999
 31
0.0
  0
LINE
  5
36
330
2
100
AcDbEntity
  8
0
100
AcDbLine
 10
-31.5625
 20
-3.375384451299989
 30
0.0
 11
-31.5625
 21
32.25104255669998
 31
0.0
  0
CIRCLE
  5
37
330
2
100
AcDbEntity
  8
0
100
AcDbCircle
 10
4.4375
 20
7.687829052699999
 30
0.0
 40
1.3232195008
  0
CIRCLE
  5
38
330
2
100
AcDbEntity
  8
0
100
AcDbCircle
 10
4.4375
 20
7.687829052699999
 30
0.0
 40
1.978545871999999
  0
LINE
  5
39
330
2
100
AcDbEntity
  8
0
100
AcDbLine
 10
-19.3925512944
 20
3.977043775900003
 30
0.0
 11
-19.3925512944
 21
24.89861432789999
 31
0.0
  0
LINE
  5
3A
330
2
100
AcDbEntity
  8
0
100
AcDbLine
 10
-29.6185245088
 20
0.3531403374999975
 30
0.0
 11
-29.6185245088
 21
28.52251776630001
 31
0.0
  0
LINE
  5
3B
330
2
100
AcDbEntity
  8
CENTER
 48
4.0
100
AcDbLine
 10
4.4375
 20
12.25477620904759
 30
0.0
 11
4.4375
 21
3.120881896352406
 31
0.0
  0
SPLINE
  5
3C
330
2
100
AcDbEntity
  8
0
100
AcDbSpline
210
0.0
220
0.0
230
1.0
 70
     8
 71
     3
 72
    10
 73
     6
 74
     4
 42
0.0000000001
 43
0.0000000001
 44
0.0000000001
 40
0.0
 40
0.0
 40
0.0
 40
0.0
 40
0.0964178438523704
 40
0.1930163234842316
 40
0.2894341673366001
 40
0.2894341673366001
 40
0.2894341673366001
 40
0.2894341673366001
 10
-31.22751975679999
 20
-3.040404198499999
 30
0.0
 10
-31.22226099140736
 20
-3.072654321479594
 30
0.0
 10
-31.21173360849153
 20
-3.137214987023691
 30
0.0
 10
-31.13754403972369
 20
-3.211404555791533
 30
0.0
 10
-31.07298337417959
 20
-3.221931938707361
 30
0.0
 10
-31.0407332512
 20
-3.227190704099996
 30
0.0
 11
-31.22751975679999
 21
-3.040404198499999
 31
0.0
 11
-31.202024736
 21
-3.133390243299999
 31
0.0
 11
-31.133719296
 21
-3.201695683300002
 31
0.0
 11
-31.0407332512
 21
-3.227190704099996
 31
0.0
  0
SPLINE
  5
3D
330
2
100
AcDbEntity
  8
0
100
AcDbSpline
210
0.0
220
0.0
230
1.0
 70
     8
 71
     3
 72
    11
 73
     7
 74
     5
 42
0.0000000001
 43
0.0000000001
 44
0.0000000001
 40
0.0
 40
0.0
 40
0.0
 40
0.0
 40
0.0726414343515537
 40
0.1454303460931972
 40
0.2182192587269357
 40
0.2908606927564027
 40
0.2908606927564027
 40
0.2908606927564027
 40
0.2908606927564027
 10
-31.5625
 20
-3.375384441700006
 30
0.0
 10
-31.55952752646674
 20
-3.399753575967897
 30
0.0
 10
-31.55357654465376
 20
-3.448541318971697
 30
0.0
 10
-31.51033039661935
 20
-3.510001344121669
 30
0.0
 10
-31.44887037225222
 20
-3.553247494137808
 30
0.0
 10
-31.40008262872552
 20
-3.559198474510826
 30
0.0
 10
-31.3757134944
 20
-3.562170947300003
 30
0.0
 11
-31.5625
 21
-3.375384441700006
 31
0.0
 11
-31.5478766592
 21
-3.446538752099996
 31
0.0
 11
-31.5072926992
 21
-3.506963646499997
 31
0.0
 11
-31.4468678048
 21
-3.547547608100003
 31
0.0
 11
-31.3757134944
 21
-3.562170947300003
 31
0.0
  0
SPLINE
  5
3E
330
2
100
AcDbEntity
  8
0
100
AcDbSpline
210
0.0
220
0.0
230
1.0
 70
     8
 71
     3
 72
    10
 73
     6
 74
     4
 42
0.0000000001
 43
0.0000000001
 44
0.0000000001
 40
0.0
 40
0.0
 40
0.0
 40
0.0
 40
0.1761787758977857
 40
0.3376779245238288
 40
0.480981869155753
 40
0.480981869155753
 40
0.480981869155753
 40
0.480981869155753
 10
-27.5152084496
 20
0.848274371100004
 30
0.0
 10
-27.45709081346165
 20
0.8567104246710899
 30
0.0
 10
-27.34569803842718
 20
0.8728796201178155
 30
0.0
 10
-27.18774011033437
 20
0.9006505159759168
 30
0.0
 10
-27.08853621167518
 20
0.9226327275651293
 30
0.0
 10
-27.041895248
 20
0.9329677199000059
 30
0.0
 11
-27.5152084496
 21
0.848274371100004
 31
0.0
 11
-27.3409908016
 21
0.8744883406999974
 31
0.0
 11
-27.1820161152
 21
0.9029316894999936
 31
0.0
 11
-27.041895248
 21
0.9329677199000059
 31
0.0
  0
SPLINE
  5
3F
330
2
100
AcDbEntity
  8
0
100
AcDbSpline
210
0.0
220
0.0
230
1.0
 70
     8
 71
     3
 72
    19
 73
    15
 74
    13
 42
0.0000000001
 43
0.0000000001
 44
0.0000000001
 40
0.0
 40
0.0
 40
0.0
 40
0.0
 40
0.282681885976344
 40
0.5435645757399124
 40
0.7832264847108666
 40
1.002186458990938
 40
1.201065247616474
 40
1.38111567223737
 40
1.544151600798454
 40
1.692285640968194
 40
1.827638697733388
 40
1.951658644225592
 40
2.064173596842157
 40
2.164027624081291
 40
2.164027624081291
 40
2.164027624081291
 40
2.164027624081291
 10
-29.6185245088
 20
0.353140337499994
 30
0.0
 10
-29.52799393939267
 20
0.3792746522113046
 30
0.0
 10
-29.35391412390885
 20
0.429527917075597
 30
0.0
 10
-29.10285111134019
 20
0.5011395848998932
 30
0.0
 10
-28.87182682977552
 20
0.5655563874442875
 30
0.0
 10
-28.66021806279105
 20
0.6226295530619798
 30
0.0
 10
-28.46723672934849
 20
0.6724213310262423
 30
0.0
 10
-28.29171473066423
 20
0.715206283133266
 30
0.0
 10
-28.13202548750054
 20
0.7514412832300397
 30
0.0
 10
-27.98626914656171
 20
0.7816315491676744
 30
0.0
 10
-27.85267112179113
 20
0.8062732251234335
 30
0.0
 10
-27.73019505789256
 20
0.8254714091440025
 30
0.0
 10
-27.61894968811761
 20
0.8398099996543189
 30
0.0
 10
-27.54838659541682
 20
0.845567326591132
 30
0.0
 10
-27.5152084496
 20
0.848274371100004
 30
0.0
 11
-29.6185245088
 21
0.353140337499994
 31
0.0
 11
-29.346889624
 21
0.4313933759000009
 31
0.0
 11
-29.0959756032
 21
0.5028211854999967
 31
0.0
 11
-28.865085744
 21
0.5670683918999942
 31
0.0
 11
-28.6536481216
 21
0.6239683231000015
 31
0.0
 11
-28.4610455904
 21
0.673536836699995
 31
0.0
 11
-28.28608866719999
 21
0.7160601294999936
 31
0.0
 11
-28.12706675359999
 21
0.7520148927000037
 31
0.0
 11
-27.9819874192
 21
0.7819428158999955
 31
0.0
 11
-27.84885014559999
 21
0.8063337230999962
 31
0.0
 11
-27.7263170496
 21
0.8254801982999993
 31
0.0
 11
-27.6146695568
 21
0.8394247999000015
 31
0.0
 11
-27.5152084496
 21
0.848274371100004
 31
0.0
  0
SPLINE
  5
40
330
2
100
AcDbEntity
  8
0
100
AcDbSpline
210
0.0
220
0.0
230
1.0
 70
     8
 71
     3
 72
    11
 73
     7
 74
     5
 42
0.0000000001
 43
0.0000000001
 44
0.0000000001
 40
0.0
 40
0.0
 40
0.0
 40
0.0
 40
0.1895295935825889
 40
0.3791903208954142
 40
0.5663242383277006
 40
0.749613832283688
 40
0.749613832283688
 40
0.749613832283688
 40
0.749613832283688
 10
-19.3925314448
 20
3.9770437759
 30
0.0
 10
-19.38316900989973
 20
3.91379172627308
 30
0.0
 10
-19.36443766231919
 20
3.787243863525338
 30
0.0
 10
-19.25413666193527
 20
3.627576101984612
 30
0.0
 10
-19.1002686117216
 20
3.511689161706596
 30
0.0
 10
-18.97672269995926
 20
3.491767297843837
 30
0.0
 10
-18.91559083519999
 20
3.481909742300004
 30
0.0
 11
-19.3925314448
 21
3.9770437759
 31
0.0
 11
-19.350673112
 21
3.792194251099999
 31
0.0
 11
-19.24601136959999
 21
3.634026267099997
 31
0.0
 11
-19.09365336319999
 21
3.525370199899995
 31
0.0
 11
-18.91559083519999
 21
3.481909742300004
 31
0.0
  0
SPLINE
  5
41
330
2
100
AcDbEntity
  8
0
100
AcDbSpline
210
0.0
220
0.0
230
1.0
 70
     8
 71
     3
 72
    13
 73
     9
 74
     7
 42
0.0000000001
 43
0.0000000001
 44
0.0000000001
 40
0.0
 40
0.0
 40
0.0
 40
0.0
 40
0.1763518269543066
 40
0.4267318875758386
 40
0.7424552562039512
 40
1.109154353955308
 40
1.509197456015089
 40
1.925303382749028
 40
1.925303382749028
 40
1.925303382749028
 40
1.925303382749028
 10
-18.91559083519999
 20
3.481909742300004
 30
0.0
 10
-18.86001463465102
 20
3.501314541620257
 30
0.0
 10
-18.72553268811183
 20
3.548269805906277
 30
0.0
 10
-18.48059737428323
 20
3.589459955368333
 30
0.0
 10
-18.17238528183668
 20
3.628982221815339
 30
0.0
 10
-17.81243039271165
 20
3.656856127786694
 30
0.0
 10
-17.41852767011834
 20
3.675264317653385
 30
0.0
 10
-17.14646010118653
 20
3.677507105270885
 30
0.0
 10
-17.00774900319999
 20
3.678650569499993
 30
0.0
 11
-18.91559083519999
 21
3.481909742300004
 31
0.0
 11
-18.7477868832
 21
3.536148110300004
 31
0.0
 11
-18.50209692319999
 21
3.584383142299998
 31
0.0
 11
-18.18891916799999
 21
3.624394879899995
 31
0.0
 11
-17.82343423199999
 21
3.6542108127
 31
0.0
 11
-17.42380949439999
 21
3.672501591900001
 31
0.0
 11
-17.00774900319999
 21
3.678650569499993
 31
0.0
  0
SPLINE
  5
42
330
2
100
AcDbEntity
  8
0
100
AcDbSpline
210
0.0
220
0.0
230
1.0
 70
     8
 71
     3
 72
    10
 73
     6
 74
     4
 42
0.0000000001
 43
0.0000000001
 44
0.0000000001
 40
0.0
 40
0.0
 40
0.0
 40
0.0
 40
3.278703209104526
 40
6.124154817253031
 40
8.526979765893019
 40
8.526979765893019
 40
8.526979765893019
 40
8.526979765893019
 10
-27.041895248
 20
0.9329677199000059
 30
0.0
 10
-25.98119353031886
 20
1.196075376439721
 30
0.0
 10
-23.999952435984
 20
1.68752334214136
 30
0.0
 10
-21.27684882019858
 20
2.515279642958406
 30
0.0
 10
-19.65714283166802
 20
3.178339999151724
 30
0.0
 10
-18.91559083519999
 20
3.481909742300004
 30
0.0
 11
-27.041895248
 21
0.9329677199000059
 31
0.0
 11
-23.867094176
 21
1.751828444699995
 31
0.0
 11
-21.1520559904
 21
2.603393183899996
 31
0.0
 11
-18.91559083519999
 21
3.481909742300004
 31
0.0
  0
LWPOLYLINE
  5
43
330
2
100
AcDbEntity
  8
0
100
AcDbPolyline
 90
        9
 70
     0
 43
0.0
 10
5.685762457600006
 20
1.3909202671
 10
5.499340638399999
 20
1.441840603100004
 10
5.208971030399993
 20
1.482252657499998
 10
4.843088727999997
 20
1.508198377499994
 10
4.4375
 20
1.517138801499996
 10
4.031911272000002
 20
1.508198377499994
 10
3.666028969600006
 20
1.482252657499998
 10
3.3756593616
 20
1.441840603100004
 10
3.189237542399993
 20
1.3909202671
  0
LWPOLYLINE
  5
44
330
2
100
AcDbEntity
  8
0
100
AcDbPolyline
 90
        8
 70
     0
 43
0.0
 10
3.333354737600004
 20
1.251191055899994
 10
3.577995286399996
 20
1.211898279899997
 10
3.892267795199998
 20
1.183789393500006
 10
4.250711774400002
 20
1.169141612700002
 10
4.624288225599997
 20
1.169141612700002
 10
4.982732204800001
 20
1.183789393500006
 10
5.297004713600003
 20
1.211898279899997
 10
5.541645262399995
 20
1.251191055899994
  0
LINE
  5
45
330
2
100
AcDbEntity
  8
0
100
AcDbLine
 10
5.541645262399995
 20
1.251191055899997
 30
0.0
 11
5.696834527999996
 21
1.298484454299998
 31
0.0
  0
LINE
  5
46
330
2
100
AcDbEntity
  8
0
  6
Continuous
 62
     7
100
AcDbLine
 10
5.696834527999996
 20
1.298484454299998
 30
0.0
 11
5.75
 21
1.349947044700005
 31
0.0
  0
LWPOLYLINE
  5
47
330
2
100
AcDbEntity
  8
0
  6
Continuous
 62
     7
100
AcDbPolyline
 90
        3
 70
     0
 43
0.0
 10
5.75
 20
1.349947044700002
 10
5.696834527999996
 20
1.401409636699995
 10
5.541645262399995
 20
1.448703035099995
  0
LINE
  5
48
330
2
100
AcDbEntity
  8
0
  6
Continuous
 62
     7
100
AcDbLine
 10
5.741621212799998
 20
1.341836628699997
 30
0.0
 11
5.685762457600006
 21
1.390920267100003
 31
0.0
  0
LWPOLYLINE
  5
49
330
2
100
AcDbEntity
  8
0
  6
Continuous
 62
     7
100
AcDbPolyline
 90
        3
 70
     0
 43
0.0
 10
3.333354737600004
 20
1.448703035099995
 10
3.178165472000003
 20
1.401409636699995
 10
3.125
 20
1.349947044700002
  0
LINE
  5
4A
330
2
100
AcDbEntity
  8
0
  6
Continuous
 62
     7
100
AcDbLine
 10
3.189237542399993
 20
1.390920267100003
 30
0.0
 11
3.133378787200001
 21
1.341836628699997
 31
0.0
  0
LWPOLYLINE
  5
4B
330
2
100
AcDbEntity
  8
0
  6
Continuous
 62
     7
100
AcDbPolyline
 90
        3
 70
     0
 43
0.0
 10
3.125
 20
1.349947044700002
 10
3.178165472000003
 20
1.298484454299995
 10
3.333354737600004
 20
1.251191055899994
  0
LWPOLYLINE
  5
4C
330
2
100
AcDbEntity
  8
0
  6
Continuous
 62
     7
100
AcDbPolyline
 90
        8
 70
     0
 43
0.0
 10
5.541645262399995
 20
1.448703035099995
 10
5.297004713600003
 20
1.487995811100006
 10
4.982732204800001
 20
1.516104695899997
 10
4.624288225599997
 20
1.530752476700001
 10
4.250711774400002
 20
1.530752476700001
 10
3.892267795199998
 20
1.516104695899997
 10
3.577995286399996
 20
1.487995811100006
 10
3.333354737600004
 20
1.448703035099995
  0
LINE
  5
4D
330
2
100
AcDbEntity
  8
0
100
AcDbLine
 10
-17.00774900319999
 20
25.19700753430001
 30
0.0
 11
-1.236596012800006
 21
25.19700753430001
 31
0.0
  0
SPLINE
  5
4E
330
2
100
AcDbEntity
  8
0
100
AcDbSpline
210
0.0
220
0.0
230
1.0
 70
     8
 71
     3
 72
    10
 73
     6
 74
     4
 42
0.0000000001
 43
0.0000000001
 44
0.0000000001
 40
0.0
 40
0.0
 40
0.0
 40
0.0
 40
0.1761787756597208
 40
0.3376779245675546
 40
0.4809818688641271
 40
0.4809818688641271
 40
0.4809818688641271
 40
0.4809818688641271
 10
-27.5152084496
 20
28.0273837327
 30
0.0
 10
-27.45709081339451
 20
28.0189476800513
 30
0.0
 10
-27.34569803806643
 20
28.00277848634854
 30
0.0
 10
-27.18774011072757
 20
27.97500758687353
 30
0.0
 10
-27.08853621173226
 20
27.95302537700398
 30
0.0
 10
-27.041895248
 20
27.94269038549998
 30
0.0
 11
-27.5152084496
 21
28.0273837327
 31
0.0
 11
-27.3409908016
 21
28.00116976469999
 31
0.0
 11
-27.1820161152
 21
27.97272641430001
 31
0.0
 11
-27.041895248
 21
27.94269038549998
 31
0.0
  0
SPLINE
  5
4F
330
2
100
AcDbEntity
  8
0
100
AcDbSpline
210
0.0
220
0.0
230
1.0
 70
     8
 71
     3
 72
    19
 73
    15
 74
    13
 42
0.0000000001
 43
0.0000000001
 44
0.0000000001
 40
0.0
 40
0.0
 40
0.0
 40
0.0
 40
0.2826818859763479
 40
0.5435645753018436
 40
0.7832264842728016
 40
1.002186458552873
 40
1.201065247577189
 40
1.381115672198089
 40
1.544151600759172
 40
1.692285640928909
 40
1.827638697405781
 40
1.951658643897986
 40
2.064173596712849
 40
2.164027623951982
 40
2.164027623951982
 40
2.164027623951982
 40
2.164027623951982
 10
-29.6185245088
 20
28.52251776630001
 30
0.0
 10
-29.52799393944838
 20
28.49638345139249
 30
0.0
 10
-29.35391412421196
 20
28.44613018619142
 30
0.0
 10
-29.10285111104791
 20
28.37451852099883
 30
0.0
 10
-28.87182682985604
 20
28.3101017176553
 30
0.0
 10
-28.66021806249764
 20
28.25302855294061
 30
0.0
 10
-28.46723672960174
 20
28.20323677232815
 30
0.0
 10
-28.29171473064523
 20
28.16045182072601
 30
0.0
 10
-28.13202548747402
 20
28.12421682071962
 30
0.0
 10
-27.98626914676235
 20
28.09402655408694
 30
0.0
 10
-27.85267112162747
 20
28.06938488057506
 30
0.0
 10
-27.73019505776922
 20
28.05018669676519
 30
0.0
 10
-27.61894968823651
 20
28.03584810371523
 30
0.0
 10
-27.54838659543378
 20
28.03009077706949
 30
0.0
 10
-27.5152084496
 20
28.0273837327
 30
0.0
 11
-29.6185245088
 21
28.52251776630001
 31
0.0
 11
-29.346889624
 21
28.44426472789999
 31
0.0
 11
-29.0959756032
 21
28.3728369199
 31
0.0
 11
-28.865085744
 21
28.3085897135
 31
0.0
 11
-28.6536481216
 21
28.25168978229999
 31
0.0
 11
-28.4610455904
 21
28.20212126710001
 31
0.0
 11
-28.28608866719999
 21
28.1595979743
 31
0.0
 11
-28.12706675359999
 21
28.12364321109999
 31
0.0
 11
-27.9819874192
 21
28.09371528790001
 31
0.0
 11
-27.84885014559999
 21
28.06932438230001
 31
0.0
 11
-27.7263170496
 21
28.05017790709999
 31
0.0
 11
-27.6146695568
 21
28.03623330389999
 31
0.0
 11
-27.5152084496
 21
28.0273837327
 31
0.0
  0
SPLINE
  5
50
330
2
100
AcDbEntity
  8
0
100
AcDbSpline
210
0.0
220
0.0
230
1.0
 70
     8
 71
     3
 72
    11
 73
     7
 74
     5
 42
0.0000000001
 43
0.0000000001
 44
0.0000000001
 40
0.0
 40
0.0
 40
0.0
 40
0.0
 40
0.1895295951430801
 40
0.3791903211215936
 40
0.5663242394828924
 40
0.749613833059498
 40
0.749613833059498
 40
0.749613833059498
 40
0.749613833059498
 10
-19.3925314448
 20
24.89861432789999
 30
0.0
 10
-19.38316901011376
 20
24.96186637819392
 30
0.0
 10
-19.36443766310448
 20
25.0884142413097
 30
0.0
 10
-19.25413666083343
 20
25.2480820016811
 30
0.0
 10
-19.10026861253109
 20
25.36396894434285
 30
0.0
 10
-18.97672270008189
 20
25.38389080672422
 30
0.0
 10
-18.91559083519999
 20
25.3937483615
 30
0.0
 11
-19.3925314448
 21
24.89861432789999
 31
0.0
 11
-19.350673112
 21
25.08346385429999
 31
0.0
 11
-19.24601136959999
 21
25.24163183670001
 31
0.0
 11
-19.09365336319999
 21
25.35028790550001
 31
0.0
 11
-18.91559083519999
 21
25.3937483615
 31
0.0
  0
SPLINE
  5
51
330
2
100
AcDbEntity
  8
0
100
AcDbSpline
210
0.0
220
0.0
230
1.0
 70
     8
 71
     3
 72
    10
 73
     6
 74
     4
 42
0.0000000001
 43
0.0000000001
 44
0.0000000001
 40
0.0
 40
0.0
 40
0.0
 40
0.0
 40
3.278703209104523
 40
6.124154817253027
 40
8.526979766478005
 40
8.526979766478005
 40
8.526979766478005
 40
8.526979766478005
 10
-27.041895248
 20
27.94269038549998
 30
0.0
 10
-25.98119353033784
 20
27.679582728912
 30
0.0
 10
-23.99995243603842
 20
27.18813476312021
 30
0.0
 10
-21.27684881983899
 20
26.36037846282432
 30
0.0
 10
-19.65714283162223
 20
25.69731810529844
 30
0.0
 10
-18.91559083519999
 20
25.3937483615
 30
0.0
 11
-27.041895248
 21
27.94269038549998
 31
0.0
 11
-23.867094176
 21
27.12382966070001
 31
0.0
 11
-21.1520559904
 21
26.27226492150001
 31
0.0
 11
-18.91559083519999
 21
25.3937483615
 31
0.0
  0
SPLINE
  5
52
330
2
100
AcDbEntity
  8
0
100
AcDbSpline
210
0.0
220
0.0
230
1.0
 70
     8
 71
     3
 72
    13
 73
     9
 74
     7
 42
0.0000000001
 43
0.0000000001
 44
0.0000000001
 40
0.0
 40
0.0
 40
0.0
 40
0.0
 40
0.1763518269543066
 40
0.4267318875758413
 40
0.7424552562039541
 40
1.109154353955311
 40
1.509197456015091
 40
1.92530338274903
 40
1.92530338274903
 40
1.92530338274903
 40
1.92530338274903
 10
-18.91559083519999
 20
25.3937483615
 30
0.0
 10
-18.86001463465102
 20
25.37434356217975
 30
0.0
 10
-18.72553268811183
 20
25.32738829789373
 30
0.0
 10
-18.48059737428324
 20
25.28619814843165
 30
0.0
 10
-18.17238528183668
 20
25.24667588198465
 30
0.0
 10
-17.81243039271165
 20
25.21880197601328
 30
0.0
 10
-17.41852767011834
 20
25.20039378614662
 30
0.0
 10
-17.14646010118653
 20
25.19815099852912
 30
0.0
 10
-17.00774900319999
 20
25.19700753430001
 30
0.0
 11
-18.91559083519999
 21
25.3937483615
 31
0.0
 11
-18.7477868832
 21
25.3395099935
 31
0.0
 11
-18.50209692319999
 21
25.29127496149999
 31
0.0
 11
-18.18891916799999
 21
25.25126322389999
 31
0.0
 11
-17.82343423199999
 21
25.22144729109999
 31
0.0
 11
-17.42380949439999
 21
25.2031565119
 31
0.0
 11
-17.00774900319999
 21
25.19700753430001
 31
0.0
  0
LINE
  5
53
330
2
100
AcDbEntity
  8
0
  6
Continuous
100
AcDbLine
 10
-3.3603315856
 20
27.70099899510001
 30
0.0
 11
-4.498864695999998
 21
27.70099899510001
 31
0.0
  0
ARC
  5
54
330
2
100
AcDbEntity
  8
0
  6
Continuous
 48
0.5
100
AcDbCircle
 10
2.783649916800001
 20
34.78469946710001
 30
0.0
 40
10.40942082239999
100
AcDbArc
 50
223.1478981087005
 51
245.3218291812005
  0
SPLINE
  5
55
330
2
100
AcDbEntity
  8
0
  6
Continuous
100
AcDbSpline
210
0.0
220
0.0
230
1.0
 70
     8
 71
     3
 72
    10
 73
     6
 74
     4
 42
0.0000000001
 43
0.0000000001
 44
0.0000000001
 40
0.0
 40
0.0
 40
0.0
 40
0.0
 40
0.140517800076821
 40
0.246346095902991
 40
0.3145004049216096
 40
0.3145004049216096
 40
0.3145004049216096
 40
0.3145004049216096
 10
-4.498864695999998
 20
27.7009989951
 30
0.0
 10
-4.545607027034078
 20
27.69824801887886
 30
0.0
 10
-4.627552451438358
 20
27.69342519748803
 30
0.0
 10
-4.732111947642636
 20
27.68332294030061
 30
0.0
 10
-4.788772335175502
 20
27.67077801609994
 30
0.0
 10
-4.810967942399997
 20
27.66586378549999
 30
0.0
 11
-4.498864695999998
 21
27.7009989951
 31
0.0
 11
-4.639077158399999
 21
27.69174061909998
 31
0.0
 11
-4.744199700800002
 21
27.67953900949999
 31
0.0
 11
-4.810967942399997
 21
27.66586378549999
 31
0.0
  0
ARC
  5
56
330
2
100
AcDbEntity
  8
0
  6
Continuous
100
AcDbCircle
 10
1.063404312000002
 20
32.10386767189999
 30
0.0
 40
5.991369392
100
AcDbArc
 50
227.7938772024005
 51
241.7525634181005
  0
SPLINE
  5
57
330
2
100
AcDbEntity
  8
0
  6
Continuous
 48
0.5
100
AcDbSpline
210
0.0
220
0.0
230
1.0
 70
     8
 71
     3
 72
    10
 73
     6
 74
     4
 42
0.0000000001
 43
0.0000000001
 44
0.0000000001
 40
0.0
 40
0.0
 40
0.0
 40
0.0
 40
0.1015726022608221
 40
0.2357609527879461
 40
0.4004718925012887
 40
0.4004718925012887
 40
0.4004718925012887
 40
0.4004718925012887
 10
-2.961596147199998
 20
27.66586378549999
 30
0.0
 10
-2.995109575827298
 20
27.67071890881458
 30
0.0
 10
-3.072897854245866
 20
27.68198817309523
 30
0.0
 10
-3.206003665715825
 20
27.69307355920445
 30
0.0
 10
-3.305502129591964
 20
27.69818325483016
 30
0.0
 10
-3.3603315856
 20
27.7009989951
 30
0.0
 11
-2.961596147199998
 21
27.66586378549999
 31
0.0
 11
-3.0622426336
 21
27.6795487519
 31
0.0
 11
-3.195889551999997
 21
27.6915909535
 31
0.0
 11
-3.3603315856
 21
27.7009989951
 31
0.0
  0
SPLINE
  5
58
330
2
100
AcDbEntity
  8
0
100
AcDbSpline
210
0.0
220
0.0
230
1.0
 70
     8
 71
     3
 72
    11
 73
     7
 74
     5
 42
0.0000000001
 43
0.0000000001
 44
0.0000000001
 40
0.0
 40
0.0
 40
0.0
 40
0.0
 40
0.072641432784295
 40
0.1454303445259385
 40
0.2182192571596849
 40
0.2908606915112456
 40
0.2908606915112456
 40
0.2908606915112456
 40
0.2908606915112456
 10
-31.5625
 20
32.25104254710001
 30
0.0
 10
-31.55952752637651
 20
32.27541168079877
 30
0.0
 10
-31.55357654431863
 20
32.32419942318998
 30
0.0
 10
-31.51033039664814
 20
32.38565944803389
 30
0.0
 10
-31.44887037207092
 20
32.42890559757627
 30
0.0
 10
-31.40008262870118
 20
32.43485657925303
 30
0.0
 10
-31.3757134944
 20
32.43782905270001
 30
0.0
 11
-31.5625
 21
32.25104254710001
 31
0.0
 11
-31.5478766592
 21
32.32219685589999
 31
0.0
 11
-31.5072926992
 21
32.38262175029999
 31
0.0
 11
-31.4468678048
 21
32.42320571190001
 31
0.0
 11
-31.3757134944
 21
32.43782905270001
 31
0.0
  0
SPLINE
  5
59
330
2
100
AcDbEntity
  8
0
100
AcDbSpline
210
0.0
220
0.0
230
1.0
 70
     8
 71
     3
 72
    10
 73
     6
 74
     4
 42
0.0000000001
 43
0.0000000001
 44
0.0000000001
 40
0.0
 40
0.0
 40
0.0
 40
0.0
 40
0.0964178453954218
 40
0.193016323895922
 40
0.2894341681713625
 40
0.2894341681713625
 40
0.2894341681713625
 40
0.2894341681713625
 10
-31.22751975679999
 20
31.91606230229999
 30
0.0
 10
-31.22226099163782
 20
31.94831242598787
 30
0.0
 10
-31.21173360932933
 20
32.01287309205435
 30
0.0
 10
-31.13754403888213
 20
32.08706265913471
 30
0.0
 10
-31.07298337407254
 20
32.09759004339391
 30
0.0
 10
-31.0407332512
 20
32.10284880949998
 30
0.0
 11
-31.22751975679999
 21
31.91606230229999
 31
0.0
 11
-31.202024736
 21
32.00904834869999
 31
0.0
 11
-31.133719296
 21
32.07735378710001
 31
0.0
 11
-31.0407332512
 21
32.10284880949998
 31
0.0
  0
LINE
  5
5A
330
2
100
AcDbEntity
  8
0
100
AcDbLine
 10
40.4375
 20
-3.375384452899989
 30
0.0
 11
40.4375
 21
32.25104255669998
 31
0.0
  0
LINE
  5
5B
330
2
100
AcDbEntity
  8
0
100
AcDbLine
 10
40.10251975680001
 20
-3.040404198499995
 30
0.0
 11
40.10251975680001
 21
31.91606230229999
 31
0.0
  0
LINE
  5
5C
330
2
100
AcDbEntity
  8
0
100
AcDbLine
 10
38.49352450879999
 20
28.52251776630001
 30
0.0
 11
38.49352450879999
 21
0.3531403374999975
 31
0.0
  0
LINE
  5
5D
330
2
100
AcDbEntity
  8
0
100
AcDbLine
 10
28.26755129439999
 20
24.89861432789999
 30
0.0
 11
28.26755129439999
 21
3.977043775900003
 31
0.0
  0
SPLINE
  5
5E
330
2
100
AcDbEntity
  8
0
100
AcDbSpline
210
0.0
220
0.0
230
1.0
 70
     8
 71
     3
 72
    10
 73
     6
 74
     4
 42
0.0000000001
 43
0.0000000001
 44
0.0000000001
 40
0.0
 40
0.0
 40
0.0
 40
0.0
 40
2.402836776009241
 40
5.248290229759811
 40
8.526979761536614
 40
8.526979761536614
 40
8.526979761536614
 40
8.526979761536614
 10
27.7905908352
 20
3.481909742300004
 30
0.0
 10
28.53214652941783
 20
3.178338616039019
 30
0.0
 10
30.15185684168051
 20
2.51527677517656
 30
0.0
 10
32.87496065345501
 20
1.687521138038204
 30
0.0
 10
34.85619794289222
 20
1.196074224101083
 30
0.0
 10
35.916895248
 20
0.9329677199000059
 30
0.0
 11
27.7905908352
 21
3.481909742300004
 31
0.0
 11
30.0270671728
 21
2.603389302300001
 31
0.0
 11
32.7421073328
 21
1.751824691099997
 31
0.0
 11
35.916895248
 21
0.9329677199000059
 31
0.0
  0
SPLINE
  5
5F
330
2
100
AcDbEntity
  8
0
100
AcDbSpline
210
0.0
220
0.0
230
1.0
 70
     8
 71
     3
 72
    11
 73
     7
 74
     5
 42
0.0000000001
 43
0.0000000001
 44
0.0000000001
 40
0.0
 40
0.0
 40
0.0
 40
0.0
 40
0.1895339962695992
 40
0.3791993031759771
 40
0.566337913549268
 40
0.749632248603048
 40
0.749632248603048
 40
0.749632248603048
 40
0.749632248603048
 10
28.26755148159999
 20
3.9770437759
 30
0.0
 10
28.25818851320134
 20
3.913790263532558
 30
0.0
 10
28.23945608966619
 20
3.787239416268991
 30
0.0
 10
28.12914956180469
 20
3.627569423923765
 30
0.0
 10
27.9752745172283
 20
3.511683314848423
 30
0.0
 10
27.85172467108987
 20
3.491765365049345
 30
0.0
 10
27.7905908352
 20
3.481909742300004
 30
0.0
 11
28.26755148159999
 21
3.9770437759
 31
0.0
 11
28.2256909136
 21
3.792190243099994
 31
0.0
 11
28.12102404479999
 21
3.634020159900003
 31
0.0
 11
27.96865945279999
 21
3.525365244699997
 31
0.0
 11
27.7905908352
 21
3.481909742300004
 31
0.0
  0
SPLINE
  5
60
330
2
100
AcDbEntity
  8
0
100
AcDbSpline
210
0.0
220
0.0
230
1.0
 70
     8
 71
     3
 72
    13
 73
     9
 74
     7
 42
0.0000000001
 43
0.0000000001
 44
0.0000000001
 40
0.0
 40
0.0
 40
0.0
 40
0.0
 40
0.416105926733939
 40
0.8161490287937123
 40
1.182848126545069
 40
1.498571495173182
 40
1.748951555794721
 40
1.925303382749028
 40
1.925303382749028
 40
1.925303382749028
 40
1.925303382749028
 10
25.8827490032
 20
3.678650569499993
 30
0.0
 10
26.02146010118653
 20
3.677507105270884
 30
0.0
 10
26.29352767011834
 20
3.675264317653385
 30
0.0
 10
26.68743039271165
 20
3.656856127786693
 30
0.0
 10
27.0473852818367
 20
3.628982221815341
 30
0.0
 10
27.35559737428323
 20
3.589459955368331
 30
0.0
 10
27.60053268811184
 20
3.548269805906278
 30
0.0
 10
27.73501463465103
 20
3.501314541620257
 30
0.0
 10
27.7905908352
 20
3.481909742300004
 30
0.0
 11
25.8827490032
 21
3.678650569499993
 31
0.0
 11
26.2988094944
 21
3.672501591900001
 31
0.0
 11
26.69843423199999
 21
3.6542108127
 31
0.0
 11
27.06391916799999
 21
3.624394879899995
 31
0.0
 11
27.3770969232
 21
3.584383142299998
 31
0.0
 11
27.6227868832
 21
3.536148110300004
 31
0.0
 11
27.7905908352
 21
3.481909742300004
 31
0.0
  0
SPLINE
  5
61
330
2
100
AcDbEntity
  8
0
100
AcDbSpline
210
0.0
220
0.0
230
1.0
 70
     8
 71
     3
 72
    10
 73
     6
 74
     4
 42
0.0000000001
 43
0.0000000001
 44
0.0000000001
 40
0.0
 40
0.0
 40
0.0
 40
0.0
 40
0.0964178438523686
 40
0.1930163234842347
 40
0.289434167336607
 40
0.289434167336607
 40
0.289434167336607
 40
0.289434167336607
 10
39.91573325119999
 20
-3.227190704099996
 30
0.0
 10
39.94798337417959
 20
-3.221931938707361
 30
0.0
 10
40.01254403972369
 20
-3.211404555791532
 30
0.0
 10
40.08673360849152
 20
-3.137214987023692
 30
0.0
 10
40.09726099140737
 20
-3.072654321479594
 30
0.0
 10
40.10251975680001
 20
-3.040404198499999
 30
0.0
 11
39.91573325119999
 21
-3.227190704099996
 31
0.0
 11
40.00871929599999
 21
-3.201695683300002
 31
0.0
 11
40.077024736
 21
-3.133390243299999
 31
0.0
 11
40.10251975680001
 21
-3.040404198499999
 31
0.0
  0
SPLINE
  5
62
330
2
100
AcDbEntity
  8
0
100
AcDbSpline
210
0.0
220
0.0
230
1.0
 70
     8
 71
     3
 72
    11
 73
     7
 74
     5
 42
0.0000000001
 43
0.0000000001
 44
0.0000000001
 40
0.0
 40
0.0
 40
0.0
 40
0.0
 40
0.0726414324622292
 40
0.145430346424178
 40
0.2182192590579166
 40
0.2908606930873766
 40
0.2908606930873766
 40
0.2908606930873766
 40
0.2908606930873766
 10
40.2507134944
 20
-3.562170947300003
 30
0.0
 10
40.27508262814646
 20
-3.559198474346429
 30
0.0
 10
40.32387037148629
 20
-3.553247493525674
 30
0.0
 10
40.38533039621466
 20
-3.510001344235389
 30
0.0
 10
40.42857654687945
 20
-3.44854131962936
 30
0.0
 10
40.4345275272247
 20
-3.399753576051214
 30
0.0
 10
40.4375
 20
-3.375384441700006
 30
0.0
 11
40.2507134944
 21
-3.562170947300003
 31
0.0
 11
40.3218678032
 21
-3.547547608100003
 31
0.0
 11
40.38229269919999
 21
-3.506963646499997
 31
0.0
 11
40.4228766608
 21
-3.446538752099996
 31
0.0
 11
40.4375
 21
-3.375384441700006
 31
0.0
  0
SPLINE
  5
63
330
2
100
AcDbEntity
  8
0
100
AcDbSpline
210
0.0
220
0.0
230
1.0
 70
     8
 71
     3
 72
    19
 73
    15
 74
    13
 42
0.0000000001
 43
0.0000000001
 44
0.0000000001
 40
0.0
 40
0.0
 40
0.0
 40
0.0
 40
0.0998540272391343
 40
0.2123689798557066
 40
0.3363889263479102
 40
0.4717419831130978
 40
0.6198760232828517
 40
0.7829119518439352
 40
0.9629623764648314
 40
1.16184116509036
 40
1.380801139370432
 40
1.620463048341386
 40
1.881345738104954
 40
2.164027624081292
 40
2.164027624081292
 40
2.164027624081292
 40
2.164027624081292
 10
36.39020844959999
 20
0.848274371100004
 30
0.0
 10
36.42338659541681
 20
0.8455673265911318
 30
0.0
 10
36.49394968811758
 20
0.8398099996543182
 30
0.0
 10
36.60519505789257
 20
0.825471409144003
 30
0.0
 10
36.72767112179112
 20
0.8062732251234345
 30
0.0
 10
36.86126914656171
 20
0.7816315491676713
 30
0.0
 10
37.00702548750054
 20
0.7514412832300421
 30
0.0
 10
37.16671473066424
 20
0.7152062831332655
 30
0.0
 10
37.3422367293485
 20
0.6724213310262436
 30
0.0
 10
37.53521806279106
 20
0.6226295530619784
 30
0.0
 10
37.74682682977553
 20
0.5655563874442878
 30
0.0
 10
37.97785111134019
 20
0.501139584899893
 30
0.0
 10
38.22891412390885
 20
0.429527917075598
 30
0.0
 10
38.40299393939268
 20
0.3792746522113048
 30
0.0
 10
38.49352450879999
 20
0.353140337499994
 30
0.0
 11
36.39020844959999
 21
0.848274371100004
 31
0.0
 11
36.48966955679999
 21
0.8394247999000015
 31
0.0
 11
36.60131704959999
 21
0.8254801982999993
 31
0.0
 11
36.72385014559999
 21
0.8063337230999962
 31
0.0
 11
36.85698741919999
 21
0.7819428158999955
 31
0.0
 11
37.0020667536
 21
0.7520148927000037
 31
0.0
 11
37.1610886672
 21
0.7160601294999936
 31
0.0
 11
37.3360455904
 21
0.673536836699995
 31
0.0
 11
37.5286481216
 21
0.6239683231000015
 31
0.0
 11
37.74008574399999
 21
0.5670683918999942
 31
0.0
 11
37.9709756032
 21
0.5028211854999967
 31
0.0
 11
38.221889624
 21
0.4313933759000009
 31
0.0
 11
38.49352450879999
 21
0.353140337499994
 31
0.0
  0
SPLINE
  5
64
330
2
100
AcDbEntity
  8
0
100
AcDbSpline
210
0.0
220
0.0
230
1.0
 70
     8
 71
     3
 72
    10
 73
     6
 74
     4
 42
0.0000000001
 43
0.0000000001
 44
0.0000000001
 40
0.0
 40
0.0
 40
0.0
 40
0.0
 40
0.1433039446319241
 40
0.3048030932579673
 40
0.480981869155746
 40
0.480981869155746
 40
0.480981869155746
 40
0.480981869155746
 10
35.916895248
 20
0.9329677199000059
 30
0.0
 10
35.96353621167518
 20
0.9226327275651293
 30
0.0
 10
36.06274011033437
 20
0.9006505159759166
 30
0.0
 10
36.22069803842717
 20
0.8728796201178161
 30
0.0
 10
36.33209081346164
 20
0.8567104246710899
 30
0.0
 10
36.39020844959999
 20
0.848274371100004
 30
0.0
 11
35.916895248
 21
0.9329677199000059
 31
0.0
 11
36.0570161152
 21
0.9029316894999936
 31
0.0
 11
36.2159908016
 21
0.8744883406999974
 31
0.0
 11
36.39020844959999
 21
0.848274371100004
 31
0.0
  0
SPLINE
  5
65
330
2
100
AcDbEntity
  8
0
100
AcDbSpline
210
0.0
220
0.0
230
1.0
 70
     8
 71
     3
 72
    10
 73
     6
 74
     4
 42
0.0000000001
 43
0.0000000001
 44
0.0000000001
 40
0.0
 40
0.0
 40
0.0
 40
0.0
 40
2.402836776009236
 40
5.248290230238644
 40
8.526979762015443
 40
8.526979762015443
 40
8.526979762015443
 40
8.526979762015443
 10
27.7905908352
 20
25.3937483615
 30
0.0
 10
28.53214652945693
 20
25.69731948763648
 30
0.0
 10
30.15185684195277
 20
26.36038132828748
 30
0.0
 10
32.87496065311825
 20
27.1881369679029
 30
0.0
 10
34.85619794282881
 20
27.67958388150098
 30
0.0
 10
35.916895248
 20
27.94269038549998
 30
0.0
 11
27.7905908352
 21
25.3937483615
 31
0.0
 11
30.0270671728
 21
26.27226880149999
 31
0.0
 11
32.7421073328
 21
27.12383341430001
 31
0.0
 11
35.916895248
 21
27.94269038549998
 31
0.0
  0
LINE
  5
66
330
2
100
AcDbEntity
  8
0
100
AcDbLine
 10
10.1115960128
 20
25.19700753430001
 30
0.0
 11
25.8827490032
 21
25.19700753430001
 31
0.0
  0
SPLINE
  5
67
330
2
100
AcDbEntity
  8
0
  6
Continuous
100
AcDbSpline
210
0.0
220
0.0
230
1.0
 70
     8
 71
     3
 72
    10
 73
     6
 74
     4
 42
0.0000000001
 43
0.0000000001
 44
0.0000000001
 40
0.0
 40
0.0
 40
0.0
 40
0.0
 40
0.0683250841970545
 40
0.1734307142468083
 40
0.3145003752429651
 40
0.3145003752429651
 40
0.3145003752429651
 40
0.3145003752429651
 10
13.68596794239999
 20
27.66586378549999
 30
0.0
 10
13.6637163139611
 20
27.67078868049947
 30
0.0
 10
13.60723462998421
 20
27.68328962458738
 30
0.0
 10
13.50267967770833
 20
27.69341606216381
 30
0.0
 10
13.42079077135616
 20
27.69823660459491
 30
0.0
 10
13.37386469599999
 20
27.7009989951
 30
0.0
 11
13.68596794239999
 21
27.66586378549999
 31
0.0
 11
13.61903069439999
 21
27.6795649519
 31
0.0
 11
13.5146270032
 21
27.69169189429999
 31
0.0
 11
13.37386469599999
 21
27.7009989951
 31
0.0
  0
SPLINE
  5
68
330
2
100
AcDbEntity
  8
0
  6
Continuous
100
AcDbSpline
210
0.0
220
0.0
230
1.0
 70
     8
 71
     3
 72
    10
 73
     6
 74
     4
 42
0.0000000001
 43
0.0000000001
 44
0.0000000001
 40
0.0
 40
0.0
 40
0.0
 40
0.0
 40
0.164696909055393
 40
0.2988767318190209
 40
0.4004718899891678
 40
0.4004718899891678
 40
0.4004718899891678
 40
0.4004718899891678
 10
12.23533158559999
 20
27.7009989951
 30
0.0
 10
12.18050679846233
 20
27.69818352625356
 30
0.0
 10
12.08101584082168
 20
27.693074273553
 30
0.0
 10
11.94790999511246
 20
27.68198947327738
 30
0.0
 10
11.87011703916522
 20
27.67071985191031
 30
0.0
 10
11.83659614719999
 20
27.66586378549999
 30
0.0
 11
12.23533158559999
 21
27.7009989951
 31
0.0
 11
12.0709035472
 21
27.69159197429999
 31
0.0
 11
11.9372650592
 21
27.67955123670001
 31
0.0
 11
11.83659614719999
 21
27.66586378549999
 31
0.0
  0
LINE
  5
69
330
2
100
AcDbEntity
  8
0
  6
Continuous
 48
0.5
100
AcDbLine
 10
13.37386469599999
 20
27.70099899510001
 30
0.0
 11
12.23533158559999
 21
27.70099899510001
 31
0.0
  0
ARC
  5
6A
330
2
100
AcDbEntity
  8
0
  6
Continuous
 48
0.5
100
AcDbCircle
 10
6.091350083199998
 20
34.78469946710001
 30
0.0
 40
10.40942082239999
100
AcDbArc
 50
294.6781708188007
 51
316.8521018913007
  0
ARC
  5
6B
330
2
100
AcDbEntity
  8
0
  6
Continuous
100
AcDbCircle
 10
7.811595687999997
 20
32.10386767189999
 30
0.0
 40
5.991369392
100
AcDbArc
 50
298.2474365819006
 51
312.2061227976007
  0
SPLINE
  5
6C
330
2
100
AcDbEntity
  8
0
100
AcDbSpline
210
0.0
220
0.0
230
1.0
 70
     8
 71
     3
 72
    11
 73
     7
 74
     5
 42
0.0000000001
 43
0.0000000001
 44
0.0000000001
 40
0.0
 40
0.0
 40
0.0
 40
0.0
 40
0.1895339978301018
 40
0.3791993034021706
 40
0.5663379137754531
 40
0.7496322488292366
 40
0.7496322488292366
 40
0.7496322488292366
 40
0.7496322488292366
 10
28.26755148159999
 20
24.89861432789999
 30
0.0
 10
28.25818851338802
 20
24.96186784089005
 30
0.0
 10
28.23945609036944
 20
25.08841868843282
 30
0.0
 10
28.12914956121054
 20
25.24808868001056
 30
0.0
 10
27.97527451728351
 20
25.36397478898596
 30
0.0
 10
27.85172467110816
 20
25.38389273876204
 30
0.0
 10
27.7905908352
 20
25.3937483615
 30
0.0
 11
28.26755148159999
 21
24.89861432789999
 31
0.0
 11
28.2256909136
 21
25.08346786230001
 31
0.0
 11
28.12102404479999
 21
25.2416379439
 31
0.0
 11
27.96865945279999
 21
25.35029285909999
 31
0.0
 11
27.7905908352
 21
25.3937483615
 31
0.0
  0
SPLINE
  5
6D
330
2
100
AcDbEntity
  8
0
100
AcDbSpline
210
0.0
220
0.0
230
1.0
 70
     8
 71
     3
 72
    13
 73
     9
 74
     7
 42
0.0000000001
 43
0.0000000001
 44
0.0000000001
 40
0.0
 40
0.0
 40
0.0
 40
0.0
 40
0.416105926733939
 40
0.8161490287937118
 40
1.182848126545069
 40
1.498571495173182
 40
1.748951555794723
 40
1.92530338274903
 40
1.92530338274903
 40
1.92530338274903
 40
1.92530338274903
 10
25.8827490032
 20
25.19700753430001
 30
0.0
 10
26.02146010118654
 20
25.19815099852912
 30
0.0
 10
26.29352767011835
 20
25.20039378614663
 30
0.0
 10
26.68743039271165
 20
25.21880197601328
 30
0.0
 10
27.04738528183669
 20
25.24667588198465
 30
0.0
 10
27.35559737428323
 20
25.28619814843165
 30
0.0
 10
27.60053268811184
 20
25.32738829789373
 30
0.0
 10
27.73501463465104
 20
25.37434356217975
 30
0.0
 10
27.7905908352
 20
25.3937483615
 30
0.0
 11
25.8827490032
 21
25.19700753430001
 31
0.0
 11
26.2988094944
 21
25.2031565119
 31
0.0
 11
26.69843423199999
 21
25.22144729109999
 31
0.0
 11
27.06391916799999
 21
25.25126322389999
 31
0.0
 11
27.3770969232
 21
25.29127496149999
 31
0.0
 11
27.6227868832
 21
25.3395099935
 31
0.0
 11
27.7905908352
 21
25.3937483615
 31
0.0
  0
SPLINE
  5
6E
330
2
100
AcDbEntity
  8
0
100
AcDbSpline
210
0.0
220
0.0
230
1.0
 70
     8
 71
     3
 72
    19
 73
    15
 74
    13
 42
0.0000000001
 43
0.0000000001
 44
0.0000000001
 40
0.0
 40
0.0
 40
0.0
 40
0.0
 40
0.099854027239133
 40
0.2123689800540022
 40
0.336388926546208
 40
0.4717419830230721
 40
0.6198760231928232
 40
0.7829119517539067
 40
0.9629623763748062
 40
1.161841165399115
 40
1.380801139679187
 40
1.620463048650145
 40
1.881345737975641
 40
2.164027623951982
 40
2.164027623951982
 40
2.164027623951982
 40
2.164027623951982
 10
36.39020844959999
 20
28.0273837327
 30
0.0
 10
36.42338659543376
 20
28.03009077706949
 30
0.0
 10
36.49394968823651
 20
28.03584810371523
 30
0.0
 10
36.60519505776922
 20
28.0501866967652
 30
0.0
 10
36.72767112162746
 20
28.06938488057506
 30
0.0
 10
36.86126914676235
 20
28.09402655408694
 30
0.0
 10
37.00702548747401
 20
28.12421682071961
 30
0.0
 10
37.16671473064524
 20
28.16045182072601
 30
0.0
 10
37.34223672960175
 20
28.20323677232815
 30
0.0
 10
37.53521806249765
 20
28.25302855294062
 30
0.0
 10
37.74682682985602
 20
28.31010171765529
 30
0.0
 10
37.97785111104792
 20
28.37451852099884
 30
0.0
 10
38.22891412421197
 20
28.44613018619142
 30
0.0
 10
38.40299393944837
 20
28.49638345139249
 30
0.0
 10
38.49352450879999
 20
28.52251776630001
 30
0.0
 11
36.39020844959999
 21
28.0273837327
 31
0.0
 11
36.48966955679999
 21
28.03623330389999
 31
0.0
 11
36.60131704959999
 21
28.05017790709999
 31
0.0
 11
36.72385014559999
 21
28.06932438230001
 31
0.0
 11
36.85698741919999
 21
28.09371528790001
 31
0.0
 11
37.0020667536
 21
28.12364321109999
 31
0.0
 11
37.1610886672
 21
28.1595979743
 31
0.0
 11
37.3360455904
 21
28.20212126710001
 31
0.0
 11
37.5286481216
 21
28.25168978229999
 31
0.0
 11
37.74008574399999
 21
28.3085897135
 31
0.0
 11
37.9709756032
 21
28.3728369199
 31
0.0
 11
38.221889624
 21
28.44426472789999
 31
0.0
 11
38.49352450879999
 21
28.52251776630001
 31
0.0
  0
SPLINE
  5
6F
330
2
100
AcDbEntity
  8
0
100
AcDbSpline
210
0.0
220
0.0
230
1.0
 70
     8
 71
     3
 72
    10
 73
     6
 74
     4
 42
0.0000000001
 43
0.0000000001
 44
0.0000000001
 40
0.0
 40
0.0
 40
0.0
 40
0.0
 40
0.1433039442965724
 40
0.3048030932044062
 40
0.48098186886412
 40
0.48098186886412
 40
0.48098186886412
 40
0.48098186886412
 10
35.916895248
 20
27.94269038549998
 30
0.0
 10
35.96353621173226
 20
27.95302537700399
 30
0.0
 10
36.06274011072757
 20
27.97500758687354
 30
0.0
 10
36.22069803806642
 20
28.00277848634853
 30
0.0
 10
36.33209081339451
 20
28.0189476800513
 30
0.0
 10
36.39020844959999
 20
28.0273837327
 30
0.0
 11
35.916895248
 21
27.94269038549998
 31
0.0
 11
36.0570161152
 21
27.97272641430001
 31
0.0
 11
36.2159908016
 21
28.00116976469999
 31
0.0
 11
36.39020844959999
 21
28.0273837327
 31
0.0
  0
SPLINE
  5
70
330
2
100
AcDbEntity
  8
0
100
AcDbSpline
210
0.0
220
0.0
230
1.0
 70
     8
 71
     3
 72
    11
 73
     7
 74
     5
 42
0.0000000001
 43
0.0000000001
 44
0.0000000001
 40
0.0
 40
0.0
 40
0.0
 40
0.0
 40
0.0726414327843229
 40
0.1454303467462796
 40
0.2182192593800181
 40
0.2908606918422194
 40
0.2908606918422194
 40
0.2908606918422194
 40
0.2908606918422194
 10
40.2507134944
 20
32.43782905270001
 30
0.0
 10
40.27508262812213
 20
32.43485657908863
 30
0.0
 10
40.32387037130499
 20
32.42890559696414
 30
0.0
 10
40.38533039624347
 20
32.38565944814762
 30
0.0
 10
40.4285765465443
 20
32.32419942384764
 30
0.0
 10
40.43452752713445
 20
32.27541168088208
 30
0.0
 10
40.4375
 20
32.25104254710001
 30
0.0
 11
40.2507134944
 21
32.43782905270001
 31
0.0
 11
40.3218678032
 21
32.42320571190001
 31
0.0
 11
40.38229269919999
 21
32.38262175029999
 31
0.0
 11
40.4228766608
 21
32.32219685589999
 31
0.0
 11
40.4375
 21
32.25104254710001
 31
0.0
  0
SPLINE
  5
71
330
2
100
AcDbEntity
  8
0
100
AcDbSpline
210
0.0
220
0.0
230
1.0
 70
     8
 71
     3
 72
    10
 73
     6
 74
     4
 42
0.0000000001
 43
0.0000000001
 44
0.0000000001
 40
0.0
 40
0.0
 40
0.0
 40
0.0
 40
0.0964178442754404
 40
0.1930163227759457
 40
0.2894341681713693
 40
0.2894341681713693
 40
0.2894341681713693
 40
0.2894341681713693
 10
39.91573325119999
 20
32.10284880949998
 30
0.0
 10
39.94798337407253
 20
32.09759004339392
 30
0.0
 10
40.01254403888212
 20
32.08706265913471
 30
0.0
 10
40.08673360932933
 20
32.01287309205437
 30
0.0
 10
40.09726099163781
 20
31.94831242598787
 30
0.0
 10
40.10251975680001
 20
31.91606230229999
 30
0.0
 11
39.91573325119999
 21
32.10284880949998
 31
0.0
 11
40.00871929599999
 21
32.07735378710001
 31
0.0
 11
40.077024736
 21
32.00904834869999
 31
0.0
 11
40.10251975680001
 21
31.91606230229999
 31
0.0
  0
ENDSEC
  0
SECTION
  2
OBJECTS
  0
DICTIONARY
  5
7
330
0
100
AcDbDictionary
281
     1
  3
ACAD_GROUP
350
24
  3
ACAD_LAYOUT
350
B
  3
ACAD_MLINESTYLE
350
25
  3
ACAD_PLOTSETTINGS
350
26
  3
ACAD_PLOTSTYLENAME
350
6
  3
AcDbVariableDictionary
350
72
  3
ASE_INDEX_DICTIONARY
350
100
  0
DICTIONARY
  5
11
330
10
100
AcDbDictionary
280
     1
281
     1
  3
ACAD_LAYERFILTERS
360
12
  0
DICTIONARY
  5
9C
330
2
100
AcDbDictionary
280
     1
281
     1
  0
DICTIONARY
  5
A2
330
C
100
AcDbDictionary
280
     1
281
     1
  0
DICTIONARY
  5
24
102
{ACAD_REACTORS
330
7
102
}
330
7
100
AcDbDictionary
281
     1
  0
DICTIONARY
  5
B
102
{ACAD_REACTORS
330
7
102
}
330
7
100
AcDbDictionary
281
     1
  3
Layout1
350
F
  3
Model
350
A
  0
DICTIONARY
  5
25
102
{ACAD_REACTORS
330
7
102
}
330
7
100
AcDbDictionary
281
     1
  3
STANDARD
350
27
  0
DICTIONARY
  5
26
102
{ACAD_REACTORS
330
7
102
}
330
7
100
AcDbDictionary
281
     1
  0
ACDBDICTIONARYWDFLT
  5
6
102
{ACAD_REACTORS
330
7
102
}
330
7
100
AcDbDictionary
281
     1
  3
Normal
350
5
100
AcDbDictionaryWithDefault
340
5
  0
DICTIONARY
  5
72
102
{ACAD_REACTORS
330
7
102
}
330
7
100
AcDbDictionary
281
     1
  3
DIMASSOC
350
74
  3
HIDETEXT
350
73
  0
DICTIONARY
  5
100
102
{ACAD_REACTORS
330
7
102
}
330
7
100
AcDbDictionary
281
     1
  3
ASEBlockHierarchyIndexRecord
350
102
1001
DCO15
1040
1545124602.001
  0
DICTIONARY
  5
12
102
{ACAD_REACTORS
330
11
102
}
330
11
100
AcDbDictionary
280
     1
281
     1
  3
DIM-1_12
360
13
  3
dim-1_16
360
14
  0
LAYOUT
  5
F
102
{ACAD_REACTORS
330
B
102
}
330
B
100
AcDbPlotSettings
  1

  2
HP LaserJet 5000 - R&D
  4

  6

 40
0.0
 41
0.0
 42
0.0
 43
0.0
 44
0.0
 45
0.0
 46
0.0
 47
0.0
 48
0.0
 49
0.0
140
0.0
141
0.0
142
1.0
143
1.0
 70
   688
 72
     0
 73
     0
 74
     5
  7

 75
    16
147
1.0
148
0.0
149
0.0
100
AcDbLayout
  1
Layout1
 70
     0
 71
     1
 10
0.0
 20
0.0
 11
12.0
 21
9.0
 12
0.0
 22
0.0
 32
0.0
 14
1.000000000000000E+20
 24
1.000000000000000E+20
 34
1.000000000000000E+20
 15
-1.000000000000000E+20
 25
-1.000000000000000E+20
 35
-1.000000000000000E+20
146
0.0
 13
0.0
 23
0.0
 33
0.0
 16
1.0
 26
0.0
 36
0.0
 17
0.0
 27
1.0
 37
0.0
 76
     0
330
C
  0
LAYOUT
  5
A
102
{ACAD_REACTORS
330
B
102
}
330
B
100
AcDbPlotSettings
  1

  2
HP LaserJet 5000 - R&D
  4

  6

 40
0.0
 41
0.0
 42
0.0
 43
0.0
 44
0.0
 45
0.0
 46
0.0
 47
0.0
 48
0.0
 49
0.0
140
0.0
141
0.0
142
1.0
143
1.0
 70
  1712
 72
     0
 73
     0
 74
     0
  7

 75
     0
147
1.0
148
0.0
149
0.0
100
AcDbLayout
  1
Model
 70
     1
 71
     0
 10
0.0
 20
0.0
 11
12.0
 21
9.0
 12
0.0
 22
0.0
 32
0.0
 14
0.0
 24
0.0
 34
0.0
 15
0.0
 25
0.0
 35
0.0
146
0.0
 13
0.0
 23
0.0
 33
0.0
 16
1.0
 26
0.0
 36
0.0
 17
0.0
 27
1.0
 37
0.0
 76
     0
330
2
  0
MLINESTYLE
  5
27
102
{ACAD_REACTORS
330
25
102
}
330
25
100
AcDbMlineStyle
  2
STANDARD
 70
     0
  3

 62
     0
 51
90.00000000000019
 52
90.00000000000019
 71
     2
 49
0.5
 62
   256
  6
BYLAYER
 49
-0.5
 62
   256
  6
BYLAYER
  0
ACDBPLACEHOLDER
  5
5
102
{ACAD_REACTORS
330
6
102
}
330
6
  0
DICTIONARYVAR
  5
74
102
{ACAD_REACTORS
330
72
102
}
330
72
100
DictionaryVariables
280
     0
  1
1
  0
DICTIONARYVAR
  5
73
102
{ACAD_REACTORS
330
72
102
}
330
72
100
DictionaryVariables
280
     0
  1
1
  0
XRECORD
  5
102
102
{ACAD_REACTORS
330
100
102
}
330
100
100
AcDbXrecord
280
     1
  0
XRECORD
  5
13
102
{ACAD_REACTORS
330
12
102
}
330
12
100
AcDbXrecord
280
     1
  1
DIM-1_12
  1
DIM-1_12
  1
*
  1
*
 70
     0
  1
*
  1
*
  0
XRECORD
  5
14
102
{ACAD_REACTORS
330
12
102
}
330
12
100
AcDbXrecord
280
     1
  1
dim-1_16
  1
*
  1
*
  1
*
 70
     0
  1
*
  1
*
  0
ENDSEC
  0
EOF
