  0
SECTION
  2
HEADER
  9
$ACADVER
  1
AC1021
  9
$DWGCODEPAGE
  3
ANSI_1252
  9
$EXTMAX
 10
17.0
 20
11.0
 30
0.0
  9
$EXTMIN
 10
0.0
 20
0.0
 30
0.0
  9
$LIMMIN
 10
0.0
 20
0.0
  9
$LIMMAX
 10
17.0
 20
11.0
  9
$VIEWCTR
 10
8.5
 20
5.5
  9
$VIEWSIZE
 40
11.0
  9
$CLAYER
  8
0
  9
$LTSCALE
 40
0.935
  9
$CELTYPE
  6
BYLAYER
  9
$DIMSCALE
 40
1.0
  9
$DIMASZ
 40
0.1875
  9
$DIMEXO
 40
0.10625
  9
$DIMDLI
 40
0.646
  9
$DIMEXE
 40
0.306
  9
$DIMCEN
 40
0.153
  9
$DIMLFAC
 40
1.0
  9
$DIMBLK
  1
_FILLED
  9
$DIMTXT
 40
0.125
  9
$DIMTOL
 70
0
  9
$DIMLIM
 70
0
  9
$DIMTFAC
 40
1.0
  9
$PDMODE
 70
3
  9
$PDSIZE
 40
0.03125
  9
$HANDSEED
  5
72A
  9
$TILEMODE
 70
1
  9
$MEASUREMENT
 70
0
  9
$INSUNITS
 70
1
  0
ENDSEC
  0
SECTION
  2
CLASSES
  0
CLASS
  1
ACDBDICTIONARYWDFLT
  2
AcDbDictionaryWithDefault
  3
AutoCAD 2000
 90
0
 91
1
280
0
281
0
  0
CLASS
  1
ACDBPLACEHOLDER
  2
AcDbPlaceHolder
  3
AutoCAD 2000
 90
0
 91
1
280
0
281
0
  0
CLASS
  1
LAYOUT
  2
AcDbLayout
  3
AutoCAD 2000
 90
0
 91
0
280
0
281
0
  0
ENDSEC
  0
SECTION
  2
TABLES
  0
TABLE
  2
VPORT
  5
8
100
AcDbSymbolTable
 70
2
  0
VPORT
  5
1F4
100
AcDbSymbolTableRecord
100
AcDbViewportTableRecord
  2
*ACTIVE
 70
0
 10
0.0
 20
0.0
 11
1.0
 21
1.0
 12
8.5
 22
5.5
 13
0.0
 23
0.0
 14
1.0
 24
1.0
 15
0.0
 25
0.0
 16
0.0
 26
0.0
 36
1.0
 17
0.0
 27
0.0
 37
0.0
 40
11.0
 41
1.5454545455
 42
50.0
 43
0.0
 44
0.0
 50
0.0
 51
0.0
 71
0
 72
100
 73
1
 74
1
 75
0
 76
0
 77
0
 78
0
  0
ENDTAB
  0
TABLE
  2
LTYPE
  5
5
100
AcDbSymbolTable
 70
6
  0
LTYPE
  5
14
100
AcDbSymbolTableRecord
100
AcDbLinetypeTableRecord
  2
BYBLOCK
 70
0
  3

 72
65
 73
0
 40
0.0
  0
LTYPE
  5
15
100
AcDbSymbolTableRecord
100
AcDbLinetypeTableRecord
  2
BYLAYER
 70
0
  3

 72
65
 73
0
 40
0.0
  0
LTYPE
  5
16
100
AcDbSymbolTableRecord
100
AcDbLinetypeTableRecord
  2
CONTINUOUS
 70
64
  3
Solid line
 72
65
 73
0
 40
0.0
  0
LTYPE
  5
1F5
100
AcDbSymbolTableRecord
100
AcDbLinetypeTableRecord
  2
CENTER
 70
64
  3
____ _ ____ _ ____ _ ____ _ ____ _ ____ _ ____
 72
65
 73
4
 40
0.6
 49
0.375
 74
0
 49
-0.075
 74
0
 49
0.075
 74
0
 49
-0.075
 74
0
  0
LTYPE
  5
1F6
100
AcDbSymbolTableRecord
100
AcDbLinetypeTableRecord
  2
HIDDEN
 70
64
  3
- - - - - - - - - - - - - - - - - - - -
 72
65
 73
2
 40
0.2
 49
0.1
 74
0
 49
-0.1
 74
0
  0
LTYPE
  5
1F7
100
AcDbSymbolTableRecord
100
AcDbLinetypeTableRecord
  2
PHANTOM
 70
64
  3
_____ _ _ _____ _ _ _____ _ _ _____
 72
65
 73
6
 40
0.8
 49
0.45
 74
0
 49
-0.05
 74
0
 49
0.1
 74
0
 49
-0.05
 74
0
 49
0.1
 74
0
 49
-0.05
 74
0
  0
LTYPE
  5
1F8
100
AcDbSymbolTableRecord
100
AcDbLinetypeTableRecord
  2
DOT
 70
64
  3
. . . . . . . . . . . . . . . . . . . .
 72
65
 73
2
 40
0.2
 49
0.1
 74
0
 49
-0.1
 74
0
  0
LTYPE
  5
1F9
100
AcDbSymbolTableRecord
100
AcDbLinetypeTableRecord
  2
DASHED
 70
64
  3
- - - - - - - - - - - - - - - - - - - -
 72
65
 73
2
 40
0.2
 49
0.1
 74
0
 49
-0.1
 74
0
  0
ENDTAB
  0
TABLE
  2
LAYER
  5
2
100
AcDbSymbolTable
 70
36
  0
LAYER
  5
10
100
AcDbSymbolTableRecord
100
AcDbLayerTableRecord
  2
0
 70
0
 62
7
  6
CONTINUOUS
370
-3
390
F
  0
LAYER
  5
1FA
100
AcDbSymbolTableRecord
100
AcDbLayerTableRecord
  2
DEFAULT_1
 70
0
 62
7
  6
CENTER
370
-3
390
F
  0
LAYER
  5
1FB
100
AcDbSymbolTableRecord
100
AcDbLayerTableRecord
  2
DEFAULT_2
 70
0
 62
8
  6
HIDDEN
370
-3
390
F
  0
LAYER
  5
1FC
100
AcDbSymbolTableRecord
100
AcDbLayerTableRecord
  2
DEFAULT_3
 70
0
 62
7
  6
PHANTOM
370
-3
390
F
  0
LAYER
  5
1FD
100
AcDbSymbolTableRecord
100
AcDbLayerTableRecord
  2
1_CURVES
 70
0
 62
7
  6
CONTINUOUS
370
-3
390
F
  0
LAYER
  5
1FE
100
AcDbSymbolTableRecord
100
AcDbLayerTableRecord
  2
1_CURVES-JETS
 70
0
 62
7
  6
CONTINUOUS
370
-3
390
F
  0
LAYER
  5
1FF
100
AcDbSymbolTableRecord
100
AcDbLayerTableRecord
  2
1_CURVES_TOLERANCES
 70
0
 62
7
  6
CONTINUOUS
370
-3
390
F
  0
LAYER
  5
200
100
AcDbSymbolTableRecord
100
AcDbLayerTableRecord
  2
2_PLANES
 70
0
 62
7
  6
CONTINUOUS
370
-3
390
F
  0
LAYER
  5
201
100
AcDbSymbolTableRecord
100
AcDbLayerTableRecord
  2
3_POINTS
 70
0
 62
7
  6
CONTINUOUS
370
-3
390
F
  0
LAYER
  5
202
100
AcDbSymbolTableRecord
100
AcDbLayerTableRecord
  2
3_POINTS-JETS
 70
0
 62
7
  6
CONTINUOUS
370
-3
390
F
  0
LAYER
  5
203
100
AcDbSymbolTableRecord
100
AcDbLayerTableRecord
  2
4_CSYS
 70
0
 62
7
  6
CONTINUOUS
370
-3
390
F
  0
LAYER
  5
204
100
AcDbSymbolTableRecord
100
AcDbLayerTableRecord
  2
5_AXIS
 70
0
 62
7
  6
CONTINUOUS
370
-3
390
F
  0
LAYER
  5
205
100
AcDbSymbolTableRecord
100
AcDbLayerTableRecord
  2
5_AXIS-JETS
 70
0
 62
7
  6
CONTINUOUS
370
-3
390
F
  0
LAYER
  5
206
100
AcDbSymbolTableRecord
100
AcDbLayerTableRecord
  2
6_SURFACES
 70
0
 62
7
  6
CONTINUOUS
370
-3
390
F
  0
LAYER
  5
207
100
AcDbSymbolTableRecord
100
AcDbLayerTableRecord
  2
6_SURFACES-OFFSET-FIBRE
 70
0
 62
7
  6
CONTINUOUS
370
-3
390
F
  0
LAYER
  5
208
100
AcDbSymbolTableRecord
100
AcDbLayerTableRecord
  2
6_SURFACES-TOOLING
 70
0
 62
7
  6
CONTINUOUS
370
-3
390
F
  0
LAYER
  5
209
100
AcDbSymbolTableRecord
100
AcDbLayerTableRecord
  2
6_SURFACES_POUR_DECOUPE
 70
0
 62
7
  6
CONTINUOUS
370
-3
390
F
  0
LAYER
  5
20A
100
AcDbSymbolTableRecord
100
AcDbLayerTableRecord
  2
6_SURFACES_TOOLING
 70
0
 62
7
  6
CONTINUOUS
370
-3
390
F
  0
LAYER
  5
20B
100
AcDbSymbolTableRecord
100
AcDbLayerTableRecord
  2
7_NOTES
 70
0
 62
7
  6
CONTINUOUS
370
-3
390
F
  0
LAYER
  5
20C
100
AcDbSymbolTableRecord
100
AcDbLayerTableRecord
  2
8_ZONE-ROBINETERIE
 70
0
 62
7
  6
CONTINUOUS
370
-3
390
F
  0
LAYER
  5
20D
100
AcDbSymbolTableRecord
100
AcDbLayerTableRecord
  2
MIA_PLUS_TROU
 70
0
 62
7
  6
CONTINUOUS
370
-3
390
F
  0
LAYER
  5
20E
100
AcDbSymbolTableRecord
100
AcDbLayerTableRecord
  2
MIA_TROU
 70
0
 62
7
  6
CONTINUOUS
370
-3
390
F
  0
LAYER
  5
20F
100
AcDbSymbolTableRecord
100
AcDbLayerTableRecord
  2
XSEC_DATUMS
 70
0
 62
7
  6
CONTINUOUS
370
-3
390
F
  0
ENDTAB
  0
TABLE
  2
STYLE
  5
3
100
AcDbSymbolTable
 70
1
  0
STYLE
  5
11
100
AcDbSymbolTableRecord
100
AcDbTextStyleTableRecord
  2
STANDARD
 70
0
 40
0.0
 41
0.8
 50
0.0
 71
0
 42
0.2
  3
txt
  4

  0
STYLE
  5
210
100
AcDbSymbolTableRecord
100
AcDbTextStyleTableRecord
  2
TEXTSTYLE_1
 70
0
 40
0.0
 41
0.8
 50
0.0
 71
0
 42
0.2
  3
gdt
  4

  0
ENDTAB
  0
TABLE
  2
VIEW
  5
6
100
AcDbSymbolTable
 70
0
  0
ENDTAB
  0
TABLE
  2
UCS
  5
7
100
AcDbSymbolTable
 70
0
  0
ENDTAB
  0
TABLE
  2
APPID
  5
9
100
AcDbSymbolTable
 70
1
  0
APPID
  5
211
100
AcDbSymbolTableRecord
100
AcDbRegAppTableRecord
  2
ACAD
 70
0
  0
ENDTAB
  0
TABLE
  2
BLOCK_RECORD
  5
1
100
AcDbSymbolTable
 70
0
  0
BLOCK_RECORD
  5
212
100
AcDbSymbolTableRecord
100
AcDbBlockTableRecord
  2
*Model_Space
  0
BLOCK_RECORD
  5
213
100
AcDbSymbolTableRecord
100
AcDbBlockTableRecord
  2
*Paper_Space
  0
ENDTAB
  0
TABLE
  2
DIMSTYLE
  5
A
100
AcDbSymbolTable
 70
1
100
AcDbDimStyleTable
 71
0
  0
DIMSTYLE
105
214
100
AcDbSymbolTableRecord
100
AcDbDimStyleTableRecord
  2
STANDARD
 70
0
  3

  4

 40
1.0
 41
0.1875
 42
0.0625
 43
0.38
 44
0.18
 45
0.0
 46
0.0
 47
0.00001
 48
0.00001
140
0.125
141
0.09
142
0.0
143
25.4
144
1.0
145
0.0
146
1.0
147
0.09
 71
0.0
 72
0.0
 73
1
 74
1
 75
0
 76
0
 77
0
 78
4
170
0
171
2
172
0
173
0
174
0
175
0
176
0
177
0
178
0
270
2
271
5
272
5
273
2
274
2
275
0
280
0
281
0
282
0
283
1
284
4
285
0
286
0
287
3
288
0
340
11
  0
ENDTAB
  0
ENDSEC
  0
SECTION
  2
BLOCKS
  0
BLOCK
  5
20
100
AcDbEntity
  8
0
100
AcDbBlockBegin
  2
*Model_Space
 70
0
 10
0.0
 20
0.0
 30
0.0
  3
*Model_Space
  1

  0
ENDBLK
  5
21
100
AcDbEntity
  8
0
100
AcDbBlockEnd
  0
BLOCK
  5
1C
100
AcDbEntity
  8
0
100
AcDbBlockBegin
  2
*Paper_Space
 70
0
 10
0.0
 20
0.0
 30
0.0
  3
*Paper_Space
  1

  0
ENDBLK
  5
1D
100
AcDbEntity
  8
0
100
AcDbBlockEnd
  0
ENDSEC
  0
SECTION
  2
ENTITIES
  0
LINE
  5
215
100
AcDbEntity
  8
0
100
AcDbLine
 62
7
  6
CONTINUOUS
 10
1.8487069275
 20
20.4139081944
 11
1.8456002522
 21
20.3936098841
  0
LINE
  5
216
100
AcDbEntity
  8
0
100
AcDbLine
 62
7
  6
CONTINUOUS
 10
1.8520086626
 20
20.4348292126
 11
1.8487069275
 21
20.4139081944
  0
LINE
  5
217
100
AcDbEntity
  8
0
100
AcDbLine
 62
7
  6
CONTINUOUS
 10
1.8555259604
 20
20.4564398071
 11
1.8520086626
 21
20.4348292126
  0
LINE
  5
218
100
AcDbEntity
  8
0
100
AcDbLine
 62
7
  6
CONTINUOUS
 10
1.858790794
 20
20.4759256293
 11
1.8555259604
 21
20.4564398071
  0
LINE
  5
219
100
AcDbEntity
  8
0
100
AcDbLine
 62
7
  6
CONTINUOUS
 10
1.8622289139
 20
20.4958952664
 11
1.858790794
 21
20.4759256293
  0
LINE
  5
21A
100
AcDbEntity
  8
0
100
AcDbLine
 62
7
  6
CONTINUOUS
 10
1.8658370393
 20
20.5162903921
 11
1.8622289139
 21
20.4958952664
  0
LINE
  5
21B
100
AcDbEntity
  8
0
100
AcDbLine
 62
7
  6
CONTINUOUS
 10
1.8696120601
 20
20.5370585627
 11
1.8658370393
 21
20.5162903921
  0
LINE
  5
21C
100
AcDbEntity
  8
0
100
AcDbLine
 62
7
  6
CONTINUOUS
 10
1.8735691044
 20
20.5582482564
 11
1.8696120601
 21
20.5370585627
  0
LINE
  5
21D
100
AcDbEntity
  8
0
100
AcDbLine
 62
7
  6
CONTINUOUS
 10
1.8909755571
 20
20.6297452496
 11
1.8566202137
 21
20.4491196849
  0
LINE
  5
21E
100
AcDbEntity
  8
0
100
AcDbLine
 62
7
  6
CONTINUOUS
 10
1.8777968744
 20
20.5802802729
 11
1.8735691044
 21
20.5582482564
  0
LINE
  5
21F
100
AcDbEntity
  8
0
100
AcDbLine
 62
7
  6
CONTINUOUS
 10
1.8817230874
 20
20.6002188365
 11
1.8777968744
 21
20.5802802729
  0
LINE
  5
220
100
AcDbEntity
  8
0
100
AcDbLine
 62
7
  6
CONTINUOUS
 10
1.886012765
 20
20.6214685522
 11
1.8817230874
 21
20.6002188365
  0
LINE
  5
221
100
AcDbEntity
  8
0
100
AcDbLine
 62
7
  6
CONTINUOUS
 10
1.8899429767
 20
20.6404793187
 11
1.886012765
 21
20.6214685522
  0
LINE
  5
222
100
AcDbEntity
  8
0
100
AcDbLine
 62
7
  6
CONTINUOUS
 10
1.894220125
 20
20.6607020481
 11
1.8899429767
 21
20.6404793187
  0
LINE
  5
223
100
AcDbEntity
  8
0
100
AcDbLine
 62
7
  6
CONTINUOUS
 10
1.8988116526
 20
20.6819041341
 11
1.894220125
 21
20.6607020481
  0
LINE
  5
224
100
AcDbEntity
  8
0
100
AcDbLine
 62
7
  6
CONTINUOUS
 10
1.9036815938
 20
20.7038548166
 11
1.8988116526
 21
20.6819041341
  0
LINE
  5
225
100
AcDbEntity
  8
0
100
AcDbLine
 62
7
  6
CONTINUOUS
 10
1.908789291
 20
20.7263216737
 11
1.9036815938
 21
20.7038548166
  0
LINE
  5
226
100
AcDbEntity
  8
0
100
AcDbLine
 62
7
  6
CONTINUOUS
 10
1.9141324437
 20
20.7492551158
 11
1.908789291
 21
20.7263216737
  0
LINE
  5
227
100
AcDbEntity
  8
0
100
AcDbLine
 62
7
  6
CONTINUOUS
 10
1.9332624592
 20
20.8110248736
 11
1.8909755571
 21
20.6297452496
  0
LINE
  5
228
100
AcDbEntity
  8
0
100
AcDbLine
 62
7
  6
CONTINUOUS
 10
1.9186031454
 20
20.7680239034
 11
1.9141324437
 21
20.7492551158
  0
LINE
  5
229
100
AcDbEntity
  8
0
100
AcDbLine
 62
7
  6
CONTINUOUS
 10
1.9232719636
 20
20.7872390809
 11
1.9186031454
 21
20.7680239034
  0
LINE
  5
22A
100
AcDbEntity
  8
0
100
AcDbLine
 62
7
  6
CONTINUOUS
 10
1.9281616738
 20
20.8069635458
 11
1.9232719636
 21
20.7872390809
  0
LINE
  5
22B
100
AcDbEntity
  8
0
100
AcDbLine
 62
7
  6
CONTINUOUS
 10
1.9332971378
 20
20.8272623302
 11
1.9281616738
 21
20.8069635458
  0
LINE
  5
22C
100
AcDbEntity
  8
0
100
AcDbLine
 62
7
  6
CONTINUOUS
 10
1.9386939624
 20
20.8481584972
 11
1.9332971378
 21
20.8272623302
  0
LINE
  5
22D
100
AcDbEntity
  8
0
100
AcDbLine
 62
7
  6
CONTINUOUS
 10
1.9443644344
 20
20.8696592522
 11
1.9386939624
 21
20.8481584972
  0
LINE
  5
22E
100
AcDbEntity
  8
0
100
AcDbLine
 62
7
  6
CONTINUOUS
 10
1.9503205487
 20
20.8917685119
 11
1.9443644344
 21
20.8696592522
  0
LINE
  5
22F
100
AcDbEntity
  8
0
100
AcDbLine
 62
7
  6
CONTINUOUS
 10
1.9565778914
 20
20.9145010907
 11
1.9503205487
 21
20.8917685119
  0
LINE
  5
230
100
AcDbEntity
  8
0
100
AcDbLine
 62
7
  6
CONTINUOUS
 10
1.9837237232
 20
20.992106756
 11
1.9332624592
 21
20.8110248736
  0
LINE
  5
231
100
AcDbEntity
  8
0
100
AcDbLine
 62
7
  6
CONTINUOUS
 10
1.9631619274
 20
20.9379035368
 11
1.9565778914
 21
20.9145010907
  0
LINE
  5
232
100
AcDbEntity
  8
0
100
AcDbLine
 62
7
  6
CONTINUOUS
 10
1.9683323554
 20
20.955928921
 11
1.9631619274
 21
20.9379035368
  0
LINE
  5
233
100
AcDbEntity
  8
0
100
AcDbLine
 62
7
  6
CONTINUOUS
 10
1.9737201886
 20
20.9743979361
 11
1.9683323554
 21
20.955928921
  0
LINE
  5
234
100
AcDbEntity
  8
0
100
AcDbLine
 62
7
  6
CONTINUOUS
 10
1.9793372704
 20
20.9933260591
 11
1.9737201886
 21
20.9743979361
  0
LINE
  5
235
100
AcDbEntity
  8
0
100
AcDbLine
 62
7
  6
CONTINUOUS
 10
1.9851963958
 20
21.0127299292
 11
1.9793372704
 21
20.9933260591
  0
LINE
  5
236
100
AcDbEntity
  8
0
100
AcDbLine
 62
7
  6
CONTINUOUS
 10
1.9913107788
 20
21.0326254091
 11
1.9851963958
 21
21.0127299292
  0
LINE
  5
237
100
AcDbEntity
  8
0
100
AcDbLine
 62
7
  6
CONTINUOUS
 10
1.9976933899
 20
21.0530254202
 11
1.9913107788
 21
21.0326254091
  0
LINE
  5
238
100
AcDbEntity
  8
0
100
AcDbLine
 62
7
  6
CONTINUOUS
 10
2.0043580704
 20
21.0739435409
 11
1.9976933899
 21
21.0530254202
  0
LINE
  5
239
100
AcDbEntity
  8
0
100
AcDbLine
 62
7
  6
CONTINUOUS
 10
2.0113254834
 20
21.0954119892
 11
2.0043580704
 21
21.0739435409
  0
LINE
  5
23A
100
AcDbEntity
  8
0
100
AcDbLine
 62
7
  6
CONTINUOUS
 10
2.0426310049
 20
21.1723188206
 11
1.9837237232
 21
20.992106756
  0
LINE
  5
23B
100
AcDbEntity
  8
0
100
AcDbLine
 62
7
  6
CONTINUOUS
 10
2.0186246354
 20
21.1174843396
 11
2.0113254834
 21
21.0954119892
  0
LINE
  5
23C
100
AcDbEntity
  8
0
100
AcDbLine
 62
7
  6
CONTINUOUS
 10
2.0262769358
 20
21.1401863605
 11
2.0186246354
 21
21.1174843396
  0
LINE
  5
23D
100
AcDbEntity
  8
0
100
AcDbLine
 62
7
  6
CONTINUOUS
 10
2.034302973
 20
21.1635377701
 11
2.0262769358
 21
21.1401863605
  0
LINE
  5
23E
100
AcDbEntity
  8
0
100
AcDbLine
 62
7
  6
CONTINUOUS
 10
2.0427292399
 20
21.1875715469
 11
2.034302973
 21
21.1635377701
  0
LINE
  5
23F
100
AcDbEntity
  8
0
100
AcDbLine
 62
7
  6
CONTINUOUS
 10
2.051586659
 20
21.2123282552
 11
2.0427292399
 21
21.1875715469
  0
LINE
  5
240
100
AcDbEntity
  8
0
100
AcDbLine
 62
7
  6
CONTINUOUS
 10
2.0577509147
 20
21.2292641677
 11
2.051586659
 21
21.2123282552
  0
LINE
  5
241
100
AcDbEntity
  8
0
100
AcDbLine
 62
7
  6
CONTINUOUS
 10
2.0641450397
 20
21.2465870203
 11
2.0577509147
 21
21.2292641677
  0
LINE
  5
242
100
AcDbEntity
  8
0
100
AcDbLine
 62
7
  6
CONTINUOUS
 10
2.0707767098
 20
21.2642991125
 11
2.0641450397
 21
21.2465870203
  0
LINE
  5
243
100
AcDbEntity
  8
0
100
AcDbLine
 62
7
  6
CONTINUOUS
 10
2.1102604393
 20
21.3509749651
 11
2.0426310049
 21
21.1723188206
  0
LINE
  5
244
100
AcDbEntity
  8
0
100
AcDbLine
 62
7
  6
CONTINUOUS
 10
2.0776512819
 20
21.2823958641
 11
2.0707767098
 21
21.2642991125
  0
LINE
  5
245
100
AcDbEntity
  8
0
100
AcDbLine
 62
7
  6
CONTINUOUS
 10
2.084773096
 20
21.3008696326
 11
2.0776512819
 21
21.2823958641
  0
LINE
  5
246
100
AcDbEntity
  8
0
100
AcDbLine
 62
7
  6
CONTINUOUS
 10
2.0921460466
 20
21.3197113784
 11
2.084773096
 21
21.3008696326
  0
LINE
  5
247
100
AcDbEntity
  8
0
100
AcDbLine
 62
7
  6
CONTINUOUS
 10
2.0997856112
 20
21.3389408168
 11
2.0921460466
 21
21.3197113784
  0
LINE
  5
248
100
AcDbEntity
  8
0
100
AcDbLine
 62
7
  6
CONTINUOUS
 10
2.1077243671
 20
21.3586177868
 11
2.0997856112
 21
21.3389408168
  0
LINE
  5
249
100
AcDbEntity
  8
0
100
AcDbLine
 62
7
  6
CONTINUOUS
 10
2.1159992087
 20
21.3788080492
 11
2.1077243671
 21
21.3586177868
  0
LINE
  5
24A
100
AcDbEntity
  8
0
100
AcDbLine
 62
7
  6
CONTINUOUS
 10
2.1246465593
 20
21.3995710184
 11
2.1159992087
 21
21.3788080492
  0
LINE
  5
24B
100
AcDbEntity
  8
0
100
AcDbLine
 62
7
  6
CONTINUOUS
 10
2.1338206744
 20
21.4212368997
 11
2.1246465593
 21
21.3995710184
  0
LINE
  5
24C
100
AcDbEntity
  8
0
100
AcDbLine
 62
7
  6
CONTINUOUS
 10
2.1437908511
 20
21.4443762534
 11
2.1338206744
 21
21.4212368997
  0
LINE
  5
24D
100
AcDbEntity
  8
0
100
AcDbLine
 62
7
  6
CONTINUOUS
 10
2.1869131642
 20
21.5274018372
 11
2.1102604393
 21
21.3509749651
  0
LINE
  5
24E
100
AcDbEntity
  8
0
100
AcDbLine
 62
9
  6
CONTINUOUS
 10
4.806766006
 20
23.1264670301
 11
4.806669202
 21
23.1262451287
  0
LINE
  5
24F
100
AcDbEntity
  8
0
100
AcDbLine
 62
7
  6
CONTINUOUS
 10
2.1546427991
 20
21.4690997845
 11
2.1437908511
 21
21.4443762534
  0
LINE
  5
250
100
AcDbEntity
  8
0
100
AcDbLine
 62
7
  6
CONTINUOUS
 10
2.1662723286
 20
21.4950820047
 11
2.1546427991
 21
21.4690997845
  0
LINE
  5
251
100
AcDbEntity
  8
0
100
AcDbLine
 62
7
  6
CONTINUOUS
 10
2.1786550728
 20
21.5221888163
 11
2.1662723286
 21
21.4950820047
  0
LINE
  5
252
100
AcDbEntity
  8
0
100
AcDbLine
 62
7
  6
CONTINUOUS
 10
2.191728511
 20
21.5502104349
 11
2.1786550728
 21
21.5221888163
  0
LINE
  5
253
100
AcDbEntity
  8
0
100
AcDbLine
 62
7
  6
CONTINUOUS
 10
2.2054364469
 20
21.5789628784
 11
2.191728511
 21
21.5502104349
  0
LINE
  5
254
100
AcDbEntity
  8
0
100
AcDbLine
 62
7
  6
CONTINUOUS
 10
2.2125349297
 20
21.5936084238
 11
2.2054364469
 21
21.5789628784
  0
LINE
  5
255
100
AcDbEntity
  8
0
100
AcDbLine
 62
7
  6
CONTINUOUS
 10
2.2198018382
 20
21.6084345783
 11
2.2125349297
 21
21.5936084238
  0
LINE
  5
256
100
AcDbEntity
  8
0
100
AcDbLine
 62
7
  6
CONTINUOUS
 10
2.227241348
 20
21.6234420285
 11
2.2198018382
 21
21.6084345783
  0
LINE
  5
257
100
AcDbEntity
  8
0
100
AcDbLine
 62
7
  6
CONTINUOUS
 10
2.2728544964
 20
21.7007678786
 11
2.1869131642
 21
21.5274018372
  0
LINE
  5
258
100
AcDbEntity
  8
0
100
AcDbLine
 62
7
  6
CONTINUOUS
 10
2.2348680695
 20
21.6386518839
 11
2.227241348
 21
21.6234420285
  0
LINE
  5
259
100
AcDbEntity
  8
0
100
AcDbLine
 62
7
  6
CONTINUOUS
 10
2.2426910863
 20
21.6540732003
 11
2.2348680695
 21
21.6386518839
  0
LINE
  5
25A
100
AcDbEntity
  8
0
100
AcDbLine
 62
7
  6
CONTINUOUS
 10
2.2507163625
 20
21.6697082692
 11
2.2426910863
 21
21.6540732003
  0
LINE
  5
25B
100
AcDbEntity
  8
0
100
AcDbLine
 62
7
  6
CONTINUOUS
 10
2.2589489868
 20
21.6855572737
 11
2.2507163625
 21
21.6697082692
  0
LINE
  5
25C
100
AcDbEntity
  8
0
100
AcDbLine
 62
7
  6
CONTINUOUS
 10
2.2673930842
 20
21.7016182266
 11
2.2589489868
 21
21.6855572737
  0
LINE
  5
25D
100
AcDbEntity
  8
0
100
AcDbLine
 62
7
  6
CONTINUOUS
 10
2.2760499446
 20
21.7178835896
 11
2.2673930842
 21
21.7016182266
  0
LINE
  5
25E
100
AcDbEntity
  8
0
100
AcDbLine
 62
7
  6
CONTINUOUS
 10
2.2849153723
 20
21.7343357174
 11
2.2760499446
 21
21.7178835896
  0
LINE
  5
25F
100
AcDbEntity
  8
0
100
AcDbLine
 62
7
  6
CONTINUOUS
 10
2.2939952088
 20
21.7509757678
 11
2.2849153723
 21
21.7343357174
  0
LINE
  5
260
100
AcDbEntity
  8
0
100
AcDbLine
 62
7
  6
CONTINUOUS
 10
2.3033134073
 20
21.7678370984
 11
2.2939952088
 21
21.7509757678
  0
LINE
  5
261
100
AcDbEntity
  8
0
100
AcDbLine
 62
7
  6
CONTINUOUS
 10
2.3128631728
 20
21.7848964401
 11
2.3033134073
 21
21.7678370984
  0
LINE
  5
262
100
AcDbEntity
  8
0
100
AcDbLine
 62
7
  6
CONTINUOUS
 10
2.3683293453
 20
21.8701626796
 11
2.2728544964
 21
21.7007678786
  0
LINE
  5
263
100
AcDbEntity
  8
0
100
AcDbLine
 62
7
  6
CONTINUOUS
 10
2.3226618657
 20
21.8021736145
 11
2.3128631728
 21
21.7848964401
  0
LINE
  5
264
100
AcDbEntity
  8
0
100
AcDbLine
 62
7
  6
CONTINUOUS
 10
2.3327468355
 20
21.8197215359
 11
2.3226618657
 21
21.8021736145
  0
LINE
  5
265
100
AcDbEntity
  8
0
100
AcDbLine
 62
7
  6
CONTINUOUS
 10
2.3431514046
 20
21.8375829308
 11
2.3327468355
 21
21.8197215359
  0
LINE
  5
266
100
AcDbEntity
  8
0
100
AcDbLine
 62
7
  6
CONTINUOUS
 10
2.3539068363
 20
21.8557940907
 11
2.3431514046
 21
21.8375829308
  0
LINE
  5
267
100
AcDbEntity
  8
0
100
AcDbLine
 62
7
  6
CONTINUOUS
 10
2.3651584034
 20
21.8745774748
 11
2.3539068363
 21
21.8557940907
  0
LINE
  5
268
100
AcDbEntity
  8
0
100
AcDbLine
 62
7
  6
CONTINUOUS
 10
2.3771642944
 20
21.8943259193
 11
2.3651584034
 21
21.8745774748
  0
LINE
  5
269
100
AcDbEntity
  8
0
100
AcDbLine
 62
7
  6
CONTINUOUS
 10
2.3898743594
 20
21.914910521
 11
2.3771642944
 21
21.8943259193
  0
LINE
  5
26A
100
AcDbEntity
  8
0
100
AcDbLine
 62
7
  6
CONTINUOUS
 10
2.4030518112
 20
21.9359118838
 11
2.3898743594
 21
21.914910521
  0
LINE
  5
26B
100
AcDbEntity
  8
0
100
AcDbLine
 62
7
  6
CONTINUOUS
 10
2.4165860786
 20
21.9571314199
 11
2.4030518112
 21
21.9359118838
  0
LINE
  5
26C
100
AcDbEntity
  8
0
100
AcDbLine
 62
7
  6
CONTINUOUS
 10
2.4735450054
 20
22.0345699749
 11
2.3683293453
 21
21.8701626796
  0
LINE
  5
26D
100
AcDbEntity
  8
0
100
AcDbLine
 62
7
  6
CONTINUOUS
 10
2.4304244177
 20
21.9784706826
 11
2.4165860786
 21
21.9571314199
  0
LINE
  5
26E
100
AcDbEntity
  8
0
100
AcDbLine
 62
7
  6
CONTINUOUS
 10
2.4445485294
 20
21.9998887182
 11
2.4304244177
 21
21.9784706826
  0
LINE
  5
26F
100
AcDbEntity
  8
0
100
AcDbLine
 62
7
  6
CONTINUOUS
 10
2.4589559197
 20
22.0213701313
 11
2.4445485294
 21
21.9998887182
  0
LINE
  5
270
100
AcDbEntity
  8
0
100
AcDbLine
 62
7
  6
CONTINUOUS
 10
2.4735436902
 20
22.0427541105
 11
2.4589559197
 21
22.0213701313
  0
LINE
  5
271
100
AcDbEntity
  8
0
100
AcDbLine
 62
7
  6
CONTINUOUS
 10
2.4882071113
 20
22.0638875715
 11
2.4735436902
 21
22.0427541105
  0
LINE
  5
272
100
AcDbEntity
  8
0
100
AcDbLine
 62
7
  6
CONTINUOUS
 10
2.5030116603
 20
22.0848666654
 11
2.4882071113
 21
22.0638875715
  0
LINE
  5
273
100
AcDbEntity
  8
0
100
AcDbLine
 62
7
  6
CONTINUOUS
 10
2.518326508
 20
22.1062006126
 11
2.5030116603
 21
22.0848666654
  0
LINE
  5
274
100
AcDbEntity
  8
0
100
AcDbLine
 62
7
  6
CONTINUOUS
 10
2.58862365
 20
22.1928216892
 11
2.4735450054
 21
22.0345699749
  0
LINE
  5
275
100
AcDbEntity
  8
0
100
AcDbLine
 62
7
  6
CONTINUOUS
 10
2.5344738499
 20
22.1282994129
 11
2.518326508
 21
22.1062006126
  0
LINE
  5
276
100
AcDbEntity
  8
0
100
AcDbLine
 62
7
  6
CONTINUOUS
 10
2.5514591804
 20
22.1511195316
 11
2.5344738499
 21
22.1282994129
  0
LINE
  5
277
100
AcDbEntity
  8
0
100
AcDbLine
 62
7
  6
CONTINUOUS
 10
2.5687032507
 20
22.1738531883
 11
2.5514591804
 21
22.1511195316
  0
LINE
  5
278
100
AcDbEntity
  8
0
100
AcDbLine
 62
7
  6
CONTINUOUS
 10
2.5856222367
 20
22.1957446819
 11
2.5687032507
 21
22.1738531883
  0
LINE
  5
279
100
AcDbEntity
  8
0
100
AcDbLine
 62
7
  6
CONTINUOUS
 10
2.6020268549
 20
22.2165896297
 11
2.5856222367
 21
22.1957446819
  0
LINE
  5
27A
100
AcDbEntity
  8
0
100
AcDbLine
 62
7
  6
CONTINUOUS
 10
2.6185420462
 20
22.237205633
 11
2.6020268549
 21
22.2165896297
  0
LINE
  5
27B
100
AcDbEntity
  8
0
100
AcDbLine
 62
7
  6
CONTINUOUS
 10
2.6355997511
 20
22.2581193227
 11
2.6185420462
 21
22.237205633
  0
LINE
  5
27C
100
AcDbEntity
  8
0
100
AcDbLine
 62
7
  6
CONTINUOUS
 10
2.7135811522
 20
22.3436202767
 11
2.58862365
 21
22.1928216892
  0
LINE
  5
27D
100
AcDbEntity
  8
0
100
AcDbLine
 62
7
  6
CONTINUOUS
 10
2.6526164586
 20
22.2786078472
 11
2.6355997511
 21
22.2581193227
  0
LINE
  5
27E
100
AcDbEntity
  8
0
100
AcDbLine
 62
7
  6
CONTINUOUS
 10
2.6694185093
 20
22.2984793169
 11
2.6526164586
 21
22.2786078472
  0
LINE
  5
27F
100
AcDbEntity
  8
0
100
AcDbLine
 62
7
  6
CONTINUOUS
 10
2.6860663158
 20
22.31782507
 11
2.6694185093
 21
22.2984793169
  0
LINE
  5
280
100
AcDbEntity
  8
0
100
AcDbLine
 62
7
  6
CONTINUOUS
 10
2.7025875577
 20
22.3366934935
 11
2.6860663158
 21
22.31782507
  0
LINE
  5
281
100
AcDbEntity
  8
0
100
AcDbLine
 62
7
  6
CONTINUOUS
 10
2.7188751924
 20
22.3549800658
 11
2.7025875577
 21
22.3366934935
  0
LINE
  5
282
100
AcDbEntity
  8
0
100
AcDbLine
 62
7
  6
CONTINUOUS
 10
2.7346696586
 20
22.372420461
 11
2.7188751924
 21
22.3549800658
  0
LINE
  5
283
100
AcDbEntity
  8
0
100
AcDbLine
 62
7
  6
CONTINUOUS
 10
2.7499528161
 20
22.3890276201
 11
2.7346696586
 21
22.372420461
  0
LINE
  5
284
100
AcDbEntity
  8
0
100
AcDbLine
 62
7
  6
CONTINUOUS
 10
2.7653558928
 20
22.405502926
 11
2.7499528161
 21
22.3890276201
  0
LINE
  5
285
100
AcDbEntity
  8
0
100
AcDbLine
 62
7
  6
CONTINUOUS
 10
2.8483450959
 20
22.485603269
 11
2.7135811522
 21
22.3436202767
  0
LINE
  5
286
100
AcDbEntity
  8
0
100
AcDbLine
 62
7
  6
CONTINUOUS
 10
2.7802252617
 20
22.4211623725
 11
2.7653558928
 21
22.405502926
  0
LINE
  5
287
100
AcDbEntity
  8
0
100
AcDbLine
 62
7
  6
CONTINUOUS
 10
2.7944940412
 20
22.4359670852
 11
2.7802252617
 21
22.4211623725
  0
LINE
  5
288
100
AcDbEntity
  8
0
100
AcDbLine
 62
7
  6
CONTINUOUS
 10
2.8087911917
 20
22.4505866742
 11
2.7944940412
 21
22.4359670852
  0
LINE
  5
289
100
AcDbEntity
  8
0
100
AcDbLine
 62
7
  6
CONTINUOUS
 10
2.8244388574
 20
22.4663452598
 11
2.8087911917
 21
22.4505866742
  0
LINE
  5
28A
100
AcDbEntity
  8
0
100
AcDbLine
 62
7
  6
CONTINUOUS
 10
2.8414846789
 20
22.4832290714
 11
2.8244388574
 21
22.4663452598
  0
LINE
  5
28B
100
AcDbEntity
  8
0
100
AcDbLine
 62
7
  6
CONTINUOUS
 10
2.8603789846
 20
22.5016051935
 11
2.8414846789
 21
22.4832290714
  0
LINE
  5
28C
100
AcDbEntity
  8
0
100
AcDbLine
 62
7
  6
CONTINUOUS
 10
2.8840052675
 20
22.5240918291
 11
2.8603789846
 21
22.5016051935
  0
LINE
  5
28D
100
AcDbEntity
  8
0
100
AcDbLine
 62
7
  6
CONTINUOUS
 10
2.9189426143
 20
22.5563644786
 11
2.8840052675
 21
22.5240918291
  0
LINE
  5
28E
100
AcDbEntity
  8
0
100
AcDbLine
 62
7
  6
CONTINUOUS
 10
2.9925427985
 20
22.6171750741
 11
2.8483450959
 21
22.485603269
  0
LINE
  5
28F
100
AcDbEntity
  8
0
100
AcDbLine
 62
7
  6
CONTINUOUS
 10
2.9816570785
 20
22.6114585376
 11
2.9189426143
 21
22.5563644786
  0
LINE
  5
290
100
AcDbEntity
  8
0
100
AcDbLine
 62
7
  6
CONTINUOUS
 10
3.0770246275
 20
22.6886063799
 11
2.9816570788
 21
22.6114585378
  0
LINE
  5
291
100
AcDbEntity
  8
0
100
AcDbLine
 62
7
  6
CONTINUOUS
 10
3.1459674823
 20
22.7369844688
 11
2.9925427985
 21
22.6171750741
  0
LINE
  5
292
100
AcDbEntity
  8
0
100
AcDbLine
 62
7
  6
CONTINUOUS
 10
3.2213738479
 20
22.7913417653
 11
3.0770246275
 21
22.6886063799
  0
LINE
  5
293
100
AcDbEntity
  8
0
100
AcDbLine
 62
7
  6
CONTINUOUS
 10
3.3080566019
 20
22.8435221709
 11
3.1459674823
 21
22.7369844688
  0
LINE
  5
294
100
AcDbEntity
  8
0
100
AcDbLine
 62
7
  6
CONTINUOUS
 10
3.3667460073
 20
22.8791798279
 11
3.2213738479
 21
22.7913417653
  0
LINE
  5
295
100
AcDbEntity
  8
0
100
AcDbLine
 62
7
  6
CONTINUOUS
 10
3.4774608023
 20
22.9349599085
 11
3.3080566019
 21
22.8435221709
  0
LINE
  5
296
100
AcDbEntity
  8
0
100
AcDbLine
 62
7
  6
CONTINUOUS
 10
3.5126360317
 20
22.9528053074
 11
3.3667460073
 21
22.8791798279
  0
LINE
  5
297
100
AcDbEntity
  8
0
100
AcDbLine
 62
7
  6
CONTINUOUS
 10
3.6539501235
 20
23.0103243347
 11
3.4774608023
 21
22.9349599085
  0
LINE
  5
298
100
AcDbEntity
  8
0
100
AcDbLine
 62
7
  6
CONTINUOUS
 10
3.6590041005
 20
23.0130282865
 11
3.5126360317
 21
22.9528053074
  0
LINE
  5
299
100
AcDbEntity
  8
0
100
AcDbLine
 62
7
  6
CONTINUOUS
 10
3.8054008214
 20
23.0603402854
 11
3.6590041005
 21
23.0130282865
  0
LINE
  5
29A
100
AcDbEntity
  8
0
100
AcDbLine
 62
7
  6
CONTINUOUS
 10
3.8358372005
 20
23.0681692976
 11
3.6539501235
 21
23.0103243347
  0
LINE
  5
29B
100
AcDbEntity
  8
DEFAULT_2
100
AcDbLine
 62
8
  6
CONTINUOUS
 10
39.8481103891
 20
2.4641905672
 11
39.8536838057
 21
2.4657441567
  0
LINE
  5
29C
100
AcDbEntity
  8
DEFAULT_2
100
AcDbLine
 62
8
  6
CONTINUOUS
 10
39.8838287633
 20
2.3443971858
 11
39.8860993822
 21
2.3450198307
  0
LINE
  5
29D
100
AcDbEntity
  8
0
100
AcDbLine
 62
7
  6
CONTINUOUS
 10
67.6772412218
 20
0.0214848894
 11
67.6873096624
 21
0.0241611585
  0
LINE
  5
29E
100
AcDbEntity
  8
DEFAULT_2
100
AcDbLine
 62
8
  6
CONTINUOUS
 10
58.6655860165
 20
2.7969736609
 11
58.7368372356
 21
2.8156730594
  0
LINE
  5
29F
100
AcDbEntity
  8
DEFAULT_2
100
AcDbLine
 62
8
  6
CONTINUOUS
 10
39.8536838057
 20
2.4657441567
 11
39.8590391869
 21
2.4671070093
  0
LINE
  5
2A0
100
AcDbEntity
  8
DEFAULT_2
100
AcDbLine
 62
8
  6
CONTINUOUS
 10
39.8860993822
 20
2.3450198307
 11
39.8883813323
 21
2.3455994768
  0
LINE
  5
2A1
100
AcDbEntity
  8
0
100
AcDbLine
 62
7
  6
CONTINUOUS
 10
67.6727461364
 20
0.0201935069
 11
67.6825322389
 21
0.0225408935
  0
LINE
  5
2A2
100
AcDbEntity
  8
DEFAULT_2
100
AcDbLine
 62
8
  6
CONTINUOUS
 10
39.8883813323
 20
2.3455994768
 11
39.8904008831
 21
2.3460744213
  0
LINE
  5
2A3
100
AcDbEntity
  8
DEFAULT_2
100
AcDbLine
 62
8
  6
CONTINUOUS
 10
58.5953904881
 20
2.7806240538
 11
58.6655860165
 21
2.7969736609
  0
LINE
  5
2A4
100
AcDbEntity
  8
DEFAULT_2
100
AcDbLine
 62
8
  6
CONTINUOUS
 10
39.8590391869
 20
2.4671070093
 11
39.8644234065
 21
2.4683509566
  0
LINE
  5
2A5
100
AcDbEntity
  8
0
100
AcDbLine
 62
7
  6
CONTINUOUS
 10
57.7636442909
 20
0.0116567777
 11
57.7108395294
 21
0.0
  0
LINE
  5
2A6
100
AcDbEntity
  8
0
100
AcDbLine
 62
7
  6
CONTINUOUS
 10
57.7108395294
 20
0.0108606956
 11
57.7636442909
 21
0.0225174733
  0
LINE
  5
2A7
100
AcDbEntity
  8
DEFAULT_2
100
AcDbLine
 62
8
  6
CONTINUOUS
 10
39.8904008831
 20
2.3460744213
 11
39.8924280474
 21
2.3465156437
  0
LINE
  5
2A8
100
AcDbEntity
  8
0
100
AcDbLine
 62
7
  6
CONTINUOUS
 10
67.668282686
 20
0.0195822158
 11
67.6772412218
 21
0.0214848894
  0
LINE
  5
2A9
100
AcDbEntity
  8
DEFAULT_2
100
AcDbLine
 62
8
  6
CONTINUOUS
 10
39.8644234065
 20
2.4683509566
 11
39.8695207839
 21
2.4694136729
  0
LINE
  5
2AA
100
AcDbEntity
  8
DEFAULT_2
100
AcDbLine
 62
8
  6
CONTINUOUS
 10
58.5247717032
 20
2.7662124555
 11
58.5953904881
 21
2.7806240538
  0
LINE
  5
2AB
100
AcDbEntity
  8
DEFAULT_2
100
AcDbLine
 62
8
  6
CONTINUOUS
 10
39.8924280474
 20
2.3465156437
 11
39.8944622669
 21
2.346922995
  0
LINE
  5
2AC
100
AcDbEntity
  8
0
100
AcDbLine
 62
7
  6
CONTINUOUS
 10
67.664098367
 20
0.0185536459
 11
67.6727461364
 21
0.0201935069
  0
LINE
  5
2AD
100
AcDbEntity
  8
DEFAULT_2
100
AcDbLine
 62
8
  6
CONTINUOUS
 10
58.4553381733
 20
2.7540022144
 11
58.5247717032
 21
2.7662124555
  0
LINE
  5
2AE
100
AcDbEntity
  8
0
100
AcDbLine
 62
7
  6
CONTINUOUS
 10
67.6602384891
 20
0.0182366686
 11
67.668282686
 21
0.0195822158
  0
LINE
  5
2AF
100
AcDbEntity
  8
0
100
AcDbLine
 62
9
  6
CONTINUOUS
 10
67.677466103
 20
0.0214792014
 11
67.6764419998
 21
0.0213151453
  0
LINE
  5
2B0
100
AcDbEntity
  8
0
100
AcDbLine
 62
7
  6
CONTINUOUS
 10
67.6566791325
 20
0.0174517513
 11
67.664098367
 21
0.0185536459
  0
LINE
  5
2B1
100
AcDbEntity
  8
DEFAULT_2
100
AcDbLine
 62
8
  6
CONTINUOUS
 10
58.3856014581
 20
2.7436668739
 11
58.4553381733
 21
2.7540022144
  0
LINE
  5
2B2
100
AcDbEntity
  8
0
100
AcDbLine
 62
7
  6
CONTINUOUS
 10
67.6533159347
 20
0.017335527
 11
67.6602384891
 21
0.0182366686
  0
LINE
  5
2B3
100
AcDbEntity
  8
0
100
AcDbLine
 62
7
  6
CONTINUOUS
 10
67.650401222
 20
0.0167219147
 11
67.6566791325
 21
0.0174517513
  0
LINE
  5
2B4
100
AcDbEntity
  8
0
100
AcDbLine
 62
9
  6
CONTINUOUS
 10
67.5513507811
 20
0.0143986442
 11
67.5498791626
 21
0.0142305357
  0
LINE
  5
2B5
100
AcDbEntity
  8
0
100
AcDbLine
 62
7
  6
CONTINUOUS
 10
67.6474685786
 20
0.0167424015
 11
67.6533159347
 21
0.017335527
  0
LINE
  5
2B6
100
AcDbEntity
  8
0
100
AcDbLine
 62
7
  6
CONTINUOUS
 10
67.6449751974
 20
0.0162241573
 11
67.650401222
 21
0.0167219147
  0
LINE
  5
2B7
100
AcDbEntity
  8
0
100
AcDbLine
 62
7
  6
CONTINUOUS
 10
67.6423623111
 20
0.0163340569
 11
67.6474685786
 21
0.0167424015
  0
LINE
  5
2B8
100
AcDbEntity
  8
0
100
AcDbLine
 62
7
  6
CONTINUOUS
 10
67.6400963863
 20
0.0158662884
 11
67.6449751974
 21
0.0162241573
  0
LINE
  5
2B9
100
AcDbEntity
  8
0
100
AcDbLine
 62
7
  6
CONTINUOUS
 10
67.6376710855
 20
0.016033777
 11
67.6423623111
 21
0.0163340569
  0
LINE
  5
2BA
100
AcDbEntity
  8
0
100
AcDbLine
 62
7
  6
CONTINUOUS
 10
67.6354869189
 20
0.0155918556
 11
67.6400963863
 21
0.0158662884
  0
LINE
  5
2BB
100
AcDbEntity
  8
0
100
AcDbLine
 62
7
  6
CONTINUOUS
 10
1.8299794093
 20
20.2705063385
 11
1.8107294179
 21
20.0954303478
  0
LINE
  5
2BC
100
AcDbEntity
  8
0
100
AcDbLine
 62
7
  6
CONTINUOUS
 10
1.8237432039
 20
20.2277256213
 11
1.8215111667
 21
20.2075637946
  0
LINE
  5
2BD
100
AcDbEntity
  8
0
100
AcDbLine
 62
7
  6
CONTINUOUS
 10
1.8262079613
 20
20.2490888183
 11
1.8237432039
 21
20.2277256213
  0
LINE
  5
2BE
100
AcDbEntity
  8
0
100
AcDbLine
 62
7
  6
CONTINUOUS
 10
1.8286584787
 20
20.2694958367
 11
1.8262079613
 21
20.2490888183
  0
LINE
  5
2BF
100
AcDbEntity
  8
0
100
AcDbLine
 62
7
  6
CONTINUOUS
 10
1.8313153775
 20
20.2907858734
 11
1.8286584787
 21
20.2694958367
  0
LINE
  5
2C0
100
AcDbEntity
  8
0
100
AcDbLine
 62
7
  6
CONTINUOUS
 10
1.8338876656
 20
20.3106550043
 11
1.8313153775
 21
20.2907858734
  0
LINE
  5
2C1
100
AcDbEntity
  8
0
100
AcDbLine
 62
7
  6
CONTINUOUS
 10
1.8366354422
 20
20.3311528747
 11
1.8338876656
 21
20.3106550043
  0
LINE
  5
2C2
100
AcDbEntity
  8
0
100
AcDbLine
 62
7
  6
CONTINUOUS
 10
1.8395614926
 20
20.35223471
 11
1.8366354422
 21
20.3311528747
  0
LINE
  5
2C3
100
AcDbEntity
  8
0
100
AcDbLine
 62
7
  6
CONTINUOUS
 10
1.8426699625
 20
20.3738687885
 11
1.8395614926
 21
20.35223471
  0
LINE
  5
2C4
100
AcDbEntity
  8
0
100
AcDbLine
 62
7
  6
CONTINUOUS
 10
1.8456002522
 20
20.3936098841
 11
1.8426699625
 21
20.3738687885
  0
LINE
  5
2C5
100
AcDbEntity
  8
0
100
AcDbLine
 62
7
  6
CONTINUOUS
 10
1.8566202137
 20
20.4491196849
 11
1.8299794093
 21
20.2705063385
  0
LINE
  5
2C6
100
AcDbEntity
  8
DEFAULT_2
100
AcDbLine
 62
8
  6
CONTINUOUS
 10
39.8695207839
 20
2.4694136729
 11
39.874639216
 21
2.4703696986
  0
LINE
  5
2C7
100
AcDbEntity
  8
DEFAULT_2
100
AcDbLine
 62
8
  6
CONTINUOUS
 10
39.8944622669
 20
2.346922995
 11
39.8970598088
 21
2.3473920836
  0
LINE
  5
2C8
100
AcDbEntity
  8
DEFAULT_2
100
AcDbLine
 62
8
  6
CONTINUOUS
 10
58.3171184206
 20
2.7353766023
 11
58.3856014581
 21
2.7436668739
  0
LINE
  5
2C9
100
AcDbEntity
  8
0
100
AcDbLine
 62
7
  6
CONTINUOUS
 10
67.6331218728
 20
0.0157972383
 11
67.6376710855
 21
0.016033777
  0
LINE
  5
2CA
100
AcDbEntity
  8
0
100
AcDbLine
 62
7
  6
CONTINUOUS
 10
67.6309123974
 20
0.0153677885
 11
67.6354869189
 21
0.0155918556
  0
LINE
  5
2CB
100
AcDbEntity
  8
0
100
AcDbLine
 62
7
  6
CONTINUOUS
 10
1.8121793207
 20
20.1121288678
 11
1.811076634
 21
20.09926622
  0
LINE
  5
2CC
100
AcDbEntity
  8
0
100
AcDbLine
 62
7
  6
CONTINUOUS
 10
1.8152888019
 20
20.1463156605
 11
1.8121793207
 21
20.1121288678
  0
LINE
  5
2CD
100
AcDbEntity
  8
0
100
AcDbLine
 62
7
  6
CONTINUOUS
 10
1.8172335388
 20
20.1663661955
 11
1.8152888019
 21
20.1463156605
  0
LINE
  5
2CE
100
AcDbEntity
  8
0
100
AcDbLine
 62
7
  6
CONTINUOUS
 10
1.8193262424
 20
20.186977981
 11
1.8172335388
 21
20.1663661955
  0
LINE
  5
2CF
100
AcDbEntity
  8
0
100
AcDbLine
 62
7
  6
CONTINUOUS
 10
1.8215111667
 20
20.2075637946
 11
1.8193262424
 21
20.186977981
  0
LINE
  5
2D0
100
AcDbEntity
  8
DEFAULT_2
100
AcDbLine
 62
8
  6
CONTINUOUS
 10
39.874639216
 20
2.4703696986
 11
39.8793004799
 21
2.4711445069
  0
LINE
  5
2D1
100
AcDbEntity
  8
DEFAULT_2
100
AcDbLine
 62
8
  6
CONTINUOUS
 10
39.8970598088
 20
2.3473920836
 11
39.8996667107
 21
2.3478057727
  0
LINE
  5
2D2
100
AcDbEntity
  8
0
100
AcDbLine
 62
7
  6
CONTINUOUS
 10
67.6285106833
 20
0.0156000405
 11
67.6331218728
 21
0.0157972383
  0
LINE
  5
2D3
100
AcDbEntity
  8
0
100
AcDbLine
 62
7
  6
CONTINUOUS
 10
67.626207879
 20
0.0151761258
 11
67.6309123974
 21
0.0153677885
  0
LINE
  5
2D4
100
AcDbEntity
  8
0
100
AcDbLine
 62
7
  6
CONTINUOUS
 10
17.1509481105
 20
0.0243946837
 11
17.1723893964
 21
0.0298409177
  0
LINE
  5
2D5
100
AcDbEntity
  8
0
100
AcDbLine
 62
9
  6
CONTINUOUS
 10
17.1657264019
 20
0.0280339991
 11
17.1408932855
 21
0.0231188449
  0
LINE
  5
2D6
100
AcDbEntity
  8
DEFAULT_2
100
AcDbLine
 62
8
  6
CONTINUOUS
 10
39.8793004799
 20
2.4711445069
 11
39.8839755819
 21
2.4718306497
  0
LINE
  5
2D7
100
AcDbEntity
  8
DEFAULT_2
100
AcDbLine
 62
8
  6
CONTINUOUS
 10
39.8996667107
 20
2.3478057727
 11
39.9018028541
 21
2.3481024189
  0
LINE
  5
2D8
100
AcDbEntity
  8
DEFAULT_2
100
AcDbLine
 62
8
  6
CONTINUOUS
 10
58.248439407
 20
2.7288956979
 11
58.3171184206
 21
2.7353766023
  0
LINE
  5
2D9
100
AcDbEntity
  8
0
100
AcDbLine
 62
7
  6
CONTINUOUS
 10
67.6236951079
 20
0.0154289984
 11
67.6285106833
 21
0.0156000405
  0
LINE
  5
2DA
100
AcDbEntity
  8
0
100
AcDbLine
 62
7
  6
CONTINUOUS
 10
67.6185812462
 20
0.0152769968
 11
67.6236951079
 21
0.0154289984
  0
LINE
  5
2DB
100
AcDbEntity
  8
0
100
AcDbLine
 62
7
  6
CONTINUOUS
 10
67.6103755088
 20
0.0147171165
 11
67.626207879
 21
0.0151761258
  0
LINE
  5
2DC
100
AcDbEntity
  8
0
100
AcDbLine
 62
7
  6
CONTINUOUS
 10
17.1289767155
 20
0.0215089823
 11
17.1509481105
 21
0.0243946837
  0
LINE
  5
2DD
100
AcDbEntity
  8
DEFAULT_2
100
AcDbLine
 62
8
  6
CONTINUOUS
 10
39.8839755819
 20
2.4718306497
 11
39.8879680874
 21
2.4723449548
  0
LINE
  5
2DE
100
AcDbEntity
  8
DEFAULT_2
100
AcDbLine
 62
8
  6
CONTINUOUS
 10
39.9018028541
 20
2.3481024189
 11
39.9039438395
 21
2.3483616142
  0
LINE
  5
2DF
100
AcDbEntity
  8
DEFAULT_2
100
AcDbLine
 62
8
  6
CONTINUOUS
 10
39.8879680874
 20
2.4723449548
 11
39.8919683849
 21
2.4727943422
  0
LINE
  5
2E0
100
AcDbEntity
  8
0
100
AcDbLine
 62
7
  6
CONTINUOUS
 10
67.607231179
 20
0.0150156048
 11
67.6185812462
 21
0.0152769968
  0
LINE
  5
2E1
100
AcDbEntity
  8
0
100
AcDbLine
 62
7
  6
CONTINUOUS
 10
67.5978389993
 20
0.014473959
 11
67.6103755088
 21
0.0147171165
  0
LINE
  5
2E2
100
AcDbEntity
  8
0
100
AcDbLine
 62
9
  6
CONTINUOUS
 10
67.5863155036
 20
0.0146974424
 11
67.5768717177
 21
0.0145232165
  0
LINE
  5
2E3
100
AcDbEntity
  8
0
100
AcDbLine
 62
7
  6
CONTINUOUS
 10
67.5940730268
 20
0.0147974965
 11
67.607231179
 21
0.0150156048
  0
LINE
  5
2E4
100
AcDbEntity
  8
DEFAULT_2
100
AcDbLine
 62
8
  6
CONTINUOUS
 10
39.9039438395
 20
2.3483616142
 11
39.9056104963
 21
2.3485369958
  0
LINE
  5
2E5
100
AcDbEntity
  8
DEFAULT_2
100
AcDbLine
 62
8
  6
CONTINUOUS
 10
39.8919683849
 20
2.4727943422
 11
39.8951435674
 21
2.4731041734
  0
LINE
  5
2E6
100
AcDbEntity
  8
DEFAULT_2
100
AcDbLine
 62
8
  6
CONTINUOUS
 10
39.9056104963
 20
2.3485369958
 11
39.9072793968
 21
2.3486893968
  0
LINE
  5
2E7
100
AcDbEntity
  8
DEFAULT_2
100
AcDbLine
 62
8
  6
CONTINUOUS
 10
58.1810746592
 20
2.7243096847
 11
58.248439407
 21
2.7288956979
  0
LINE
  5
2E8
100
AcDbEntity
  8
0
100
AcDbLine
 62
9
  6
CONTINUOUS
 10
17.1408932855
 20
0.0231188449
 11
17.1155887064
 21
0.0216595431
  0
LINE
  5
2E9
100
AcDbEntity
  8
0
100
AcDbLine
 62
7
  6
CONTINUOUS
 10
67.5752323194
 20
0.014174638
 11
67.5978389993
 21
0.014473959
  0
LINE
  5
2EA
100
AcDbEntity
  8
0
100
AcDbLine
 62
7
  6
CONTINUOUS
 10
67.570271792
 20
0.014534735
 11
67.5940730268
 21
0.0147974965
  0
LINE
  5
2EB
100
AcDbEntity
  8
0
100
AcDbLine
 62
7
  6
CONTINUOUS
 10
67.5367740613
 20
0.0138801627
 11
67.5752323194
 21
0.014174638
  0
LINE
  5
2EC
100
AcDbEntity
  8
DEFAULT_2
100
AcDbLine
 62
8
  6
CONTINUOUS
 10
37.4372385207
 20
20.3366875437
 11
37.4701814831
 21
20.3469731658
  0
LINE
  5
2ED
100
AcDbEntity
  8
DEFAULT_2
100
AcDbLine
 62
8
  6
CONTINUOUS
 10
39.8951435674
 20
2.4731041734
 11
39.8983224766
 21
2.4733728091
  0
LINE
  5
2EE
100
AcDbEntity
  8
DEFAULT_2
100
AcDbLine
 62
8
  6
CONTINUOUS
 10
39.9072793968
 20
2.3486893968
 11
39.9097716602
 21
2.348873379
  0
LINE
  5
2EF
100
AcDbEntity
  8
0
100
AcDbLine
 62
9
  6
CONTINUOUS
 10
9.2225806214
 20
0.0241416991
 11
9.1679797969
 21
0.0216596059
  0
LINE
  5
2F0
100
AcDbEntity
  8
0
100
AcDbLine
 62
7
  6
CONTINUOUS
 10
17.1155464265
 20
0.0210304074
 11
17.1289767155
 21
0.0215089823
  0
LINE
  5
2F1
100
AcDbEntity
  8
0
100
AcDbLine
 62
9
  6
CONTINUOUS
 10
8.965118048
 20
0.0202897519
 11
8.9327697615
 21
0.0195578798
  0
LINE
  5
2F2
100
AcDbEntity
  8
0
100
AcDbLine
 62
7
  6
CONTINUOUS
 10
8.6798891032
 20
0.0174853418
 11
8.9599579999
 21
0.021959127
  0
LINE
  5
2F3
100
AcDbEntity
  8
0
100
AcDbLine
 62
7
  6
CONTINUOUS
 10
8.6355276004
 20
0.0157991714
 11
8.9327697615
 21
0.0195578798
  0
LINE
  5
2F4
100
AcDbEntity
  8
0
100
AcDbLine
 62
7
  6
CONTINUOUS
 10
8.9599579999
 20
0.021959127
 11
9.115154877
 21
0.0236826437
  0
LINE
  5
2F5
100
AcDbEntity
  8
0
100
AcDbLine
 62
7
  6
CONTINUOUS
 10
8.4872963857
 20
0.0155078549
 11
8.6798891032
 21
0.0174853418
  0
LINE
  5
2F6
100
AcDbEntity
  8
0
100
AcDbLine
 62
7
  6
CONTINUOUS
 10
8.9327697615
 20
0.0195578798
 11
9.0626204171
 21
0.020693432
  0
LINE
  5
2F7
100
AcDbEntity
  8
0
100
AcDbLine
 62
9
  6
CONTINUOUS
 10
9.120229423
 20
0.0215055565
 11
8.965118048
 21
0.0202897519
  0
LINE
  5
2F8
100
AcDbEntity
  8
0
100
AcDbLine
 62
7
  6
CONTINUOUS
 10
8.4153821122
 20
0.0142390006
 11
8.6355276004
 21
0.0157991714
  0
LINE
  5
2F9
100
AcDbEntity
  8
0
100
AcDbLine
 62
7
  6
CONTINUOUS
 10
67.5297620292
 20
0.0142933201
 11
67.570271792
 21
0.014534735
  0
LINE
  5
2FA
100
AcDbEntity
  8
0
100
AcDbLine
 62
9
  6
CONTINUOUS
 10
8.2336807151
 20
0.0138619726
 11
8.1922346596
 21
0.0136460257
  0
LINE
  5
2FB
100
AcDbEntity
  8
0
100
AcDbLine
 62
7
  6
CONTINUOUS
 10
8.2599610034
 20
0.0143136699
 11
8.4872963857
 21
0.0155078549
  0
LINE
  5
2FC
100
AcDbEntity
  8
0
100
AcDbLine
 62
9
  6
CONTINUOUS
 10
8.4479950164
 20
0.0144072547
 11
8.4153821122
 21
0.0142390006
  0
LINE
  5
2FD
100
AcDbEntity
  8
0
100
AcDbLine
 62
7
  6
CONTINUOUS
 10
9.115154877
 20
0.0236826437
 11
9.2445358365
 21
0.0242355188
  0
LINE
  5
2FE
100
AcDbEntity
  8
0
100
AcDbLine
 62
7
  6
CONTINUOUS
 10
9.0626204171
 20
0.020693432
 11
9.1679759865
 21
0.021030407
  0
LINE
  5
2FF
100
AcDbEntity
  8
0
100
AcDbLine
 62
7
  6
CONTINUOUS
 10
8.1922346596
 20
0.0136460257
 11
8.4153821122
 21
0.0142390006
  0
LINE
  5
300
100
AcDbEntity
  8
0
100
AcDbLine
 62
7
  6
CONTINUOUS
 10
67.4425461799
 20
0.0136479105
 11
67.5367740613
 21
0.0138801627
  0
LINE
  5
301
100
AcDbEntity
  8
0
100
AcDbLine
 62
7
  6
CONTINUOUS
 10
67.4305563506
 20
0.0141829037
 11
67.5297620292
 21
0.0142933201
  0
LINE
  5
302
100
AcDbEntity
  8
0
100
AcDbLine
 62
7
  6
CONTINUOUS
 10
8.1192920804
 20
0.0142124594
 11
8.2599610034
 21
0.0143136699
  0
LINE
  5
303
100
AcDbEntity
  8
0
100
AcDbLine
 62
9
  6
CONTINUOUS
 10
67.2790105881
 20
0.0141200391
 11
67.2348209237
 21
0.0141074225
  0
LINE
  5
304
100
AcDbEntity
  8
0
100
AcDbLine
 62
7
  6
CONTINUOUS
 10
57.7108395294
 20
0.0
 11
17.9106705074
 21
0.0
  0
LINE
  5
305
100
AcDbEntity
  8
0
100
AcDbLine
 62
7
  6
CONTINUOUS
 10
57.7108395294
 20
0.0108606956
 11
17.9106705074
 21
0.0108606956
  0
LINE
  5
306
100
AcDbEntity
  8
0
100
AcDbLine
 62
7
  6
CONTINUOUS
 10
9.1679759865
 20
0.0210304009
 11
17.1155887063
 21
0.0210304009
  0
LINE
  5
307
100
AcDbEntity
  8
0
100
AcDbLine
 62
7
  6
CONTINUOUS
 10
58.5059213019
 20
0.0210304009
 11
66.4533594943
 21
0.0210304009
  0
LINE
  5
308
100
AcDbEntity
  8
0
100
AcDbLine
 62
9
  6
CONTINUOUS
 10
17.1155886994
 20
0.0216595429
 11
9.120229423
 21
0.0215055565
  0
LINE
  5
309
100
AcDbEntity
  8
0
100
AcDbLine
 62
9
  6
CONTINUOUS
 10
66.5098168483
 20
0.0214654554
 11
58.5059213085
 21
0.0216595428
  0
LINE
  5
30A
100
AcDbEntity
  8
0
100
AcDbLine
 62
7
  6
CONTINUOUS
 10
9.2445358365
 20
0.02423551
 11
66.3771618986
 21
0.0242355097
  0
LINE
  5
30B
100
AcDbEntity
  8
0
100
AcDbLine
 62
7
  6
CONTINUOUS
 10
8.1005831361
 20
0.0138046515
 11
8.1922346596
 21
0.0136460257
  0
LINE
  5
30C
100
AcDbEntity
  8
0
100
AcDbLine
 62
7
  6
CONTINUOUS
 10
67.2348209237
 20
0.0141074225
 11
67.4425461799
 21
0.0136479105
  0
LINE
  5
30D
100
AcDbEntity
  8
0
100
AcDbLine
 62
7
  6
CONTINUOUS
 10
66.4533594943
 20
0.0210304022
 11
66.5597907052
 21
0.0206878582
  0
LINE
  5
30E
100
AcDbEntity
  8
0
100
AcDbLine
 62
7
  6
CONTINUOUS
 10
67.2385894923
 20
0.0148236837
 11
67.4305563506
 21
0.0141829037
  0
LINE
  5
30F
100
AcDbEntity
  8
0
100
AcDbLine
 62
7
  6
CONTINUOUS
 10
8.0633052796
 20
0.0144420854
 11
8.1192920804
 21
0.0142124594
  0
LINE
  5
310
100
AcDbEntity
  8
0
100
AcDbLine
 62
9
  6
CONTINUOUS
 10
8.1424317846
 20
0.0138963102
 11
8.0716443726
 21
0.0142302396
  0
LINE
  5
311
100
AcDbEntity
  8
0
100
AcDbLine
 62
7
  6
CONTINUOUS
 10
8.0582785039
 20
0.0140608916
 11
8.1005831361
 21
0.0138046515
  0
LINE
  5
312
100
AcDbEntity
  8
0
100
AcDbLine
 62
7
  6
CONTINUOUS
 10
8.0385406259
 20
0.0146584569
 11
8.0633052796
 21
0.0144420854
  0
LINE
  5
313
100
AcDbEntity
  8
0
100
AcDbLine
 62
7
  6
CONTINUOUS
 10
8.0340527315
 20
0.0143192706
 11
8.0582785039
 21
0.0140608916
  0
LINE
  5
314
100
AcDbEntity
  8
0
100
AcDbLine
 62
7
  6
CONTINUOUS
 10
8.018779397
 20
0.0149326457
 11
8.0385406259
 21
0.0146584569
  0
LINE
  5
315
100
AcDbEntity
  8
0
100
AcDbLine
 62
7
  6
CONTINUOUS
 10
8.0207361292
 20
0.0145242214
 11
8.0340527315
 21
0.0143192706
  0
LINE
  5
316
100
AcDbEntity
  8
0
100
AcDbLine
 62
9
  6
CONTINUOUS
 10
8.0446465502
 20
0.0145228917
 11
8.0350089623
 21
0.0147006606
  0
LINE
  5
317
100
AcDbEntity
  8
0
100
AcDbLine
 62
7
  6
CONTINUOUS
 10
8.0078566174
 20
0.0151524899
 11
8.018779397
 21
0.0149326457
  0
LINE
  5
318
100
AcDbEntity
  8
0
100
AcDbLine
 62
7
  6
CONTINUOUS
 10
8.0092893435
 20
0.0147597826
 11
8.0207361292
 21
0.0145242214
  0
LINE
  5
319
100
AcDbEntity
  8
0
100
AcDbLine
 62
7
  6
CONTINUOUS
 10
8.0029399469
 20
0.0152765238
 11
8.0078566174
 21
0.0151524899
  0
LINE
  5
31A
100
AcDbEntity
  8
0
100
AcDbLine
 62
9
  6
CONTINUOUS
 10
8.0716443726
 20
0.0142302396
 11
8.0633052796
 21
0.0144420854
  0
LINE
  5
31B
100
AcDbEntity
  8
0
100
AcDbLine
 62
7
  6
CONTINUOUS
 10
8.0041509955
 20
0.0148918053
 11
8.0092893435
 21
0.0147597826
  0
LINE
  5
31C
100
AcDbEntity
  8
0
100
AcDbLine
 62
7
  6
CONTINUOUS
 10
7.9983159046
 20
0.0154127352
 11
8.0029399469
 21
0.0152765238
  0
LINE
  5
31D
100
AcDbEntity
  8
0
100
AcDbLine
 62
7
  6
CONTINUOUS
 10
7.9993296173
 20
0.0150361129
 11
8.0041509955
 21
0.0148918053
  0
LINE
  5
31E
100
AcDbEntity
  8
0
100
AcDbLine
 62
7
  6
CONTINUOUS
 10
7.9939149532
 20
0.0155649216
 11
7.9983159046
 21
0.0154127352
  0
LINE
  5
31F
100
AcDbEntity
  8
0
100
AcDbLine
 62
7
  6
CONTINUOUS
 10
7.9947547053
 20
0.0151964896
 11
7.9993296173
 21
0.0150361129
  0
LINE
  5
320
100
AcDbEntity
  8
0
100
AcDbLine
 62
7
  6
CONTINUOUS
 10
7.9896636502
 20
0.015738746
 11
7.9939149532
 21
0.0155649216
  0
LINE
  5
321
100
AcDbEntity
  8
0
100
AcDbLine
 62
7
  6
CONTINUOUS
 10
7.9903496861
 20
0.0153786537
 11
7.9947547053
 21
0.0151964896
  0
LINE
  5
322
100
AcDbEntity
  8
0
100
AcDbLine
 62
7
  6
CONTINUOUS
 10
7.9854758091
 20
0.0159430228
 11
7.9896636502
 21
0.015738746
  0
LINE
  5
323
100
AcDbEntity
  8
0
100
AcDbLine
 62
7
  6
CONTINUOUS
 10
7.9860303211
 20
0.0155912272
 11
7.9903496861
 21
0.0153786537
  0
LINE
  5
324
100
AcDbEntity
  8
0
100
AcDbLine
 62
7
  6
CONTINUOUS
 10
7.9812170287
 20
0.0161935423
 11
7.9854758091
 21
0.0159430228
  0
LINE
  5
325
100
AcDbEntity
  8
0
100
AcDbLine
 62
7
  6
CONTINUOUS
 10
7.9816631456
 20
0.0158497338
 11
7.9860303211
 21
0.0155912272
  0
LINE
  5
326
100
AcDbEntity
  8
0
100
AcDbLine
 62
7
  6
CONTINUOUS
 10
7.9766824869
 20
0.0165194275
 11
7.9812170287
 21
0.0161935423
  0
LINE
  5
327
100
AcDbEntity
  8
0
100
AcDbLine
 62
7
  6
CONTINUOUS
 10
7.9770470688
 20
0.0161826328
 11
7.9816631456
 21
0.0158497338
  0
LINE
  5
328
100
AcDbEntity
  8
0
100
AcDbLine
 62
7
  6
CONTINUOUS
 10
7.9718749699
 20
0.0166443311
 11
7.9770470688
 21
0.0161826328
  0
LINE
  5
329
100
AcDbEntity
  8
0
100
AcDbLine
 62
7
  6
CONTINUOUS
 10
7.9715589496
 20
0.016976547
 11
7.9766824869
 21
0.0165194275
  0
LINE
  5
32A
100
AcDbEntity
  8
0
100
AcDbLine
 62
7
  6
CONTINUOUS
 10
7.9657218804
 20
0.0173370825
 11
7.9718749699
 21
0.0166443311
  0
LINE
  5
32B
100
AcDbEntity
  8
0
100
AcDbLine
 62
7
  6
CONTINUOUS
 10
7.965421816
 20
0.0176691077
 11
7.9715589496
 21
0.016976547
  0
LINE
  5
32C
100
AcDbEntity
  8
0
100
AcDbLine
 62
7
  6
CONTINUOUS
 10
7.9582986502
 20
0.0184072704
 11
7.9657218804
 21
0.0173370825
  0
LINE
  5
32D
100
AcDbEntity
  8
0
100
AcDbLine
 62
7
  6
CONTINUOUS
 10
7.9579824941
 20
0.0187466058
 11
7.965421816
 21
0.0176691077
  0
LINE
  5
32E
100
AcDbEntity
  8
0
100
AcDbLine
 62
9
  6
CONTINUOUS
 10
7.9440437028
 20
0.0214790557
 11
7.9456833998
 21
0.0212163831
  0
LINE
  5
32F
100
AcDbEntity
  8
0
100
AcDbLine
 62
7
  6
CONTINUOUS
 10
7.9496702666
 20
0.0200027099
 11
7.9582986502
 21
0.0184072704
  0
LINE
  5
330
100
AcDbEntity
  8
0
100
AcDbLine
 62
7
  6
CONTINUOUS
 10
7.9492893084
 20
0.0203646084
 11
7.9579824941
 21
0.0187466058
  0
LINE
  5
331
100
AcDbEntity
  8
0
100
AcDbLine
 62
7
  6
CONTINUOUS
 10
7.9401004375
 20
0.02224392
 11
7.9496702666
 21
0.0200027099
  0
LINE
  5
332
100
AcDbEntity
  8
0
100
AcDbLine
 62
7
  6
CONTINUOUS
 10
7.9395921836
 20
0.0226552283
 11
7.9492893084
 21
0.0203646084
  0
LINE
  5
333
100
AcDbEntity
  8
0
100
AcDbLine
 62
7
  6
CONTINUOUS
 10
7.9296216053
 20
0.0253008235
 11
7.9401004375
 21
0.02224392
  0
LINE
  5
334
100
AcDbEntity
  8
0
100
AcDbLine
 62
7
  6
CONTINUOUS
 10
7.9289669616
 20
0.025787587
 11
7.9395921836
 21
0.0226552283
  0
LINE
  5
335
100
AcDbEntity
  8
0
100
AcDbLine
 62
9
  6
CONTINUOUS
 10
7.9185974789
 20
0.029380166
 11
7.9440437028
 21
0.0214790557
  0
LINE
  5
336
100
AcDbEntity
  8
0
100
AcDbLine
 62
7
  6
CONTINUOUS
 10
7.9182516818
 20
0.02937621
 11
7.9296216053
 21
0.0253008235
  0
LINE
  5
337
100
AcDbEntity
  8
0
100
AcDbLine
 62
7
  6
CONTINUOUS
 10
7.9174965803
 20
0.0299468054
 11
7.9289669616
 21
0.025787587
  0
LINE
  5
338
100
AcDbEntity
  8
DEFAULT_2
100
AcDbLine
 62
8
  6
CONTINUOUS
 10
39.8983224766
 20
2.4733728091
 11
39.9031070469
 21
2.4736984705
  0
LINE
  5
339
100
AcDbEntity
  8
DEFAULT_2
100
AcDbLine
 62
8
  6
CONTINUOUS
 10
39.9097716602
 20
2.348873379
 11
39.9115996424
 21
2.3489744278
  0
LINE
  5
33A
100
AcDbEntity
  8
DEFAULT_2
100
AcDbLine
 62
8
  6
CONTINUOUS
 10
58.1136187493
 20
2.7214656431
 11
58.1810746592
 21
2.7243096847
  0
LINE
  5
33B
100
AcDbEntity
  8
0
100
AcDbLine
 62
7
  6
CONTINUOUS
 10
66.3771618986
 20
0.024235519
 11
66.5054646172
 21
0.0236901111
  0
LINE
  5
33C
100
AcDbEntity
  8
0
100
AcDbLine
 62
9
  6
CONTINUOUS
 10
67.0900465657
 20
0.0151396957
 11
67.0287003108
 21
0.0154119266
  0
LINE
  5
33D
100
AcDbEntity
  8
0
100
AcDbLine
 62
7
  6
CONTINUOUS
 10
67.0287003108
 20
0.0154119266
 11
67.2348209237
 21
0.0141074225
  0
LINE
  5
33E
100
AcDbEntity
  8
0
100
AcDbLine
 62
9
  6
CONTINUOUS
 10
66.6304300086
 20
0.0205581673
 11
66.5098168483
 21
0.0214654554
  0
LINE
  5
33F
100
AcDbEntity
  8
0
100
AcDbLine
 62
7
  6
CONTINUOUS
 10
67.0303157218
 20
0.0164443943
 11
67.2385894923
 21
0.0148236837
  0
LINE
  5
340
100
AcDbEntity
  8
0
100
AcDbLine
 62
7
  6
CONTINUOUS
 10
66.5597907052
 20
0.0206878582
 11
66.6897025494
 21
0.0195469013
  0
LINE
  5
341
100
AcDbEntity
  8
0
100
AcDbLine
 62
7
  6
CONTINUOUS
 10
66.8485411074
 20
0.0174025925
 11
67.0287003108
 21
0.0154119266
  0
LINE
  5
342
100
AcDbEntity
  8
0
100
AcDbLine
 62
7
  6
CONTINUOUS
 10
66.5054646172
 20
0.0236901111
 11
66.6605948483
 21
0.0219730895
  0
LINE
  5
343
100
AcDbEntity
  8
0
100
AcDbLine
 62
9
  6
CONTINUOUS
 10
66.7561990635
 20
0.0190528841
 11
66.6304300086
 21
0.0205581673
  0
LINE
  5
344
100
AcDbEntity
  8
0
100
AcDbLine
 62
7
  6
CONTINUOUS
 10
66.8864063952
 20
0.0182720349
 11
67.0303157218
 21
0.0164443943
  0
LINE
  5
345
100
AcDbEntity
  8
0
100
AcDbLine
 62
7
  6
CONTINUOUS
 10
66.6897025494
 20
0.0195469013
 11
66.8485411074
 21
0.0174025925
  0
LINE
  5
346
100
AcDbEntity
  8
0
100
AcDbLine
 62
7
  6
CONTINUOUS
 10
7.9062586551
 20
0.0345972821
 11
7.9182516818
 21
0.02937621
  0
LINE
  5
347
100
AcDbEntity
  8
0
100
AcDbLine
 62
7
  6
CONTINUOUS
 10
7.9054639622
 20
0.0352462664
 11
7.9174965803
 21
0.0299468054
  0
LINE
  5
348
100
AcDbEntity
  8
0
100
AcDbLine
 62
9
  6
CONTINUOUS
 10
7.8945282536
 20
0.0408081815
 11
7.9185974789
 21
0.029380166
  0
LINE
  5
349
100
AcDbEntity
  8
0
100
AcDbLine
 62
7
  6
CONTINUOUS
 10
7.8939277854
 20
0.0410504847
 11
7.9062586551
 21
0.0345972821
  0
LINE
  5
34A
100
AcDbEntity
  8
0
100
AcDbLine
 62
7
  6
CONTINUOUS
 10
7.8931395423
 20
0.0417678884
 11
7.9054639622
 21
0.0352462664
  0
LINE
  5
34B
100
AcDbEntity
  8
0
100
AcDbLine
 62
7
  6
CONTINUOUS
 10
7.8815249232
 20
0.0487907406
 11
7.8939277854
 21
0.0410504847
  0
LINE
  5
34C
100
AcDbEntity
  8
0
100
AcDbLine
 62
7
  6
CONTINUOUS
 10
7.8807782824
 20
0.0495622458
 11
7.8931395423
 21
0.0417678884
  0
LINE
  5
34D
100
AcDbEntity
  8
0
100
AcDbLine
 62
9
  6
CONTINUOUS
 10
7.8723220842
 20
0.0555323233
 11
7.8945282536
 21
0.0408081815
  0
LINE
  5
34E
100
AcDbEntity
  8
0
100
AcDbLine
 62
7
  6
CONTINUOUS
 10
7.8693348371
 20
0.057812661
 11
7.8815249232
 21
0.0487907406
  0
LINE
  5
34F
100
AcDbEntity
  8
0
100
AcDbLine
 62
7
  6
CONTINUOUS
 10
7.8686539243
 20
0.0586216457
 11
7.8807782824
 21
0.0495622458
  0
LINE
  5
350
100
AcDbEntity
  8
DEFAULT_2
100
AcDbLine
 62
8
  6
CONTINUOUS
 10
37.404606083
 20
20.325455619
 11
37.4372385207
 21
20.3366875437
  0
LINE
  5
351
100
AcDbEntity
  8
DEFAULT_2
100
AcDbLine
 62
8
  6
CONTINUOUS
 10
39.9031070469
 20
2.4736984705
 11
39.9066347433
 21
2.4738774077
  0
LINE
  5
352
100
AcDbEntity
  8
DEFAULT_2
100
AcDbLine
 62
8
  6
CONTINUOUS
 10
39.9115996424
 20
2.3489744278
 11
39.9129195805
 21
2.3490287858
  0
LINE
  5
353
100
AcDbEntity
  8
DEFAULT_2
100
AcDbLine
 62
8
  6
CONTINUOUS
 10
39.9066347433
 20
2.4738774077
 11
39.9092598122
 21
2.4739760977
  0
LINE
  5
354
100
AcDbEntity
  8
DEFAULT_2
100
AcDbLine
 62
8
  6
CONTINUOUS
 10
39.9129195805
 20
2.3490287858
 11
39.9138463722
 21
2.3490569542
  0
LINE
  5
355
100
AcDbEntity
  8
DEFAULT_2
100
AcDbLine
 62
8
  6
CONTINUOUS
 10
58.1136187468
 20
2.7214656883
 11
55.8783642415
 21
2.6598637881
  0
LINE
  5
356
100
AcDbEntity
  8
0
100
AcDbLine
 62
9
  6
CONTINUOUS
 10
66.8193165195
 20
0.0181214272
 11
66.7561990635
 21
0.0190528841
  0
LINE
  5
357
100
AcDbEntity
  8
0
100
AcDbLine
 62
7
  6
CONTINUOUS
 10
66.6605948483
 20
0.0219730895
 11
66.8864063952
 21
0.0182720349
  0
LINE
  5
358
100
AcDbEntity
  8
0
100
AcDbLine
 62
7
  6
CONTINUOUS
 10
7.8576518814
 20
0.0680349324
 11
7.8693348371
 21
0.057812661
  0
LINE
  5
359
100
AcDbEntity
  8
0
100
AcDbLine
 62
7
  6
CONTINUOUS
 10
7.8570477294
 20
0.0688672287
 11
7.8686539243
 21
0.0586216457
  0
LINE
  5
35A
100
AcDbEntity
  8
0
100
AcDbLine
 62
9
  6
CONTINUOUS
 10
7.8524274053
 20
0.07325525
 11
7.8723220842
 21
0.0555323233
  0
LINE
  5
35B
100
AcDbEntity
  8
0
100
AcDbLine
 62
7
  6
CONTINUOUS
 10
7.8461308316
 20
0.0802538915
 11
7.8576518814
 21
0.0680349324
  0
LINE
  5
35C
100
AcDbEntity
  8
DEFAULT_2
100
AcDbLine
 62
8
  6
CONTINUOUS
 10
37.3723291007
 20
20.3132927453
 11
37.404606083
 21
20.325455619
  0
LINE
  5
35D
100
AcDbEntity
  8
DEFAULT_1
100
AcDbLine
 62
7
  6
CENTER
 10
40.8728984299
 20
2.4320293745
 11
49.3089383292
 21
2.6706050197
  0
LINE
  5
35E
100
AcDbEntity
  8
DEFAULT_2
100
AcDbLine
 62
8
  6
CONTINUOUS
 10
39.9092598122
 20
2.4739760977
 11
39.9112560878
 21
2.4740307206
  0
LINE
  5
35F
100
AcDbEntity
  8
DEFAULT_2
100
AcDbLine
 62
8
  6
CONTINUOUS
 10
55.8783642415
 20
2.6598637881
 11
53.6429128488
 21
2.6056234655
  0
LINE
  5
360
100
AcDbEntity
  8
DEFAULT_2
100
AcDbLine
 62
8
  6
CONTINUOUS
 10
39.9138463722
 20
2.3490569542
 11
39.9144736601
 21
2.3490707929
  0
LINE
  5
361
100
AcDbEntity
  8
DEFAULT_2
100
AcDbLine
 62
8
  6
CONTINUOUS
 10
53.6429128488
 20
2.6056234655
 11
51.4072950142
 21
2.5586786688
  0
LINE
  5
362
100
AcDbEntity
  8
DEFAULT_2
100
AcDbLine
 62
8
  6
CONTINUOUS
 10
39.9112560878
 20
2.4740307206
 11
39.9127793247
 21
2.4740598114
  0
LINE
  5
363
100
AcDbEntity
  8
DEFAULT_2
100
AcDbLine
 62
8
  6
CONTINUOUS
 10
51.4072950142
 20
2.5586786688
 11
49.1474805086
 21
2.5185792959
  0
LINE
  5
364
100
AcDbEntity
  8
DEFAULT_2
100
AcDbLine
 62
8
  6
CONTINUOUS
 10
39.9144736601
 20
2.3490707929
 11
39.9148694472
 21
2.3490769396
  0
LINE
  5
365
100
AcDbEntity
  8
DEFAULT_2
100
AcDbLine
 62
8
  6
CONTINUOUS
 10
49.1474805086
 20
2.5185792959
 11
46.887548918
 21
2.4858230705
  0
LINE
  5
366
100
AcDbEntity
  8
DEFAULT_2
100
AcDbLine
 62
8
  6
CONTINUOUS
 10
36.5393083938
 20
1.7204303478
 11
39.0822016126
 21
1.7204303478
  0
LINE
  5
367
100
AcDbEntity
  8
DEFAULT_2
100
AcDbLine
 62
8
  6
CONTINUOUS
 10
36.5393083938
 20
1.8454303478
 11
39.0822016126
 21
1.8454303478
  0
LINE
  5
368
100
AcDbEntity
  8
0
100
AcDbLine
 62
9
  6
CONTINUOUS
 10
66.8485411074
 20
0.0174025925
 11
66.8193165195
 21
0.0181214272
  0
LINE
  5
369
100
AcDbEntity
  8
0
100
AcDbLine
 62
7
  6
CONTINUOUS
 10
58.505963582
 20
0.0210304073
 11
58.4925332936
 21
0.0215089822
  0
LINE
  5
36A
100
AcDbEntity
  8
0
100
AcDbLine
 62
9
  6
CONTINUOUS
 10
7.8352459729
 20
0.0936190624
 11
7.8524274053
 21
0.07325525
  0
LINE
  5
36B
100
AcDbEntity
  8
0
100
AcDbLine
 62
7
  6
CONTINUOUS
 10
7.8359952615
 20
0.0928047752
 11
7.8466619251
 21
0.0794017972
  0
LINE
  5
36C
100
AcDbEntity
  8
0
100
AcDbLine
 62
7
  6
CONTINUOUS
 10
7.8267607908
 20
0.1065294984
 11
7.8364549656
 21
0.0919374595
  0
LINE
  5
36D
100
AcDbEntity
  8
DEFAULT_2
100
AcDbLine
 62
8
  6
CONTINUOUS
 10
38.1842714857
 20
18.104173152
 11
38.1513285234
 21
18.0938875298
  0
LINE
  5
36E
100
AcDbEntity
  8
DEFAULT_2
100
AcDbLine
 62
8
  6
CONTINUOUS
 10
39.9127793247
 20
2.4740598114
 11
39.9139050724
 21
2.4740736114
  0
LINE
  5
36F
100
AcDbEntity
  8
DEFAULT_2
100
AcDbLine
 62
8
  6
CONTINUOUS
 10
46.887548918
 20
2.4858230705
 11
44.6275220965
 21
2.4603672395
  0
LINE
  5
370
100
AcDbEntity
  8
DEFAULT_2
100
AcDbLine
 62
8
  6
CONTINUOUS
 10
39.9148694472
 20
2.3490769396
 11
39.9151344949
 21
2.3490794755
  0
LINE
  5
371
100
AcDbEntity
  8
DEFAULT_2
100
AcDbLine
 62
8
  6
CONTINUOUS
 10
44.6275220965
 20
2.4603672395
 11
42.3553028606
 21
2.4420956295
  0
LINE
  5
372
100
AcDbEntity
  8
DEFAULT_2
100
AcDbLine
 62
8
  6
CONTINUOUS
 10
39.9139050724
 20
2.4740736114
 11
39.9146613636
 21
2.4740785609
  0
LINE
  5
373
100
AcDbEntity
  8
DEFAULT_2
100
AcDbLine
 62
8
  6
CONTINUOUS
 10
42.3553028606
 20
2.4420956295
 11
40.0830377368
 21
2.4311443517
  0
LINE
  5
374
100
AcDbEntity
  8
DEFAULT_2
100
AcDbLine
 62
8
  6
CONTINUOUS
 10
40.0830377368
 20
2.4311443517
 11
37.8107550032
 21
2.4274980499
  0
LINE
  5
375
100
AcDbEntity
  8
DEFAULT_2
100
AcDbLine
 62
8
  6
CONTINUOUS
 10
35.5384721958
 20
2.431144352
 11
37.8107550032
 21
2.4274980499
  0
LINE
  5
376
100
AcDbEntity
  8
DEFAULT_2
100
AcDbLine
 62
8
  6
CONTINUOUS
 10
33.2662069982
 20
2.4420956304
 11
35.5384721958
 21
2.431144352
  0
LINE
  5
377
100
AcDbEntity
  8
0
100
AcDbLine
 62
7
  6
CONTINUOUS
 10
17.9106705074
 20
0.0
 11
17.8578657455
 21
0.011656778
  0
LINE
  5
378
100
AcDbEntity
  8
0
100
AcDbLine
 62
7
  6
CONTINUOUS
 10
17.8578657455
 20
0.0225174735
 11
17.9106705074
 21
0.0108606956
  0
LINE
  5
379
100
AcDbEntity
  8
0
100
AcDbLine
 62
9
  6
CONTINUOUS
 10
7.8211247511
 20
0.1162125306
 11
7.8352459729
 21
0.0936190624
  0
LINE
  5
37A
100
AcDbEntity
  8
0
100
AcDbLine
 62
7
  6
CONTINUOUS
 10
7.8185659789
 20
0.121428934
 11
7.8271497172
 21
0.1056526827
  0
LINE
  5
37B
100
AcDbEntity
  8
DEFAULT_2
100
AcDbLine
 62
8
  6
CONTINUOUS
 10
37.3404167237
 20
20.3002030639
 11
37.3723291007
 21
20.3132927453
  0
LINE
  5
37C
100
AcDbEntity
  8
DEFAULT_2
100
AcDbLine
 62
8
  6
CONTINUOUS
 10
35.7068476571
 20
2.4740785661
 11
35.7075925489
 21
2.4740737244
  0
LINE
  5
37D
100
AcDbEntity
  8
DEFAULT_2
100
AcDbLine
 62
8
  6
CONTINUOUS
 10
30.9939876884
 20
2.4603672417
 11
33.2662069982
 21
2.4420956304
  0
LINE
  5
37E
100
AcDbEntity
  8
DEFAULT_2
100
AcDbLine
 62
8
  6
CONTINUOUS
 10
35.7063745286
 20
2.3490794804
 11
35.7066667046
 21
2.3490766086
  0
LINE
  5
37F
100
AcDbEntity
  8
DEFAULT_2
100
AcDbLine
 62
8
  6
CONTINUOUS
 10
28.7339609408
 20
2.4858230724
 11
30.9939876884
 21
2.4603672417
  0
LINE
  5
380
100
AcDbEntity
  8
DEFAULT_2
100
AcDbLine
 62
8
  6
CONTINUOUS
 10
35.7075925489
 20
2.4740737244
 11
35.7087390878
 21
2.4740596839
  0
LINE
  5
381
100
AcDbEntity
  8
DEFAULT_2
100
AcDbLine
 62
8
  6
CONTINUOUS
 10
26.4740294241
 20
2.5185792971
 11
28.7339609408
 21
2.4858230724
  0
LINE
  5
382
100
AcDbEntity
  8
DEFAULT_2
100
AcDbLine
 62
8
  6
CONTINUOUS
 10
35.7066667046
 20
2.3490766086
 11
35.707127595
 21
2.3490690715
  0
LINE
  5
383
100
AcDbEntity
  8
DEFAULT_2
100
AcDbLine
 62
8
  6
CONTINUOUS
 10
24.2142149922
 20
2.5586786688
 11
26.4740294241
 21
2.5185792971
  0
LINE
  5
384
100
AcDbEntity
  8
DEFAULT_2
100
AcDbLine
 62
8
  6
CONTINUOUS
 10
35.7087390878
 20
2.4740596839
 11
35.7103644839
 21
2.4740281747
  0
LINE
  5
385
100
AcDbEntity
  8
DEFAULT_2
100
AcDbLine
 62
8
  6
CONTINUOUS
 10
21.9785971577
 20
2.6056234655
 11
24.2142149922
 21
2.5586786688
  0
LINE
  5
386
100
AcDbEntity
  8
DEFAULT_2
100
AcDbLine
 62
8
  6
CONTINUOUS
 10
35.707127595
 20
2.3490690715
 11
35.7078858653
 21
2.349051
  0
LINE
  5
387
100
AcDbEntity
  8
DEFAULT_2
100
AcDbLine
 62
8
  6
CONTINUOUS
 10
19.743145765
 20
2.659863788
 11
21.9785971577
 21
2.6056234655
  0
LINE
  5
388
100
AcDbEntity
  8
DEFAULT_2
100
AcDbLine
 62
8
  6
CONTINUOUS
 10
17.5078912596
 20
2.7214656883
 11
19.743145765
 21
2.659863788
  0
LINE
  5
389
100
AcDbEntity
  8
DEFAULT_2
100
AcDbLine
 62
8
  6
CONTINUOUS
 10
17.5078912571
 20
2.7214656431
 11
17.4404353472
 21
2.7243096847
  0
LINE
  5
38A
100
AcDbEntity
  8
0
100
AcDbLine
 62
9
  6
CONTINUOUS
 10
66.3987120102
 20
0.0241439106
 11
66.4533600288
 21
0.0216595434
  0
LINE
  5
38B
100
AcDbEntity
  8
0
100
AcDbLine
 62
9
  6
CONTINUOUS
 10
58.4806162972
 20
0.023118899
 11
58.5059213029
 21
0.021659543
  0
LINE
  5
38C
100
AcDbEntity
  8
0
100
AcDbLine
 62
9
  6
CONTINUOUS
 10
7.810348906
 20
0.1405793991
 11
7.8211247511
 21
0.1162125306
  0
LINE
  5
38D
100
AcDbEntity
  8
0
100
AcDbLine
 62
7
  6
CONTINUOUS
 10
7.8115696176
 20
0.137489981
 11
7.8188841366
 21
0.1205500015
  0
LINE
  5
38E
100
AcDbEntity
  8
0
100
AcDbLine
 62
7
  6
CONTINUOUS
 10
7.8059503464
 20
0.1546823978
 11
7.8118171008
 21
0.1366182842
  0
LINE
  5
38F
100
AcDbEntity
  8
DEFAULT_2
100
AcDbLine
 62
8
  6
CONTINUOUS
 10
37.3088958174
 20
20.2861969464
 11
37.3404167237
 21
20.3002030639
  0
LINE
  5
390
100
AcDbEntity
  8
DEFAULT_2
100
AcDbLine
 62
8
  6
CONTINUOUS
 10
38.2169039234
 20
18.1154050766
 11
38.1842714857
 21
18.104173152
  0
LINE
  5
391
100
AcDbEntity
  8
DEFAULT_2
100
AcDbLine
 62
8
  6
CONTINUOUS
 10
35.7103644839
 20
2.4740281747
 11
35.7126039801
 21
2.4739645497
  0
LINE
  5
392
100
AcDbEntity
  8
DEFAULT_2
100
AcDbLine
 62
8
  6
CONTINUOUS
 10
35.7078858653
 20
2.349051
 11
35.7090341442
 21
2.349012318
  0
LINE
  5
393
100
AcDbEntity
  8
DEFAULT_2
100
AcDbLine
 62
8
  6
CONTINUOUS
 10
35.7126039801
 20
2.4739645497
 11
35.7156901607
 21
2.4738407417
  0
LINE
  5
394
100
AcDbEntity
  8
DEFAULT_2
100
AcDbLine
 62
8
  6
CONTINUOUS
 10
35.7090341442
 20
2.349012318
 11
35.710695527
 21
2.3489346102
  0
LINE
  5
395
100
AcDbEntity
  8
DEFAULT_2
100
AcDbLine
 62
8
  6
CONTINUOUS
 10
17.4404353472
 20
2.7243096847
 11
17.3730705995
 21
2.7288956979
  0
LINE
  5
396
100
AcDbEntity
  8
DEFAULT_2
100
AcDbLine
 62
8
  6
CONTINUOUS
 10
17.3730705995
 20
2.7288956979
 11
17.3043915859
 21
2.7353766023
  0
LINE
  5
397
100
AcDbEntity
  8
0
100
AcDbLine
 62
9
  6
CONTINUOUS
 10
7.8031360465
 20
0.1662275998
 11
7.810348906
 21
0.1405793991
  0
LINE
  5
398
100
AcDbEntity
  8
0
100
AcDbLine
 62
7
  6
CONTINUOUS
 10
7.8019073463
 20
0.1729516553
 11
7.8061280985
 21
0.1538295485
  0
LINE
  5
399
100
AcDbEntity
  8
DEFAULT_2
100
AcDbLine
 62
8
  6
CONTINUOUS
 10
38.2491809057
 20
18.1275679504
 11
38.2169039234
 21
18.1154050766
  0
LINE
  5
39A
100
AcDbEntity
  8
0
100
AcDbLine
 62
9
  6
CONTINUOUS
 10
65.4662154801
 20
19.5112054329
 11
67.6011939411
 21
20.0954303478
  0
LINE
  5
39B
100
AcDbEntity
  8
0
100
AcDbLine
 62
9
  6
CONTINUOUS
 10
66.1956994006
 20
19.4981895222
 11
68.3856337547
 21
20.0954303478
  0
LINE
  5
39C
100
AcDbEntity
  8
DEFAULT_2
100
AcDbLine
 62
8
  6
CONTINUOUS
 10
35.7156901607
 20
2.4738407417
 11
35.7199452089
 21
2.4736038637
  0
LINE
  5
39D
100
AcDbEntity
  8
DEFAULT_2
100
AcDbLine
 62
8
  6
CONTINUOUS
 10
35.710695527
 20
2.3489346102
 11
35.7130025366
 21
2.3487866285
  0
LINE
  5
39E
100
AcDbEntity
  8
DEFAULT_2
100
AcDbLine
 62
8
  6
CONTINUOUS
 10
17.3043915859
 20
2.7353766023
 11
17.2359085484
 21
2.7436668739
  0
LINE
  5
39F
100
AcDbEntity
  8
DEFAULT_2
100
AcDbLine
 62
8
  6
CONTINUOUS
 10
17.2359085484
 20
2.7436668739
 11
17.1661718332
 21
2.7540022144
  0
LINE
  5
3A0
100
AcDbEntity
  8
DEFAULT_2
100
AcDbLine
 62
8
  6
CONTINUOUS
 10
17.1661718332
 20
2.7540022144
 11
17.0967383032
 21
2.7662124555
  0
LINE
  5
3A1
100
AcDbEntity
  8
0
100
AcDbLine
 62
9
  6
CONTINUOUS
 10
7.79963183
 20
0.1926391894
 11
7.8031360465
 21
0.1662275998
  0
LINE
  5
3A2
100
AcDbEntity
  8
0
100
AcDbLine
 62
7
  6
CONTINUOUS
 10
7.7996157087
 20
0.1929052589
 11
7.8020180959
 21
0.1721317059
  0
LINE
  5
3A3
100
AcDbEntity
  8
DEFAULT_2
100
AcDbLine
 62
8
  6
CONTINUOUS
 10
37.2778131382
 20
20.2712951031
 11
37.3088958174
 21
20.2861969464
  0
LINE
  5
3A4
100
AcDbEntity
  8
0
100
AcDbLine
 62
9
  6
CONTINUOUS
 10
62.5669271095
 20
18.7575267005
 11
65.4662154801
 21
19.5112054329
  0
LINE
  5
3A5
100
AcDbEntity
  8
0
100
AcDbLine
 62
9
  6
CONTINUOUS
 10
63.0808580964
 20
18.6920430916
 11
66.1956994006
 21
19.4981895222
  0
LINE
  5
3A6
100
AcDbEntity
  8
DEFAULT_2
100
AcDbLine
 62
8
  6
CONTINUOUS
 10
35.7199452089
 20
2.4736038637
 11
35.7256523791
 21
2.4731681359
  0
LINE
  5
3A7
100
AcDbEntity
  8
DEFAULT_2
100
AcDbLine
 62
8
  6
CONTINUOUS
 10
35.7130025366
 20
2.3487866285
 11
35.7145326964
 21
2.3486635408
  0
LINE
  5
3A8
100
AcDbEntity
  8
DEFAULT_2
100
AcDbLine
 62
8
  6
CONTINUOUS
 10
35.7145326964
 20
2.3486635408
 11
35.7160611772
 21
2.3485209943
  0
LINE
  5
3A9
100
AcDbEntity
  8
DEFAULT_2
100
AcDbLine
 62
8
  6
CONTINUOUS
 10
17.0967383032
 20
2.7662124555
 11
17.0261195184
 21
2.7806240538
  0
LINE
  5
3AA
100
AcDbEntity
  8
DEFAULT_2
100
AcDbLine
 62
8
  6
CONTINUOUS
 10
17.0261195184
 20
2.7806240538
 11
16.95592399
 21
2.7969736609
  0
LINE
  5
3AB
100
AcDbEntity
  8
DEFAULT_2
100
AcDbLine
 62
8
  6
CONTINUOUS
 10
37.2471742133
 20
20.2555009699
 11
37.2778131382
 21
20.2712951031
  0
LINE
  5
3AC
100
AcDbEntity
  8
DEFAULT_2
100
AcDbLine
 62
8
  6
CONTINUOUS
 10
38.2810932827
 20
18.1406576317
 11
38.2491809057
 21
18.1275679504
  0
LINE
  5
3AD
100
AcDbEntity
  8
0
100
AcDbLine
 62
9
  6
CONTINUOUS
 10
59.8721481703
 20
18.0977300279
 11
62.5669271095
 21
18.7575267005
  0
LINE
  5
3AE
100
AcDbEntity
  8
0
100
AcDbLine
 62
9
  6
CONTINUOUS
 10
60.1995087501
 20
17.9909532573
 11
63.0808580964
 21
18.6920430916
  0
LINE
  5
3AF
100
AcDbEntity
  8
DEFAULT_2
100
AcDbLine
 62
8
  6
CONTINUOUS
 10
35.7256523791
 20
2.4731681359
 11
35.7292784021
 21
2.4728216061
  0
LINE
  5
3B0
100
AcDbEntity
  8
DEFAULT_2
100
AcDbLine
 62
8
  6
CONTINUOUS
 10
35.7160611772
 20
2.3485209943
 11
35.718050303
 21
2.348306342
  0
LINE
  5
3B1
100
AcDbEntity
  8
DEFAULT_2
100
AcDbLine
 62
8
  6
CONTINUOUS
 10
35.7292784021
 20
2.4728216061
 11
35.7328989467
 21
2.4724216286
  0
LINE
  5
3B2
100
AcDbEntity
  8
DEFAULT_2
100
AcDbLine
 62
8
  6
CONTINUOUS
 10
16.95592399
 20
2.7969736609
 11
16.8846727708
 21
2.8156730594
  0
LINE
  5
3B3
100
AcDbEntity
  8
DEFAULT_2
100
AcDbLine
 62
8
  6
CONTINUOUS
 10
16.8846727708
 20
2.8156730594
 11
16.8139750223
 21
2.8363676606
  0
LINE
  5
3B4
100
AcDbEntity
  8
DEFAULT_2
100
AcDbLine
 62
8
  6
CONTINUOUS
 10
16.8139750223
 20
2.8363676606
 11
16.7424155793
 21
2.8595398663
  0
LINE
  5
3B5
100
AcDbEntity
  8
0
100
AcDbLine
 62
9
  6
CONTINUOUS
 10
9.1679759865
 20
0.0210304065
 11
9.1679759916
 21
0.0216595993
  0
LINE
  5
3B6
100
AcDbEntity
  8
DEFAULT_2
100
AcDbLine
 62
8
  6
CONTINUOUS
 10
38.312614189
 20
18.1546637493
 11
38.2810932827
 21
18.1406576317
  0
LINE
  5
3B7
100
AcDbEntity
  8
DEFAULT_2
100
AcDbLine
 62
8
  6
CONTINUOUS
 10
69.6247217528
 20
22.6144888828
 11
69.668686383
 21
22.6265591392
  0
LINE
  5
3B8
100
AcDbEntity
  8
DEFAULT_2
100
AcDbLine
 62
8
  6
CONTINUOUS
 10
71.1559452775
 20
22.7618413331
 11
71.1640397271
 21
22.7640067013
  0
LINE
  5
3B9
100
AcDbEntity
  8
DEFAULT_2
100
AcDbLine
 62
8
  6
CONTINUOUS
 10
35.718050303
 20
2.348306342
 11
35.7200356863
 21
2.3480592684
  0
LINE
  5
3BA
100
AcDbEntity
  8
DEFAULT_2
100
AcDbLine
 62
8
  6
CONTINUOUS
 10
35.7328989467
 20
2.4724216286
 11
35.7371877017
 21
2.4718779273
  0
LINE
  5
3BB
100
AcDbEntity
  8
DEFAULT_2
100
AcDbLine
 62
8
  6
CONTINUOUS
 10
16.7424155793
 20
2.8595398663
 11
16.6715498436
 21
2.8847546058
  0
LINE
  5
3BC
100
AcDbEntity
  8
DEFAULT_2
100
AcDbLine
 62
8
  6
CONTINUOUS
 10
16.6715498436
 20
2.8847546058
 11
16.6000404914
 21
2.9125563184
  0
LINE
  5
3BD
100
AcDbEntity
  8
DEFAULT_2
100
AcDbLine
 62
8
  6
CONTINUOUS
 10
37.2170050032
 20
20.2388271464
 11
37.2471742133
 21
20.2555009699
  0
LINE
  5
3BE
100
AcDbEntity
  8
DEFAULT_2
100
AcDbLine
 62
8
  6
CONTINUOUS
 10
69.568692203
 20
22.5978019772
 11
69.6247217528
 21
22.6144888828
  0
LINE
  5
3BF
100
AcDbEntity
  8
DEFAULT_2
100
AcDbLine
 62
8
  6
CONTINUOUS
 10
71.1640397271
 20
22.7640067013
 11
71.1720840735
 21
22.7663519029
  0
LINE
  5
3C0
100
AcDbEntity
  8
0
100
AcDbLine
 62
9
  6
CONTINUOUS
 10
57.3556171718
 20
17.5230214242
 11
59.8721481703
 21
18.0977300279
  0
LINE
  5
3C1
100
AcDbEntity
  8
0
100
AcDbLine
 62
9
  6
CONTINUOUS
 10
57.5206685097
 20
17.3846598767
 11
60.1995087501
 21
17.9909532573
  0
LINE
  5
3C2
100
AcDbEntity
  8
0
100
AcDbLine
 62
7
  6
CONTINUOUS
 10
58.4925332936
 20
0.0215089822
 11
58.4705618979
 21
0.0243946838
  0
LINE
  5
3C3
100
AcDbEntity
  8
DEFAULT_2
100
AcDbLine
 62
8
  6
CONTINUOUS
 10
35.7200356863
 20
2.3480592684
 11
35.7226532725
 21
2.3476833371
  0
LINE
  5
3C4
100
AcDbEntity
  8
DEFAULT_2
100
AcDbLine
 62
8
  6
CONTINUOUS
 10
35.7371877017
 20
2.4718779273
 11
35.7414663725
 21
2.4712596484
  0
LINE
  5
3C5
100
AcDbEntity
  8
DEFAULT_2
100
AcDbLine
 62
8
  6
CONTINUOUS
 10
16.6000404914
 20
2.9125563184
 11
16.5293740403
 21
2.9424362007
  0
LINE
  5
3C6
100
AcDbEntity
  8
DEFAULT_2
100
AcDbLine
 62
8
  6
CONTINUOUS
 10
16.5293740403
 20
2.9424362007
 11
16.458370164
 21
2.97495851
  0
LINE
  5
3C7
100
AcDbEntity
  8
DEFAULT_2
100
AcDbLine
 62
8
  6
CONTINUOUS
 10
16.458370164
 20
2.97495851
 11
16.3883642902
 21
3.0095772665
  0
LINE
  5
3C8
100
AcDbEntity
  8
DEFAULT_2
100
AcDbLine
 62
8
  6
CONTINUOUS
 10
38.3436968683
 20
18.1695655925
 11
38.312614189
 21
18.1546637493
  0
LINE
  5
3C9
100
AcDbEntity
  8
DEFAULT_2
100
AcDbLine
 62
8
  6
CONTINUOUS
 10
69.668686383
 20
22.6265591392
 11
69.7128708261
 21
22.6377987954
  0
LINE
  5
3CA
100
AcDbEntity
  8
0
100
AcDbLine
 62
9
  6
CONTINUOUS
 10
54.9931257358
 20
17.0254543414
 11
57.3556171718
 21
17.5230214242
  0
LINE
  5
3CB
100
AcDbEntity
  8
0
100
AcDbLine
 62
9
  6
CONTINUOUS
 10
55.0155864352
 20
16.8638408501
 11
57.5206685097
 21
17.3846598767
  0
LINE
  5
3CC
100
AcDbEntity
  8
DEFAULT_2
100
AcDbLine
 62
8
  6
CONTINUOUS
 10
35.7414663725
 20
2.4712596484
 11
35.7462318572
 21
2.4704812865
  0
LINE
  5
3CD
100
AcDbEntity
  8
DEFAULT_2
100
AcDbLine
 62
8
  6
CONTINUOUS
 10
35.7226532725
 20
2.3476833371
 11
35.7252622832
 21
2.3472515537
  0
LINE
  5
3CE
100
AcDbEntity
  8
DEFAULT_2
100
AcDbLine
 62
8
  6
CONTINUOUS
 10
16.3883642902
 20
3.0095772665
 11
16.3183683461
 21
3.046840451
  0
LINE
  5
3CF
100
AcDbEntity
  8
DEFAULT_2
100
AcDbLine
 62
8
  6
CONTINUOUS
 10
16.3183683461
 20
3.046840451
 11
16.2495280285
 21
3.0861979704
  0
LINE
  5
3D0
100
AcDbEntity
  8
0
100
AcDbLine
 62
7
  6
CONTINUOUS
 10
17.8578657455
 20
0.011656778
 11
17.8414048225
 21
0.0242321552
  0
LINE
  5
3D1
100
AcDbEntity
  8
0
100
AcDbLine
 62
7
  6
CONTINUOUS
 10
17.8556212679
 20
0.0242321497
 11
17.8578657455
 21
0.0225174735
  0
LINE
  5
3D2
100
AcDbEntity
  8
DEFAULT_2
100
AcDbLine
 62
8
  6
CONTINUOUS
 10
37.1873528962
 20
20.2212997943
 11
37.2170050032
 21
20.2388271464
  0
LINE
  5
3D3
100
AcDbEntity
  8
DEFAULT_2
100
AcDbLine
 62
8
  6
CONTINUOUS
 10
38.3743357932
 20
18.1853597257
 11
38.3436968683
 21
18.1695655925
  0
LINE
  5
3D4
100
AcDbEntity
  8
DEFAULT_2
100
AcDbLine
 62
8
  6
CONTINUOUS
 10
71.1720840735
 20
22.7663519029
 11
71.1800742931
 21
22.7688757486
  0
LINE
  5
3D5
100
AcDbEntity
  8
DEFAULT_2
100
AcDbLine
 62
8
  6
CONTINUOUS
 10
71.1478044602
 20
22.7598569285
 11
71.1559452775
 21
22.7618413331
  0
LINE
  5
3D6
100
AcDbEntity
  8
DEFAULT_2
100
AcDbLine
 62
8
  6
CONTINUOUS
 10
35.7462318572
 20
2.4704812865
 11
35.7509813825
 21
2.4696106801
  0
LINE
  5
3D7
100
AcDbEntity
  8
DEFAULT_2
100
AcDbLine
 62
8
  6
CONTINUOUS
 10
35.7252622832
 20
2.3472515537
 11
35.7274927277
 21
2.3468369015
  0
LINE
  5
3D8
100
AcDbEntity
  8
DEFAULT_2
100
AcDbLine
 62
8
  6
CONTINUOUS
 10
35.7274927277
 20
2.3468369015
 11
35.7297152736
 21
2.346381601
  0
LINE
  5
3D9
100
AcDbEntity
  8
DEFAULT_2
100
AcDbLine
 62
8
  6
CONTINUOUS
 10
16.2495280285
 20
3.0861979704
 11
16.2037444523
 21
3.1139308805
  0
LINE
  5
3DA
100
AcDbEntity
  8
DEFAULT_2
100
AcDbLine
 62
8
  6
CONTINUOUS
 10
16.2037444523
 20
3.1139308805
 11
16.1585346862
 21
3.1425898104
  0
LINE
  5
3DB
100
AcDbEntity
  8
DEFAULT_2
100
AcDbLine
 62
8
  6
CONTINUOUS
 10
16.1585346862
 20
3.1425898104
 11
16.1139173509
 21
3.172162707
  0
LINE
  5
3DC
100
AcDbEntity
  8
DEFAULT_2
100
AcDbLine
 62
8
  6
CONTINUOUS
 10
16.1139173509
 20
3.172162707
 11
16.069514426
 21
3.2029179898
  0
LINE
  5
3DD
100
AcDbEntity
  8
DEFAULT_2
100
AcDbLine
 62
8
  6
CONTINUOUS
 10
37.1582206019
 20
20.2029213982
 11
37.1873528962
 21
20.2212997943
  0
LINE
  5
3DE
100
AcDbEntity
  8
DEFAULT_2
100
AcDbLine
 62
8
  6
CONTINUOUS
 10
69.5130829654
 20
22.5797655453
 11
69.568692203
 21
22.5978019772
  0
LINE
  5
3DF
100
AcDbEntity
  8
DEFAULT_2
100
AcDbLine
 62
8
  6
CONTINUOUS
 10
69.7128708261
 20
22.6377987954
 11
69.7572591058
 21
22.6482040362
  0
LINE
  5
3E0
100
AcDbEntity
  8
0
100
AcDbLine
 62
9
  6
CONTINUOUS
 10
52.7624268664
 20
16.5979762662
 11
54.9931257358
 21
17.0254543414
  0
LINE
  5
3E1
100
AcDbEntity
  8
0
100
AcDbLine
 62
9
  6
CONTINUOUS
 10
52.6578796815
 20
16.4202506046
 11
55.0155864352
 21
16.8638408501
  0
LINE
  5
3E2
100
AcDbEntity
  8
DEFAULT_2
100
AcDbLine
 62
8
  6
CONTINUOUS
 10
35.7509813825
 20
2.4696106801
 11
35.7560614767
 21
2.4685736094
  0
LINE
  5
3E3
100
AcDbEntity
  8
DEFAULT_2
100
AcDbLine
 62
8
  6
CONTINUOUS
 10
35.7297152736
 20
2.346381601
 11
35.7319291868
 21
2.3458858453
  0
LINE
  5
3E4
100
AcDbEntity
  8
DEFAULT_2
100
AcDbLine
 62
8
  6
CONTINUOUS
 10
16.069514426
 20
3.2029179898
 11
16.0257520339
 21
3.2345781434
  0
LINE
  5
3E5
100
AcDbEntity
  8
DEFAULT_2
100
AcDbLine
 62
8
  6
CONTINUOUS
 10
16.0257520339
 20
3.2345781434
 11
15.982648515
 21
3.2671296805
  0
LINE
  5
3E6
100
AcDbEntity
  8
DEFAULT_2
100
AcDbLine
 62
8
  6
CONTINUOUS
 10
15.982648515
 20
3.2671296805
 11
15.9399919142
 21
3.3007441625
  0
LINE
  5
3E7
100
AcDbEntity
  8
DEFAULT_2
100
AcDbLine
 62
8
  6
CONTINUOUS
 10
15.9399919142
 20
3.3007441625
 11
15.8980377297
 21
3.3352313833
  0
LINE
  5
3E8
100
AcDbEntity
  8
DEFAULT_2
100
AcDbLine
 62
8
  6
CONTINUOUS
 10
38.4045050032
 20
18.2020335492
 11
38.3743357932
 21
18.1853597257
  0
LINE
  5
3E9
100
AcDbEntity
  8
DEFAULT_2
100
AcDbLine
 62
8
  6
CONTINUOUS
 10
71.1396213763
 20
22.7580547467
 11
71.1478044602
 21
22.7598569285
  0
LINE
  5
3EA
100
AcDbEntity
  8
0
100
AcDbLine
 62
9
  6
CONTINUOUS
 10
50.6433098914
 20
16.2344803361
 11
52.7624268664
 21
16.5979762662
  0
LINE
  5
3EB
100
AcDbEntity
  8
0
100
AcDbLine
 62
9
  6
CONTINUOUS
 10
50.4236985147
 20
16.0468070798
 11
52.6578796815
 21
16.4202506046
  0
LINE
  5
3EC
100
AcDbEntity
  8
DEFAULT_2
100
AcDbLine
 62
8
  6
CONTINUOUS
 10
35.7560614767
 20
2.4685736094
 11
35.7611189402
 21
2.4674311686
  0
LINE
  5
3ED
100
AcDbEntity
  8
DEFAULT_2
100
AcDbLine
 62
8
  6
CONTINUOUS
 10
35.7319291868
 20
2.3458858453
 11
35.7345395099
 21
2.3452465232
  0
LINE
  5
3EE
100
AcDbEntity
  8
DEFAULT_2
100
AcDbLine
 62
8
  6
CONTINUOUS
 10
35.7611189402
 20
2.4674311686
 11
35.7664373747
 21
2.4661097286
  0
LINE
  5
3EF
100
AcDbEntity
  8
DEFAULT_2
100
AcDbLine
 62
8
  6
CONTINUOUS
 10
15.8980377297
 20
3.3352313833
 11
15.8568037359
 21
3.3705765563
  0
LINE
  5
3F0
100
AcDbEntity
  8
DEFAULT_2
100
AcDbLine
 62
8
  6
CONTINUOUS
 10
15.8568037359
 20
3.3705765563
 11
15.8162343728
 21
3.406831491
  0
LINE
  5
3F1
100
AcDbEntity
  8
DEFAULT_2
100
AcDbLine
 62
8
  6
CONTINUOUS
 10
15.8162343728
 20
3.406831491
 11
15.7764226102
 21
3.4439167682
  0
LINE
  5
3F2
100
AcDbEntity
  8
DEFAULT_2
100
AcDbLine
 62
8
  6
CONTINUOUS
 10
15.7764226102
 20
3.4439167682
 11
15.7373853889
 21
3.4818164864
  0
LINE
  5
3F3
100
AcDbEntity
  8
DEFAULT_2
100
AcDbLine
 62
8
  6
CONTINUOUS
 10
37.1296329851
 20
20.1837067319
 11
37.1582206019
 21
20.2029213982
  0
LINE
  5
3F4
100
AcDbEntity
  8
DEFAULT_2
100
AcDbLine
 62
8
  6
CONTINUOUS
 10
69.4579266354
 20
22.5603895741
 11
69.5130829654
 21
22.5797655453
  0
LINE
  5
3F5
100
AcDbEntity
  8
DEFAULT_2
100
AcDbLine
 62
8
  6
CONTINUOUS
 10
71.1800742931
 20
22.7688757486
 11
71.1880063619
 21
22.7715770493
  0
LINE
  5
3F6
100
AcDbEntity
  8
DEFAULT_2
100
AcDbLine
 62
8
  6
CONTINUOUS
 10
38.1513285234
 20
18.0938875298
 11
38.1181026193
 21
18.0845563136
  0
LINE
  5
3F7
100
AcDbEntity
  8
DEFAULT_2
100
AcDbLine
 62
8
  6
CONTINUOUS
 10
69.7572591058
 20
22.6482040362
 11
69.801835246
 21
22.657771046
  0
LINE
  5
3F8
100
AcDbEntity
  8
DEFAULT_2
100
AcDbLine
 62
8
  6
CONTINUOUS
 10
35.7345395099
 20
2.3452465232
 11
35.7371354839
 21
2.3445510575
  0
LINE
  5
3F9
100
AcDbEntity
  8
DEFAULT_2
100
AcDbLine
 62
8
  6
CONTINUOUS
 10
35.7664373747
 20
2.4661097286
 11
35.7717255435
 21
2.4646718617
  0
LINE
  5
3FA
100
AcDbEntity
  8
DEFAULT_2
100
AcDbLine
 62
8
  6
CONTINUOUS
 10
15.7373853889
 20
3.4818164864
 11
15.6992170123
 21
3.5204345027
  0
LINE
  5
3FB
100
AcDbEntity
  8
DEFAULT_2
100
AcDbLine
 62
8
  6
CONTINUOUS
 10
15.6992170123
 20
3.5204345027
 11
15.6618527329
 21
3.559831014
  0
LINE
  5
3FC
100
AcDbEntity
  8
DEFAULT_2
100
AcDbLine
 62
8
  6
CONTINUOUS
 10
15.6618527329
 20
3.559831014
 11
15.6253084052
 21
3.599989244
  0
LINE
  5
3FD
100
AcDbEntity
  8
DEFAULT_2
100
AcDbLine
 62
8
  6
CONTINUOUS
 10
15.6253084052
 20
3.599989244
 11
15.589800884
 21
3.6406570058
  0
LINE
  5
3FE
100
AcDbEntity
  8
DEFAULT_2
100
AcDbLine
 62
8
  6
CONTINUOUS
 10
37.1016368285
 20
20.1636872372
 11
37.1296329851
 21
20.1837067319
  0
LINE
  5
3FF
100
AcDbEntity
  8
DEFAULT_2
100
AcDbLine
 62
8
  6
CONTINUOUS
 10
38.4341571102
 20
18.2195609014
 11
38.4045050032
 21
18.2020335492
  0
LINE
  5
400
100
AcDbEntity
  8
0
100
AcDbLine
 62
9
  6
CONTINUOUS
 10
48.6172716034
 20
15.929756339
 11
50.6433098914
 21
16.2344803361
  0
LINE
  5
401
100
AcDbEntity
  8
0
100
AcDbLine
 62
9
  6
CONTINUOUS
 10
48.2915683004
 20
15.7375662643
 11
50.4236985147
 21
16.0468070798
  0
LINE
  5
402
100
AcDbEntity
  8
0
100
AcDbLine
 62
9
  6
CONTINUOUS
 10
58.4557829511
 20
0.0280341767
 11
58.4806162972
 21
0.023118899
  0
LINE
  5
403
100
AcDbEntity
  8
DEFAULT_2
100
AcDbLine
 62
8
  6
CONTINUOUS
 10
35.7371354839
 20
2.3445510575
 11
35.7397159033
 21
2.3437997993
  0
LINE
  5
404
100
AcDbEntity
  8
DEFAULT_2
100
AcDbLine
 62
8
  6
CONTINUOUS
 10
15.589800884
 20
3.6406570058
 11
15.5551342421
 21
3.6820438506
  0
LINE
  5
405
100
AcDbEntity
  8
DEFAULT_2
100
AcDbLine
 62
8
  6
CONTINUOUS
 10
15.5551342421
 20
3.6820438506
 11
15.5213230546
 21
3.7241323883
  0
LINE
  5
406
100
AcDbEntity
  8
DEFAULT_2
100
AcDbLine
 62
8
  6
CONTINUOUS
 10
15.5213230546
 20
3.7241323883
 11
15.4886840679
 21
3.7665041524
  0
LINE
  5
407
100
AcDbEntity
  8
DEFAULT_2
100
AcDbLine
 62
8
  6
CONTINUOUS
 10
15.4886840679
 20
3.7665041524
 11
15.4569121465
 21
3.8095298335
  0
LINE
  5
408
100
AcDbEntity
  8
DEFAULT_2
100
AcDbLine
 62
8
  6
CONTINUOUS
 10
15.4569121465
 20
3.8095298335
 11
15.4260204356
 21
3.8531917163
  0
LINE
  5
409
100
AcDbEntity
  8
DEFAULT_2
100
AcDbLine
 62
8
  6
CONTINUOUS
 10
38.4632894045
 20
18.2379392975
 11
38.4341571102
 21
18.2195609014
  0
LINE
  5
40A
100
AcDbEntity
  8
DEFAULT_2
100
AcDbLine
 62
8
  6
CONTINUOUS
 10
71.1880063619
 20
22.7715770493
 11
71.1958762562
 21
22.7744546157
  0
LINE
  5
40B
100
AcDbEntity
  8
DEFAULT_2
100
AcDbLine
 62
8
  6
CONTINUOUS
 10
38.1181026193
 20
18.0845563136
 11
38.0846072372
 21
18.0761838894
  0
LINE
  5
40C
100
AcDbEntity
  8
DEFAULT_2
100
AcDbLine
 62
8
  6
CONTINUOUS
 10
71.1313998415
 20
22.7564359765
 11
71.1396213763
 21
22.7580547467
  0
LINE
  5
40D
100
AcDbEntity
  8
DEFAULT_2
100
AcDbLine
 62
8
  6
CONTINUOUS
 10
69.801835246
 20
22.657771046
 11
69.847795372
 21
22.6667203016
  0
LINE
  5
40E
100
AcDbEntity
  8
0
100
AcDbLine
 62
9
  6
CONTINUOUS
 10
46.667784248
 20
15.6795173892
 11
48.6172716034
 21
15.929756339
  0
LINE
  5
40F
100
AcDbEntity
  8
0
100
AcDbLine
 62
9
  6
CONTINUOUS
 10
46.2420197901
 20
15.4876428928
 11
48.2915683004
 21
15.7375662643
  0
LINE
  5
410
100
AcDbEntity
  8
DEFAULT_2
100
AcDbLine
 62
8
  6
CONTINUOUS
 10
35.7717255435
 20
2.4646718617
 11
35.777225987
 21
2.4630427599
  0
LINE
  5
411
100
AcDbEntity
  8
DEFAULT_2
100
AcDbLine
 62
8
  6
CONTINUOUS
 10
35.7397159033
 20
2.3437997993
 11
35.7425526071
 21
2.3429036038
  0
LINE
  5
412
100
AcDbEntity
  8
DEFAULT_2
100
AcDbLine
 62
8
  6
CONTINUOUS
 10
15.4260204356
 20
3.8531917163
 11
15.3818994878
 21
3.9190085353
  0
LINE
  5
413
100
AcDbEntity
  8
DEFAULT_2
100
AcDbLine
 62
8
  6
CONTINUOUS
 10
15.3818994878
 20
3.9190085353
 11
15.3397786599
 21
3.9861227369
  0
LINE
  5
414
100
AcDbEntity
  8
DEFAULT_2
100
AcDbLine
 62
8
  6
CONTINUOUS
 10
4.2414578855
 20
22.9262136994
 11
4.2371247898
 21
22.9333806813
  0
LINE
  5
415
100
AcDbEntity
  8
DEFAULT_2
100
AcDbLine
 62
8
  6
CONTINUOUS
 10
15.3397786599
 20
3.9861227369
 11
15.3002850854
 21
4.0534354806
  0
LINE
  5
416
100
AcDbEntity
  8
DEFAULT_2
100
AcDbLine
 62
8
  6
CONTINUOUS
 10
15.3002850854
 20
4.0534354806
 11
15.2628040625
 21
4.1218891938
  0
LINE
  5
417
100
AcDbEntity
  8
DEFAULT_2
100
AcDbLine
 62
8
  6
CONTINUOUS
 10
15.2628040625
 20
4.1218891938
 11
15.2279626706
 21
4.1902162375
  0
LINE
  5
418
100
AcDbEntity
  8
DEFAULT_2
100
AcDbLine
 62
8
  6
CONTINUOUS
 10
37.0742328807
 20
20.1428644347
 11
37.1016368285
 21
20.1636872372
  0
LINE
  5
419
100
AcDbEntity
  8
DEFAULT_2
100
AcDbLine
 62
8
  6
CONTINUOUS
 10
69.4058759638
 20
22.5407113808
 11
69.4579266354
 21
22.5603895741
  0
LINE
  5
41A
100
AcDbEntity
  8
DEFAULT_2
100
AcDbLine
 62
8
  6
CONTINUOUS
 10
38.0846072372
 20
18.0761838894
 11
38.0508843966
 21
18.0687805953
  0
LINE
  5
41B
100
AcDbEntity
  8
DEFAULT_2
100
AcDbLine
 62
8
  6
CONTINUOUS
 10
35.777225987
 20
2.4630427599
 11
35.7826875857
 21
2.4612877587
  0
LINE
  5
41C
100
AcDbEntity
  8
DEFAULT_2
100
AcDbLine
 62
8
  6
CONTINUOUS
 10
35.7425526071
 20
2.3429036038
 11
35.7453671794
 21
2.3419400402
  0
LINE
  5
41D
100
AcDbEntity
  8
DEFAULT_2
100
AcDbLine
 62
8
  6
CONTINUOUS
 10
4.245954883
 20
22.919145653
 11
4.2414578855
 21
22.9262136994
  0
LINE
  5
41E
100
AcDbEntity
  8
DEFAULT_2
100
AcDbLine
 62
8
  6
CONTINUOUS
 10
15.2279626706
 20
4.1902162375
 11
15.1951273271
 21
4.2595289186
  0
LINE
  5
41F
100
AcDbEntity
  8
DEFAULT_2
100
AcDbLine
 62
8
  6
CONTINUOUS
 10
15.1951273271
 20
4.2595289186
 11
15.1648914349
 21
4.3284288038
  0
LINE
  5
420
100
AcDbEntity
  8
DEFAULT_2
100
AcDbLine
 62
8
  6
CONTINUOUS
 10
15.1648914349
 20
4.3284288038
 11
15.1366380023
 21
4.3981666342
  0
LINE
  5
421
100
AcDbEntity
  8
DEFAULT_2
100
AcDbLine
 62
8
  6
CONTINUOUS
 10
15.083427784
 20
4.555172286
 11
15.1019391107
 21
4.5067718483
  0
LINE
  5
422
100
AcDbEntity
  8
DEFAULT_2
100
AcDbLine
 62
8
  6
CONTINUOUS
 10
15.1366380023
 20
4.3981666342
 11
15.1109044127
 21
4.4672443948
  0
LINE
  5
423
100
AcDbEntity
  8
DEFAULT_2
100
AcDbLine
 62
8
  6
CONTINUOUS
 10
15.0658563582
 20
4.6039760656
 11
15.083427784
 21
4.555172286
  0
LINE
  5
424
100
AcDbEntity
  8
DEFAULT_2
100
AcDbLine
 62
8
  6
CONTINUOUS
 10
15.1109044127
 20
4.4672443948
 11
15.0871190945
 21
4.5370104201
  0
LINE
  5
425
100
AcDbEntity
  8
DEFAULT_2
100
AcDbLine
 62
8
  6
CONTINUOUS
 10
15.0492518679
 20
4.6531150943
 11
15.0658563582
 21
4.6039760656
  0
LINE
  5
426
100
AcDbEntity
  8
DEFAULT_2
100
AcDbLine
 62
8
  6
CONTINUOUS
 10
37.0474447167
 20
20.1212552024
 11
37.0742328807
 21
20.1428644347
  0
LINE
  5
427
100
AcDbEntity
  8
DEFAULT_2
100
AcDbLine
 62
8
  6
CONTINUOUS
 10
38.4918770214
 20
18.2571539638
 11
38.4632894045
 21
18.2379392975
  0
LINE
  5
428
100
AcDbEntity
  8
DEFAULT_2
100
AcDbLine
 62
8
  6
CONTINUOUS
 10
37.4701814831
 20
20.3469731658
 11
37.5034073872
 21
20.3563043821
  0
LINE
  5
429
100
AcDbEntity
  8
DEFAULT_2
100
AcDbLine
 62
8
  6
CONTINUOUS
 10
69.847795372
 20
22.6667203016
 11
69.8939204041
 21
22.6747781212
  0
LINE
  5
42A
100
AcDbEntity
  8
DEFAULT_2
100
AcDbLine
 62
8
  6
CONTINUOUS
 10
71.1231436712
 20
22.7550018068
 11
71.1313998415
 21
22.7564359765
  0
LINE
  5
42B
100
AcDbEntity
  8
0
100
AcDbLine
 62
9
  6
CONTINUOUS
 10
44.7826966814
 20
15.4805542434
 11
46.667784248
 21
15.6795173892
  0
LINE
  5
42C
100
AcDbEntity
  8
0
100
AcDbLine
 62
9
  6
CONTINUOUS
 10
44.2620275099
 20
15.2935460876
 11
46.2420197901
 21
15.4876428928
  0
LINE
  5
42D
100
AcDbEntity
  8
DEFAULT_2
100
AcDbLine
 62
8
  6
CONTINUOUS
 10
35.7826875857
 20
2.4612877587
 11
35.7883075225
 21
2.4593357178
  0
LINE
  5
42E
100
AcDbEntity
  8
DEFAULT_2
100
AcDbLine
 62
8
  6
CONTINUOUS
 10
35.7453671794
 20
2.3419400402
 11
35.7481580241
 21
2.3409096703
  0
LINE
  5
42F
100
AcDbEntity
  8
DEFAULT_2
100
AcDbLine
 62
8
  6
CONTINUOUS
 10
4.2554266257
 20
22.9053216362
 11
4.2506122929
 21
22.9121803595
  0
LINE
  5
430
100
AcDbEntity
  8
DEFAULT_2
100
AcDbLine
 62
8
  6
CONTINUOUS
 10
4.2506122929
 20
22.9121803595
 11
4.245954883
 21
22.919145653
  0
LINE
  5
431
100
AcDbEntity
  8
DEFAULT_2
100
AcDbLine
 62
8
  6
CONTINUOUS
 10
38.5198731779
 20
18.2771734585
 11
38.4918770214
 21
18.2571539638
  0
LINE
  5
432
100
AcDbEntity
  8
DEFAULT_2
100
AcDbLine
 62
8
  6
CONTINUOUS
 10
69.3542930136
 20
22.5198387957
 11
69.4058759638
 21
22.5407113808
  0
LINE
  5
433
100
AcDbEntity
  8
DEFAULT_2
100
AcDbLine
 62
8
  6
CONTINUOUS
 10
71.1958762562
 20
22.7744546157
 11
71.2036772823
 21
22.7775062277
  0
LINE
  5
434
100
AcDbEntity
  8
DEFAULT_2
100
AcDbLine
 62
8
  6
CONTINUOUS
 10
38.0508843966
 20
18.0687805953
 11
38.0169622142
 21
18.0623522377
  0
LINE
  5
435
100
AcDbEntity
  8
0
100
AcDbLine
 62
9
  6
CONTINUOUS
 10
42.9538778705
 20
15.3303177311
 11
44.7826966814
 21
15.4805542434
  0
LINE
  5
436
100
AcDbEntity
  8
0
100
AcDbLine
 62
9
  6
CONTINUOUS
 10
42.3427833119
 20
15.1524025905
 11
44.2620275099
 21
15.2935460876
  0
LINE
  5
437
100
AcDbEntity
  8
0
100
AcDbLine
 62
7
  6
CONTINUOUS
 10
58.4705618979
 20
0.0243946838
 11
58.4491206114
 21
0.029840918
  0
LINE
  5
438
100
AcDbEntity
  8
DEFAULT_2
100
AcDbLine
 62
8
  6
CONTINUOUS
 10
35.7883075225
 20
2.4593357178
 11
35.7938794042
 21
2.4572504127
  0
LINE
  5
439
100
AcDbEntity
  8
DEFAULT_2
100
AcDbLine
 62
8
  6
CONTINUOUS
 10
35.7481580241
 20
2.3409096703
 11
35.7503893192
 21
2.3400308696
  0
LINE
  5
43A
100
AcDbEntity
  8
DEFAULT_2
100
AcDbLine
 62
8
  6
CONTINUOUS
 10
4.2603943918
 20
22.8985733004
 11
4.2554266257
 21
22.9053216362
  0
LINE
  5
43B
100
AcDbEntity
  8
DEFAULT_2
100
AcDbLine
 62
8
  6
CONTINUOUS
 10
37.0213173023
 20
20.0988958235
 11
37.0474447167
 21
20.1212552024
  0
LINE
  5
43C
100
AcDbEntity
  8
DEFAULT_2
100
AcDbLine
 62
8
  6
CONTINUOUS
 10
37.5034073872
 20
20.3563043821
 11
37.5369027693
 21
20.3646768062
  0
LINE
  5
43D
100
AcDbEntity
  8
DEFAULT_2
100
AcDbLine
 62
8
  6
CONTINUOUS
 10
38.0169622142
 20
18.0623522377
 11
37.9828589894
 21
18.0569028053
  0
LINE
  5
43E
100
AcDbEntity
  8
DEFAULT_2
100
AcDbLine
 62
8
  6
CONTINUOUS
 10
69.8939204041
 20
22.6747781212
 11
69.9401939452
 21
22.6819412579
  0
LINE
  5
43F
100
AcDbEntity
  8
DEFAULT_2
100
AcDbLine
 62
8
  6
CONTINUOUS
 10
71.1148566813
 20
22.7537534264
 11
71.1231436712
 21
22.7550018068
  0
LINE
  5
440
100
AcDbEntity
  8
DEFAULT_2
100
AcDbLine
 62
8
  6
CONTINUOUS
 10
35.7938794042
 20
2.4572504127
 11
35.7995500705
 21
2.4549706373
  0
LINE
  5
441
100
AcDbEntity
  8
DEFAULT_2
100
AcDbLine
 62
8
  6
CONTINUOUS
 10
35.7503893192
 20
2.3400308696
 11
35.7526033459
 21
2.339109377
  0
LINE
  5
442
100
AcDbEntity
  8
DEFAULT_2
100
AcDbLine
 62
8
  6
CONTINUOUS
 10
4.2707787189
 20
22.8854197778
 11
4.2655129807
 21
22.8919380229
  0
LINE
  5
443
100
AcDbEntity
  8
DEFAULT_2
100
AcDbLine
 62
8
  6
CONTINUOUS
 10
4.2655129807
 20
22.8919380229
 11
4.2603943918
 21
22.8985733004
  0
LINE
  5
444
100
AcDbEntity
  8
DEFAULT_2
100
AcDbLine
 62
8
  6
CONTINUOUS
 10
7.3680982884
 20
21.5887432479
 11
7.3513075267
 21
21.615074237
  0
LINE
  5
445
100
AcDbEntity
  8
DEFAULT_2
100
AcDbLine
 62
8
  6
CONTINUOUS
 10
7.3845401081
 20
21.5621961465
 11
7.3680982884
 21
21.5887432479
  0
LINE
  5
446
100
AcDbEntity
  8
DEFAULT_2
100
AcDbLine
 62
8
  6
CONTINUOUS
 10
7.4006294786
 20
21.5354383775
 11
7.3845401081
 21
21.5621961465
  0
LINE
  5
447
100
AcDbEntity
  8
0
100
AcDbLine
 62
7
  6
CONTINUOUS
 10
73.8107805886
 20
20.0954303478
 11
73.7915305972
 21
20.2705063385
  0
LINE
  5
448
100
AcDbEntity
  8
DEFAULT_2
100
AcDbLine
 62
8
  6
CONTINUOUS
 10
36.6312848916
 20
19.0839077571
 11
36.6277737992
 21
19.1179401333
  0
LINE
  5
449
100
AcDbEntity
  8
DEFAULT_2
100
AcDbLine
 62
8
  6
CONTINUOUS
 10
38.9902251148
 20
19.3569529385
 11
38.9937362072
 21
19.3229205623
  0
LINE
  5
44A
100
AcDbEntity
  8
DEFAULT_2
100
AcDbLine
 62
8
  6
CONTINUOUS
 10
36.6277737992
 20
19.1179401333
 11
36.6252642746
 21
19.1520581519
  0
LINE
  5
44B
100
AcDbEntity
  8
DEFAULT_2
100
AcDbLine
 62
8
  6
CONTINUOUS
 10
38.9937362072
 20
19.3229205623
 11
38.9962457319
 21
19.2888025438
  0
LINE
  5
44C
100
AcDbEntity
  8
0
100
AcDbLine
 62
9
  6
CONTINUOUS
 10
58.505963582
 20
0.0210304073
 11
58.5059213029
 21
0.021659543
  0
LINE
  5
44D
100
AcDbEntity
  8
DEFAULT_2
100
AcDbLine
 62
8
  6
CONTINUOUS
 10
36.6252642746
 20
19.1520581519
 11
36.6237575505
 21
19.1862331867
  0
LINE
  5
44E
100
AcDbEntity
  8
DEFAULT_2
100
AcDbLine
 62
8
  6
CONTINUOUS
 10
38.9962457319
 20
19.2888025438
 11
38.997752456
 21
19.254627509
  0
LINE
  5
44F
100
AcDbEntity
  8
DEFAULT_2
100
AcDbLine
 62
8
  6
CONTINUOUS
 10
36.6237575505
 20
19.1862331867
 11
36.6232550032
 21
19.2204303478
  0
LINE
  5
450
100
AcDbEntity
  8
DEFAULT_2
100
AcDbLine
 62
8
  6
CONTINUOUS
 10
38.997752456
 20
19.254627509
 11
38.9982550032
 21
19.2204303478
  0
LINE
  5
451
100
AcDbEntity
  8
0
100
AcDbLine
 62
9
  6
CONTINUOUS
 10
37.8107891713
 20
23.1265300522
 11
37.8107899427
 21
23.1263211008
  0
LINE
  5
452
100
AcDbEntity
  8
0
100
AcDbLine
 62
9
  6
CONTINUOUS
 10
17.9106705074
 20
0.0
 11
17.9106705074
 21
0.0108606956
  0
LINE
  5
453
100
AcDbEntity
  8
0
100
AcDbLine
 62
9
  6
CONTINUOUS
 10
57.7108395294
 20
0.0
 11
57.7108395294
 21
0.0108606956
  0
LINE
  5
454
100
AcDbEntity
  8
0
100
AcDbLine
 62
9
  6
CONTINUOUS
 10
66.4533594943
 20
0.0210304009
 11
66.4533594946
 21
0.0216595434
  0
LINE
  5
455
100
AcDbEntity
  8
DEFAULT_2
100
AcDbLine
 62
8
  6
CONTINUOUS
 10
36.6232550032
 20
19.2204303478
 11
36.6237575505
 21
19.254627509
  0
LINE
  5
456
100
AcDbEntity
  8
DEFAULT_2
100
AcDbLine
 62
8
  6
CONTINUOUS
 10
38.9982550032
 20
19.2204303478
 11
38.997752456
 21
19.1862331867
  0
LINE
  5
457
100
AcDbEntity
  8
DEFAULT_2
100
AcDbLine
 62
8
  6
CONTINUOUS
 10
36.6237575505
 20
19.254627509
 11
36.6252642746
 21
19.2888025438
  0
LINE
  5
458
100
AcDbEntity
  8
DEFAULT_2
100
AcDbLine
 62
8
  6
CONTINUOUS
 10
38.997752456
 20
19.1862331867
 11
38.9962457319
 21
19.1520581519
  0
LINE
  5
459
100
AcDbEntity
  8
0
100
AcDbLine
 62
9
  6
CONTINUOUS
 10
17.1155464265
 20
0.0210304074
 11
17.1155887064
 21
0.0216595431
  0
LINE
  5
45A
100
AcDbEntity
  8
0
100
AcDbLine
 62
9
  6
CONTINUOUS
 10
67.8218781176
 20
0.1926393844
 11
67.8216852757
 21
0.1898749549
  0
LINE
  5
45B
100
AcDbEntity
  8
0
100
AcDbLine
 62
7
  6
CONTINUOUS
 10
67.8215636285
 20
0.1883019738
 11
67.8218943631
 21
0.1929053256
  0
LINE
  5
45C
100
AcDbEntity
  8
DEFAULT_2
100
AcDbLine
 62
8
  6
CONTINUOUS
 10
36.6252642746
 20
19.2888025438
 11
36.6277737992
 21
19.3229205623
  0
LINE
  5
45D
100
AcDbEntity
  8
DEFAULT_2
100
AcDbLine
 62
8
  6
CONTINUOUS
 10
38.9962457319
 20
19.1520581519
 11
38.9937362072
 21
19.1179401333
  0
LINE
  5
45E
100
AcDbEntity
  8
DEFAULT_2
100
AcDbLine
 62
8
  6
CONTINUOUS
 10
36.6277737992
 20
19.3229205623
 11
36.6312848916
 21
19.3569529385
  0
LINE
  5
45F
100
AcDbEntity
  8
DEFAULT_2
100
AcDbLine
 62
8
  6
CONTINUOUS
 10
38.9937362072
 20
19.1179401333
 11
38.9902251148
 21
19.0839077571
  0
LINE
  5
460
100
AcDbEntity
  8
DEFAULT_2
100
AcDbLine
 62
8
  6
CONTINUOUS
 10
36.6312848916
 20
19.3569529385
 11
36.635793595
 21
19.3908655997
  0
LINE
  5
461
100
AcDbEntity
  8
DEFAULT_2
100
AcDbLine
 62
8
  6
CONTINUOUS
 10
38.9902251148
 20
19.0839077571
 11
38.9857164115
 21
19.049995096
  0
LINE
  5
462
100
AcDbEntity
  8
0
100
AcDbLine
 62
7
  6
CONTINUOUS
 10
67.8187660557
 20
0.1683626067
 11
67.8216852757
 21
0.1898749549
  0
LINE
  5
463
100
AcDbEntity
  8
0
100
AcDbLine
 62
7
  6
CONTINUOUS
 10
67.8183257612
 20
0.1659876479
 11
67.8215636285
 21
0.1883019738
  0
LINE
  5
464
100
AcDbEntity
  8
DEFAULT_2
100
AcDbLine
 62
8
  6
CONTINUOUS
 10
36.635793595
 20
19.3908655997
 11
36.6412957965
 21
19.4246307644
  0
LINE
  5
465
100
AcDbEntity
  8
DEFAULT_2
100
AcDbLine
 62
8
  6
CONTINUOUS
 10
38.9857164115
 20
19.049995096
 11
38.9802142099
 21
19.0162299313
  0
LINE
  5
466
100
AcDbEntity
  8
0
100
AcDbLine
 62
9
  6
CONTINUOUS
 10
67.8187660557
 20
0.1683626067
 11
67.8183738996
 21
0.1662277765
  0
LINE
  5
467
100
AcDbEntity
  8
DEFAULT_2
100
AcDbLine
 62
8
  6
CONTINUOUS
 10
36.6412957965
 20
19.4246307644
 11
36.6477889917
 21
19.4582302938
  0
LINE
  5
468
100
AcDbEntity
  8
DEFAULT_2
100
AcDbLine
 62
8
  6
CONTINUOUS
 10
38.9802142099
 20
19.0162299313
 11
38.9737210148
 21
18.9826304019
  0
LINE
  5
469
100
AcDbEntity
  8
DEFAULT_2
100
AcDbLine
 62
8
  6
CONTINUOUS
 10
36.6477889917
 20
19.4582302938
 11
36.6552653545
 21
19.4916253593
  0
LINE
  5
46A
100
AcDbEntity
  8
DEFAULT_2
100
AcDbLine
 62
8
  6
CONTINUOUS
 10
38.9737210148
 20
18.9826304019
 11
38.966244652
 21
18.9492353364
  0
LINE
  5
46B
100
AcDbEntity
  8
0
100
AcDbLine
 62
7
  6
CONTINUOUS
 10
67.8136022619
 20
0.1480298013
 11
67.8187660557
 21
0.1683626067
  0
LINE
  5
46C
100
AcDbEntity
  8
DEFAULT_2
100
AcDbLine
 62
8
  6
CONTINUOUS
 10
36.6552653545
 20
19.4916253593
 11
36.6637180845
 21
19.524786878
  0
LINE
  5
46D
100
AcDbEntity
  8
DEFAULT_2
100
AcDbLine
 62
8
  6
CONTINUOUS
 10
38.966244652
 20
18.9492353364
 11
38.9577919219
 21
18.9160738176
  0
LINE
  5
46E
100
AcDbEntity
  8
0
100
AcDbLine
 62
7
  6
CONTINUOUS
 10
67.8126794834
 20
0.1449565373
 11
67.8183257612
 21
0.1659876479
  0
LINE
  5
46F
100
AcDbEntity
  8
0
100
AcDbLine
 62
9
  6
CONTINUOUS
 10
67.8183738996
 20
0.1662277765
 11
67.8111610336
 21
0.1405795586
  0
LINE
  5
470
100
AcDbEntity
  8
DEFAULT_2
100
AcDbLine
 62
8
  6
CONTINUOUS
 10
36.6637180845
 20
19.524786878
 11
36.6731442061
 21
19.5577000679
  0
LINE
  5
471
100
AcDbEntity
  8
DEFAULT_2
100
AcDbLine
 62
8
  6
CONTINUOUS
 10
38.9577919219
 20
18.9160738176
 11
38.9483658003
 21
18.8831606277
  0
LINE
  5
472
100
AcDbEntity
  8
DEFAULT_2
100
AcDbLine
 62
8
  6
CONTINUOUS
 10
36.6731442061
 20
19.5577000679
 11
36.6835313196
 21
19.5903225957
  0
LINE
  5
473
100
AcDbEntity
  8
DEFAULT_2
100
AcDbLine
 62
8
  6
CONTINUOUS
 10
38.9483658003
 20
18.8831606277
 11
38.9379786869
 21
18.8505381
  0
LINE
  5
474
100
AcDbEntity
  8
DEFAULT_2
100
AcDbLine
 62
8
  6
CONTINUOUS
 10
60.5722581385
 20
4.6531150943
 11
60.5556536483
 21
4.6039760656
  0
LINE
  5
475
100
AcDbEntity
  8
DEFAULT_2
100
AcDbLine
 62
8
  6
CONTINUOUS
 10
60.5106055938
 20
4.4672443948
 11
60.534390912
 21
4.5370104201
  0
LINE
  5
476
100
AcDbEntity
  8
DEFAULT_2
100
AcDbLine
 62
8
  6
CONTINUOUS
 10
36.6835313196
 20
19.5903225957
 11
36.694870016
 21
19.6226266547
  0
LINE
  5
477
100
AcDbEntity
  8
DEFAULT_2
100
AcDbLine
 62
8
  6
CONTINUOUS
 10
38.9379786869
 20
18.8505381
 11
38.9266399904
 21
18.818234041
  0
LINE
  5
478
100
AcDbEntity
  8
DEFAULT_2
100
AcDbLine
 62
8
  6
CONTINUOUS
 10
60.5556536483
 20
4.6039760656
 11
60.5380822224
 21
4.555172286
  0
LINE
  5
479
100
AcDbEntity
  8
DEFAULT_2
100
AcDbLine
 62
8
  6
CONTINUOUS
 10
60.4848720042
 20
4.3981666342
 11
60.5106055938
 21
4.4672443948
  0
LINE
  5
47A
100
AcDbEntity
  8
0
100
AcDbLine
 62
7
  6
CONTINUOUS
 10
67.8064875086
 20
0.129051988
 11
67.8136022619
 21
0.1480298013
  0
LINE
  5
47B
100
AcDbEntity
  8
DEFAULT_2
100
AcDbLine
 62
8
  6
CONTINUOUS
 10
60.5380822224
 20
4.555172286
 11
60.5195708958
 21
4.5067718483
  0
LINE
  5
47C
100
AcDbEntity
  8
DEFAULT_2
100
AcDbLine
 62
8
  6
CONTINUOUS
 10
36.694870016
 20
19.6226266547
 11
36.7071575115
 21
19.6546021388
  0
LINE
  5
47D
100
AcDbEntity
  8
DEFAULT_2
100
AcDbLine
 62
8
  6
CONTINUOUS
 10
38.9266399904
 20
18.818234041
 11
38.9143524949
 21
18.7862585569
  0
LINE
  5
47E
100
AcDbEntity
  8
0
100
AcDbLine
 62
7
  6
CONTINUOUS
 10
67.804955002
 20
0.1254119319
 11
67.8126794834
 21
0.1449565373
  0
LINE
  5
47F
100
AcDbEntity
  8
DEFAULT_2
100
AcDbLine
 62
8
  6
CONTINUOUS
 10
60.4566185715
 20
4.3284288038
 11
60.4848720042
 21
4.3981666342
  0
LINE
  5
480
100
AcDbEntity
  8
DEFAULT_2
100
AcDbLine
 62
8
  6
CONTINUOUS
 10
36.7071575115
 20
19.6546021388
 11
36.7203763116
 21
19.6862040503
  0
LINE
  5
481
100
AcDbEntity
  8
DEFAULT_2
100
AcDbLine
 62
8
  6
CONTINUOUS
 10
38.9143524949
 20
18.7862585569
 11
38.9011336949
 21
18.7546566453
  0
LINE
  5
482
100
AcDbEntity
  8
DEFAULT_2
100
AcDbLine
 62
8
  6
CONTINUOUS
 10
60.4263826793
 20
4.2595289186
 11
60.4566185715
 21
4.3284288038
  0
LINE
  5
483
100
AcDbEntity
  8
0
100
AcDbLine
 62
9
  6
CONTINUOUS
 10
67.8111610336
 20
0.1405795586
 11
67.8003851775
 21
0.1162126751
  0
LINE
  5
484
100
AcDbEntity
  8
DEFAULT_2
100
AcDbLine
 62
8
  6
CONTINUOUS
 10
36.7203763116
 20
19.6862040503
 11
36.7345145061
 21
19.7174054745
  0
LINE
  5
485
100
AcDbEntity
  8
DEFAULT_2
100
AcDbLine
 62
8
  6
CONTINUOUS
 10
38.9011336949
 20
18.7546566453
 11
38.8869955003
 21
18.7234552211
  0
LINE
  5
486
100
AcDbEntity
  8
DEFAULT_2
100
AcDbLine
 62
8
  6
CONTINUOUS
 10
60.3935473358
 20
4.1902162375
 11
60.4263826793
 21
4.2595289186
  0
LINE
  5
487
100
AcDbEntity
  8
DEFAULT_2
100
AcDbLine
 62
8
  6
CONTINUOUS
 10
36.7345145061
 20
19.7174054745
 11
36.7495699784
 21
19.7481997984
  0
LINE
  5
488
100
AcDbEntity
  8
DEFAULT_2
100
AcDbLine
 62
8
  6
CONTINUOUS
 10
38.8869955003
 20
18.7234552211
 11
38.8719400281
 21
18.6926608972
  0
LINE
  5
489
100
AcDbEntity
  8
0
100
AcDbLine
 62
7
  6
CONTINUOUS
 10
67.7977097273
 20
0.1115518256
 11
67.8064875086
 21
0.129051988
  0
LINE
  5
48A
100
AcDbEntity
  8
DEFAULT_2
100
AcDbLine
 62
8
  6
CONTINUOUS
 10
60.3587059439
 20
4.1218891938
 11
60.3935473358
 21
4.1902162375
  0
LINE
  5
48B
100
AcDbEntity
  8
DEFAULT_2
100
AcDbLine
 62
8
  6
CONTINUOUS
 10
36.7495699784
 20
19.7481997984
 11
36.7655198483
 21
19.7785405232
  0
LINE
  5
48C
100
AcDbEntity
  8
DEFAULT_2
100
AcDbLine
 62
8
  6
CONTINUOUS
 10
38.8719400281
 20
18.6926608972
 11
38.8559901581
 21
18.6623201725
  0
LINE
  5
48D
100
AcDbEntity
  8
0
100
AcDbLine
 62
7
  6
CONTINUOUS
 10
67.795480265
 20
0.1074953195
 11
67.804955002
 21
0.1254119319
  0
LINE
  5
48E
100
AcDbEntity
  8
DEFAULT_2
100
AcDbLine
 62
8
  6
CONTINUOUS
 10
60.3212249211
 20
4.0534354806
 11
60.3587059439
 21
4.1218891938
  0
LINE
  5
48F
100
AcDbEntity
  8
DEFAULT_2
100
AcDbLine
 62
8
  6
CONTINUOUS
 10
36.7655198483
 20
19.7785405232
 11
36.7823498362
 21
19.8084020136
  0
LINE
  5
490
100
AcDbEntity
  8
DEFAULT_2
100
AcDbLine
 62
8
  6
CONTINUOUS
 10
38.8559901581
 20
18.6623201725
 11
38.8391601702
 21
18.632458682
  0
LINE
  5
491
100
AcDbEntity
  8
DEFAULT_2
100
AcDbLine
 62
8
  6
CONTINUOUS
 10
60.2817313465
 20
3.9861227369
 11
60.3212249211
 21
4.0534354806
  0
LINE
  5
492
100
AcDbEntity
  8
DEFAULT_2
100
AcDbLine
 62
8
  6
CONTINUOUS
 10
68.2208805278
 20
21.5354383775
 11
68.2369698984
 21
21.5621961465
  0
LINE
  5
493
100
AcDbEntity
  8
DEFAULT_2
100
AcDbLine
 62
8
  6
CONTINUOUS
 10
36.7823498362
 20
19.8084020136
 11
36.8000587467
 21
19.8377804728
  0
LINE
  5
494
100
AcDbEntity
  8
DEFAULT_2
100
AcDbLine
 62
8
  6
CONTINUOUS
 10
38.8391601702
 20
18.632458682
 11
38.8214512598
 21
18.6030802228
  0
LINE
  5
495
100
AcDbEntity
  8
DEFAULT_2
100
AcDbLine
 62
8
  6
CONTINUOUS
 10
71.380052121
 20
22.9262136994
 11
71.3843852167
 21
22.9333806813
  0
LINE
  5
496
100
AcDbEntity
  8
DEFAULT_2
100
AcDbLine
 62
8
  6
CONTINUOUS
 10
68.2369698984
 20
21.5621961465
 11
68.2534117181
 21
21.5887432479
  0
LINE
  5
497
100
AcDbEntity
  8
0
100
AcDbLine
 62
9
  6
CONTINUOUS
 10
67.8003851775
 20
0.1162126751
 11
67.7862639406
 21
0.0936191949
  0
LINE
  5
498
100
AcDbEntity
  8
DEFAULT_2
100
AcDbLine
 62
8
  6
CONTINUOUS
 10
60.2396105187
 20
3.9190085353
 11
60.2817313465
 21
3.9861227369
  0
LINE
  5
499
100
AcDbEntity
  8
DEFAULT_2
100
AcDbLine
 62
8
  6
CONTINUOUS
 10
71.3755551234
 20
22.919145653
 11
71.380052121
 21
22.9262136994
  0
LINE
  5
49A
100
AcDbEntity
  8
0
100
AcDbLine
 62
7
  6
CONTINUOUS
 10
67.7875470167
 20
0.0956090258
 11
67.7977097273
 21
0.1115518256
  0
LINE
  5
49B
100
AcDbEntity
  8
DEFAULT_2
100
AcDbLine
 62
8
  6
CONTINUOUS
 10
68.2534117181
 20
21.5887432479
 11
68.2702024797
 21
21.615074237
  0
LINE
  5
49C
100
AcDbEntity
  8
DEFAULT_2
100
AcDbLine
 62
8
  6
CONTINUOUS
 10
36.8000587467
 20
19.8377804728
 11
36.8186182838
 21
19.8666291128
  0
LINE
  5
49D
100
AcDbEntity
  8
DEFAULT_2
100
AcDbLine
 62
8
  6
CONTINUOUS
 10
38.8214512598
 20
18.6030802228
 11
38.8028917227
 21
18.5742315828
  0
LINE
  5
49E
100
AcDbEntity
  8
DEFAULT_2
100
AcDbLine
 62
8
  6
CONTINUOUS
 10
68.2702024797
 20
21.615074237
 11
68.287338676
 21
21.6411836692
  0
LINE
  5
49F
100
AcDbEntity
  8
DEFAULT_2
100
AcDbLine
 62
8
  6
CONTINUOUS
 10
71.3708977135
 20
22.9121803595
 11
71.3755551234
 21
22.919145653
  0
LINE
  5
4A0
100
AcDbEntity
  8
DEFAULT_2
100
AcDbLine
 62
8
  6
CONTINUOUS
 10
60.1954895709
 20
3.8531917163
 11
60.2396105187
 21
3.9190085353
  0
LINE
  5
4A1
100
AcDbEntity
  8
0
100
AcDbLine
 62
7
  6
CONTINUOUS
 10
67.7845752548
 20
0.0912965716
 11
67.795480265
 21
0.1074953195
  0
LINE
  5
4A2
100
AcDbEntity
  8
DEFAULT_2
100
AcDbLine
 62
8
  6
CONTINUOUS
 10
68.287338676
 20
21.6411836692
 11
68.3048167998
 21
21.6670661
  0
LINE
  5
4A3
100
AcDbEntity
  8
DEFAULT_2
100
AcDbLine
 62
8
  6
CONTINUOUS
 10
36.8186182838
 20
19.8666291128
 11
36.8380119506
 21
19.8949237333
  0
LINE
  5
4A4
100
AcDbEntity
  8
DEFAULT_2
100
AcDbLine
 62
8
  6
CONTINUOUS
 10
38.8028917227
 20
18.5742315828
 11
38.7834980558
 21
18.5459369623
  0
LINE
  5
4A5
100
AcDbEntity
  8
DEFAULT_2
100
AcDbLine
 62
8
  6
CONTINUOUS
 10
68.3048167998
 20
21.6670661
 11
68.3226333437
 21
21.6927160846
  0
LINE
  5
4A6
100
AcDbEntity
  8
DEFAULT_2
100
AcDbLine
 62
8
  6
CONTINUOUS
 10
71.3660833808
 20
22.9053216362
 11
71.3708977135
 21
22.9121803595
  0
LINE
  5
4A7
100
AcDbEntity
  8
DEFAULT_2
100
AcDbLine
 62
8
  6
CONTINUOUS
 10
60.1645978599
 20
3.8095298335
 11
60.1954895709
 21
3.8531917163
  0
LINE
  5
4A8
100
AcDbEntity
  8
DEFAULT_2
100
AcDbLine
 62
8
  6
CONTINUOUS
 10
68.3226333437
 20
21.6927160846
 11
68.3407629014
 21
21.7180980811
  0
LINE
  5
4A9
100
AcDbEntity
  8
DEFAULT_2
100
AcDbLine
 62
8
  6
CONTINUOUS
 10
36.8380119506
 20
19.8949237333
 11
36.8582394884
 21
19.9226624572
  0
LINE
  5
4AA
100
AcDbEntity
  8
DEFAULT_2
100
AcDbLine
 62
8
  6
CONTINUOUS
 10
38.7834980558
 20
18.5459369623
 11
38.7632705181
 21
18.5181982385
  0
LINE
  5
4AB
100
AcDbEntity
  8
DEFAULT_2
100
AcDbLine
 62
8
  6
CONTINUOUS
 10
68.3407629014
 20
21.7180980811
 11
68.3592236158
 21
21.7432389167
  0
LINE
  5
4AC
100
AcDbEntity
  8
DEFAULT_2
100
AcDbLine
 62
8
  6
CONTINUOUS
 10
71.3611156146
 20
22.8985733004
 11
71.3660833808
 21
22.9053216362
  0
LINE
  5
4AD
100
AcDbEntity
  8
DEFAULT_2
100
AcDbLine
 62
8
  6
CONTINUOUS
 10
60.1328259385
 20
3.7665041524
 11
60.1645978599
 21
3.8095298335
  0
LINE
  5
4AE
100
AcDbEntity
  8
DEFAULT_2
100
AcDbLine
 62
8
  6
CONTINUOUS
 10
68.3592236158
 20
21.7432389167
 11
68.378012534
 21
21.7681347505
  0
LINE
  5
4AF
100
AcDbEntity
  8
DEFAULT_2
100
AcDbLine
 62
8
  6
CONTINUOUS
 10
60.1001869518
 20
3.7241323883
 11
60.1328259385
 21
3.7665041524
  0
LINE
  5
4B0
100
AcDbEntity
  8
DEFAULT_2
100
AcDbLine
 62
8
  6
CONTINUOUS
 10
71.3559970257
 20
22.8919380229
 11
71.3611156146
 21
22.8985733004
  0
LINE
  5
4B1
100
AcDbEntity
  8
DEFAULT_2
100
AcDbLine
 62
8
  6
CONTINUOUS
 10
36.8582394884
 20
19.9226624572
 11
36.8792674289
 21
19.9497994551
  0
LINE
  5
4B2
100
AcDbEntity
  8
DEFAULT_2
100
AcDbLine
 62
8
  6
CONTINUOUS
 10
38.7632705181
 20
18.5181982385
 11
38.7422425776
 21
18.4910612405
  0
LINE
  5
4B3
100
AcDbEntity
  8
DEFAULT_2
100
AcDbLine
 62
8
  6
CONTINUOUS
 10
68.378012534
 20
21.7681347505
 11
68.3971267035
 21
21.7927817415
  0
LINE
  5
4B4
100
AcDbEntity
  8
0
100
AcDbLine
 62
7
  6
CONTINUOUS
 10
67.7762624236
 20
0.0812635156
 11
67.7875470167
 21
0.0956090258
  0
LINE
  5
4B5
100
AcDbEntity
  8
DEFAULT_2
100
AcDbLine
 62
8
  6
CONTINUOUS
 10
68.3971267035
 20
21.7927817415
 11
68.4165631714
 21
21.8171760487
  0
LINE
  5
4B6
100
AcDbEntity
  8
DEFAULT_2
100
AcDbLine
 62
8
  6
CONTINUOUS
 10
60.0663757644
 20
3.6820438506
 11
60.1001869518
 21
3.7241323883
  0
LINE
  5
4B7
100
AcDbEntity
  8
DEFAULT_2
100
AcDbLine
 62
8
  6
CONTINUOUS
 10
71.3507312876
 20
22.8854197778
 11
71.3559970257
 21
22.8919380229
  0
LINE
  5
4B8
100
AcDbEntity
  8
DEFAULT_2
100
AcDbLine
 62
8
  6
CONTINUOUS
 10
68.4165631714
 20
21.8171760487
 11
68.436318985
 21
21.8413138312
  0
LINE
  5
4B9
100
AcDbEntity
  8
DEFAULT_2
100
AcDbLine
 62
8
  6
CONTINUOUS
 10
36.8792674289
 20
19.9497994551
 11
36.901077227
 21
19.9763121511
  0
LINE
  5
4BA
100
AcDbEntity
  8
DEFAULT_2
100
AcDbLine
 62
8
  6
CONTINUOUS
 10
38.7422425776
 20
18.4910612405
 11
38.7204327794
 21
18.4645485446
  0
LINE
  5
4BB
100
AcDbEntity
  8
0
100
AcDbLine
 62
7
  6
CONTINUOUS
 10
67.7725443809
 20
0.0768565237
 11
67.7845752548
 21
0.0912965716
  0
LINE
  5
4BC
100
AcDbEntity
  8
DEFAULT_2
100
AcDbLine
 62
8
  6
CONTINUOUS
 10
60.0317091224
 20
3.6406570058
 11
60.0663757644
 21
3.6820438506
  0
LINE
  5
4BD
100
AcDbEntity
  8
DEFAULT_2
100
AcDbLine
 62
8
  6
CONTINUOUS
 10
68.436318985
 20
21.8413138312
 11
68.4563677705
 21
21.8651638678
  0
LINE
  5
4BE
100
AcDbEntity
  8
0
100
AcDbLine
 62
9
  6
CONTINUOUS
 10
67.7862639406
 20
0.0936191949
 11
67.7690824896
 21
0.0732553748
  0
LINE
  5
4BF
100
AcDbEntity
  8
DEFAULT_2
100
AcDbLine
 62
8
  6
CONTINUOUS
 10
71.3453212394
 20
22.8790213587
 11
71.3507312876
 21
22.8854197778
  0
LINE
  5
4C0
100
AcDbEntity
  8
DEFAULT_2
100
AcDbLine
 62
8
  6
CONTINUOUS
 10
68.4563677705
 20
21.8651638678
 11
68.4767279094
 21
21.8887493739
  0
LINE
  5
4C1
100
AcDbEntity
  8
DEFAULT_2
100
AcDbLine
 62
8
  6
CONTINUOUS
 10
36.901077227
 20
19.9763121511
 11
36.9236693376
 21
20.0021997527
  0
LINE
  5
4C2
100
AcDbEntity
  8
DEFAULT_2
100
AcDbLine
 62
8
  6
CONTINUOUS
 10
38.7204327794
 20
18.4645485446
 11
38.6978406688
 21
18.438660943
  0
LINE
  5
4C3
100
AcDbEntity
  8
DEFAULT_2
100
AcDbLine
 62
8
  6
CONTINUOUS
 10
59.9962016013
 20
3.599989244
 11
60.0317091224
 21
3.6406570058
  0
LINE
  5
4C4
100
AcDbEntity
  8
DEFAULT_2
100
AcDbLine
 62
8
  6
CONTINUOUS
 10
71.3397697203
 20
22.8727455591
 11
71.3453212394
 21
22.8790213587
  0
LINE
  5
4C5
100
AcDbEntity
  8
DEFAULT_2
100
AcDbLine
 62
8
  6
CONTINUOUS
 10
68.4767279094
 20
21.8887493739
 11
68.4973950874
 21
21.9120655883
  0
LINE
  5
4C6
100
AcDbEntity
  8
DEFAULT_2
100
AcDbLine
 62
8
  6
CONTINUOUS
 10
59.9596572736
 20
3.559831014
 11
59.9962016013
 21
3.599989244
  0
LINE
  5
4C7
100
AcDbEntity
  8
DEFAULT_2
100
AcDbLine
 62
8
  6
CONTINUOUS
 10
68.4973950874
 20
21.9120655883
 11
68.51836499
 21
21.9351077495
  0
LINE
  5
4C8
100
AcDbEntity
  8
DEFAULT_2
100
AcDbLine
 62
8
  6
CONTINUOUS
 10
36.9236693376
 20
20.0021997527
 11
36.947005633
 21
20.0274185866
  0
LINE
  5
4C9
100
AcDbEntity
  8
DEFAULT_2
100
AcDbLine
 62
8
  6
CONTINUOUS
 10
38.6978406688
 20
18.438660943
 11
38.6745043735
 21
18.413442109
  0
LINE
  5
4CA
100
AcDbEntity
  8
DEFAULT_2
100
AcDbLine
 62
8
  6
CONTINUOUS
 10
71.3340795695
 20
22.8665951725
 11
71.3397697203
 21
22.8727455591
  0
LINE
  5
4CB
100
AcDbEntity
  8
DEFAULT_2
100
AcDbLine
 62
8
  6
CONTINUOUS
 10
68.51836499
 20
21.9351077495
 11
68.5396333028
 21
21.957871096
  0
LINE
  5
4CC
100
AcDbEntity
  8
DEFAULT_2
100
AcDbLine
 62
8
  6
CONTINUOUS
 10
59.9222929942
 20
3.5204345027
 11
59.9596572736
 21
3.559831014
  0
LINE
  5
4CD
100
AcDbEntity
  8
0
100
AcDbLine
 62
7
  6
CONTINUOUS
 10
67.7641004864
 20
0.0685212543
 11
67.7762624236
 21
0.0812635156
  0
LINE
  5
4CE
100
AcDbEntity
  8
DEFAULT_2
100
AcDbLine
 62
8
  6
CONTINUOUS
 10
68.5396333028
 20
21.957871096
 11
68.5611957113
 21
21.9803508665
  0
LINE
  5
4CF
100
AcDbEntity
  8
DEFAULT_2
100
AcDbLine
 62
8
  6
CONTINUOUS
 10
71.3282539897
 20
22.8605733716
 11
71.3340795695
 21
22.8665951725
  0
LINE
  5
4D0
100
AcDbEntity
  8
DEFAULT_2
100
AcDbLine
 62
8
  6
CONTINUOUS
 10
36.947005633
 20
20.0274185866
 11
36.9710657006
 21
20.0519478519
  0
LINE
  5
4D1
100
AcDbEntity
  8
DEFAULT_2
100
AcDbLine
 62
8
  6
CONTINUOUS
 10
38.6745043735
 20
18.413442109
 11
38.6504443059
 21
18.3889128437
  0
LINE
  5
4D2
100
AcDbEntity
  8
DEFAULT_2
100
AcDbLine
 62
8
  6
CONTINUOUS
 10
59.8841246175
 20
3.4818164864
 11
59.9222929942
 21
3.5204345027
  0
LINE
  5
4D3
100
AcDbEntity
  8
DEFAULT_2
100
AcDbLine
 62
8
  6
CONTINUOUS
 10
68.5611957113
 20
21.9803508665
 11
68.5980990616
 21
22.01749516
  0
LINE
  5
4D4
100
AcDbEntity
  8
DEFAULT_2
100
AcDbLine
 62
8
  6
CONTINUOUS
 10
39.2589783079
 20
1.9186536525
 11
39.7469125005
 21
2.4065878451
  0
LINE
  5
4D5
100
AcDbEntity
  8
DEFAULT_2
100
AcDbLine
 62
8
  6
CONTINUOUS
 10
39.3473666556
 20
1.8302653049
 11
39.9047133809
 21
2.3876120302
  0
LINE
  5
4D6
100
AcDbEntity
  8
DEFAULT_2
100
AcDbLine
 62
8
  6
CONTINUOUS
 10
71.3222955887
 20
22.8546827424
 11
71.3282539897
 21
22.8605733716
  0
LINE
  5
4D7
100
AcDbEntity
  8
0
100
AcDbLine
 62
7
  6
CONTINUOUS
 10
67.7596720889
 20
0.0641744964
 11
67.7725443809
 21
0.0768565237
  0
LINE
  5
4D8
100
AcDbEntity
  8
DEFAULT_2
100
AcDbLine
 62
8
  6
CONTINUOUS
 10
39.8296717877
 20
2.3125704912
 11
39.8313373607
 21
2.3142052307
  0
LINE
  5
4D9
100
AcDbEntity
  8
DEFAULT_2
100
AcDbLine
 62
8
  6
CONTINUOUS
 10
39.7412834418
 20
2.4009588394
 11
39.7446886139
 21
2.404299624
  0
LINE
  5
4DA
100
AcDbEntity
  8
DEFAULT_2
100
AcDbLine
 62
8
  6
CONTINUOUS
 10
59.8450873963
 20
3.4439167682
 11
59.8841246175
 21
3.4818164864
  0
LINE
  5
4DB
100
AcDbEntity
  8
DEFAULT_2
100
AcDbLine
 62
8
  6
CONTINUOUS
 10
68.5980990616
 20
22.01749516
 11
68.6358131148
 21
22.0538200766
  0
LINE
  5
4DC
100
AcDbEntity
  8
DEFAULT_2
100
AcDbLine
 62
8
  6
CONTINUOUS
 10
36.9710657006
 20
20.0519478519
 11
36.9958502668
 21
20.0757870754
  0
LINE
  5
4DD
100
AcDbEntity
  8
DEFAULT_2
100
AcDbLine
 62
8
  6
CONTINUOUS
 10
38.6504443059
 20
18.3889128437
 11
38.6256597397
 21
18.3650736203
  0
LINE
  5
4DE
100
AcDbEntity
  8
DEFAULT_2
100
AcDbLine
 62
8
  6
CONTINUOUS
 10
39.8313373607
 20
2.3142052307
 11
39.8330334038
 21
2.3158088034
  0
LINE
  5
4DF
100
AcDbEntity
  8
DEFAULT_2
100
AcDbLine
 62
8
  6
CONTINUOUS
 10
71.3162073222
 20
22.8489262646
 11
71.3222955887
 21
22.8546827424
  0
LINE
  5
4E0
100
AcDbEntity
  8
DEFAULT_2
100
AcDbLine
 62
8
  6
CONTINUOUS
 10
39.7446886139
 20
2.404299624
 11
39.7481572277
 21
2.4075751242
  0
LINE
  5
4E1
100
AcDbEntity
  8
DEFAULT_2
100
AcDbLine
 62
8
  6
CONTINUOUS
 10
59.8052756337
 20
3.406831491
 11
59.8450873963
 21
3.4439167682
  0
LINE
  5
4E2
100
AcDbEntity
  8
DEFAULT_2
100
AcDbLine
 62
8
  6
CONTINUOUS
 10
68.6358131148
 20
22.0538200766
 11
68.6770335022
 21
22.0917508827
  0
LINE
  5
4E3
100
AcDbEntity
  8
DEFAULT_2
100
AcDbLine
 62
8
  6
CONTINUOUS
 10
39.8330334038
 20
2.3158088034
 11
39.8347592141
 21
2.3173805489
  0
LINE
  5
4E4
100
AcDbEntity
  8
DEFAULT_2
100
AcDbLine
 62
8
  6
CONTINUOUS
 10
39.7481572277
 20
2.4075751242
 11
39.7516877915
 21
2.4107839184
  0
LINE
  5
4E5
100
AcDbEntity
  8
DEFAULT_2
100
AcDbLine
 62
8
  6
CONTINUOUS
 10
36.9958502668
 20
20.0757870754
 11
37.0213173023
 21
20.0988958235
  0
LINE
  5
4E6
100
AcDbEntity
  8
DEFAULT_2
100
AcDbLine
 62
8
  6
CONTINUOUS
 10
38.6256597397
 20
18.3650736203
 11
38.6001927041
 21
18.3419648722
  0
LINE
  5
4E7
100
AcDbEntity
  8
DEFAULT_2
100
AcDbLine
 62
8
  6
CONTINUOUS
 10
71.3099921458
 20
22.8433069184
 11
71.3162073222
 21
22.8489262646
  0
LINE
  5
4E8
100
AcDbEntity
  8
DEFAULT_2
100
AcDbLine
 62
8
  6
CONTINUOUS
 10
59.7647062705
 20
3.3705765563
 11
59.8052756337
 21
3.406831491
  0
LINE
  5
4E9
100
AcDbEntity
  8
0
100
AcDbLine
 62
9
  6
CONTINUOUS
 10
67.7690824896
 20
0.0732553748
 11
67.7491877897
 21
0.055532445
  0
LINE
  5
4EA
100
AcDbEntity
  8
DEFAULT_2
100
AcDbLine
 62
8
  6
CONTINUOUS
 10
68.6770335022
 20
22.0917508827
 11
68.7191346316
 21
22.1287010883
  0
LINE
  5
4EB
100
AcDbEntity
  8
DEFAULT_2
100
AcDbLine
 62
8
  6
CONTINUOUS
 10
39.8347592141
 20
2.3173805489
 11
39.8365140885
 21
2.3189198067
  0
LINE
  5
4EC
100
AcDbEntity
  8
DEFAULT_2
100
AcDbLine
 62
8
  6
CONTINUOUS
 10
39.7516877915
 20
2.4107839184
 11
39.7552291867
 21
2.4138820282
  0
LINE
  5
4ED
100
AcDbEntity
  8
0
100
AcDbLine
 62
7
  6
CONTINUOUS
 10
67.7512884713
 20
0.0573627091
 11
67.7641004864
 21
0.0685212543
  0
LINE
  5
4EE
100
AcDbEntity
  8
DEFAULT_2
100
AcDbLine
 62
8
  6
CONTINUOUS
 10
71.3036530149
 20
22.8378276835
 11
71.3099921458
 21
22.8433069184
  0
LINE
  5
4EF
100
AcDbEntity
  8
DEFAULT_2
100
AcDbLine
 62
8
  6
CONTINUOUS
 10
59.7234722767
 20
3.3352313833
 11
59.7647062705
 21
3.3705765563
  0
LINE
  5
4F0
100
AcDbEntity
  8
DEFAULT_2
100
AcDbLine
 62
8
  6
CONTINUOUS
 10
38.6001927041
 20
18.3419648722
 11
38.5740652897
 21
18.3196054932
  0
LINE
  5
4F1
100
AcDbEntity
  8
DEFAULT_2
100
AcDbLine
 62
8
  6
CONTINUOUS
 10
39.8365140885
 20
2.3189198067
 11
39.8382803997
 21
2.3204119052
  0
LINE
  5
4F2
100
AcDbEntity
  8
DEFAULT_2
100
AcDbLine
 62
8
  6
CONTINUOUS
 10
68.7191346316
 20
22.1287010883
 11
68.7497853586
 21
22.1545261052
  0
LINE
  5
4F3
100
AcDbEntity
  8
DEFAULT_2
100
AcDbLine
 62
8
  6
CONTINUOUS
 10
39.7552291867
 20
2.4138820282
 11
39.758828177
 21
2.4169128525
  0
LINE
  5
4F4
100
AcDbEntity
  8
DEFAULT_2
100
AcDbLine
 62
8
  6
CONTINUOUS
 10
71.2971951368
 20
22.8324934217
 11
71.3036530149
 21
22.8378276835
  0
LINE
  5
4F5
100
AcDbEntity
  8
DEFAULT_2
100
AcDbLine
 62
8
  6
CONTINUOUS
 10
59.6815180922
 20
3.3007441625
 11
59.7234722767
 21
3.3352313833
  0
LINE
  5
4F6
100
AcDbEntity
  8
0
100
AcDbLine
 62
7
  6
CONTINUOUS
 10
67.7462385134
 20
0.053228846
 11
67.7596720889
 21
0.0641744964
  0
LINE
  5
4F7
100
AcDbEntity
  8
DEFAULT_2
100
AcDbLine
 62
8
  6
CONTINUOUS
 10
68.7497853586
 20
22.1545261052
 11
68.7808662692
 21
22.1798323093
  0
LINE
  5
4F8
100
AcDbEntity
  8
DEFAULT_2
100
AcDbLine
 62
8
  6
CONTINUOUS
 10
39.8382803997
 20
2.3204119052
 11
39.8400739489
 21
2.321871011
  0
LINE
  5
4F9
100
AcDbEntity
  8
DEFAULT_2
100
AcDbLine
 62
8
  6
CONTINUOUS
 10
39.758828177
 20
2.4169128525
 11
39.7624835468
 21
2.4198753769
  0
LINE
  5
4FA
100
AcDbEntity
  8
DEFAULT_2
100
AcDbLine
 62
8
  6
CONTINUOUS
 10
38.5740652897
 20
18.3196054932
 11
38.5472771258
 21
18.297996261
  0
LINE
  5
4FB
100
AcDbEntity
  8
DEFAULT_2
100
AcDbLine
 62
8
  6
CONTINUOUS
 10
71.2906192097
 20
22.8273054425
 11
71.2971951368
 21
22.8324934217
  0
LINE
  5
4FC
100
AcDbEntity
  8
DEFAULT_2
100
AcDbLine
 62
8
  6
CONTINUOUS
 10
59.6388614915
 20
3.2671296805
 11
59.6815180922
 21
3.3007441625
  0
LINE
  5
4FD
100
AcDbEntity
  8
DEFAULT_2
100
AcDbLine
 62
8
  6
CONTINUOUS
 10
68.7808662692
 20
22.1798323093
 11
68.8123682791
 21
22.2046127393
  0
LINE
  5
4FE
100
AcDbEntity
  8
DEFAULT_2
100
AcDbLine
 62
8
  6
CONTINUOUS
 10
39.8400739489
 20
2.321871011
 11
39.8418941454
 21
2.3232966578
  0
LINE
  5
4FF
100
AcDbEntity
  8
DEFAULT_2
100
AcDbLine
 62
8
  6
CONTINUOUS
 10
39.7624835468
 20
2.4198753769
 11
39.766135471
 21
2.4227237707
  0
LINE
  5
500
100
AcDbEntity
  8
0
100
AcDbLine
 62
7
  6
CONTINUOUS
 10
57.7636442909
 20
0.0225174733
 11
57.7658964344
 21
0.0242380058
  0
LINE
  5
501
100
AcDbEntity
  8
0
100
AcDbLine
 62
7
  6
CONTINUOUS
 10
57.7801128673
 20
0.0242380017
 11
57.7636442909
 21
0.0116567777
  0
LINE
  5
502
100
AcDbEntity
  8
DEFAULT_2
100
AcDbLine
 62
8
  6
CONTINUOUS
 10
38.5472771258
 20
18.297996261
 11
38.5198731779
 21
18.2771734585
  0
LINE
  5
503
100
AcDbEntity
  8
DEFAULT_2
100
AcDbLine
 62
8
  6
CONTINUOUS
 10
68.8123682791
 20
22.2046127393
 11
68.8466377137
 21
22.2306169301
  0
LINE
  5
504
100
AcDbEntity
  8
DEFAULT_2
100
AcDbLine
 62
8
  6
CONTINUOUS
 10
59.5957579725
 20
3.2345781434
 11
59.6388614915
 21
3.2671296805
  0
LINE
  5
505
100
AcDbEntity
  8
DEFAULT_2
100
AcDbLine
 62
8
  6
CONTINUOUS
 10
39.8418941454
 20
2.3232966578
 11
39.8437403984
 21
2.3246883789
  0
LINE
  5
506
100
AcDbEntity
  8
DEFAULT_2
100
AcDbLine
 62
8
  6
CONTINUOUS
 10
71.2839280992
 20
22.8222670365
 11
71.2906192097
 21
22.8273054425
  0
LINE
  5
507
100
AcDbEntity
  8
DEFAULT_2
100
AcDbLine
 62
8
  6
CONTINUOUS
 10
39.766135471
 20
2.4227237707
 11
39.7698395554
 21
2.425504036
  0
LINE
  5
508
100
AcDbEntity
  8
DEFAULT_2
100
AcDbLine
 62
8
  6
CONTINUOUS
 10
68.8466377137
 20
22.2306169301
 11
68.8813702419
 21
22.2559996156
  0
LINE
  5
509
100
AcDbEntity
  8
0
100
AcDbLine
 62
7
  6
CONTINUOUS
 10
67.7380767118
 20
0.0477733557
 11
67.7512884713
 21
0.0573627091
  0
LINE
  5
50A
100
AcDbEntity
  8
DEFAULT_2
100
AcDbLine
 62
8
  6
CONTINUOUS
 10
59.5519955804
 20
3.2029179898
 11
59.5957579725
 21
3.2345781434
  0
LINE
  5
50B
100
AcDbEntity
  8
DEFAULT_2
100
AcDbLine
 62
8
  6
CONTINUOUS
 10
39.7698395554
 20
2.425504036
 11
39.7735945125
 21
2.4282152021
  0
LINE
  5
50C
100
AcDbEntity
  8
DEFAULT_2
100
AcDbLine
 62
8
  6
CONTINUOUS
 10
39.8437403984
 20
2.3246883789
 11
39.8462000794
 21
2.326461309
  0
LINE
  5
50D
100
AcDbEntity
  8
DEFAULT_2
100
AcDbLine
 62
8
  6
CONTINUOUS
 10
71.2771246713
 20
22.8173814944
 11
71.2839280992
 21
22.8222670365
  0
LINE
  5
50E
100
AcDbEntity
  8
DEFAULT_2
100
AcDbLine
 62
8
  6
CONTINUOUS
 10
68.8813702419
 20
22.2559996156
 11
68.9165543218
 21
22.2807529945
  0
LINE
  5
50F
100
AcDbEntity
  8
DEFAULT_2
100
AcDbLine
 62
8
  6
CONTINUOUS
 10
39.7735945125
 20
2.4282152021
 11
39.7773314603
 21
2.4308102989
  0
LINE
  5
510
100
AcDbEntity
  8
DEFAULT_2
100
AcDbLine
 62
8
  6
CONTINUOUS
 10
59.5075926556
 20
3.172162707
 11
59.5519955804
 21
3.2029179898
  0
LINE
  5
511
100
AcDbEntity
  8
DEFAULT_2
100
AcDbLine
 62
8
  6
CONTINUOUS
 10
39.8462000794
 20
2.326461309
 11
39.8487020654
 21
2.3281740637
  0
LINE
  5
512
100
AcDbEntity
  8
DEFAULT_2
100
AcDbLine
 62
8
  6
CONTINUOUS
 10
71.2702117915
 20
22.8126521069
 11
71.2771246713
 21
22.8173814944
  0
LINE
  5
513
100
AcDbEntity
  8
DEFAULT_2
100
AcDbLine
 62
8
  6
CONTINUOUS
 10
68.9165543218
 20
22.2807529945
 11
68.9547862905
 21
22.306598437
  0
LINE
  5
514
100
AcDbEntity
  8
0
100
AcDbLine
 62
7
  6
CONTINUOUS
 10
67.7325585997
 20
0.0439962283
 11
67.7462385134
 21
0.053228846
  0
LINE
  5
515
100
AcDbEntity
  8
DEFAULT_2
100
AcDbLine
 62
8
  6
CONTINUOUS
 10
39.7773314603
 20
2.4308102989
 11
39.7811150083
 21
2.4333369447
  0
LINE
  5
516
100
AcDbEntity
  8
0
100
AcDbLine
 62
9
  6
CONTINUOUS
 10
67.7491877897
 20
0.055532445
 11
67.7269815977
 21
0.0408083055
  0
LINE
  5
517
100
AcDbEntity
  8
DEFAULT_2
100
AcDbLine
 62
8
  6
CONTINUOUS
 10
59.4629753202
 20
3.1425898104
 11
59.5075926556
 21
3.172162707
  0
LINE
  5
518
100
AcDbEntity
  8
DEFAULT_2
100
AcDbLine
 62
8
  6
CONTINUOUS
 10
71.2631941282
 20
22.808083007
 11
71.2702117915
 21
22.8126521069
  0
LINE
  5
519
100
AcDbEntity
  8
DEFAULT_2
100
AcDbLine
 62
8
  6
CONTINUOUS
 10
39.8487020654
 20
2.3281740637
 11
39.8512448655
 21
2.3298256154
  0
LINE
  5
51A
100
AcDbEntity
  8
DEFAULT_2
100
AcDbLine
 62
8
  6
CONTINUOUS
 10
68.9547862905
 20
22.306598437
 11
68.9935098277
 21
22.331701954
  0
LINE
  5
51B
100
AcDbEntity
  8
DEFAULT_2
100
AcDbLine
 62
8
  6
CONTINUOUS
 10
39.7811150083
 20
2.4333369447
 11
39.784943907
 21
2.4357943057
  0
LINE
  5
51C
100
AcDbEntity
  8
DEFAULT_2
100
AcDbLine
 62
8
  6
CONTINUOUS
 10
59.4177655542
 20
3.1139308805
 11
59.4629753202
 21
3.1425898104
  0
LINE
  5
51D
100
AcDbEntity
  8
DEFAULT_2
100
AcDbLine
 62
8
  6
CONTINUOUS
 10
68.9935098277
 20
22.331701954
 11
69.0327101564
 21
22.3560547779
  0
LINE
  5
51E
100
AcDbEntity
  8
DEFAULT_2
100
AcDbLine
 62
8
  6
CONTINUOUS
 10
71.2560738103
 20
22.8036754016
 11
71.2631941282
 21
22.808083007
  0
LINE
  5
51F
100
AcDbEntity
  8
DEFAULT_2
100
AcDbLine
 62
8
  6
CONTINUOUS
 10
39.784943907
 20
2.4357943057
 11
39.7887400826
 21
2.4381351512
  0
LINE
  5
520
100
AcDbEntity
  8
DEFAULT_2
100
AcDbLine
 62
8
  6
CONTINUOUS
 10
39.8512448655
 20
2.3298256154
 11
39.8537652008
 21
2.3313779327
  0
LINE
  5
521
100
AcDbEntity
  8
DEFAULT_2
100
AcDbLine
 62
8
  6
CONTINUOUS
 10
59.3719819779
 20
3.0861979704
 11
59.4177655542
 21
3.1139308805
  0
LINE
  5
522
100
AcDbEntity
  8
0
100
AcDbLine
 62
7
  6
CONTINUOUS
 10
67.7247256491
 20
0.0397166207
 11
67.7380767118
 21
0.0477733557
  0
LINE
  5
523
100
AcDbEntity
  8
0
100
AcDbLine
 62
9
  6
CONTINUOUS
 10
17.1198752489
 20
0.0242324368
 11
17.1155886994
 21
0.0216595429
  0
LINE
  5
524
100
AcDbEntity
  8
DEFAULT_2
100
AcDbLine
 62
8
  6
CONTINUOUS
 10
69.0327101564
 20
22.3560547779
 11
69.0751222442
 21
22.3812460079
  0
LINE
  5
525
100
AcDbEntity
  8
DEFAULT_2
100
AcDbLine
 62
8
  6
CONTINUOUS
 10
39.7887400826
 20
2.4381351512
 11
39.7925774139
 21
2.4404078918
  0
LINE
  5
526
100
AcDbEntity
  8
DEFAULT_2
100
AcDbLine
 62
8
  6
CONTINUOUS
 10
71.2488547203
 20
22.7994314136
 11
71.2560738103
 21
22.8036754016
  0
LINE
  5
527
100
AcDbEntity
  8
DEFAULT_2
100
AcDbLine
 62
8
  6
CONTINUOUS
 10
39.8537652008
 20
2.3313779327
 11
39.8563215825
 21
2.3328701051
  0
LINE
  5
528
100
AcDbEntity
  8
DEFAULT_2
100
AcDbLine
 62
8
  6
CONTINUOUS
 10
59.3031416603
 20
3.046840451
 11
59.3719819779
 21
3.0861979704
  0
LINE
  5
529
100
AcDbEntity
  8
DEFAULT_2
100
AcDbLine
 62
8
  6
CONTINUOUS
 10
39.7925774139
 20
2.4404078918
 11
39.7964546779
 21
2.4426118019
  0
LINE
  5
52A
100
AcDbEntity
  8
DEFAULT_2
100
AcDbLine
 62
8
  6
CONTINUOUS
 10
69.0751222442
 20
22.3812460079
 11
69.1180436273
 21
22.4055600194
  0
LINE
  5
52B
100
AcDbEntity
  8
DEFAULT_2
100
AcDbLine
 62
8
  6
CONTINUOUS
 10
71.2415407403
 20
22.795353166
 11
71.2488547203
 21
22.7994314136
  0
LINE
  5
52C
100
AcDbEntity
  8
0
100
AcDbLine
 62
7
  6
CONTINUOUS
 10
67.7189428395
 20
0.0364086798
 11
67.7325585997
 21
0.0439962283
  0
LINE
  5
52D
100
AcDbEntity
  8
DEFAULT_2
100
AcDbLine
 62
8
  6
CONTINUOUS
 10
39.8563215825
 20
2.3328701051
 11
39.8589125799
 21
2.3343012968
  0
LINE
  5
52E
100
AcDbEntity
  8
DEFAULT_2
100
AcDbLine
 62
8
  6
CONTINUOUS
 10
39.7964546779
 20
2.4426118019
 11
39.8002842136
 21
2.4447000316
  0
LINE
  5
52F
100
AcDbEntity
  8
DEFAULT_2
100
AcDbLine
 62
8
  6
CONTINUOUS
 10
69.1180436273
 20
22.4055600194
 11
69.1614557162
 21
22.4289873322
  0
LINE
  5
530
100
AcDbEntity
  8
DEFAULT_2
100
AcDbLine
 62
8
  6
CONTINUOUS
 10
59.2331457162
 20
3.0095772665
 11
59.3031416603
 21
3.046840451
  0
LINE
  5
531
100
AcDbEntity
  8
DEFAULT_2
100
AcDbLine
 62
8
  6
CONTINUOUS
 10
71.2341357529
 20
22.7914427816
 11
71.2415407403
 21
22.795353166
  0
LINE
  5
532
100
AcDbEntity
  8
0
100
AcDbLine
 62
7
  6
CONTINUOUS
 10
17.1928559682
 20
0.0376912366
 11
17.2121446646
 21
0.0478033132
  0
LINE
  5
533
100
AcDbEntity
  8
DEFAULT_2
100
AcDbLine
 62
8
  6
CONTINUOUS
 10
39.8002842136
 20
2.4447000316
 11
39.8041496004
 21
2.446721111
  0
LINE
  5
534
100
AcDbEntity
  8
DEFAULT_2
100
AcDbLine
 62
8
  6
CONTINUOUS
 10
39.8589125799
 20
2.3343012968
 11
39.8614528575
 21
2.3356281256
  0
LINE
  5
535
100
AcDbEntity
  8
DEFAULT_2
100
AcDbLine
 62
8
  6
CONTINUOUS
 10
69.1614557162
 20
22.4289873322
 11
69.2082009859
 21
22.4529483857
  0
LINE
  5
536
100
AcDbEntity
  8
DEFAULT_2
100
AcDbLine
 62
8
  6
CONTINUOUS
 10
39.8041496004
 20
2.446721111
 11
39.8080496615
 21
2.4486744236
  0
LINE
  5
537
100
AcDbEntity
  8
DEFAULT_2
100
AcDbLine
 62
8
  6
CONTINUOUS
 10
71.2266413903
 20
22.7877010743
 11
71.2341357529
 21
22.7914427816
  0
LINE
  5
538
100
AcDbEntity
  8
0
100
AcDbLine
 62
7
  6
CONTINUOUS
 10
67.7114910293
 20
0.0331220559
 11
67.7247256491
 21
0.0397166207
  0
LINE
  5
539
100
AcDbEntity
  8
DEFAULT_2
100
AcDbLine
 62
8
  6
CONTINUOUS
 10
59.1631398425
 20
2.97495851
 11
59.2331457162
 21
3.0095772665
  0
LINE
  5
53A
100
AcDbEntity
  8
DEFAULT_2
100
AcDbLine
 62
8
  6
CONTINUOUS
 10
39.8614528575
 20
2.3356281256
 11
39.8640228915
 21
2.3368963325
  0
LINE
  5
53B
100
AcDbEntity
  8
DEFAULT_2
100
AcDbLine
 62
8
  6
CONTINUOUS
 10
69.2082009859
 20
22.4529483857
 11
69.25545861
 21
22.4758832903
  0
LINE
  5
53C
100
AcDbEntity
  8
DEFAULT_2
100
AcDbLine
 62
8
  6
CONTINUOUS
 10
39.8080496615
 20
2.4486744236
 11
39.811887876
 21
2.4505146712
  0
LINE
  5
53D
100
AcDbEntity
  8
0
100
AcDbLine
 62
9
  6
CONTINUOUS
 10
67.7269815977
 20
0.0408083055
 11
67.7029123493
 21
0.0293802979
  0
LINE
  5
53E
100
AcDbEntity
  8
DEFAULT_2
100
AcDbLine
 62
8
  6
CONTINUOUS
 10
71.2190640544
 20
22.7841304306
 11
71.2266413903
 21
22.7877010743
  0
LINE
  5
53F
100
AcDbEntity
  8
DEFAULT_2
100
AcDbLine
 62
8
  6
CONTINUOUS
 10
39.8640228915
 20
2.3368963325
 11
39.8666213289
 21
2.3381052451
  0
LINE
  5
540
100
AcDbEntity
  8
DEFAULT_2
100
AcDbLine
 62
8
  6
CONTINUOUS
 10
69.25545861
 20
22.4758832903
 11
69.3032056213
 21
22.4977820534
  0
LINE
  5
541
100
AcDbEntity
  8
DEFAULT_2
100
AcDbLine
 62
8
  6
CONTINUOUS
 10
39.811887876
 20
2.4505146712
 11
39.8157568683
 21
2.45228928
  0
LINE
  5
542
100
AcDbEntity
  8
DEFAULT_2
100
AcDbLine
 62
8
  6
CONTINUOUS
 10
59.0921359661
 20
2.9424362007
 11
59.1631398425
 21
2.97495851
  0
LINE
  5
543
100
AcDbEntity
  8
0
100
AcDbLine
 62
7
  6
CONTINUOUS
 10
67.7057686176
 20
0.0303882812
 11
67.7189428395
 21
0.0364086798
  0
LINE
  5
544
100
AcDbEntity
  8
DEFAULT_2
100
AcDbLine
 62
8
  6
CONTINUOUS
 10
71.2114079501
 20
22.7807318239
 11
71.2190640544
 21
22.7841304306
  0
LINE
  5
545
100
AcDbEntity
  8
DEFAULT_2
100
AcDbLine
 62
8
  6
CONTINUOUS
 10
39.8157568683
 20
2.45228928
 11
39.8196555164
 21
2.4539977332
  0
LINE
  5
546
100
AcDbEntity
  8
DEFAULT_2
100
AcDbLine
 62
8
  6
CONTINUOUS
 10
39.8666213289
 20
2.3381052451
 11
39.8691394658
 21
2.3392086313
  0
LINE
  5
547
100
AcDbEntity
  8
DEFAULT_2
100
AcDbLine
 62
8
  6
CONTINUOUS
 10
69.3032056213
 20
22.4977820534
 11
69.3542930136
 21
22.5198387957
  0
LINE
  5
548
100
AcDbEntity
  8
DEFAULT_2
100
AcDbLine
 62
8
  6
CONTINUOUS
 10
59.021469515
 20
2.9125563184
 11
59.0921359661
 21
2.9424362007
  0
LINE
  5
549
100
AcDbEntity
  8
DEFAULT_2
100
AcDbLine
 62
8
  6
CONTINUOUS
 10
39.8196555164
 20
2.4539977332
 11
39.8234766609
 21
2.4555962238
  0
LINE
  5
54A
100
AcDbEntity
  8
DEFAULT_2
100
AcDbLine
 62
8
  6
CONTINUOUS
 10
71.2036772823
 20
22.7775062277
 11
71.2114079501
 21
22.7807318239
  0
LINE
  5
54B
100
AcDbEntity
  8
DEFAULT_2
100
AcDbLine
 62
8
  6
CONTINUOUS
 10
39.8691394658
 20
2.3392086313
 11
39.8716812646
 21
2.3402563172
  0
LINE
  5
54C
100
AcDbEntity
  8
0
100
AcDbLine
 62
7
  6
CONTINUOUS
 10
67.6988075243
 20
0.0279555678
 11
67.7114910293
 21
0.0331220559
  0
LINE
  5
54D
100
AcDbEntity
  8
DEFAULT_2
100
AcDbLine
 62
8
  6
CONTINUOUS
 10
39.8234766609
 20
2.4555962238
 11
39.827323768
 21
2.4571311566
  0
LINE
  5
54E
100
AcDbEntity
  8
DEFAULT_2
100
AcDbLine
 62
8
  6
CONTINUOUS
 10
58.9499601628
 20
2.8847546058
 11
59.021469515
 21
2.9125563184
  0
LINE
  5
54F
100
AcDbEntity
  8
DEFAULT_2
100
AcDbLine
 62
8
  6
CONTINUOUS
 10
39.8716812646
 20
2.3402563172
 11
39.8742454932
 21
2.3412477883
  0
LINE
  5
550
100
AcDbEntity
  8
0
100
AcDbLine
 62
7
  6
CONTINUOUS
 10
17.1723893964
 20
0.0298409177
 11
17.1928559682
 21
0.0376912366
  0
LINE
  5
551
100
AcDbEntity
  8
DEFAULT_2
100
AcDbLine
 62
8
  6
CONTINUOUS
 10
39.827323768
 20
2.4571311566
 11
39.8311957811
 21
2.4586021065
  0
LINE
  5
552
100
AcDbEntity
  8
0
100
AcDbLine
 62
7
  6
CONTINUOUS
 10
67.6935287871
 20
0.0258390706
 11
67.7057686176
 21
0.0303882812
  0
LINE
  5
553
100
AcDbEntity
  8
DEFAULT_2
100
AcDbLine
 62
8
  6
CONTINUOUS
 10
39.8742454932
 20
2.3412477883
 11
39.8766698294
 21
2.3421261764
  0
LINE
  5
554
100
AcDbEntity
  8
DEFAULT_2
100
AcDbLine
 62
8
  6
CONTINUOUS
 10
39.8311957811
 20
2.4586021065
 11
39.8368616034
 21
2.4606236952
  0
LINE
  5
555
100
AcDbEntity
  8
DEFAULT_2
100
AcDbLine
 62
8
  6
CONTINUOUS
 10
58.8790944272
 20
2.8595398663
 11
58.9499601628
 21
2.8847546058
  0
LINE
  5
556
100
AcDbEntity
  8
0
100
AcDbLine
 62
9
  6
CONTINUOUS
 10
17.1858940429
 20
0.0350208659
 11
17.1657264019
 21
0.0280339991
  0
LINE
  5
557
100
AcDbEntity
  8
DEFAULT_2
100
AcDbLine
 62
8
  6
CONTINUOUS
 10
39.8766698294
 20
2.3421261764
 11
39.8791117728
 21
2.3429542955
  0
LINE
  5
558
100
AcDbEntity
  8
0
100
AcDbLine
 62
7
  6
CONTINUOUS
 10
67.6873096624
 20
0.0241611585
 11
67.6988075243
 21
0.0279555678
  0
LINE
  5
559
100
AcDbEntity
  8
DEFAULT_2
100
AcDbLine
 62
8
  6
CONTINUOUS
 10
39.8368616034
 20
2.4606236952
 11
39.8425744387
 21
2.4625082718
  0
LINE
  5
55A
100
AcDbEntity
  8
DEFAULT_2
100
AcDbLine
 62
8
  6
CONTINUOUS
 10
58.8075349842
 20
2.8363676606
 11
58.8790944272
 21
2.8595398663
  0
LINE
  5
55B
100
AcDbEntity
  8
DEFAULT_2
100
AcDbLine
 62
8
  6
CONTINUOUS
 10
39.8791117728
 20
2.3429542955
 11
39.8815702826
 21
2.3437317814
  0
LINE
  5
55C
100
AcDbEntity
  8
0
100
AcDbLine
 62
9
  6
CONTINUOUS
 10
67.7029123493
 20
0.0293802979
 11
67.677466103
 21
0.0214792014
  0
LINE
  5
55D
100
AcDbEntity
  8
DEFAULT_2
100
AcDbLine
 62
8
  6
CONTINUOUS
 10
39.8425744387
 20
2.4625082718
 11
39.8481103891
 21
2.4641905672
  0
LINE
  5
55E
100
AcDbEntity
  8
0
100
AcDbLine
 62
7
  6
CONTINUOUS
 10
67.6825322389
 20
0.0225408935
 11
67.6935287871
 21
0.0258390706
  0
LINE
  5
55F
100
AcDbEntity
  8
DEFAULT_2
100
AcDbLine
 62
8
  6
CONTINUOUS
 10
39.8815702826
 20
2.3437317814
 11
39.8838287633
 21
2.3443971858
  0
LINE
  5
560
100
AcDbEntity
  8
DEFAULT_2
100
AcDbLine
 62
8
  6
CONTINUOUS
 10
58.7368372356
 20
2.8156730594
 11
58.8075349842
 21
2.8363676606
  0
LINE
  5
561
100
AcDbEntity
  8
0
100
AcDbLine
 62
7
  6
CONTINUOUS
 10
3.9516453674
 20
23.095213638
 11
3.8054008214
 21
23.0603402854
  0
LINE
  5
562
100
AcDbEntity
  8
0
100
AcDbLine
 62
7
  6
CONTINUOUS
 10
4.0980592125
 20
23.1181090545
 11
4.0970707348
 21
23.1178788639
  0
LINE
  5
563
100
AcDbEntity
  8
DEFAULT_2
100
AcDbLine
 62
8
  6
CONTINUOUS
 10
37.5369027693
 20
20.3646768062
 11
37.5706256098
 21
20.3720801004
  0
LINE
  5
564
100
AcDbEntity
  8
0
100
AcDbLine
 62
7
  6
CONTINUOUS
 10
4.0217650551
 20
23.1074990498
 11
3.8358372005
 21
23.0681692976
  0
LINE
  5
565
100
AcDbEntity
  8
DEFAULT_2
100
AcDbLine
 62
8
  6
CONTINUOUS
 10
37.5706256098
 20
20.3720801004
 11
37.6045477922
 21
20.3785084579
  0
LINE
  5
566
100
AcDbEntity
  8
DEFAULT_2
100
AcDbLine
 62
8
  6
CONTINUOUS
 10
37.6045477922
 20
20.3785084579
 11
37.638651017
 21
20.3839578904
  0
LINE
  5
567
100
AcDbEntity
  8
0
100
AcDbLine
 62
7
  6
CONTINUOUS
 10
4.0980592125
 20
23.1181090545
 11
3.9516453674
 21
23.095213638
  0
LINE
  5
568
100
AcDbEntity
  8
0
100
AcDbLine
 62
9
  6
CONTINUOUS
 10
4.1816044776
 20
23.1248742876
 11
4.1823575456
 21
23.1249910206
  0
LINE
  5
569
100
AcDbEntity
  8
0
100
AcDbLine
 62
7
  6
CONTINUOUS
 10
4.1007599824
 20
23.1183359481
 11
4.0217650551
 21
23.1074990498
  0
LINE
  5
56A
100
AcDbEntity
  8
DEFAULT_2
100
AcDbLine
 62
8
  6
CONTINUOUS
 10
69.9401939452
 20
22.6819412579
 11
69.9865995981
 21
22.6882064651
  0
LINE
  5
56B
100
AcDbEntity
  8
DEFAULT_2
100
AcDbLine
 62
8
  6
CONTINUOUS
 10
37.9828589894
 20
18.0569028053
 11
37.9486129106
 21
18.0524381742
  0
LINE
  5
56C
100
AcDbEntity
  8
DEFAULT_2
100
AcDbLine
 62
8
  6
CONTINUOUS
 10
37.638651017
 20
20.3839578904
 11
37.6728970959
 21
20.3884225215
  0
LINE
  5
56D
100
AcDbEntity
  8
DEFAULT_2
100
AcDbLine
 62
8
  6
CONTINUOUS
 10
71.1065439688
 20
22.7526921591
 11
71.1148566813
 21
22.7537534264
  0
LINE
  5
56E
100
AcDbEntity
  8
DEFAULT_2
100
AcDbLine
 62
8
  6
CONTINUOUS
 10
69.9865995981
 20
22.6882064651
 11
70.0337639097
 21
22.6936385633
  0
LINE
  5
56F
100
AcDbEntity
  8
0
100
AcDbLine
 62
7
  6
CONTINUOUS
 10
4.1020015009
 20
23.1184760823
 11
4.1007600115
 21
23.1183359512
  0
LINE
  5
570
100
AcDbEntity
  8
0
100
AcDbLine
 62
7
  6
CONTINUOUS
 10
4.1057724274
 20
23.1188803335
 11
4.1020015009
 21
23.1184760823
  0
LINE
  5
571
100
AcDbEntity
  8
DEFAULT_2
100
AcDbLine
 62
8
  6
CONTINUOUS
 10
71.0982093165
 20
22.7518190709
 11
71.1065439688
 21
22.7526921591
  0
LINE
  5
572
100
AcDbEntity
  8
0
100
AcDbLine
 62
7
  6
CONTINUOUS
 10
4.1143210749
 20
23.1197601051
 11
4.1010707728
 21
23.1183715931
  0
LINE
  5
573
100
AcDbEntity
  8
0
100
AcDbLine
 62
9
  6
CONTINUOUS
 10
4.1755670871
 20
23.1246246811
 11
4.1768517393
 21
23.1247553991
  0
LINE
  5
574
100
AcDbEntity
  8
DEFAULT_2
100
AcDbLine
 62
8
  6
CONTINUOUS
 10
37.9486129106
 20
18.0524381742
 11
37.9142524477
 21
18.0489618356
  0
LINE
  5
575
100
AcDbEntity
  8
DEFAULT_2
100
AcDbLine
 62
8
  6
CONTINUOUS
 10
37.6728970959
 20
20.3884225215
 11
37.7072575587
 21
20.3918988601
  0
LINE
  5
576
100
AcDbEntity
  8
0
100
AcDbLine
 62
9
  6
CONTINUOUS
 10
4.1151774203
 20
23.1198460319
 11
4.1160694473
 21
23.1199351491
  0
LINE
  5
577
100
AcDbEntity
  8
0
100
AcDbLine
 62
7
  6
CONTINUOUS
 10
4.1245412269
 20
23.1207626039
 11
4.1143210749
 21
23.1197601051
  0
LINE
  5
578
100
AcDbEntity
  8
DEFAULT_2
100
AcDbLine
 62
8
  6
CONTINUOUS
 10
70.0337639097
 20
22.6936385633
 11
70.0810254682
 21
22.6981425754
  0
LINE
  5
579
100
AcDbEntity
  8
0
100
AcDbLine
 62
7
  6
CONTINUOUS
 10
4.1340803374
 20
23.1216538497
 11
4.1245412269
 21
23.1207626039
  0
LINE
  5
57A
100
AcDbEntity
  8
0
100
AcDbLine
 62
9
  6
CONTINUOUS
 10
4.1169975198
 20
23.120027451
 11
4.1175780051
 21
23.1200793493
  0
LINE
  5
57B
100
AcDbEntity
  8
0
100
AcDbLine
 62
7
  6
CONTINUOUS
 10
4.1453048346
 20
23.1226515498
 11
4.1340803374
 21
23.1216538497
  0
LINE
  5
57C
100
AcDbEntity
  8
0
100
AcDbLine
 62
9
  6
CONTINUOUS
 10
4.1532216349
 20
23.1233085349
 11
4.1542448378
 21
23.1233967393
  0
LINE
  5
57D
100
AcDbEntity
  8
0
100
AcDbLine
 62
9
  6
CONTINUOUS
 10
4.1886883519
 20
23.1251285653
 11
4.190665012
 21
23.1252970011
  0
LINE
  5
57E
100
AcDbEntity
  8
0
100
AcDbLine
 62
7
  6
CONTINUOUS
 10
4.1514195774
 20
23.123170146
 11
4.1453048346
 21
23.1226515498
  0
LINE
  5
57F
100
AcDbEntity
  8
0
100
AcDbLine
 62
9
  6
CONTINUOUS
 10
4.1969867373
 20
23.1253834968
 11
4.1991212533
 21
23.1255586889
  0
LINE
  5
580
100
AcDbEntity
  8
DEFAULT_2
100
AcDbLine
 62
8
  6
CONTINUOUS
 10
71.0898577815
 20
22.7511354108
 11
71.0982093165
 21
22.7518190709
  0
LINE
  5
581
100
AcDbEntity
  8
0
100
AcDbLine
 62
7
  6
CONTINUOUS
 10
4.1542448378
 20
23.1233967393
 11
4.1514195774
 21
23.123170146
  0
LINE
  5
582
100
AcDbEntity
  8
DEFAULT_2
100
AcDbLine
 62
8
  6
CONTINUOUS
 10
70.0810254682
 20
22.6981425754
 11
70.1283625851
 21
22.701716674
  0
LINE
  5
583
100
AcDbEntity
  8
0
100
AcDbLine
 62
7
  6
CONTINUOUS
 10
4.1571388448
 20
23.1236146879
 11
4.1542448378
 21
23.1233967393
  0
LINE
  5
584
100
AcDbEntity
  8
DEFAULT_2
100
AcDbLine
 62
8
  6
CONTINUOUS
 10
37.9142524477
 20
18.0489618356
 11
37.8798010434
 21
18.0464766014
  0
LINE
  5
585
100
AcDbEntity
  8
DEFAULT_2
100
AcDbLine
 62
8
  6
CONTINUOUS
 10
37.7072575587
 20
20.3918988601
 11
37.741708963
 21
20.3943840942
  0
LINE
  5
586
100
AcDbEntity
  8
0
100
AcDbLine
 62
7
  6
CONTINUOUS
 10
4.1600937664
 20
23.1238222207
 11
4.1571388448
 21
23.1236146879
  0
LINE
  5
587
100
AcDbEntity
  8
0
100
AcDbLine
 62
7
  6
CONTINUOUS
 10
4.165751987
 20
23.1241791935
 11
4.1600937664
 21
23.1238222207
  0
LINE
  5
588
100
AcDbEntity
  8
0
100
AcDbLine
 62
9
  6
CONTINUOUS
 10
4.161310623
 20
23.1238735757
 11
4.165637436
 21
23.124130048
  0
LINE
  5
589
100
AcDbEntity
  8
DEFAULT_2
100
AcDbLine
 62
8
  6
CONTINUOUS
 10
71.0814944211
 20
22.7506424277
 11
71.0898577815
 21
22.7511354108
  0
LINE
  5
58A
100
AcDbEntity
  8
0
100
AcDbLine
 62
9
  6
CONTINUOUS
 10
41.1722760077
 20
15.2262953459
 11
42.9538778705
 21
15.3303177311
  0
LINE
  5
58B
100
AcDbEntity
  8
DEFAULT_2
100
AcDbLine
 62
8
  6
CONTINUOUS
 10
70.1283625851
 20
22.701716674
 11
70.175753572
 21
22.704359032
  0
LINE
  5
58C
100
AcDbEntity
  8
0
100
AcDbLine
 62
7
  6
CONTINUOUS
 10
4.1713204749
 20
23.1244870608
 11
4.165751987
 21
23.1241791935
  0
LINE
  5
58D
100
AcDbEntity
  8
0
100
AcDbLine
 62
9
  6
CONTINUOUS
 10
4.2063163931
 20
23.1256261278
 11
4.2107780272
 21
23.1258557396
  0
LINE
  5
58E
100
AcDbEntity
  8
DEFAULT_2
100
AcDbLine
 62
8
  6
CONTINUOUS
 10
70.1456637113
 20
22.6970196308
 11
71.0732394075
 21
22.7433984156
  0
LINE
  5
58F
100
AcDbEntity
  8
0
100
AcDbLine
 62
9
  6
CONTINUOUS
 10
40.4720471534
 20
15.0612568164
 11
42.3427833119
 21
15.1524025905
  0
LINE
  5
590
100
AcDbEntity
  8
0
100
AcDbLine
 62
7
  6
CONTINUOUS
 10
4.1768517393
 20
23.1247553991
 11
4.1713204749
 21
23.1244870608
  0
LINE
  5
591
100
AcDbEntity
  8
0
100
AcDbLine
 62
9
  6
CONTINUOUS
 10
4.1703236387
 20
23.1243782153
 11
4.1755670871
 21
23.1246246811
  0
LINE
  5
592
100
AcDbEntity
  8
DEFAULT_2
100
AcDbLine
 62
8
  6
CONTINUOUS
 10
37.8798010434
 20
18.0464766014
 11
37.8452923465
 21
18.0449846066
  0
LINE
  5
593
100
AcDbEntity
  8
DEFAULT_2
100
AcDbLine
 62
8
  6
CONTINUOUS
 10
37.741708963
 20
20.3943840942
 11
37.77621766
 21
20.395876089
  0
LINE
  5
594
100
AcDbEntity
  8
0
100
AcDbLine
 62
7
  6
CONTINUOUS
 10
4.1823575456
 20
23.1249910206
 11
4.1768517393
 21
23.1247553991
  0
LINE
  5
595
100
AcDbEntity
  8
0
100
AcDbLine
 62
7
  6
CONTINUOUS
 10
4.190665012
 20
23.1252970011
 11
4.1823575456
 21
23.1249910206
  0
LINE
  5
596
100
AcDbEntity
  8
DEFAULT_2
100
AcDbLine
 62
8
  6
CONTINUOUS
 10
71.0731242927
 20
22.7503413708
 11
71.0814944211
 21
22.7506424277
  0
LINE
  5
597
100
AcDbEntity
  8
0
100
AcDbLine
 62
9
  6
CONTINUOUS
 10
39.4261717222
 20
15.1661500828
 11
41.1722760077
 21
15.2262953459
  0
LINE
  5
598
100
AcDbEntity
  8
0
100
AcDbLine
 62
9
  6
CONTINUOUS
 10
4.238020421
 20
23.1262157581
 11
4.2460434884
 21
23.1264643278
  0
LINE
  5
599
100
AcDbEntity
  8
0
100
AcDbLine
 62
7
  6
CONTINUOUS
 10
4.1991212533
 20
23.1255586889
 11
4.190665012
 21
23.1252970011
  0
LINE
  5
59A
100
AcDbEntity
  8
0
100
AcDbLine
 62
7
  6
CONTINUOUS
 10
4.2107780272
 20
23.1258557396
 11
4.1991212533
 21
23.1255586889
  0
LINE
  5
59B
100
AcDbEntity
  8
0
100
AcDbLine
 62
9
  6
CONTINUOUS
 10
38.6354135235
 20
15.0175989801
 11
40.4720471534
 21
15.0612568164
  0
LINE
  5
59C
100
AcDbEntity
  8
0
100
AcDbLine
 62
9
  6
CONTINUOUS
 10
70.9226824603
 20
23.1267426164
 11
70.9092550609
 21
23.1264516007
  0
LINE
  5
59D
100
AcDbEntity
  8
0
100
AcDbLine
 62
7
  6
CONTINUOUS
 10
4.2261703074
 20
23.1261642105
 11
4.2107780272
 21
23.1258557396
  0
LINE
  5
59E
100
AcDbEntity
  8
0
100
AcDbLine
 62
7
  6
CONTINUOUS
 10
4.2460434884
 20
23.1264643278
 11
4.2261703074
 21
23.1261642105
  0
LINE
  5
59F
100
AcDbEntity
  8
DEFAULT_2
100
AcDbLine
 62
8
  6
CONTINUOUS
 10
37.8452923465
 20
18.0449846066
 11
37.8107550032
 21
18.0444870162
  0
LINE
  5
5A0
100
AcDbEntity
  8
DEFAULT_2
100
AcDbLine
 62
8
  6
CONTINUOUS
 10
37.77621766
 20
20.395876089
 11
37.8107550032
 21
20.3963736795
  0
LINE
  5
5A1
100
AcDbEntity
  8
0
100
AcDbLine
 62
9
  6
CONTINUOUS
 10
4.2530499243
 20
23.1265507025
 11
4.2566294432
 21
23.1265916426
  0
LINE
  5
5A2
100
AcDbEntity
  8
0
100
AcDbLine
 62
9
  6
CONTINUOUS
 10
37.7036360962
 20
15.1480985482
 11
39.4261717222
 21
15.1661500828
  0
LINE
  5
5A3
100
AcDbEntity
  8
0
100
AcDbLine
 62
7
  6
CONTINUOUS
 10
4.2792321375
 20
23.1268090741
 11
4.2460434884
 21
23.1264643278
  0
LINE
  5
5A4
100
AcDbEntity
  8
0
100
AcDbLine
 62
9
  6
CONTINUOUS
 10
4.2639460127
 20
23.1266693094
 11
4.2676846823
 21
23.1267061322
  0
LINE
  5
5A5
100
AcDbEntity
  8
0
100
AcDbLine
 62
9
  6
CONTINUOUS
 10
4.2753269938
 20
23.1267759758
 11
4.2792321375
 21
23.1268090741
  0
LINE
  5
5A6
100
AcDbEntity
  8
0
100
AcDbLine
 62
9
  6
CONTINUOUS
 10
4.6967006226
 20
23.1265378722
 11
4.715632987
 21
23.1266552814
  0
LINE
  5
5A7
100
AcDbEntity
  8
0
100
AcDbLine
 62
9
  6
CONTINUOUS
 10
4.6622266756
 20
23.1267365377
 11
4.6802362808
 21
23.1268443443
  0
LINE
  5
5A8
100
AcDbEntity
  8
0
100
AcDbLine
 62
7
  6
CONTINUOUS
 10
4.3450015987
 20
23.1271801107
 11
4.2792321375
 21
23.1268090741
  0
LINE
  5
5A9
100
AcDbEntity
  8
0
100
AcDbLine
 62
7
  6
CONTINUOUS
 10
71.1075643088
 20
23.1273384416
 11
70.8731951458
 21
23.1265306451
  0
LINE
  5
5AA
100
AcDbEntity
  8
0
100
AcDbLine
 62
9
  6
CONTINUOUS
 10
71.013850358
 20
23.1271417117
 11
70.9994177976
 21
23.1270938522
  0
LINE
  5
5AB
100
AcDbEntity
  8
0
100
AcDbLine
 62
9
  6
CONTINUOUS
 10
71.0688830116
 20
23.1272800469
 11
71.0555074644
 21
23.1272525586
  0
LINE
  5
5AC
100
AcDbEntity
  8
0
100
AcDbLine
 62
9
  6
CONTINUOUS
 10
4.3914848268
 20
23.1273053958
 11
4.3969979711
 21
23.1273151802
  0
LINE
  5
5AD
100
AcDbEntity
  8
0
100
AcDbLine
 62
7
  6
CONTINUOUS
 10
4.5019814347
 20
23.1273502081
 11
4.3450015987
 21
23.1271801107
  0
LINE
  5
5AE
100
AcDbEntity
  8
0
100
AcDbLine
 62
9
  6
CONTINUOUS
 10
4.419770059
 20
23.127346108
 11
4.4256452127
 21
23.1273517611
  0
LINE
  5
5AF
100
AcDbEntity
  8
0
100
AcDbLine
 62
7
  6
CONTINUOUS
 10
1.810677621
 20
20.0954303478
 11
73.8107599607
 21
20.0954303478
  0
LINE
  5
5B0
100
AcDbEntity
  8
0
100
AcDbLine
 62
9
  6
CONTINUOUS
 10
70.3516462249
 20
23.1263687111
 11
70.2022660917
 21
23.1263567081
  0
LINE
  5
5B1
100
AcDbEntity
  8
0
100
AcDbLine
 62
9
  6
CONTINUOUS
 10
15.5617041214
 20
23.126147531
 11
57.8068502355
 21
23.126378092
  0
LINE
  5
5B2
100
AcDbEntity
  8
0
100
AcDbLine
 62
7
  6
CONTINUOUS
 10
70.8731951458
 20
23.1265306451
 11
4.7899504713
 21
23.1264648483
  0
LINE
  5
5B3
100
AcDbEntity
  8
0
100
AcDbLine
 62
9
  6
CONTINUOUS
 10
4.9795147131
 20
23.1263386644
 11
5.2698638474
 21
23.1263687111
  0
LINE
  5
5B4
100
AcDbEntity
  8
0
100
AcDbLine
 62
9
  6
CONTINUOUS
 10
13.2845858336
 20
23.1263875155
 11
15.5617041214
 21
23.126147531
  0
LINE
  5
5B5
100
AcDbEntity
  8
0
100
AcDbLine
 62
9
  6
CONTINUOUS
 10
70.8633958699
 20
23.1262828647
 11
70.6419953182
 21
23.1263386644
  0
LINE
  5
5B6
100
AcDbEntity
  8
0
100
AcDbLine
 62
9
  6
CONTINUOUS
 10
4.8067660081
 20
23.1264670125
 11
4.9795147131
 21
23.1263386644
  0
LINE
  5
5B7
100
AcDbEntity
  8
0
100
AcDbLine
 62
7
  6
CONTINUOUS
 10
71.2727263352
 20
23.1271935815
 11
71.1075643088
 21
23.1273384416
  0
LINE
  5
5B8
100
AcDbEntity
  8
0
100
AcDbLine
 62
9
  6
CONTINUOUS
 10
71.2013304214
 20
23.1273465318
 11
71.1923705552
 21
23.1273546939
  0
LINE
  5
5B9
100
AcDbEntity
  8
0
100
AcDbLine
 62
9
  6
CONTINUOUS
 10
4.5019814347
 20
23.1273502081
 11
4.5088401791
 21
23.1273438271
  0
LINE
  5
5BA
100
AcDbEntity
  8
0
100
AcDbLine
 62
9
  6
CONTINUOUS
 10
36.8193979724
 20
15.0196676632
 11
38.6354135235
 21
15.0175989801
  0
LINE
  5
5BB
100
AcDbEntity
  8
0
100
AcDbLine
 62
9
  6
CONTINUOUS
 10
4.1796046853
 20
23.1248768319
 11
4.1816044776
 21
23.1248742876
  0
LINE
  5
5BC
100
AcDbEntity
  8
0
100
AcDbLine
 62
9
  6
CONTINUOUS
 10
4.5516558669
 20
23.1272818948
 11
4.559072282
 21
23.1272672771
  0
LINE
  5
5BD
100
AcDbEntity
  8
0
100
AcDbLine
 62
7
  6
CONTINUOUS
 10
4.7899504713
 20
23.1264648483
 11
4.715632987
 21
23.1266552814
  0
LINE
  5
5BE
100
AcDbEntity
  8
0
100
AcDbLine
 62
7
  6
CONTINUOUS
 10
4.6802362808
 20
23.1268443443
 11
4.5019814347
 21
23.1273502081
  0
LINE
  5
5BF
100
AcDbEntity
  8
0
100
AcDbLine
 62
9
  6
CONTINUOUS
 10
71.2727263352
 20
23.1271935815
 11
71.2655043984
 21
23.1272175178
  0
LINE
  5
5C0
100
AcDbEntity
  8
0
100
AcDbLine
 62
9
  6
CONTINUOUS
 10
71.2867295588
 20
23.1271402764
 11
71.2797987283
 21
23.1271678461
  0
LINE
  5
5C1
100
AcDbEntity
  8
0
100
AcDbLine
 62
7
  6
CONTINUOUS
 10
4.715632987
 20
23.1266552814
 11
4.6802362808
 21
23.1268443443
  0
LINE
  5
5C2
100
AcDbEntity
  8
0
100
AcDbLine
 62
7
  6
CONTINUOUS
 10
71.3375141723
 20
23.1268472703
 11
71.2727263352
 21
23.1271935815
  0
LINE
  5
5C3
100
AcDbEntity
  8
0
100
AcDbLine
 62
7
  6
CONTINUOUS
 10
71.3701327625
 20
23.1265308573
 11
71.3375141723
 21
23.1268472703
  0
LINE
  5
5C4
100
AcDbEntity
  8
0
100
AcDbLine
 62
9
  6
CONTINUOUS
 10
35.9935601636
 20
15.1709558446
 11
37.7036360962
 21
15.1480985482
  0
LINE
  5
5C5
100
AcDbEntity
  8
0
100
AcDbLine
 62
9
  6
CONTINUOUS
 10
71.3799788418
 20
23.1264038904
 11
71.375118535
 21
23.1264688256
  0
LINE
  5
5C6
100
AcDbEntity
  8
DEFAULT_2
100
AcDbLine
 62
8
  6
CONTINUOUS
 10
37.8107550032
 20
18.0444870162
 11
37.77621766
 21
18.0449846066
  0
LINE
  5
5C7
100
AcDbEntity
  8
DEFAULT_2
100
AcDbLine
 62
8
  6
CONTINUOUS
 10
37.8107550032
 20
20.3963736795
 11
37.8452923465
 21
20.395876089
  0
LINE
  5
5C8
100
AcDbEntity
  8
0
100
AcDbLine
 62
7
  6
CONTINUOUS
 10
71.3938211055
 20
23.1261905612
 11
71.3701327625
 21
23.1265308573
  0
LINE
  5
5C9
100
AcDbEntity
  8
0
100
AcDbLine
 62
7
  6
CONTINUOUS
 10
71.4100150706
 20
23.1258720065
 11
71.3938211055
 21
23.1261905612
  0
LINE
  5
5CA
100
AcDbEntity
  8
0
100
AcDbLine
 62
7
  6
CONTINUOUS
 10
71.4201238352
 20
23.1256216363
 11
71.4100150706
 21
23.1258720065
  0
LINE
  5
5CB
100
AcDbEntity
  8
0
100
AcDbLine
 62
9
  6
CONTINUOUS
 10
35.0110859532
 20
15.0663973908
 11
36.8193979724
 21
15.0196676632
  0
LINE
  5
5CC
100
AcDbEntity
  8
0
100
AcDbLine
 62
9
  6
CONTINUOUS
 10
4.2137792342
 20
23.1259224759
 11
4.2163916773
 21
23.1258469749
  0
LINE
  5
5CD
100
AcDbEntity
  8
0
100
AcDbLine
 62
7
  6
CONTINUOUS
 10
71.4291014206
 20
23.1253546887
 11
71.4201238352
 21
23.1256216363
  0
LINE
  5
5CE
100
AcDbEntity
  8
0
100
AcDbLine
 62
7
  6
CONTINUOUS
 10
71.4374358001
 20
23.1250588036
 11
71.4291014206
 21
23.1253546887
  0
LINE
  5
5CF
100
AcDbEntity
  8
DEFAULT_2
100
AcDbLine
 62
8
  6
CONTINUOUS
 10
4.5483857138
 20
22.7503413708
 11
4.5400155853
 21
22.7506424277
  0
LINE
  5
5D0
100
AcDbEntity
  8
0
100
AcDbLine
 62
9
  6
CONTINUOUS
 10
34.2851837951
 20
15.2340871814
 11
35.9935601636
 21
15.1709558446
  0
LINE
  5
5D1
100
AcDbEntity
  8
0
100
AcDbLine
 62
7
  6
CONTINUOUS
 10
71.442776582
 20
23.1248392113
 11
71.4374358001
 21
23.1250588036
  0
LINE
  5
5D2
100
AcDbEntity
  8
DEFAULT_2
100
AcDbLine
 62
8
  6
CONTINUOUS
 10
37.77621766
 20
18.0449846066
 11
37.741708963
 21
18.0464766014
  0
LINE
  5
5D3
100
AcDbEntity
  8
DEFAULT_2
100
AcDbLine
 62
8
  6
CONTINUOUS
 10
37.8452923465
 20
20.395876089
 11
37.8798010434
 21
20.3943840942
  0
LINE
  5
5D4
100
AcDbEntity
  8
0
100
AcDbLine
 62
7
  6
CONTINUOUS
 10
71.4480253095
 20
23.1245961688
 11
71.442776582
 21
23.1248392113
  0
LINE
  5
5D5
100
AcDbEntity
  8
DEFAULT_2
100
AcDbLine
 62
8
  6
CONTINUOUS
 10
5.4758462952
 20
22.6970196308
 11
4.548270599
 21
22.7433984156
  0
LINE
  5
5D6
100
AcDbEntity
  8
0
100
AcDbLine
 62
9
  6
CONTINUOUS
 10
33.1979002835
 20
15.1573855135
 11
35.0110859532
 21
15.0663973908
  0
LINE
  5
5D7
100
AcDbEntity
  8
0
100
AcDbLine
 62
7
  6
CONTINUOUS
 10
71.4532717883
 20
23.1243216591
 11
71.4480253095
 21
23.1245961688
  0
LINE
  5
5D8
100
AcDbEntity
  8
DEFAULT_2
100
AcDbLine
 62
8
  6
CONTINUOUS
 10
5.4931474213
 20
22.701716674
 11
5.4457564344
 21
22.704359032
  0
LINE
  5
5D9
100
AcDbEntity
  8
DEFAULT_2
100
AcDbLine
 62
8
  6
CONTINUOUS
 10
4.5400155853
 20
22.7506424277
 11
4.531652225
 21
22.7511354108
  0
LINE
  5
5DA
100
AcDbEntity
  8
0
100
AcDbLine
 62
7
  6
CONTINUOUS
 10
71.4584744794
 20
23.1240139248
 11
71.4532717883
 21
23.1243216591
  0
LINE
  5
5DB
100
AcDbEntity
  8
0
100
AcDbLine
 62
9
  6
CONTINUOUS
 10
32.567972072
 20
15.3373838058
 11
34.2851837951
 21
15.2340871814
  0
LINE
  5
5DC
100
AcDbEntity
  8
0
100
AcDbLine
 62
9
  6
CONTINUOUS
 10
4.2048847447
 20
23.1257136629
 11
4.2063163931
 21
23.1256261278
  0
LINE
  5
5DD
100
AcDbEntity
  8
0
100
AcDbLine
 62
7
  6
CONTINUOUS
 10
71.4611979432
 20
23.1238369445
 11
71.4584744794
 21
23.1240139248
  0
LINE
  5
5DE
100
AcDbEntity
  8
0
100
AcDbLine
 62
9
  6
CONTINUOUS
 10
71.4459429193
 20
23.1246246811
 11
71.442776582
 21
23.1248392113
  0
LINE
  5
5DF
100
AcDbEntity
  8
0
100
AcDbLine
 62
7
  6
CONTINUOUS
 10
71.4639455217
 20
23.1236455191
 11
71.4611979432
 21
23.1238369445
  0
LINE
  5
5E0
100
AcDbEntity
  8
DEFAULT_2
100
AcDbLine
 62
8
  6
CONTINUOUS
 10
37.741708963
 20
18.0464766014
 11
37.7072575587
 21
18.0489618356
  0
LINE
  5
5E1
100
AcDbEntity
  8
DEFAULT_2
100
AcDbLine
 62
8
  6
CONTINUOUS
 10
37.8798010434
 20
20.3943840942
 11
37.9142524477
 21
20.3918988601
  0
LINE
  5
5E2
100
AcDbEntity
  8
0
100
AcDbLine
 62
9
  6
CONTINUOUS
 10
71.4558725705
 20
23.124130048
 11
71.4532717883
 21
23.1243216591
  0
LINE
  5
5E3
100
AcDbEntity
  8
0
100
AcDbLine
 62
9
  6
CONTINUOUS
 10
31.3675101864
 20
15.2928581932
 11
33.1979002835
 21
15.1573855135
  0
LINE
  5
5E4
100
AcDbEntity
  8
0
100
AcDbLine
 62
7
  6
CONTINUOUS
 10
71.4666301286
 20
23.1234458213
 11
71.4639455217
 21
23.1236455191
  0
LINE
  5
5E5
100
AcDbEntity
  8
DEFAULT_2
100
AcDbLine
 62
8
  6
CONTINUOUS
 10
5.5404845383
 20
22.6981425754
 11
5.4931474213
 21
22.701716674
  0
LINE
  5
5E6
100
AcDbEntity
  8
0
100
AcDbLine
 62
7
  6
CONTINUOUS
 10
71.47134907
 20
23.1230656395
 11
71.4666301286
 21
23.1234458213
  0
LINE
  5
5E7
100
AcDbEntity
  8
0
100
AcDbLine
 62
9
  6
CONTINUOUS
 10
71.4601993835
 20
23.1238735757
 11
71.4584744794
 21
23.1240139248
  0
LINE
  5
5E8
100
AcDbEntity
  8
DEFAULT_2
100
AcDbLine
 62
8
  6
CONTINUOUS
 10
4.531652225
 20
22.7511354108
 11
4.52330069
 21
22.7518190709
  0
LINE
  5
5E9
100
AcDbEntity
  8
0
100
AcDbLine
 62
9
  6
CONTINUOUS
 10
30.8315461435
 20
15.4812357381
 11
32.567972072
 21
15.3373838058
  0
LINE
  5
5EA
100
AcDbEntity
  8
0
100
AcDbLine
 62
9
  6
CONTINUOUS
 10
71.4682883716
 20
23.1233085349
 11
71.4666301286
 21
23.1234458213
  0
LINE
  5
5EB
100
AcDbEntity
  8
0
100
AcDbLine
 62
9
  6
CONTINUOUS
 10
71.4921232074
 20
23.1212207766
 11
71.4916099849
 21
23.1212637596
  0
LINE
  5
5EC
100
AcDbEntity
  8
0
100
AcDbLine
 62
7
  6
CONTINUOUS
 10
71.4811706187
 20
23.1222153952
 11
71.47134907
 21
23.1230656395
  0
LINE
  5
5ED
100
AcDbEntity
  8
0
100
AcDbLine
 62
9
  6
CONTINUOUS
 10
4.1878838795
 20
23.1252005347
 11
4.1886883519
 21
23.1251285653
  0
LINE
  5
5EE
100
AcDbEntity
  8
0
100
AcDbLine
 62
7
  6
CONTINUOUS
 10
71.4921232074
 20
23.1212207766
 11
71.4811706187
 21
23.1222153952
  0
LINE
  5
5EF
100
AcDbEntity
  8
0
100
AcDbLine
 62
9
  6
CONTINUOUS
 10
71.4945302905
 20
23.1209945664
 11
71.4933439673
 21
23.121106398
  0
LINE
  5
5F0
100
AcDbEntity
  8
0
100
AcDbLine
 62
9
  6
CONTINUOUS
 10
71.511113895
 20
23.1193613721
 11
71.5103847243
 21
23.1194301627
  0
LINE
  5
5F1
100
AcDbEntity
  8
DEFAULT_2
100
AcDbLine
 62
8
  6
CONTINUOUS
 10
5.5877460967
 20
22.6936385633
 11
5.5404845383
 21
22.6981425754
  0
LINE
  5
5F2
100
AcDbEntity
  8
0
100
AcDbLine
 62
7
  6
CONTINUOUS
 10
71.5018920903
 20
23.1202858231
 11
71.4921232074
 21
23.1212207766
  0
LINE
  5
5F3
100
AcDbEntity
  8
0
100
AcDbLine
 62
9
  6
CONTINUOUS
 10
71.5028172171
 20
23.1201949784
 11
71.5000941916
 21
23.1204558958
  0
LINE
  5
5F4
100
AcDbEntity
  8
0
100
AcDbLine
 62
9
  6
CONTINUOUS
 10
29.5076819281
 20
15.4736356713
 11
31.3675101864
 21
15.2928581932
  0
LINE
  5
5F5
100
AcDbEntity
  8
0
100
AcDbLine
 62
7
  6
CONTINUOUS
 10
71.511113895
 20
23.1193613721
 11
71.5018920903
 21
23.1202858231
  0
LINE
  5
5F6
100
AcDbEntity
  8
DEFAULT_2
100
AcDbLine
 62
8
  6
CONTINUOUS
 10
37.7072575587
 20
18.0489618356
 11
37.6728970959
 21
18.0524381742
  0
LINE
  5
5F7
100
AcDbEntity
  8
DEFAULT_2
100
AcDbLine
 62
8
  6
CONTINUOUS
 10
37.9142524477
 20
20.3918988601
 11
37.9486129106
 21
20.3884225215
  0
LINE
  5
5F8
100
AcDbEntity
  8
0
100
AcDbLine
 62
7
  6
CONTINUOUS
 10
71.513800894
 20
23.1190834341
 11
71.511113895
 21
23.1193613721
  0
LINE
  5
5F9
100
AcDbEntity
  8
DEFAULT_2
100
AcDbLine
 62
8
  6
CONTINUOUS
 10
4.52330069
 20
22.7518190709
 11
4.5149660376
 21
22.7526921591
  0
LINE
  5
5FA
100
AcDbEntity
  8
0
100
AcDbLine
 62
9
  6
CONTINUOUS
 10
29.0655577072
 20
15.6665067486
 11
30.8315461435
 21
15.4812357381
  0
LINE
  5
5FB
100
AcDbEntity
  8
0
100
AcDbLine
 62
7
  6
CONTINUOUS
 10
71.5207502071
 20
23.1183359268
 11
71.513800894
 21
23.1190834341
  0
LINE
  5
5FC
100
AcDbEntity
  8
DEFAULT_2
100
AcDbLine
 62
8
  6
CONTINUOUS
 10
5.6349104083
 20
22.6882064651
 11
5.5877460967
 21
22.6936385633
  0
LINE
  5
5FD
100
AcDbEntity
  8
0
100
AcDbLine
 62
9
  6
CONTINUOUS
 10
27.6060708014
 20
15.7011083538
 11
29.5076819281
 21
15.4736356713
  0
LINE
  5
5FE
100
AcDbEntity
  8
0
100
AcDbLine
 62
9
  6
CONTINUOUS
 10
71.4642883495
 20
23.1236036882
 11
71.4639455217
 21
23.1236455191
  0
LINE
  5
5FF
100
AcDbEntity
  8
0
100
AcDbLine
 62
9
  6
CONTINUOUS
 10
27.2594518134
 20
15.8945286325
 11
29.0655577072
 21
15.6665067486
  0
LINE
  5
600
100
AcDbEntity
  8
DEFAULT_2
100
AcDbLine
 62
8
  6
CONTINUOUS
 10
4.5149660376
 20
22.7526921591
 11
4.5066533252
 21
22.7537534264
  0
LINE
  5
601
100
AcDbEntity
  8
DEFAULT_2
100
AcDbLine
 62
8
  6
CONTINUOUS
 10
37.6728970959
 20
18.0524381742
 11
37.638651017
 21
18.0569028053
  0
LINE
  5
602
100
AcDbEntity
  8
0
100
AcDbLine
 62
9
  6
CONTINUOUS
 10
4.1962800481
 20
23.1254756734
 11
4.1969867373
 21
23.1253834968
  0
LINE
  5
603
100
AcDbEntity
  8
DEFAULT_2
100
AcDbLine
 62
8
  6
CONTINUOUS
 10
37.9486129106
 20
20.3884225215
 11
37.9828589894
 21
20.3839578904
  0
LINE
  5
604
100
AcDbEntity
  8
DEFAULT_2
100
AcDbLine
 62
8
  6
CONTINUOUS
 10
5.6813160612
 20
22.6819412579
 11
5.6349104083
 21
22.6882064651
  0
LINE
  5
605
100
AcDbEntity
  8
0
100
AcDbLine
 62
7
  6
CONTINUOUS
 10
71.5997449514
 20
23.1074990498
 11
71.520750024
 21
23.1183359481
  0
LINE
  5
606
100
AcDbEntity
  8
0
100
AcDbLine
 62
9
  6
CONTINUOUS
 10
25.6496245256
 20
15.9772836426
 11
27.6060708014
 21
15.7011083538
  0
LINE
  5
607
100
AcDbEntity
  8
0
100
AcDbLine
 62
9
  6
CONTINUOUS
 10
25.4019691086
 20
16.1671545955
 11
27.2594518134
 21
15.8945286325
  0
LINE
  5
608
100
AcDbEntity
  8
0
100
AcDbLine
 62
9
  6
CONTINUOUS
 10
71.4328216545
 20
23.1251285653
 11
71.4319314476
 21
23.1252599846
  0
LINE
  5
609
100
AcDbEntity
  8
DEFAULT_2
100
AcDbLine
 62
8
  6
CONTINUOUS
 10
4.5066533252
 20
22.7537534264
 11
4.4983663352
 21
22.7550018068
  0
LINE
  5
60A
100
AcDbEntity
  8
DEFAULT_2
100
AcDbLine
 62
8
  6
CONTINUOUS
 10
5.7275896023
 20
22.6747781212
 11
5.6813160612
 21
22.6819412579
  0
LINE
  5
60B
100
AcDbEntity
  8
0
100
AcDbLine
 62
7
  6
CONTINUOUS
 10
71.523450794
 20
23.1181090545
 11
71.669864639
 21
23.095213638
  0
LINE
  5
60C
100
AcDbEntity
  8
0
100
AcDbLine
 62
9
  6
CONTINUOUS
 10
71.4511863678
 20
23.1243782153
 11
71.4506479484
 21
23.1244632251
  0
LINE
  5
60D
100
AcDbEntity
  8
0
100
AcDbLine
 62
9
  6
CONTINUOUS
 10
4.4025825987
 20
23.1273241465
 11
4.4034152484
 21
23.1271917396
  0
LINE
  5
60E
100
AcDbEntity
  8
DEFAULT_2
100
AcDbLine
 62
8
  6
CONTINUOUS
 10
37.638651017
 20
18.0569028053
 11
37.6045477922
 21
18.0623522377
  0
LINE
  5
60F
100
AcDbEntity
  8
DEFAULT_2
100
AcDbLine
 62
8
  6
CONTINUOUS
 10
37.9828589894
 20
20.3839578904
 11
38.0169622142
 21
20.3785084579
  0
LINE
  5
610
100
AcDbEntity
  8
0
100
AcDbLine
 62
9
  6
CONTINUOUS
 10
23.6237381495
 20
16.3049335073
 11
25.6496245256
 21
15.9772836426
  0
LINE
  5
611
100
AcDbEntity
  8
0
100
AcDbLine
 62
9
  6
CONTINUOUS
 10
23.4805999524
 20
16.4868673139
 11
25.4019691086
 21
16.1671545955
  0
LINE
  5
612
100
AcDbEntity
  8
0
100
AcDbLine
 62
9
  6
CONTINUOUS
 10
4.2831943491
 20
23.1268410049
 11
4.2839739396
 21
23.1267082065
  0
LINE
  5
613
100
AcDbEntity
  8
DEFAULT_2
100
AcDbLine
 62
8
  6
CONTINUOUS
 10
4.4983663352
 20
22.7550018068
 11
4.490110165
 21
22.7564359765
  0
LINE
  5
614
100
AcDbEntity
  8
DEFAULT_2
100
AcDbLine
 62
8
  6
CONTINUOUS
 10
5.7737146345
 20
22.6667203016
 11
5.7275896023
 21
22.6747781212
  0
LINE
  5
615
100
AcDbEntity
  8
0
100
AcDbLine
 62
9
  6
CONTINUOUS
 10
21.5125231293
 20
16.6876060363
 11
23.6237381495
 21
16.3049335073
  0
LINE
  5
616
100
AcDbEntity
  8
0
100
AcDbLine
 62
9
  6
CONTINUOUS
 10
21.4819185567
 20
16.8567595897
 11
23.4805999524
 21
16.4868673139
  0
LINE
  5
617
100
AcDbEntity
  8
DEFAULT_2
100
AcDbLine
 62
8
  6
CONTINUOUS
 10
37.6045477922
 20
18.0623522377
 11
37.5706256098
 21
18.0687805953
  0
LINE
  5
618
100
AcDbEntity
  8
DEFAULT_2
100
AcDbLine
 62
8
  6
CONTINUOUS
 10
38.0169622142
 20
20.3785084579
 11
38.0508843966
 21
20.3720801004
  0
LINE
  5
619
100
AcDbEntity
  8
DEFAULT_2
100
AcDbLine
 62
8
  6
CONTINUOUS
 10
5.8196747605
 20
22.657771046
 11
5.7737146345
 21
22.6667203016
  0
LINE
  5
61A
100
AcDbEntity
  8
DEFAULT_2
100
AcDbLine
 62
8
  6
CONTINUOUS
 10
4.490110165
 20
22.7564359765
 11
4.4818886302
 21
22.7580547467
  0
LINE
  5
61B
100
AcDbEntity
  8
0
100
AcDbLine
 62
9
  6
CONTINUOUS
 10
19.3008523946
 20
17.12920612
 11
21.5125231293
 21
16.6876060363
  0
LINE
  5
61C
100
AcDbEntity
  8
0
100
AcDbLine
 62
9
  6
CONTINUOUS
 10
19.3929958228
 20
17.2802297172
 11
21.4819185567
 21
16.8567595897
  0
LINE
  5
61D
100
AcDbEntity
  8
0
100
AcDbLine
 62
7
  6
CONTINUOUS
 10
71.7856728059
 20
23.0681692976
 11
71.5997449514
 21
23.1074990498
  0
LINE
  5
61E
100
AcDbEntity
  8
DEFAULT_2
100
AcDbLine
 62
8
  6
CONTINUOUS
 10
5.8642509006
 20
22.6482040362
 11
5.8196747605
 21
22.657771046
  0
LINE
  5
61F
100
AcDbEntity
  8
0
100
AcDbLine
 62
9
  6
CONTINUOUS
 10
4.271478088
 20
23.1267416745
 11
4.272098982
 21
23.1266077791
  0
LINE
  5
620
100
AcDbEntity
  8
0
100
AcDbLine
 62
9
  6
CONTINUOUS
 10
16.9745917095
 20
17.6337544459
 11
19.3008523946
 21
17.12920612
  0
LINE
  5
621
100
AcDbEntity
  8
0
100
AcDbLine
 62
9
  6
CONTINUOUS
 10
17.201884462
 20
17.7607348353
 11
19.3929958228
 21
17.2802297172
  0
LINE
  5
622
100
AcDbEntity
  8
DEFAULT_2
100
AcDbLine
 62
8
  6
CONTINUOUS
 10
37.5706256098
 20
18.0687805953
 11
37.5369027693
 21
18.0761838894
  0
LINE
  5
623
100
AcDbEntity
  8
DEFAULT_2
100
AcDbLine
 62
8
  6
CONTINUOUS
 10
38.0508843966
 20
20.3720801004
 11
38.0846072372
 21
20.3646768062
  0
LINE
  5
624
100
AcDbEntity
  8
DEFAULT_2
100
AcDbLine
 62
8
  6
CONTINUOUS
 10
4.4818886302
 20
22.7580547467
 11
4.4737055463
 21
22.7598569285
  0
LINE
  5
625
100
AcDbEntity
  8
0
100
AcDbLine
 62
9
  6
CONTINUOUS
 10
14.5166541457
 20
18.2061445354
 11
16.9745917095
 21
17.6337544459
  0
LINE
  5
626
100
AcDbEntity
  8
0
100
AcDbLine
 62
7
  6
CONTINUOUS
 10
71.523450794
 20
23.1181090545
 11
71.5244392716
 21
23.1178788639
  0
LINE
  5
627
100
AcDbEntity
  8
DEFAULT_2
100
AcDbLine
 62
8
  6
CONTINUOUS
 10
5.9086391803
 20
22.6377987954
 11
5.8642509006
 21
22.6482040362
  0
LINE
  5
628
100
AcDbEntity
  8
0
100
AcDbLine
 62
9
  6
CONTINUOUS
 10
14.8944148901
 20
18.3024031838
 11
17.201884462
 21
17.7607348353
  0
LINE
  5
629
100
AcDbEntity
  8
0
100
AcDbLine
 62
7
  6
CONTINUOUS
 10
71.669864639
 20
23.095213638
 11
71.8161091851
 21
23.0603402854
  0
LINE
  5
62A
100
AcDbEntity
  8
DEFAULT_2
100
AcDbLine
 62
8
  6
CONTINUOUS
 10
4.4737055463
 20
22.7598569285
 11
4.465564729
 21
22.7618413331
  0
LINE
  5
62B
100
AcDbEntity
  8
0
100
AcDbLine
 62
9
  6
CONTINUOUS
 10
11.9011894257
 20
18.8537328891
 11
14.5166541457
 21
18.2061445354
  0
LINE
  5
62C
100
AcDbEntity
  8
0
100
AcDbLine
 62
9
  6
CONTINUOUS
 10
12.4502595375
 20
18.9111187396
 11
14.8944148901
 21
18.3024031838
  0
LINE
  5
62D
100
AcDbEntity
  8
DEFAULT_2
100
AcDbLine
 62
8
  6
CONTINUOUS
 10
37.5369027693
 20
18.0761838894
 11
37.5034073872
 21
18.0845563136
  0
LINE
  5
62E
100
AcDbEntity
  8
DEFAULT_2
100
AcDbLine
 62
8
  6
CONTINUOUS
 10
38.0846072372
 20
20.3646768062
 11
38.1181026193
 21
20.3563043821
  0
LINE
  5
62F
100
AcDbEntity
  8
DEFAULT_2
100
AcDbLine
 62
8
  6
CONTINUOUS
 10
5.9528236234
 20
22.6265591392
 11
5.9086391803
 21
22.6377987954
  0
LINE
  5
630
100
AcDbEntity
  8
0
100
AcDbLine
 62
9
  6
CONTINUOUS
 10
9.0897039516
 20
19.5878134608
 11
11.9011894257
 21
18.8537328891
  0
LINE
  5
631
100
AcDbEntity
  8
0
100
AcDbLine
 62
9
  6
CONTINUOUS
 10
9.8390390878
 20
19.5958597261
 11
12.4502595375
 21
18.9111187396
  0
LINE
  5
632
100
AcDbEntity
  8
DEFAULT_2
100
AcDbLine
 62
8
  6
CONTINUOUS
 10
4.465564729
 20
22.7618413331
 11
4.4574702794
 21
22.7640067013
  0
LINE
  5
633
100
AcDbEntity
  8
0
100
AcDbLine
 62
9
  6
CONTINUOUS
 10
7.2329609102
 20
20.0954303478
 11
9.0897039516
 21
19.5878134608
  0
LINE
  5
634
100
AcDbEntity
  8
0
100
AcDbLine
 62
9
  6
CONTINUOUS
 10
8.0178947183
 20
20.0954303478
 11
9.8390390878
 21
19.5958597261
  0
LINE
  5
635
100
AcDbEntity
  8
DEFAULT_2
100
AcDbLine
 62
8
  6
CONTINUOUS
 10
5.9967882537
 20
22.6144888828
 11
5.9528236234
 21
22.6265591392
  0
LINE
  5
636
100
AcDbEntity
  8
DEFAULT_2
100
AcDbLine
 62
8
  6
CONTINUOUS
 10
37.5034073872
 20
18.0845563136
 11
37.4701814831
 21
18.0938875298
  0
LINE
  5
637
100
AcDbEntity
  8
DEFAULT_2
100
AcDbLine
 62
8
  6
CONTINUOUS
 10
38.1181026193
 20
20.3563043821
 11
38.1513285234
 21
20.3469731658
  0
LINE
  5
638
100
AcDbEntity
  8
DEFAULT_2
100
AcDbLine
 62
8
  6
CONTINUOUS
 10
4.4574702794
 20
22.7640067013
 11
4.4494259329
 21
22.7663519029
  0
LINE
  5
639
100
AcDbEntity
  8
DEFAULT_2
100
AcDbLine
 62
8
  6
CONTINUOUS
 10
6.0528178034
 20
22.5978019772
 11
5.9967882537
 21
22.6144888828
  0
LINE
  5
63A
100
AcDbEntity
  8
DEFAULT_2
100
AcDbLine
 62
8
  6
CONTINUOUS
 10
37.4701814831
 20
18.0938875298
 11
37.4372385207
 21
18.104173152
  0
LINE
  5
63B
100
AcDbEntity
  8
DEFAULT_2
100
AcDbLine
 62
8
  6
CONTINUOUS
 10
38.1513285234
 20
20.3469731658
 11
38.1842714857
 21
20.3366875437
  0
LINE
  5
63C
100
AcDbEntity
  8
DEFAULT_2
100
AcDbLine
 62
8
  6
CONTINUOUS
 10
4.4494259329
 20
22.7663519029
 11
4.4414357134
 21
22.7688757486
  0
LINE
  5
63D
100
AcDbEntity
  8
0
100
AcDbLine
 62
7
  6
CONTINUOUS
 10
71.967559883
 20
23.0103243347
 11
71.7856728059
 21
23.0681692976
  0
LINE
  5
63E
100
AcDbEntity
  8
0
100
AcDbLine
 62
7
  6
CONTINUOUS
 10
71.8161091851
 20
23.0603402854
 11
71.9625059059
 21
23.0130282865
  0
LINE
  5
63F
100
AcDbEntity
  8
DEFAULT_2
100
AcDbLine
 62
8
  6
CONTINUOUS
 10
6.108427041
 20
22.5797655453
 11
6.0528178034
 21
22.5978019772
  0
LINE
  5
640
100
AcDbEntity
  8
DEFAULT_2
100
AcDbLine
 62
8
  6
CONTINUOUS
 10
4.4414357134
 20
22.7688757486
 11
4.4335036446
 21
22.7715770493
  0
LINE
  5
641
100
AcDbEntity
  8
DEFAULT_2
100
AcDbLine
 62
8
  6
CONTINUOUS
 10
37.4372385207
 20
18.104173152
 11
37.404606083
 21
18.1154050766
  0
LINE
  5
642
100
AcDbEntity
  8
DEFAULT_2
100
AcDbLine
 62
8
  6
CONTINUOUS
 10
38.1842714857
 20
20.3366875437
 11
38.2169039234
 21
20.325455619
  0
LINE
  5
643
100
AcDbEntity
  8
0
100
AcDbLine
 62
9
  6
CONTINUOUS
 10
58.4356152005
 20
0.0350211596
 11
58.4557829511
 21
0.0280341767
  0
LINE
  5
644
100
AcDbEntity
  8
DEFAULT_2
100
AcDbLine
 62
8
  6
CONTINUOUS
 10
6.1635833711
 20
22.5603895741
 11
6.108427041
 21
22.5797655453
  0
LINE
  5
645
100
AcDbEntity
  8
DEFAULT_2
100
AcDbLine
 62
8
  6
CONTINUOUS
 10
4.4335036446
 20
22.7715770493
 11
4.4256337502
 21
22.7744546157
  0
LINE
  5
646
100
AcDbEntity
  8
DEFAULT_2
100
AcDbLine
 62
8
  6
CONTINUOUS
 10
37.404606083
 20
18.1154050766
 11
37.3723291007
 21
18.1275679504
  0
LINE
  5
647
100
AcDbEntity
  8
DEFAULT_2
100
AcDbLine
 62
8
  6
CONTINUOUS
 10
38.2169039234
 20
20.325455619
 11
38.2491809057
 21
20.3132927453
  0
LINE
  5
648
100
AcDbEntity
  8
DEFAULT_2
100
AcDbLine
 62
8
  6
CONTINUOUS
 10
6.2156340426
 20
22.5407113808
 11
6.1635833711
 21
22.5603895741
  0
LINE
  5
649
100
AcDbEntity
  8
0
100
AcDbLine
 62
7
  6
CONTINUOUS
 10
58.4491206114
 20
0.029840918
 11
58.428654039
 21
0.0376912374
  0
LINE
  5
64A
100
AcDbEntity
  8
DEFAULT_2
100
AcDbLine
 62
8
  6
CONTINUOUS
 10
4.4256337502
 20
22.7744546157
 11
4.4178327241
 21
22.7775062277
  0
LINE
  5
64B
100
AcDbEntity
  8
DEFAULT_2
100
AcDbLine
 62
8
  6
CONTINUOUS
 10
6.2672169928
 20
22.5198387957
 11
6.2156340426
 21
22.5407113808
  0
LINE
  5
64C
100
AcDbEntity
  8
DEFAULT_2
100
AcDbLine
 62
8
  6
CONTINUOUS
 10
37.3723291007
 20
18.1275679504
 11
37.3404167237
 21
18.1406576317
  0
LINE
  5
64D
100
AcDbEntity
  8
DEFAULT_2
100
AcDbLine
 62
8
  6
CONTINUOUS
 10
38.2491809057
 20
20.3132927453
 11
38.2810932827
 21
20.3002030639
  0
LINE
  5
64E
100
AcDbEntity
  8
0
100
AcDbLine
 62
7
  6
CONTINUOUS
 10
71.9625059059
 20
23.0130282865
 11
72.1088739747
 21
22.9528053074
  0
LINE
  5
64F
100
AcDbEntity
  8
DEFAULT_2
100
AcDbLine
 62
8
  6
CONTINUOUS
 10
4.4178327241
 20
22.7775062277
 11
4.4101020564
 21
22.7807318239
  0
LINE
  5
650
100
AcDbEntity
  8
0
100
AcDbLine
 62
7
  6
CONTINUOUS
 10
72.1440492042
 20
22.9349599085
 11
71.967559883
 21
23.0103243347
  0
LINE
  5
651
100
AcDbEntity
  8
DEFAULT_2
100
AcDbLine
 62
8
  6
CONTINUOUS
 10
35.7995500705
 20
2.4549706373
 11
35.8051633002
 21
2.4525528582
  0
LINE
  5
652
100
AcDbEntity
  8
DEFAULT_2
100
AcDbLine
 62
8
  6
CONTINUOUS
 10
6.3183043852
 20
22.4977820534
 11
6.2672169928
 21
22.5198387957
  0
LINE
  5
653
100
AcDbEntity
  8
DEFAULT_2
100
AcDbLine
 62
8
  6
CONTINUOUS
 10
35.7526033459
 20
2.339109377
 11
35.75479929
 21
2.3381455443
  0
LINE
  5
654
100
AcDbEntity
  8
DEFAULT_2
100
AcDbLine
 62
8
  6
CONTINUOUS
 10
4.4101020564
 20
22.7807318239
 11
4.402445952
 21
22.7841304306
  0
LINE
  5
655
100
AcDbEntity
  8
DEFAULT_2
100
AcDbLine
 62
8
  6
CONTINUOUS
 10
37.3404167237
 20
18.1406576317
 11
37.3088958174
 21
18.1546637493
  0
LINE
  5
656
100
AcDbEntity
  8
DEFAULT_2
100
AcDbLine
 62
8
  6
CONTINUOUS
 10
38.2810932827
 20
20.3002030639
 11
38.312614189
 21
20.2861969464
  0
LINE
  5
657
100
AcDbEntity
  8
DEFAULT_2
100
AcDbLine
 62
8
  6
CONTINUOUS
 10
35.8051633002
 20
2.4525528582
 11
35.808950435
 21
2.4508285003
  0
LINE
  5
658
100
AcDbEntity
  8
DEFAULT_2
100
AcDbLine
 62
8
  6
CONTINUOUS
 10
6.3660513964
 20
22.4758832903
 11
6.3183043852
 21
22.4977820534
  0
LINE
  5
659
100
AcDbEntity
  8
DEFAULT_2
100
AcDbLine
 62
8
  6
CONTINUOUS
 10
35.75479929
 20
2.3381455443
 11
35.7569763379
 21
2.3371397234
  0
LINE
  5
65A
100
AcDbEntity
  8
DEFAULT_2
100
AcDbLine
 62
8
  6
CONTINUOUS
 10
4.402445952
 20
22.7841304306
 11
4.3948686161
 21
22.7877010743
  0
LINE
  5
65B
100
AcDbEntity
  8
DEFAULT_2
100
AcDbLine
 62
8
  6
CONTINUOUS
 10
35.808950435
 20
2.4508285003
 11
35.8127083403
 21
2.4490413243
  0
LINE
  5
65C
100
AcDbEntity
  8
DEFAULT_2
100
AcDbLine
 62
8
  6
CONTINUOUS
 10
37.3088958174
 20
18.1546637493
 11
37.2778131382
 21
18.1695655925
  0
LINE
  5
65D
100
AcDbEntity
  8
DEFAULT_2
100
AcDbLine
 62
8
  6
CONTINUOUS
 10
38.312614189
 20
20.2861969464
 11
38.3436968683
 21
20.2712951031
  0
LINE
  5
65E
100
AcDbEntity
  8
DEFAULT_2
100
AcDbLine
 62
8
  6
CONTINUOUS
 10
6.4133090205
 20
22.4529483857
 11
6.3660513964
 21
22.4758832903
  0
LINE
  5
65F
100
AcDbEntity
  8
DEFAULT_2
100
AcDbLine
 62
8
  6
CONTINUOUS
 10
35.7569763379
 20
2.3371397234
 11
35.7592515281
 21
2.3360335754
  0
LINE
  5
660
100
AcDbEntity
  8
DEFAULT_2
100
AcDbLine
 62
8
  6
CONTINUOUS
 10
35.8127083403
 20
2.4490413243
 11
35.8164359748
 21
2.4471918274
  0
LINE
  5
661
100
AcDbEntity
  8
DEFAULT_2
100
AcDbLine
 62
8
  6
CONTINUOUS
 10
4.3948686161
 20
22.7877010743
 11
4.3873742536
 21
22.7914427816
  0
LINE
  5
662
100
AcDbEntity
  8
0
100
AcDbLine
 62
7
  6
CONTINUOUS
 10
72.1088739747
 20
22.9528053074
 11
72.2547639991
 21
22.8791798279
  0
LINE
  5
663
100
AcDbEntity
  8
0
100
AcDbLine
 62
9
  6
CONTINUOUS
 10
4.2602611958
 20
23.1266311618
 11
4.2605309509
 21
23.1264941922
  0
LINE
  5
664
100
AcDbEntity
  8
DEFAULT_2
100
AcDbLine
 62
8
  6
CONTINUOUS
 10
35.7592515281
 20
2.3360335754
 11
35.7615038687
 21
2.3348815742
  0
LINE
  5
665
100
AcDbEntity
  8
DEFAULT_2
100
AcDbLine
 62
8
  6
CONTINUOUS
 10
6.4600542903
 20
22.4289873322
 11
6.4133090205
 21
22.4529483857
  0
LINE
  5
666
100
AcDbEntity
  8
DEFAULT_2
100
AcDbLine
 62
8
  6
CONTINUOUS
 10
37.2778131382
 20
18.1695655925
 11
37.2471742133
 21
18.1853597257
  0
LINE
  5
667
100
AcDbEntity
  8
DEFAULT_2
100
AcDbLine
 62
8
  6
CONTINUOUS
 10
38.3436968683
 20
20.2712951031
 11
38.3743357932
 21
20.2555009699
  0
LINE
  5
668
100
AcDbEntity
  8
DEFAULT_2
100
AcDbLine
 62
8
  6
CONTINUOUS
 10
35.8164359748
 20
2.4471918274
 11
35.8202077959
 21
2.4452406618
  0
LINE
  5
669
100
AcDbEntity
  8
0
100
AcDbLine
 62
7
  6
CONTINUOUS
 10
58.428654039
 20
0.0376912374
 11
58.4093653413
 21
0.047803315
  0
LINE
  5
66A
100
AcDbEntity
  8
DEFAULT_2
100
AcDbLine
 62
8
  6
CONTINUOUS
 10
4.3873742536
 20
22.7914427816
 11
4.3799692661
 21
22.795353166
  0
LINE
  5
66B
100
AcDbEntity
  8
DEFAULT_2
100
AcDbLine
 62
8
  6
CONTINUOUS
 10
35.7615038687
 20
2.3348815742
 11
35.7637324436
 21
2.3336842001
  0
LINE
  5
66C
100
AcDbEntity
  8
DEFAULT_2
100
AcDbLine
 62
8
  6
CONTINUOUS
 10
35.8202077959
 20
2.4452406618
 11
35.8239459284
 21
2.4432256926
  0
LINE
  5
66D
100
AcDbEntity
  8
DEFAULT_2
100
AcDbLine
 62
8
  6
CONTINUOUS
 10
6.5034663791
 20
22.4055600194
 11
6.4600542903
 21
22.4289873322
  0
LINE
  5
66E
100
AcDbEntity
  8
0
100
AcDbLine
 62
7
  6
CONTINUOUS
 10
72.3134534045
 20
22.8435221709
 11
72.1440492042
 21
22.9349599085
  0
LINE
  5
66F
100
AcDbEntity
  8
DEFAULT_2
100
AcDbLine
 62
8
  6
CONTINUOUS
 10
37.2471742133
 20
18.1853597257
 11
37.2170050032
 21
18.2020335492
  0
LINE
  5
670
100
AcDbEntity
  8
DEFAULT_2
100
AcDbLine
 62
8
  6
CONTINUOUS
 10
38.3743357932
 20
20.2555009699
 11
38.4045050032
 21
20.2388271464
  0
LINE
  5
671
100
AcDbEntity
  8
DEFAULT_2
100
AcDbLine
 62
8
  6
CONTINUOUS
 10
4.3799692661
 20
22.795353166
 11
4.3726552862
 21
22.7994314136
  0
LINE
  5
672
100
AcDbEntity
  8
DEFAULT_2
100
AcDbLine
 62
8
  6
CONTINUOUS
 10
35.8239459284
 20
2.4432256926
 11
35.8276492933
 21
2.4411475025
  0
LINE
  5
673
100
AcDbEntity
  8
DEFAULT_2
100
AcDbLine
 62
8
  6
CONTINUOUS
 10
35.7637324436
 20
2.3336842001
 11
35.7659363371
 21
2.3324419333
  0
LINE
  5
674
100
AcDbEntity
  8
DEFAULT_2
100
AcDbLine
 62
8
  6
CONTINUOUS
 10
6.5463877622
 20
22.3812460079
 11
6.5034663791
 21
22.4055600194
  0
LINE
  5
675
100
AcDbEntity
  8
DEFAULT_2
100
AcDbLine
 62
8
  6
CONTINUOUS
 10
35.8276492933
 20
2.4411475025
 11
35.831380237
 21
2.4389689249
  0
LINE
  5
676
100
AcDbEntity
  8
DEFAULT_2
100
AcDbLine
 62
8
  6
CONTINUOUS
 10
4.3726552862
 20
22.7994314136
 11
4.3654361961
 21
22.8036754016
  0
LINE
  5
677
100
AcDbEntity
  8
DEFAULT_2
100
AcDbLine
 62
8
  6
CONTINUOUS
 10
37.2170050032
 20
18.2020335492
 11
37.1873528962
 21
18.2195609014
  0
LINE
  5
678
100
AcDbEntity
  8
DEFAULT_2
100
AcDbLine
 62
8
  6
CONTINUOUS
 10
38.4045050032
 20
20.2388271464
 11
38.4341571102
 21
20.2212997943
  0
LINE
  5
679
100
AcDbEntity
  8
DEFAULT_2
100
AcDbLine
 62
8
  6
CONTINUOUS
 10
35.7659363371
 20
2.3324419333
 11
35.7682088674
 21
2.3310982583
  0
LINE
  5
67A
100
AcDbEntity
  8
DEFAULT_2
100
AcDbLine
 62
8
  6
CONTINUOUS
 10
6.5887998501
 20
22.3560547779
 11
6.5463877622
 21
22.3812460079
  0
LINE
  5
67B
100
AcDbEntity
  8
0
100
AcDbLine
 62
9
  6
CONTINUOUS
 10
58.5059213085
 20
0.0216595428
 11
58.5016258349
 21
0.0242377926
  0
LINE
  5
67C
100
AcDbEntity
  8
0
100
AcDbLine
 62
7
  6
CONTINUOUS
 10
72.2547639991
 20
22.8791798279
 11
72.4001361585
 21
22.7913417653
  0
LINE
  5
67D
100
AcDbEntity
  8
DEFAULT_2
100
AcDbLine
 62
8
  6
CONTINUOUS
 10
35.831380237
 20
2.4389689249
 11
35.8350729732
 21
2.4367261847
  0
LINE
  5
67E
100
AcDbEntity
  8
DEFAULT_2
100
AcDbLine
 62
8
  6
CONTINUOUS
 10
4.3654361961
 20
22.8036754016
 11
4.3583158783
 21
22.808083007
  0
LINE
  5
67F
100
AcDbEntity
  8
DEFAULT_2
100
AcDbLine
 62
8
  6
CONTINUOUS
 10
35.7682088674
 20
2.3310982583
 11
35.7704525152
 21
2.3297068649
  0
LINE
  5
680
100
AcDbEntity
  8
DEFAULT_2
100
AcDbLine
 62
8
  6
CONTINUOUS
 10
6.6280001788
 20
22.331701954
 11
6.5887998501
 21
22.3560547779
  0
LINE
  5
681
100
AcDbEntity
  8
DEFAULT_2
100
AcDbLine
 62
8
  6
CONTINUOUS
 10
37.1873528962
 20
18.2195609014
 11
37.1582206019
 21
18.2379392975
  0
LINE
  5
682
100
AcDbEntity
  8
DEFAULT_2
100
AcDbLine
 62
8
  6
CONTINUOUS
 10
38.4341571102
 20
20.2212997943
 11
38.4632894045
 21
20.2029213982
  0
LINE
  5
683
100
AcDbEntity
  8
DEFAULT_2
100
AcDbLine
 62
8
  6
CONTINUOUS
 10
35.8350729732
 20
2.4367261847
 11
35.8387263975
 21
2.4344199538
  0
LINE
  5
684
100
AcDbEntity
  8
DEFAULT_2
100
AcDbLine
 62
8
  6
CONTINUOUS
 10
6.666723716
 20
22.306598437
 11
6.6280001788
 21
22.331701954
  0
LINE
  5
685
100
AcDbEntity
  8
DEFAULT_2
100
AcDbLine
 62
8
  6
CONTINUOUS
 10
35.7704525152
 20
2.3297068649
 11
35.7726662724
 21
2.328268398
  0
LINE
  5
686
100
AcDbEntity
  8
DEFAULT_2
100
AcDbLine
 62
8
  6
CONTINUOUS
 10
4.3583158783
 20
22.808083007
 11
4.351298215
 21
22.8126521069
  0
LINE
  5
687
100
AcDbEntity
  8
DEFAULT_2
100
AcDbLine
 62
8
  6
CONTINUOUS
 10
35.8387263975
 20
2.4344199538
 11
35.8423917537
 21
2.432015933
  0
LINE
  5
688
100
AcDbEntity
  8
0
100
AcDbLine
 62
7
  6
CONTINUOUS
 10
72.4755425242
 20
22.7369844688
 11
72.3134534045
 21
22.8435221709
  0
LINE
  5
689
100
AcDbEntity
  8
DEFAULT_2
100
AcDbLine
 62
8
  6
CONTINUOUS
 10
37.1582206019
 20
18.2379392975
 11
37.1296329851
 21
18.2571539638
  0
LINE
  5
68A
100
AcDbEntity
  8
DEFAULT_2
100
AcDbLine
 62
8
  6
CONTINUOUS
 10
38.4632894045
 20
20.2029213982
 11
38.4918770214
 21
20.1837067319
  0
LINE
  5
68B
100
AcDbEntity
  8
DEFAULT_2
100
AcDbLine
 62
8
  6
CONTINUOUS
 10
6.7049556846
 20
22.2807529945
 11
6.666723716
 21
22.306598437
  0
LINE
  5
68C
100
AcDbEntity
  8
DEFAULT_2
100
AcDbLine
 62
8
  6
CONTINUOUS
 10
35.7726662724
 20
2.328268398
 11
35.7748491311
 21
2.3267835026
  0
LINE
  5
68D
100
AcDbEntity
  8
DEFAULT_2
100
AcDbLine
 62
8
  6
CONTINUOUS
 10
35.8423917537
 20
2.432015933
 11
35.8460143968
 21
2.4295480055
  0
LINE
  5
68E
100
AcDbEntity
  8
DEFAULT_2
100
AcDbLine
 62
8
  6
CONTINUOUS
 10
4.351298215
 20
22.8126521069
 11
4.3443853352
 21
22.8173814944
  0
LINE
  5
68F
100
AcDbEntity
  8
DEFAULT_2
100
AcDbLine
 62
8
  6
CONTINUOUS
 10
6.7401397646
 20
22.2559996156
 11
6.7049556846
 21
22.2807529945
  0
LINE
  5
690
100
AcDbEntity
  8
DEFAULT_2
100
AcDbLine
 62
8
  6
CONTINUOUS
 10
35.8460143968
 20
2.4295480055
 11
35.8495932162
 21
2.4270169276
  0
LINE
  5
691
100
AcDbEntity
  8
0
100
AcDbLine
 62
7
  6
CONTINUOUS
 10
72.4001361585
 20
22.7913417653
 11
72.544485379
 21
22.6886063799
  0
LINE
  5
692
100
AcDbEntity
  8
DEFAULT_2
100
AcDbLine
 62
8
  6
CONTINUOUS
 10
35.7748491311
 20
2.3267835026
 11
35.7770757591
 21
2.3251977322
  0
LINE
  5
693
100
AcDbEntity
  8
DEFAULT_2
100
AcDbLine
 62
8
  6
CONTINUOUS
 10
37.1296329851
 20
18.2571539638
 11
37.1016368285
 21
18.2771734585
  0
LINE
  5
694
100
AcDbEntity
  8
DEFAULT_2
100
AcDbLine
 62
8
  6
CONTINUOUS
 10
38.4918770214
 20
20.1837067319
 11
38.5198731779
 21
20.1636872372
  0
LINE
  5
695
100
AcDbEntity
  8
DEFAULT_2
100
AcDbLine
 62
8
  6
CONTINUOUS
 10
4.3443853352
 20
22.8173814944
 11
4.3375819072
 21
22.8222670365
  0
LINE
  5
696
100
AcDbEntity
  8
DEFAULT_2
100
AcDbLine
 62
8
  6
CONTINUOUS
 10
6.7748722928
 20
22.2306169301
 11
6.7401397646
 21
22.2559996156
  0
LINE
  5
697
100
AcDbEntity
  8
DEFAULT_2
100
AcDbLine
 62
8
  6
CONTINUOUS
 10
35.8495932162
 20
2.4270169276
 11
35.8531689054
 21
2.424392217
  0
LINE
  5
698
100
AcDbEntity
  8
DEFAULT_2
100
AcDbLine
 62
8
  6
CONTINUOUS
 10
35.7770757591
 20
2.3251977322
 11
35.7792671856
 21
2.3235636198
  0
LINE
  5
699
100
AcDbEntity
  8
DEFAULT_2
100
AcDbLine
 62
8
  6
CONTINUOUS
 10
4.3375819072
 20
22.8222670365
 11
4.3308907968
 21
22.8273054425
  0
LINE
  5
69A
100
AcDbEntity
  8
DEFAULT_2
100
AcDbLine
 62
8
  6
CONTINUOUS
 10
6.8091417274
 20
22.2046127393
 11
6.7748722928
 21
22.2306169301
  0
LINE
  5
69B
100
AcDbEntity
  8
DEFAULT_2
100
AcDbLine
 62
8
  6
CONTINUOUS
 10
37.1016368285
 20
18.2771734585
 11
37.0742328807
 21
18.297996261
  0
LINE
  5
69C
100
AcDbEntity
  8
DEFAULT_2
100
AcDbLine
 62
8
  6
CONTINUOUS
 10
38.5198731779
 20
20.1636872372
 11
38.5472771258
 21
20.1428644347
  0
LINE
  5
69D
100
AcDbEntity
  8
DEFAULT_2
100
AcDbLine
 62
8
  6
CONTINUOUS
 10
35.8531689054
 20
2.424392217
 11
35.8566974592
 21
2.4217044777
  0
LINE
  5
69E
100
AcDbEntity
  8
DEFAULT_2
100
AcDbLine
 62
8
  6
CONTINUOUS
 10
35.7792671856
 20
2.3235636198
 11
35.7814224182
 21
2.3218819104
  0
LINE
  5
69F
100
AcDbEntity
  8
0
100
AcDbLine
 62
7
  6
CONTINUOUS
 10
72.628967208
 20
22.6171750741
 11
72.4755425242
 21
22.7369844688
  0
LINE
  5
6A0
100
AcDbEntity
  8
DEFAULT_2
100
AcDbLine
 62
8
  6
CONTINUOUS
 10
6.8406437372
 20
22.1798323093
 11
6.8091417274
 21
22.2046127393
  0
LINE
  5
6A1
100
AcDbEntity
  8
DEFAULT_2
100
AcDbLine
 62
8
  6
CONTINUOUS
 10
4.3308907968
 20
22.8273054425
 11
4.3243148697
 21
22.8324934217
  0
LINE
  5
6A2
100
AcDbEntity
  8
DEFAULT_2
100
AcDbLine
 62
8
  6
CONTINUOUS
 10
35.8566974592
 20
2.4217044777
 11
35.8601777531
 21
2.4189545701
  0
LINE
  5
6A3
100
AcDbEntity
  8
DEFAULT_2
100
AcDbLine
 62
8
  6
CONTINUOUS
 10
37.0742328807
 20
18.297996261
 11
37.0474447167
 21
18.3196054932
  0
LINE
  5
6A4
100
AcDbEntity
  8
DEFAULT_2
100
AcDbLine
 62
8
  6
CONTINUOUS
 10
38.5472771258
 20
20.1428644347
 11
38.5740652897
 21
20.1212552024
  0
LINE
  5
6A5
100
AcDbEntity
  8
DEFAULT_2
100
AcDbLine
 62
8
  6
CONTINUOUS
 10
6.8717246478
 20
22.1545261052
 11
6.8406437372
 21
22.1798323093
  0
LINE
  5
6A6
100
AcDbEntity
  8
DEFAULT_2
100
AcDbLine
 62
8
  6
CONTINUOUS
 10
35.7814224182
 20
2.3218819104
 11
35.7835404643
 21
2.3201533496
  0
LINE
  5
6A7
100
AcDbEntity
  8
DEFAULT_2
100
AcDbLine
 62
8
  6
CONTINUOUS
 10
35.8601777531
 20
2.4189545701
 11
35.8636404723
 21
2.4161168248
  0
LINE
  5
6A8
100
AcDbEntity
  8
DEFAULT_2
100
AcDbLine
 62
8
  6
CONTINUOUS
 10
4.3243148697
 20
22.8324934217
 11
4.3178569915
 21
22.8378276835
  0
LINE
  5
6A9
100
AcDbEntity
  8
0
100
AcDbLine
 62
7
  6
CONTINUOUS
 10
72.544485379
 20
22.6886063799
 11
72.6869445974
 21
22.5704239414
  0
LINE
  5
6AA
100
AcDbEntity
  8
DEFAULT_2
100
AcDbLine
 62
8
  6
CONTINUOUS
 10
6.9023753749
 20
22.1287010883
 11
6.8717246478
 21
22.1545261052
  0
LINE
  5
6AB
100
AcDbEntity
  8
DEFAULT_2
100
AcDbLine
 62
8
  6
CONTINUOUS
 10
35.8636404723
 20
2.4161168248
 11
35.8670518367
 21
2.4132175015
  0
LINE
  5
6AC
100
AcDbEntity
  8
DEFAULT_2
100
AcDbLine
 62
8
  6
CONTINUOUS
 10
35.7835404643
 20
2.3201533496
 11
35.7856785576
 21
2.3183278888
  0
LINE
  5
6AD
100
AcDbEntity
  8
DEFAULT_2
100
AcDbLine
 62
8
  6
CONTINUOUS
 10
37.0474447167
 20
18.3196054932
 11
37.0213173023
 21
18.3419648722
  0
LINE
  5
6AE
100
AcDbEntity
  8
DEFAULT_2
100
AcDbLine
 62
8
  6
CONTINUOUS
 10
38.5740652897
 20
20.1212552024
 11
38.6001927041
 21
20.0988958235
  0
LINE
  5
6AF
100
AcDbEntity
  8
DEFAULT_2
100
AcDbLine
 62
8
  6
CONTINUOUS
 10
4.3178569915
 20
22.8378276835
 11
4.3115178607
 21
22.8433069184
  0
LINE
  5
6B0
100
AcDbEntity
  8
DEFAULT_2
100
AcDbLine
 62
8
  6
CONTINUOUS
 10
6.9444765043
 20
22.0917508827
 11
6.9023753749
 21
22.1287010883
  0
LINE
  5
6B1
100
AcDbEntity
  8
DEFAULT_2
100
AcDbLine
 62
8
  6
CONTINUOUS
 10
35.8670518367
 20
2.4132175015
 11
35.8704108025
 21
2.4102574799
  0
LINE
  5
6B2
100
AcDbEntity
  8
DEFAULT_2
100
AcDbLine
 62
8
  6
CONTINUOUS
 10
35.7856785576
 20
2.3183278888
 11
35.787775042
 21
2.3164548263
  0
LINE
  5
6B3
100
AcDbEntity
  8
DEFAULT_2
100
AcDbLine
 62
8
  6
CONTINUOUS
 10
4.3115178607
 20
22.8433069184
 11
4.3053026842
 21
22.8489262646
  0
LINE
  5
6B4
100
AcDbEntity
  8
DEFAULT_2
100
AcDbLine
 62
8
  6
CONTINUOUS
 10
37.0213173023
 20
18.3419648722
 11
36.9958502668
 21
18.3650736203
  0
LINE
  5
6B5
100
AcDbEntity
  8
DEFAULT_2
100
AcDbLine
 62
8
  6
CONTINUOUS
 10
38.6001927041
 20
20.0988958235
 11
38.6256597397
 21
20.0757870754
  0
LINE
  5
6B6
100
AcDbEntity
  8
0
100
AcDbLine
 62
7
  6
CONTINUOUS
 10
72.7731649106
 20
22.485603269
 11
72.628967208
 21
22.6171750741
  0
LINE
  5
6B7
100
AcDbEntity
  8
DEFAULT_2
100
AcDbLine
 62
8
  6
CONTINUOUS
 10
35.8704108025
 20
2.4102574799
 11
35.8737385698
 21
2.407216968
  0
LINE
  5
6B8
100
AcDbEntity
  8
DEFAULT_2
100
AcDbLine
 62
8
  6
CONTINUOUS
 10
6.9856968916
 20
22.0538200766
 11
6.9444765043
 21
22.0917508827
  0
LINE
  5
6B9
100
AcDbEntity
  8
DEFAULT_2
100
AcDbLine
 62
8
  6
CONTINUOUS
 10
35.787775042
 20
2.3164548263
 11
35.7898286771
 21
2.3145353114
  0
LINE
  5
6BA
100
AcDbEntity
  8
DEFAULT_2
100
AcDbLine
 62
8
  6
CONTINUOUS
 10
4.3053026842
 20
22.8489262646
 11
4.2992144177
 21
22.8546827424
  0
LINE
  5
6BB
100
AcDbEntity
  8
DEFAULT_2
100
AcDbLine
 62
8
  6
CONTINUOUS
 10
35.8737385698
 20
2.407216968
 11
35.8770109109
 21
2.4041170215
  0
LINE
  5
6BC
100
AcDbEntity
  8
0
100
AcDbLine
 62
7
  6
CONTINUOUS
 10
72.6869445974
 20
22.5704239414
 11
72.8270267522
 21
22.4358425398
  0
LINE
  5
6BD
100
AcDbEntity
  8
DEFAULT_2
100
AcDbLine
 62
8
  6
CONTINUOUS
 10
36.9958502668
 20
18.3650736203
 11
36.9710657006
 21
18.3889128437
  0
LINE
  5
6BE
100
AcDbEntity
  8
DEFAULT_2
100
AcDbLine
 62
8
  6
CONTINUOUS
 10
38.6256597397
 20
20.0757870754
 11
38.6504443059
 21
20.0519478519
  0
LINE
  5
6BF
100
AcDbEntity
  8
DEFAULT_2
100
AcDbLine
 62
8
  6
CONTINUOUS
 10
7.0234109449
 20
22.01749516
 11
6.9856968916
 21
22.0538200766
  0
LINE
  5
6C0
100
AcDbEntity
  8
DEFAULT_2
100
AcDbLine
 62
8
  6
CONTINUOUS
 10
35.7898286771
 20
2.3145353114
 11
35.791838223
 21
2.3125704932
  0
LINE
  5
6C1
100
AcDbEntity
  8
DEFAULT_2
100
AcDbLine
 62
8
  6
CONTINUOUS
 10
35.8770109109
 20
2.4041170215
 11
35.8802265707
 21
2.4009588394
  0
LINE
  5
6C2
100
AcDbEntity
  8
DEFAULT_2
100
AcDbLine
 62
8
  6
CONTINUOUS
 10
4.2992144177
 20
22.8546827424
 11
4.2932560168
 21
22.8605733716
  0
LINE
  5
6C3
100
AcDbEntity
  8
DEFAULT_2
100
AcDbLine
 62
8
  6
CONTINUOUS
 10
36.2741433509
 20
1.8302653049
 11
35.7167966256
 21
2.3876120302
  0
LINE
  5
6C4
100
AcDbEntity
  8
DEFAULT_2
100
AcDbLine
 62
8
  6
CONTINUOUS
 10
36.3625316985
 20
1.9186536525
 11
35.8745975059
 21
2.4065878451
  0
LINE
  5
6C5
100
AcDbEntity
  8
DEFAULT_2
100
AcDbLine
 62
8
  6
CONTINUOUS
 10
7.0603142952
 20
21.9803508665
 11
7.0234109449
 21
22.01749516
  0
LINE
  5
6C6
100
AcDbEntity
  8
DEFAULT_2
100
AcDbLine
 62
8
  6
CONTINUOUS
 10
36.9710657006
 20
18.3889128437
 11
36.947005633
 21
18.413442109
  0
LINE
  5
6C7
100
AcDbEntity
  8
DEFAULT_2
100
AcDbLine
 62
8
  6
CONTINUOUS
 10
38.6504443059
 20
20.0519478519
 11
38.6745043735
 21
20.0274185866
  0
LINE
  5
6C8
100
AcDbEntity
  8
DEFAULT_2
100
AcDbLine
 62
8
  6
CONTINUOUS
 10
4.2932560168
 20
22.8605733716
 11
4.2874304369
 21
22.8665951725
  0
LINE
  5
6C9
100
AcDbEntity
  8
DEFAULT_2
100
AcDbLine
 62
8
  6
CONTINUOUS
 10
7.0818767036
 20
21.957871096
 11
7.0603142952
 21
21.9803508665
  0
LINE
  5
6CA
100
AcDbEntity
  8
0
100
AcDbLine
 62
7
  6
CONTINUOUS
 10
72.9079288542
 20
22.3436202767
 11
72.7731649106
 21
22.485603269
  0
LINE
  5
6CB
100
AcDbEntity
  8
DEFAULT_2
100
AcDbLine
 62
8
  6
CONTINUOUS
 10
7.1031450164
 20
21.9351077495
 11
7.0818767036
 21
21.957871096
  0
LINE
  5
6CC
100
AcDbEntity
  8
DEFAULT_2
100
AcDbLine
 62
8
  6
CONTINUOUS
 10
36.947005633
 20
18.413442109
 11
36.9236693376
 21
18.438660943
  0
LINE
  5
6CD
100
AcDbEntity
  8
DEFAULT_2
100
AcDbLine
 62
8
  6
CONTINUOUS
 10
38.6745043735
 20
20.0274185866
 11
38.6978406688
 21
20.0021997527
  0
LINE
  5
6CE
100
AcDbEntity
  8
DEFAULT_2
100
AcDbLine
 62
8
  6
CONTINUOUS
 10
4.2874304369
 20
22.8665951725
 11
4.2817402861
 21
22.8727455591
  0
LINE
  5
6CF
100
AcDbEntity
  8
DEFAULT_2
100
AcDbLine
 62
8
  6
CONTINUOUS
 10
7.124114919
 20
21.9120655883
 11
7.1031450164
 21
21.9351077495
  0
LINE
  5
6D0
100
AcDbEntity
  8
0
100
AcDbLine
 62
7
  6
CONTINUOUS
 10
72.8270267522
 20
22.4358425398
 11
72.9637008417
 21
22.2842763124
  0
LINE
  5
6D1
100
AcDbEntity
  8
DEFAULT_2
100
AcDbLine
 62
8
  6
CONTINUOUS
 10
7.144782097
 20
21.8887493739
 11
7.124114919
 21
21.9120655883
  0
LINE
  5
6D2
100
AcDbEntity
  8
DEFAULT_2
100
AcDbLine
 62
8
  6
CONTINUOUS
 10
4.2817402861
 20
22.8727455591
 11
4.2761887671
 21
22.8790213587
  0
LINE
  5
6D3
100
AcDbEntity
  8
DEFAULT_2
100
AcDbLine
 62
8
  6
CONTINUOUS
 10
36.9236693376
 20
18.438660943
 11
36.901077227
 21
18.4645485446
  0
LINE
  5
6D4
100
AcDbEntity
  8
DEFAULT_2
100
AcDbLine
 62
8
  6
CONTINUOUS
 10
38.6978406688
 20
20.0021997527
 11
38.7204327794
 21
19.9763121511
  0
LINE
  5
6D5
100
AcDbEntity
  8
DEFAULT_2
100
AcDbLine
 62
8
  6
CONTINUOUS
 10
7.165142236
 20
21.8651638678
 11
7.144782097
 21
21.8887493739
  0
LINE
  5
6D6
100
AcDbEntity
  8
DEFAULT_2
100
AcDbLine
 62
8
  6
CONTINUOUS
 10
4.2761887671
 20
22.8790213587
 11
4.2707787189
 21
22.8854197778
  0
LINE
  5
6D7
100
AcDbEntity
  8
DEFAULT_2
100
AcDbLine
 62
8
  6
CONTINUOUS
 10
7.1851910214
 20
21.8413138312
 11
7.165142236
 21
21.8651638678
  0
LINE
  5
6D8
100
AcDbEntity
  8
0
100
AcDbLine
 62
7
  6
CONTINUOUS
 10
73.0328863564
 20
22.1928216892
 11
72.9079288542
 21
22.3436202767
  0
LINE
  5
6D9
100
AcDbEntity
  8
DEFAULT_2
100
AcDbLine
 62
8
  6
CONTINUOUS
 10
36.901077227
 20
18.4645485446
 11
36.8792674289
 21
18.4910612405
  0
LINE
  5
6DA
100
AcDbEntity
  8
DEFAULT_2
100
AcDbLine
 62
8
  6
CONTINUOUS
 10
38.7204327794
 20
19.9763121511
 11
38.7422425776
 21
19.9497994551
  0
LINE
  5
6DB
100
AcDbEntity
  8
DEFAULT_2
100
AcDbLine
 62
8
  6
CONTINUOUS
 10
7.2049468351
 20
21.8171760487
 11
7.1851910214
 21
21.8413138312
  0
LINE
  5
6DC
100
AcDbEntity
  8
DEFAULT_2
100
AcDbLine
 62
8
  6
CONTINUOUS
 10
7.224383303
 20
21.7927817415
 11
7.2049468351
 21
21.8171760487
  0
LINE
  5
6DD
100
AcDbEntity
  8
0
100
AcDbLine
 62
7
  6
CONTINUOUS
 10
72.9637008417
 20
22.2842763124
 11
73.0957893288
 21
22.1152388119
  0
LINE
  5
6DE
100
AcDbEntity
  8
DEFAULT_2
100
AcDbLine
 62
8
  6
CONTINUOUS
 10
7.2434974724
 20
21.7681347505
 11
7.224383303
 21
21.7927817415
  0
LINE
  5
6DF
100
AcDbEntity
  8
DEFAULT_2
100
AcDbLine
 62
8
  6
CONTINUOUS
 10
36.8792674289
 20
18.4910612405
 11
36.8582394884
 21
18.5181982385
  0
LINE
  5
6E0
100
AcDbEntity
  8
DEFAULT_2
100
AcDbLine
 62
8
  6
CONTINUOUS
 10
38.7422425776
 20
19.9497994551
 11
38.7632705181
 21
19.9226624572
  0
LINE
  5
6E1
100
AcDbEntity
  8
DEFAULT_2
100
AcDbLine
 62
8
  6
CONTINUOUS
 10
7.2622863907
 20
21.7432389167
 11
7.2434974724
 21
21.7681347505
  0
LINE
  5
6E2
100
AcDbEntity
  8
DEFAULT_2
100
AcDbLine
 62
8
  6
CONTINUOUS
 10
7.280747105
 20
21.7180980811
 11
7.2622863907
 21
21.7432389167
  0
LINE
  5
6E3
100
AcDbEntity
  8
DEFAULT_2
100
AcDbLine
 62
8
  6
CONTINUOUS
 10
36.8582394884
 20
18.5181982385
 11
36.8380119506
 21
18.5459369623
  0
LINE
  5
6E4
100
AcDbEntity
  8
DEFAULT_2
100
AcDbLine
 62
8
  6
CONTINUOUS
 10
38.7632705181
 20
19.9226624572
 11
38.7834980558
 21
19.8949237333
  0
LINE
  5
6E5
100
AcDbEntity
  8
0
100
AcDbLine
 62
7
  6
CONTINUOUS
 10
73.147965001
 20
22.0345699749
 11
73.0328863564
 21
22.1928216892
  0
LINE
  5
6E6
100
AcDbEntity
  8
DEFAULT_2
100
AcDbLine
 62
8
  6
CONTINUOUS
 10
7.2988766628
 20
21.6927160846
 11
7.280747105
 21
21.7180980811
  0
LINE
  5
6E7
100
AcDbEntity
  8
DEFAULT_2
100
AcDbLine
 62
8
  6
CONTINUOUS
 10
7.3166932067
 20
21.6670661
 11
7.2988766628
 21
21.6927160846
  0
LINE
  5
6E8
100
AcDbEntity
  8
DEFAULT_2
100
AcDbLine
 62
8
  6
CONTINUOUS
 10
36.8380119506
 20
18.5459369623
 11
36.8186182838
 21
18.5742315828
  0
LINE
  5
6E9
100
AcDbEntity
  8
DEFAULT_2
100
AcDbLine
 62
8
  6
CONTINUOUS
 10
38.7834980558
 20
19.8949237333
 11
38.8028917227
 21
19.8666291128
  0
LINE
  5
6EA
100
AcDbEntity
  8
DEFAULT_2
100
AcDbLine
 62
8
  6
CONTINUOUS
 10
7.3341713304
 20
21.6411836692
 11
7.3166932067
 21
21.6670661
  0
LINE
  5
6EB
100
AcDbEntity
  8
0
100
AcDbLine
 62
7
  6
CONTINUOUS
 10
73.0957893288
 20
22.1152388119
 11
73.2219527491
 21
21.9284328286
  0
LINE
  5
6EC
100
AcDbEntity
  8
DEFAULT_2
100
AcDbLine
 62
8
  6
CONTINUOUS
 10
7.3513075267
 20
21.615074237
 11
7.3341713304
 21
21.6411836692
  0
LINE
  5
6ED
100
AcDbEntity
  8
DEFAULT_2
100
AcDbLine
 62
8
  6
CONTINUOUS
 10
36.8186182838
 20
18.5742315828
 11
36.8000587467
 21
18.6030802228
  0
LINE
  5
6EE
100
AcDbEntity
  8
DEFAULT_2
100
AcDbLine
 62
8
  6
CONTINUOUS
 10
38.8028917227
 20
19.8666291128
 11
38.8214512598
 21
19.8377804728
  0
LINE
  5
6EF
100
AcDbEntity
  8
0
100
AcDbLine
 62
7
  6
CONTINUOUS
 10
73.2531806612
 20
21.8701626796
 11
73.147965001
 21
22.0345699749
  0
LINE
  5
6F0
100
AcDbEntity
  8
DEFAULT_2
100
AcDbLine
 62
8
  6
CONTINUOUS
 10
36.8000587467
 20
18.6030802228
 11
36.7823498362
 21
18.632458682
  0
LINE
  5
6F1
100
AcDbEntity
  8
DEFAULT_2
100
AcDbLine
 62
8
  6
CONTINUOUS
 10
38.8214512598
 20
19.8377804728
 11
38.8391601702
 21
19.8084020136
  0
LINE
  5
6F2
100
AcDbEntity
  8
0
100
AcDbLine
 62
7
  6
CONTINUOUS
 10
73.2219527491
 20
21.9284328286
 11
73.3406697213
 21
21.7238693473
  0
LINE
  5
6F3
100
AcDbEntity
  8
DEFAULT_2
100
AcDbLine
 62
8
  6
CONTINUOUS
 10
36.7823498362
 20
18.632458682
 11
36.7655198483
 21
18.6623201725
  0
LINE
  5
6F4
100
AcDbEntity
  8
DEFAULT_2
100
AcDbLine
 62
8
  6
CONTINUOUS
 10
38.8391601702
 20
19.8084020136
 11
38.8559901581
 21
19.7785405232
  0
LINE
  5
6F5
100
AcDbEntity
  8
0
100
AcDbLine
 62
7
  6
CONTINUOUS
 10
73.3486555101
 20
21.7007678786
 11
73.2531806612
 21
21.8701626796
  0
LINE
  5
6F6
100
AcDbEntity
  8
DEFAULT_2
100
AcDbLine
 62
8
  6
CONTINUOUS
 10
36.7655198483
 20
18.6623201725
 11
36.7495699784
 21
18.6926608972
  0
LINE
  5
6F7
100
AcDbEntity
  8
DEFAULT_2
100
AcDbLine
 62
8
  6
CONTINUOUS
 10
38.8559901581
 20
19.7785405232
 11
38.8719400281
 21
19.7481997984
  0
LINE
  5
6F8
100
AcDbEntity
  8
0
100
AcDbLine
 62
7
  6
CONTINUOUS
 10
73.4345968422
 20
21.5274018372
 11
73.3486555101
 21
21.7007678786
  0
LINE
  5
6F9
100
AcDbEntity
  8
0
100
AcDbLine
 62
7
  6
CONTINUOUS
 10
73.3406697213
 20
21.7238693473
 11
73.4503244052
 21
21.5018430004
  0
LINE
  5
6FA
100
AcDbEntity
  8
DEFAULT_2
100
AcDbLine
 62
8
  6
CONTINUOUS
 10
36.7495699784
 20
18.6926608972
 11
36.7345145061
 21
18.7234552211
  0
LINE
  5
6FB
100
AcDbEntity
  8
DEFAULT_2
100
AcDbLine
 62
8
  6
CONTINUOUS
 10
38.8719400281
 20
19.7481997984
 11
38.8869955003
 21
19.7174054745
  0
LINE
  5
6FC
100
AcDbEntity
  8
DEFAULT_2
100
AcDbLine
 62
8
  6
CONTINUOUS
 10
36.7345145061
 20
18.7234552211
 11
36.7203763116
 21
18.7546566453
  0
LINE
  5
6FD
100
AcDbEntity
  8
DEFAULT_2
100
AcDbLine
 62
8
  6
CONTINUOUS
 10
38.8869955003
 20
19.7174054745
 11
38.9011336949
 21
19.6862040503
  0
LINE
  5
6FE
100
AcDbEntity
  8
0
100
AcDbLine
 62
9
  6
CONTINUOUS
 10
70.8147440005
 20
23.1264670301
 11
70.8148408044
 21
23.1262451287
  0
LINE
  5
6FF
100
AcDbEntity
  8
0
100
AcDbLine
 62
7
  6
CONTINUOUS
 10
73.5112495672
 20
21.3509749651
 11
73.4345968422
 21
21.5274018372
  0
LINE
  5
700
100
AcDbEntity
  8
DEFAULT_2
100
AcDbLine
 62
8
  6
CONTINUOUS
 10
36.7203763116
 20
18.7546566453
 11
36.7071575115
 21
18.7862585569
  0
LINE
  5
701
100
AcDbEntity
  8
DEFAULT_2
100
AcDbLine
 62
8
  6
CONTINUOUS
 10
38.9011336949
 20
19.6862040503
 11
38.9143524949
 21
19.6546021388
  0
LINE
  5
702
100
AcDbEntity
  8
0
100
AcDbLine
 62
7
  6
CONTINUOUS
 10
73.4503244052
 20
21.5018430004
 11
73.5491467787
 21
21.263219776
  0
LINE
  5
703
100
AcDbEntity
  8
DEFAULT_2
100
AcDbLine
 62
8
  6
CONTINUOUS
 10
36.7071575115
 20
18.7862585569
 11
36.694870016
 21
18.818234041
  0
LINE
  5
704
100
AcDbEntity
  8
DEFAULT_2
100
AcDbLine
 62
8
  6
CONTINUOUS
 10
38.9143524949
 20
19.6546021388
 11
38.9266399904
 21
19.6226266547
  0
LINE
  5
705
100
AcDbEntity
  8
0
100
AcDbLine
 62
7
  6
CONTINUOUS
 10
73.5788790015
 20
21.1723188206
 11
73.5112495672
 21
21.3509749651
  0
LINE
  5
706
100
AcDbEntity
  8
DEFAULT_2
100
AcDbLine
 62
8
  6
CONTINUOUS
 10
36.694870016
 20
18.818234041
 11
36.6835313196
 21
18.8505381
  0
LINE
  5
707
100
AcDbEntity
  8
DEFAULT_2
100
AcDbLine
 62
8
  6
CONTINUOUS
 10
38.9266399904
 20
19.6226266547
 11
38.9379786869
 21
19.5903225957
  0
LINE
  5
708
100
AcDbEntity
  8
0
100
AcDbLine
 62
7
  6
CONTINUOUS
 10
73.5491467787
 20
21.263219776
 11
73.6356072999
 21
21.0085913426
  0
LINE
  5
709
100
AcDbEntity
  8
0
100
AcDbLine
 62
7
  6
CONTINUOUS
 10
73.6377862833
 20
20.992106756
 11
73.5788790015
 21
21.1723188206
  0
LINE
  5
70A
100
AcDbEntity
  8
DEFAULT_2
100
AcDbLine
 62
8
  6
CONTINUOUS
 10
36.6835313196
 20
18.8505381
 11
36.6731442061
 21
18.8831606277
  0
LINE
  5
70B
100
AcDbEntity
  8
DEFAULT_2
100
AcDbLine
 62
8
  6
CONTINUOUS
 10
38.9379786869
 20
19.5903225957
 11
38.9483658003
 21
19.5577000679
  0
LINE
  5
70C
100
AcDbEntity
  8
DEFAULT_2
100
AcDbLine
 62
8
  6
CONTINUOUS
 10
36.6731442061
 20
18.8831606277
 11
36.6637180845
 21
18.9160738176
  0
LINE
  5
70D
100
AcDbEntity
  8
DEFAULT_2
100
AcDbLine
 62
8
  6
CONTINUOUS
 10
38.9483658003
 20
19.5577000679
 11
38.9577919219
 21
19.524786878
  0
LINE
  5
70E
100
AcDbEntity
  8
0
100
AcDbLine
 62
7
  6
CONTINUOUS
 10
73.6882475472
 20
20.8110248736
 11
73.6377862833
 21
20.992106756
  0
LINE
  5
70F
100
AcDbEntity
  8
0
100
AcDbLine
 62
7
  6
CONTINUOUS
 10
73.6356072999
 20
21.0085913426
 11
73.7064652576
 21
20.7458326461
  0
LINE
  5
710
100
AcDbEntity
  8
DEFAULT_2
100
AcDbLine
 62
8
  6
CONTINUOUS
 10
36.6637180845
 20
18.9160738176
 11
36.6552653545
 21
18.9492353364
  0
LINE
  5
711
100
AcDbEntity
  8
DEFAULT_2
100
AcDbLine
 62
8
  6
CONTINUOUS
 10
38.9577919219
 20
19.524786878
 11
38.966244652
 21
19.4916253593
  0
LINE
  5
712
100
AcDbEntity
  8
0
100
AcDbLine
 62
7
  6
CONTINUOUS
 10
73.7305344493
 20
20.6297452496
 11
73.6882475472
 21
20.8110248736
  0
LINE
  5
713
100
AcDbEntity
  8
DEFAULT_2
100
AcDbLine
 62
8
  6
CONTINUOUS
 10
36.6552653545
 20
18.9492353364
 11
36.6477889917
 21
18.9826304019
  0
LINE
  5
714
100
AcDbEntity
  8
DEFAULT_2
100
AcDbLine
 62
8
  6
CONTINUOUS
 10
38.966244652
 20
19.4916253593
 11
38.9737210148
 21
19.4582302938
  0
LINE
  5
715
100
AcDbEntity
  8
0
100
AcDbLine
 62
7
  6
CONTINUOUS
 10
73.7064652576
 20
20.7458326461
 11
73.7302719424
 21
20.6308705899
  0
LINE
  5
716
100
AcDbEntity
  8
DEFAULT_2
100
AcDbLine
 62
8
  6
CONTINUOUS
 10
36.6477889917
 20
18.9826304019
 11
36.6412957965
 21
19.0162299313
  0
LINE
  5
717
100
AcDbEntity
  8
DEFAULT_2
100
AcDbLine
 62
8
  6
CONTINUOUS
 10
38.9737210148
 20
19.4582302938
 11
38.9802142099
 21
19.4246307644
  0
LINE
  5
718
100
AcDbEntity
  8
0
100
AcDbLine
 62
7
  6
CONTINUOUS
 10
73.7648897928
 20
20.4491196849
 11
73.7305344493
 21
20.6297452496
  0
LINE
  5
719
100
AcDbEntity
  8
DEFAULT_2
100
AcDbLine
 62
8
  6
CONTINUOUS
 10
36.6412957965
 20
19.0162299313
 11
36.635793595
 21
19.049995096
  0
LINE
  5
71A
100
AcDbEntity
  8
DEFAULT_2
100
AcDbLine
 62
8
  6
CONTINUOUS
 10
38.9802142099
 20
19.4246307644
 11
38.9857164115
 21
19.3908655997
  0
LINE
  5
71B
100
AcDbEntity
  8
0
100
AcDbLine
 62
7
  6
CONTINUOUS
 10
73.7915305972
 20
20.2705063385
 11
73.7648897928
 21
20.4491196849
  0
LINE
  5
71C
100
AcDbEntity
  8
DEFAULT_2
100
AcDbLine
 62
8
  6
CONTINUOUS
 10
36.635793595
 20
19.049995096
 11
36.6312848916
 21
19.0839077571
  0
LINE
  5
71D
100
AcDbEntity
  8
DEFAULT_2
100
AcDbLine
 62
8
  6
CONTINUOUS
 10
38.9857164115
 20
19.3908655997
 11
38.9902251148
 21
19.3569529385
  0
ARC
  5
71E
100
AcDbEntity
  8
DEFAULT_2
100
AcDbCircle
 62
8
  6
CONTINUOUS
 10
141.2450651053
 20
-21.7223249917
 40
84.875
100
AcDbArc
 50
149.3585238471
 51
161.8951861157
  0
ARC
  5
71F
100
AcDbEntity
  8
DEFAULT_2
100
AcDbCircle
 62
8
  6
CONTINUOUS
 10
-65.6235550988
 20
-21.7223249917
 40
84.875
100
AcDbArc
 50
18.1048138843
 51
30.6414761529
  0
ARC
  5
720
100
AcDbEntity
  8
0
100
AcDbCircle
 62
7
  6
CONTINUOUS
 10
132.7018190692
 20
-3.7561922265
 40
65.0
100
AcDbArc
 50
158.4719049243
 51
176.5168300934
  0
ARC
  5
721
100
AcDbEntity
  8
0
100
AcDbCircle
 62
7
  6
CONTINUOUS
 10
-57.0803090627
 20
-3.7561922265
 40
65.0
100
AcDbArc
 50
3.4831698327
 51
21.5280342005
  0
ARC
  5
722
100
AcDbEntity
  8
DEFAULT_2
100
AcDbCircle
 62
8
  6
CONTINUOUS
 10
39.0822016126
 20
2.0954303478
 40
0.375
100
AcDbArc
 50
270.0
 51
315.0
  0
ARC
  5
723
100
AcDbEntity
  8
DEFAULT_2
100
AcDbCircle
 62
8
  6
CONTINUOUS
 10
36.5393083938
 20
2.0954303478
 40
0.375
100
AcDbArc
 50
225.0
 51
270.0
  0
ARC
  5
724
100
AcDbEntity
  8
0
100
AcDbCircle
 62
7
  6
CONTINUOUS
 10
4.1268619086
 20
22.869773774
 40
0.25
100
AcDbArc
 50
94.8723529354
 51
96.6157823506
  0
ARC
  5
725
100
AcDbEntity
  8
0
100
AcDbCircle
 62
7
  6
CONTINUOUS
 10
71.4946480978
 20
22.869773774
 40
0.25
100
AcDbArc
 50
83.3842176494
 51
85.1299675756
  0
ARC
  5
726
100
AcDbEntity
  8
DEFAULT_2
100
AcDbCircle
 62
8
  6
CONTINUOUS
 10
39.0822016126
 20
2.0954303478
 40
0.25
100
AcDbArc
 50
270.0
 51
315.0
  0
ARC
  5
727
100
AcDbEntity
  8
DEFAULT_2
100
AcDbCircle
 62
8
  6
CONTINUOUS
 10
36.5393083938
 20
2.0954303478
 40
0.25
100
AcDbArc
 50
225.0
 51
270.0
  0
ENDSEC
  0
SECTION
  2
OBJECTS
  0
DICTIONARY
  5
C
100
AcDbDictionary
280
0
281
1
  3
ACAD_GROUP
350
D
  3
ACAD_MLINESTYLE
350
17
  3
ACAD_LAYOUT
350
1A
  3
ACAD_PLOTSETTINGS
350
19
  3
ACAD_PLOTSTYLENAME
350
E
  0
DICTIONARY
  5
D
102
{ACAD_REACTORS
330
C
102
}
100
AcDbDictionary
280
0
281
1
  0
ACDBDICTIONARYWDFLT
  5
E
102
{ACAD_REACTORS
330
C
102
}
100
AcDbDictionary
281
1
  3
Normal
350
F
100
AcDbDictionaryWithDefault
340
F
  0
DICTIONARY
  5
17
102
{ACAD_REACTORS
330
C
102
}
100
AcDbDictionary
280
0
281
1
  3
Standard
350
18
  0
DICTIONARY
  5
19
102
{ACAD_REACTORS
330
C
102
}
100
AcDbDictionary
281
1
  0
DICTIONARY
  5
1A
102
{ACAD_REACTORS
330
C
102
}
100
AcDbDictionary
281
1
  3
Model
350
728
  3
Layout1
350
729
  0
ACDBPLACEHOLDER
  5
F
102
{ACAD_REACTORS
330
E
102
}
  0
MLINESTYLE
  5
18
102
{ACAD_REACTORS
330
17
102
}
100
AcDbMlineStyle
  2
STANDARD
 70
0
  3

 62
256
 51
90.0
 52
90.0
 71
2
 49
0.5
 62
256
  6
BYLAYER
 49
-0.5
 62
256
  6
BYLAYER
  0
LAYOUT
  5
728
102
{ACAD_REACTORS
330
1A
102
}
100
AcDbPlotSettings
  1

  2
none_device
  4
ANSI_B_(17.00_x_11.00_Inches)
  6

 40
0.0
 41
0.0
 42
0.0
 43
0.0
 44
431.8
 45
279.4
 46
0.0
 47
0.0
 48
0.0
 49
0.0
140
0.0
141
0.0
142
1.0
143
1.0
 70
1024
 72
0
 73
0
 74
0
  7

 75
0
147
1.0
148
0.0
149
0.0
100
AcDbLayout
  1
Model
 70
0
 71
0
 10
0.0
 20
0.0
 11
17.0
 21
11.0
 12
0.0
 22
0.0
 32
0.0
 14
0.0
 24
0.0
 34
0.0
 15
0.0
 25
0.0
 35
0.0
146
0.0
 13
0.0
 23
0.0
 33
0.0
 16
1.0
 26
0.0
 36
0.0
 17
0.0
 27
1.0
 37
0.0
 76
0
330
212
345
0
346
0
  0
LAYOUT
  5
729
102
{ACAD_REACTORS
330
1A
102
}
100
AcDbPlotSettings
  1

  2
none_device
  4
ANSI_B_(17.00_x_11.00_Inches)
  6

 40
0.0
 41
0.0
 42
0.0
 43
0.0
 44
431.8
 45
279.4
 46
0.0
 47
0.0
 48
0.0
 49
0.0
140
0.0
141
0.0
142
1.0
143
1.0
 70
0
 72
0
 73
0
 74
0
  7

 75
0
147
1.0
148
0.0
149
0.0
100
AcDbLayout
  1
Layout1
 70
0
 71
1
 10
0.0
 20
0.0
 11
17.0
 21
11.0
 12
0.0
 22
0.0
 32
0.0
 14
0.0
 24
0.0
 34
0.0
 15
0.0
 25
0.0
 35
0.0
146
0.0
 13
0.0
 23
0.0
 33
0.0
 16
1.0
 26
0.0
 36
0.0
 17
0.0
 27
1.0
 37
0.0
 76
0
330
213
345
0
346
0
  0
ENDSEC
  0
EOF
