  0
SECTION
  2
HEADER
  9
$ACADVER
  1
AC1021
  9
$DWGCODEPAGE
  3
ANSI_1252
  9
$EXTMAX
 10
17.0
 20
11.0
 30
0.0
  9
$EXTMIN
 10
0.0
 20
0.0
 30
0.0
  9
$LIMMIN
 10
0.0
 20
0.0
  9
$LIMMAX
 10
17.0
 20
11.0
  9
$VIEWCTR
 10
8.5
 20
5.5
  9
$VIEWSIZE
 40
11.0
  9
$CLAYER
  8
0
  9
$LTSCALE
 40
0.935
  9
$CELTYPE
  6
BYLAYER
  9
$DIMSCALE
 40
1.0
  9
$DIMASZ
 40
0.1875
  9
$DIMEXO
 40
0.10625
  9
$DIMDLI
 40
0.646
  9
$DIMEXE
 40
0.306
  9
$DIMCEN
 40
0.153
  9
$DIMLFAC
 40
1.0
  9
$DIMBLK
  1
_FILLED
  9
$DIMTXT
 40
0.125
  9
$DIMTOL
 70
0
  9
$DIMLIM
 70
0
  9
$DIMTFAC
 40
1.0
  9
$PDMODE
 70
3
  9
$PDSIZE
 40
0.03125
  9
$HANDSEED
  5
44B
  9
$TILEMODE
 70
1
  9
$MEASUREMENT
 70
0
  9
$INSUNITS
 70
1
  0
ENDSEC
  0
SECTION
  2
CLASSES
  0
CLASS
  1
ACDBDICTIONARYWDFLT
  2
AcDbDictionaryWithDefault
  3
AutoCAD 2000
 90
0
 91
1
280
0
281
0
  0
CLASS
  1
ACDBPLACEHOLDER
  2
AcDbPlaceHolder
  3
AutoCAD 2000
 90
0
 91
1
280
0
281
0
  0
CLASS
  1
LAYOUT
  2
AcDbLayout
  3
AutoCAD 2000
 90
0
 91
0
280
0
281
0
  0
ENDSEC
  0
SECTION
  2
TABLES
  0
TABLE
  2
VPORT
  5
8
100
AcDbSymbolTable
 70
2
  0
VPORT
  5
1F4
100
AcDbSymbolTableRecord
100
AcDbViewportTableRecord
  2
*ACTIVE
 70
0
 10
0.0
 20
0.0
 11
1.0
 21
1.0
 12
8.5
 22
5.5
 13
0.0
 23
0.0
 14
1.0
 24
1.0
 15
0.0
 25
0.0
 16
0.0
 26
0.0
 36
1.0
 17
0.0
 27
0.0
 37
0.0
 40
11.0
 41
1.5454545455
 42
50.0
 43
0.0
 44
0.0
 50
0.0
 51
0.0
 71
0
 72
100
 73
1
 74
1
 75
0
 76
0
 77
0
 78
0
  0
ENDTAB
  0
TABLE
  2
LTYPE
  5
5
100
AcDbSymbolTable
 70
6
  0
LTYPE
  5
14
100
AcDbSymbolTableRecord
100
AcDbLinetypeTableRecord
  2
BYBLOCK
 70
0
  3

 72
65
 73
0
 40
0.0
  0
LTYPE
  5
15
100
AcDbSymbolTableRecord
100
AcDbLinetypeTableRecord
  2
BYLAYER
 70
0
  3

 72
65
 73
0
 40
0.0
  0
LTYPE
  5
16
100
AcDbSymbolTableRecord
100
AcDbLinetypeTableRecord
  2
CONTINUOUS
 70
64
  3
Solid line
 72
65
 73
0
 40
0.0
  0
LTYPE
  5
1F5
100
AcDbSymbolTableRecord
100
AcDbLinetypeTableRecord
  2
CENTER
 70
64
  3
____ _ ____ _ ____ _ ____ _ ____ _ ____ _ ____
 72
65
 73
4
 40
0.6
 49
0.375
 74
0
 49
-0.075
 74
0
 49
0.075
 74
0
 49
-0.075
 74
0
  0
LTYPE
  5
1F6
100
AcDbSymbolTableRecord
100
AcDbLinetypeTableRecord
  2
HIDDEN
 70
64
  3
- - - - - - - - - - - - - - - - - - - -
 72
65
 73
2
 40
0.2
 49
0.1
 74
0
 49
-0.1
 74
0
  0
LTYPE
  5
1F7
100
AcDbSymbolTableRecord
100
AcDbLinetypeTableRecord
  2
PHANTOM
 70
64
  3
_____ _ _ _____ _ _ _____ _ _ _____
 72
65
 73
6
 40
0.8
 49
0.45
 74
0
 49
-0.05
 74
0
 49
0.1
 74
0
 49
-0.05
 74
0
 49
0.1
 74
0
 49
-0.05
 74
0
  0
LTYPE
  5
1F8
100
AcDbSymbolTableRecord
100
AcDbLinetypeTableRecord
  2
DOT
 70
64
  3
. . . . . . . . . . . . . . . . . . . .
 72
65
 73
2
 40
0.2
 49
0.1
 74
0
 49
-0.1
 74
0
  0
LTYPE
  5
1F9
100
AcDbSymbolTableRecord
100
AcDbLinetypeTableRecord
  2
DASHED
 70
64
  3
- - - - - - - - - - - - - - - - - - - -
 72
65
 73
2
 40
0.2
 49
0.1
 74
0
 49
-0.1
 74
0
  0
ENDTAB
  0
TABLE
  2
LAYER
  5
2
100
AcDbSymbolTable
 70
36
  0
LAYER
  5
10
100
AcDbSymbolTableRecord
100
AcDbLayerTableRecord
  2
0
 70
0
 62
7
  6
CONTINUOUS
370
-3
390
F
  0
LAYER
  5
1FA
100
AcDbSymbolTableRecord
100
AcDbLayerTableRecord
  2
DEFAULT_1
 70
0
 62
7
  6
CENTER
370
-3
390
F
  0
LAYER
  5
1FB
100
AcDbSymbolTableRecord
100
AcDbLayerTableRecord
  2
DEFAULT_2
 70
0
 62
8
  6
HIDDEN
370
-3
390
F
  0
LAYER
  5
1FC
100
AcDbSymbolTableRecord
100
AcDbLayerTableRecord
  2
DEFAULT_3
 70
0
 62
7
  6
PHANTOM
370
-3
390
F
  0
LAYER
  5
1FD
100
AcDbSymbolTableRecord
100
AcDbLayerTableRecord
  2
1_CURVES
 70
0
 62
7
  6
CONTINUOUS
370
-3
390
F
  0
LAYER
  5
1FE
100
AcDbSymbolTableRecord
100
AcDbLayerTableRecord
  2
1_CURVES-JETS
 70
0
 62
7
  6
CONTINUOUS
370
-3
390
F
  0
LAYER
  5
1FF
100
AcDbSymbolTableRecord
100
AcDbLayerTableRecord
  2
1_CURVES_TOLERANCES
 70
0
 62
7
  6
CONTINUOUS
370
-3
390
F
  0
LAYER
  5
200
100
AcDbSymbolTableRecord
100
AcDbLayerTableRecord
  2
2_PLANES
 70
0
 62
7
  6
CONTINUOUS
370
-3
390
F
  0
LAYER
  5
201
100
AcDbSymbolTableRecord
100
AcDbLayerTableRecord
  2
3_POINTS
 70
0
 62
7
  6
CONTINUOUS
370
-3
390
F
  0
LAYER
  5
202
100
AcDbSymbolTableRecord
100
AcDbLayerTableRecord
  2
3_POINTS-JETS
 70
0
 62
7
  6
CONTINUOUS
370
-3
390
F
  0
LAYER
  5
203
100
AcDbSymbolTableRecord
100
AcDbLayerTableRecord
  2
4_CSYS
 70
0
 62
7
  6
CONTINUOUS
370
-3
390
F
  0
LAYER
  5
204
100
AcDbSymbolTableRecord
100
AcDbLayerTableRecord
  2
5_AXIS
 70
0
 62
7
  6
CONTINUOUS
370
-3
390
F
  0
LAYER
  5
205
100
AcDbSymbolTableRecord
100
AcDbLayerTableRecord
  2
5_AXIS-JETS
 70
0
 62
7
  6
CONTINUOUS
370
-3
390
F
  0
LAYER
  5
206
100
AcDbSymbolTableRecord
100
AcDbLayerTableRecord
  2
6_SURFACES
 70
0
 62
7
  6
CONTINUOUS
370
-3
390
F
  0
LAYER
  5
207
100
AcDbSymbolTableRecord
100
AcDbLayerTableRecord
  2
6_SURFACES-OFFSET-FIBRE
 70
0
 62
7
  6
CONTINUOUS
370
-3
390
F
  0
LAYER
  5
208
100
AcDbSymbolTableRecord
100
AcDbLayerTableRecord
  2
6_SURFACES-TOOLING
 70
0
 62
7
  6
CONTINUOUS
370
-3
390
F
  0
LAYER
  5
209
100
AcDbSymbolTableRecord
100
AcDbLayerTableRecord
  2
6_SURFACES_POUR_DECOUPE
 70
0
 62
7
  6
CONTINUOUS
370
-3
390
F
  0
LAYER
  5
20A
100
AcDbSymbolTableRecord
100
AcDbLayerTableRecord
  2
6_SURFACES_TOOLING
 70
0
 62
7
  6
CONTINUOUS
370
-3
390
F
  0
LAYER
  5
20B
100
AcDbSymbolTableRecord
100
AcDbLayerTableRecord
  2
7_NOTES
 70
0
 62
7
  6
CONTINUOUS
370
-3
390
F
  0
LAYER
  5
20C
100
AcDbSymbolTableRecord
100
AcDbLayerTableRecord
  2
8_ZONE-ROBINETERIE
 70
0
 62
7
  6
CONTINUOUS
370
-3
390
F
  0
LAYER
  5
20D
100
AcDbSymbolTableRecord
100
AcDbLayerTableRecord
  2
MIA_PLUS_TROU
 70
0
 62
7
  6
CONTINUOUS
370
-3
390
F
  0
LAYER
  5
20E
100
AcDbSymbolTableRecord
100
AcDbLayerTableRecord
  2
MIA_TROU
 70
0
 62
7
  6
CONTINUOUS
370
-3
390
F
  0
LAYER
  5
20F
100
AcDbSymbolTableRecord
100
AcDbLayerTableRecord
  2
XSEC_DATUMS
 70
0
 62
7
  6
CONTINUOUS
370
-3
390
F
  0
ENDTAB
  0
TABLE
  2
STYLE
  5
3
100
AcDbSymbolTable
 70
1
  0
STYLE
  5
11
100
AcDbSymbolTableRecord
100
AcDbTextStyleTableRecord
  2
STANDARD
 70
0
 40
0.0
 41
0.8
 50
0.0
 71
0
 42
0.2
  3
txt
  4

  0
STYLE
  5
210
100
AcDbSymbolTableRecord
100
AcDbTextStyleTableRecord
  2
TEXTSTYLE_1
 70
0
 40
0.0
 41
0.8
 50
0.0
 71
0
 42
0.2
  3
gdt
  4

  0
ENDTAB
  0
TABLE
  2
VIEW
  5
6
100
AcDbSymbolTable
 70
0
  0
ENDTAB
  0
TABLE
  2
UCS
  5
7
100
AcDbSymbolTable
 70
0
  0
ENDTAB
  0
TABLE
  2
APPID
  5
9
100
AcDbSymbolTable
 70
1
  0
APPID
  5
211
100
AcDbSymbolTableRecord
100
AcDbRegAppTableRecord
  2
ACAD
 70
0
  0
ENDTAB
  0
TABLE
  2
BLOCK_RECORD
  5
1
100
AcDbSymbolTable
 70
0
  0
BLOCK_RECORD
  5
212
100
AcDbSymbolTableRecord
100
AcDbBlockTableRecord
  2
*Model_Space
  0
BLOCK_RECORD
  5
213
100
AcDbSymbolTableRecord
100
AcDbBlockTableRecord
  2
*Paper_Space
  0
ENDTAB
  0
TABLE
  2
DIMSTYLE
  5
A
100
AcDbSymbolTable
 70
1
100
AcDbDimStyleTable
 71
0
  0
DIMSTYLE
105
214
100
AcDbSymbolTableRecord
100
AcDbDimStyleTableRecord
  2
STANDARD
 70
0
  3

  4

 40
1.0
 41
0.1875
 42
0.0625
 43
0.38
 44
0.18
 45
0.0
 46
0.0
 47
0.00001
 48
0.00001
140
0.125
141
0.09
142
0.0
143
25.4
144
1.0
145
0.0
146
1.0
147
0.09
 71
0.0
 72
0.0
 73
1
 74
1
 75
0
 76
0
 77
0
 78
4
170
0
171
2
172
0
173
0
174
0
175
0
176
0
177
0
178
0
270
2
271
5
272
5
273
2
274
2
275
0
280
0
281
0
282
0
283
1
284
4
285
0
286
0
287
3
288
0
340
11
  0
ENDTAB
  0
ENDSEC
  0
SECTION
  2
BLOCKS
  0
BLOCK
  5
20
100
AcDbEntity
  8
0
100
AcDbBlockBegin
  2
*Model_Space
 70
0
 10
0.0
 20
0.0
 30
0.0
  3
*Model_Space
  1

  0
ENDBLK
  5
21
100
AcDbEntity
  8
0
100
AcDbBlockEnd
  0
BLOCK
  5
1C
100
AcDbEntity
  8
0
100
AcDbBlockBegin
  2
*Paper_Space
 70
0
 10
0.0
 20
0.0
 30
0.0
  3
*Paper_Space
  1

  0
ENDBLK
  5
1D
100
AcDbEntity
  8
0
100
AcDbBlockEnd
  0
ENDSEC
  0
SECTION
  2
ENTITIES
  0
LINE
  5
215
100
AcDbEntity
  8
0
100
AcDbLine
 62
7
  6
CONTINUOUS
 10
116.3829443024
 20
22.9639972172
 11
116.3269383459
 21
22.9483327403
  0
LINE
  5
216
100
AcDbEntity
  8
0
100
AcDbLine
 62
7
  6
CONTINUOUS
 10
116.4435444186
 20
22.9800931141
 11
116.3829443024
 21
22.9639972172
  0
LINE
  5
217
100
AcDbEntity
  8
0
100
AcDbLine
 62
7
  6
CONTINUOUS
 10
150.7431597217
 20
0.0216166823
 11
150.7536757694
 21
0.024265915
  0
LINE
  5
218
100
AcDbEntity
  8
0
100
AcDbLine
 62
7
  6
CONTINUOUS
 10
116.509500078
 20
22.9966189073
 11
116.4435444186
 21
22.9800931141
  0
LINE
  5
219
100
AcDbEntity
  8
0
100
AcDbLine
 62
7
  6
CONTINUOUS
 10
116.3273383602
 20
22.951507452
 11
116.5954249741
 21
23.0184717791
  0
LINE
  5
21A
100
AcDbEntity
  8
0
100
AcDbLine
 62
7
  6
CONTINUOUS
 10
150.7344725949
 20
0.0198788592
 11
150.7431597217
 21
0.0216166823
  0
LINE
  5
21B
100
AcDbEntity
  8
0
100
AcDbLine
 62
7
  6
CONTINUOUS
 10
150.727026406
 20
0.018690824
 11
150.7344725949
 21
0.0198788592
  0
LINE
  5
21C
100
AcDbEntity
  8
0
100
AcDbLine
 62
7
  6
CONTINUOUS
 10
150.7204268595
 20
0.0178500965
 11
150.727026406
 21
0.018690824
  0
LINE
  5
21D
100
AcDbEntity
  8
0
100
AcDbLine
 62
7
  6
CONTINUOUS
 10
150.7145658754
 20
0.0172511041
 11
150.7204268595
 21
0.0178500965
  0
LINE
  5
21E
100
AcDbEntity
  8
0
100
AcDbLine
 62
7
  6
CONTINUOUS
 10
150.7092372364
 20
0.0168088677
 11
150.7145658754
 21
0.0172511041
  0
LINE
  5
21F
100
AcDbEntity
  8
0
100
AcDbLine
 62
7
  6
CONTINUOUS
 10
150.7041484342
 20
0.0164610738
 11
150.7092372364
 21
0.0168088677
  0
LINE
  5
220
100
AcDbEntity
  8
DEFAULT_2
100
AcDbLine
 62
8
  6
CONTINUOUS
 10
145.0535261336
 20
2.5487746881
 11
145.1119447808
 21
2.5522751364
  0
LINE
  5
221
100
AcDbEntity
  8
0
100
AcDbLine
 62
7
  6
CONTINUOUS
 10
150.6990786911
 20
0.0161723201
 11
150.7041484342
 21
0.0164610738
  0
LINE
  5
222
100
AcDbEntity
  8
0
100
AcDbLine
 62
7
  6
CONTINUOUS
 10
150.6938760539
 20
0.0159229449
 11
150.6990786911
 21
0.0161723201
  0
LINE
  5
223
100
AcDbEntity
  8
0
100
AcDbLine
 62
7
  6
CONTINUOUS
 10
150.6884368065
 20
0.015701713
 11
150.6938760539
 21
0.0159229449
  0
LINE
  5
224
100
AcDbEntity
  8
0
100
AcDbLine
 62
7
  6
CONTINUOUS
 10
150.682691662
 20
0.0155019955
 11
150.6884368065
 21
0.015701713
  0
LINE
  5
225
100
AcDbEntity
  8
0
100
AcDbLine
 62
7
  6
CONTINUOUS
 10
150.6700397504
 20
0.0151504083
 11
150.682691662
 21
0.0155019955
  0
LINE
  5
226
100
AcDbEntity
  8
0
100
AcDbLine
 62
7
  6
CONTINUOUS
 10
150.6555051933
 20
0.0148469126
 11
150.671674821
 21
0.01519052
  0
LINE
  5
227
100
AcDbEntity
  8
0
100
AcDbLine
 62
7
  6
CONTINUOUS
 10
150.6328027383
 20
0.0145032654
 11
150.6577006909
 21
0.0148877051
  0
LINE
  5
228
100
AcDbEntity
  8
0
100
AcDbLine
 62
7
  6
CONTINUOUS
 10
116.5818025712
 20
23.0135648382
 11
116.509500078
 21
22.9966189073
  0
LINE
  5
229
100
AcDbEntity
  8
0
100
AcDbLine
 62
7
  6
CONTINUOUS
 10
150.6025516536
 20
0.0141919375
 11
150.6387859852
 21
0.0145821659
  0
LINE
  5
22A
100
AcDbEntity
  8
0
100
AcDbLine
 62
7
  6
CONTINUOUS
 10
119.2134664216
 20
0.0153182668
 11
119.4670181726
 21
0.0176306357
  0
LINE
  5
22B
100
AcDbEntity
  8
0
100
AcDbLine
 62
7
  6
CONTINUOUS
 10
150.545889153
 20
0.0138537945
 11
150.609114411
 21
0.0142490622
  0
LINE
  5
22C
100
AcDbEntity
  8
0
100
AcDbLine
 62
7
  6
CONTINUOUS
 10
119.4670181726
 20
0.0176306357
 11
119.5560437418
 21
0.018166376
  0
LINE
  5
22D
100
AcDbEntity
  8
0
100
AcDbLine
 62
7
  6
CONTINUOUS
 10
118.9616222727
 20
0.0142541934
 11
119.2142192477
 21
0.0153231728
  0
LINE
  5
22E
100
AcDbEntity
  8
0
100
AcDbLine
 62
7
  6
CONTINUOUS
 10
116.6617126755
 20
23.0308923882
 11
116.5818025712
 21
23.0135648382
  0
LINE
  5
22F
100
AcDbEntity
  8
0
100
AcDbLine
 62
7
  6
CONTINUOUS
 10
150.4160591325
 20
0.0136478771
 11
150.5528998484
 21
0.0138838141
  0
LINE
  5
230
100
AcDbEntity
  8
0
100
AcDbLine
 62
7
  6
CONTINUOUS
 10
119.5560437418
 20
0.018166376
 11
149.620476658
 21
0.01830585
  0
LINE
  5
231
100
AcDbEntity
  8
0
100
AcDbLine
 62
7
  6
CONTINUOUS
 10
118.7826732088
 20
0.0142860176
 11
118.9621439073
 21
0.0142548275
  0
LINE
  5
232
100
AcDbEntity
  8
0
100
AcDbLine
 62
7
  6
CONTINUOUS
 10
149.620476658
 20
0.0183058547
 11
149.6967601682
 21
0.0181391487
  0
LINE
  5
233
100
AcDbEntity
  8
0
100
AcDbLine
 62
7
  6
CONTINUOUS
 10
150.1649993184
 20
0.0143334067
 11
150.4232938051
 21
0.0136463868
  0
LINE
  5
234
100
AcDbEntity
  8
0
100
AcDbLine
 62
7
  6
CONTINUOUS
 10
118.6930030615
 20
0.0147357485
 11
118.7830066577
 21
0.0142846119
  0
LINE
  5
235
100
AcDbEntity
  8
0
100
AcDbLine
 62
7
  6
CONTINUOUS
 10
149.6967601682
 20
0.0181391487
 11
149.7951341572
 21
0.017508059
  0
LINE
  5
236
100
AcDbEntity
  8
0
100
AcDbLine
 62
7
  6
CONTINUOUS
 10
149.9931748837
 20
0.0154935456
 11
150.1907816945
 21
0.0142104383
  0
LINE
  5
237
100
AcDbEntity
  8
0
100
AcDbLine
 62
7
  6
CONTINUOUS
 10
118.6527461089
 20
0.0151493367
 11
118.6932363932
 21
0.0147332976
  0
LINE
  5
238
100
AcDbEntity
  8
0
100
AcDbLine
 62
7
  6
CONTINUOUS
 10
116.7509212637
 20
23.0485251718
 11
116.6617126755
 21
23.0308923882
  0
LINE
  5
239
100
AcDbEntity
  8
DEFAULT_2
100
AcDbLine
 62
8
  6
CONTINUOUS
 10
141.6158550775
 20
1.8454303478
 11
144.156456742
 21
1.8454303478
  0
LINE
  5
23A
100
AcDbEntity
  8
0
100
AcDbLine
 62
7
  6
CONTINUOUS
 10
149.7945649858
 20
0.0175138406
 11
149.9946215639
 21
0.0154812025
  0
LINE
  5
23B
100
AcDbEntity
  8
0
100
AcDbLine
 62
7
  6
CONTINUOUS
 10
118.6309519715
 20
0.0154800179
 11
118.6527461089
 21
0.0151493367
  0
LINE
  5
23C
100
AcDbEntity
  8
0
100
AcDbLine
 62
7
  6
CONTINUOUS
 10
118.6127583834
 20
0.0158520045
 11
118.6309519715
 21
0.0154800179
  0
LINE
  5
23D
100
AcDbEntity
  8
0
100
AcDbLine
 62
7
  6
CONTINUOUS
 10
116.5954249741
 20
23.0184717791
 11
116.8706105594
 21
23.0703415078
  0
LINE
  5
23E
100
AcDbEntity
  8
0
100
AcDbLine
 62
7
  6
CONTINUOUS
 10
118.6048174002
 20
0.0160546627
 11
118.6215855831
 21
0.0156571391
  0
LINE
  5
23F
100
AcDbEntity
  8
0
100
AcDbLine
 62
7
  6
CONTINUOUS
 10
118.5976354161
 20
0.0162662074
 11
118.6128923805
 21
0.0158481605
  0
LINE
  5
240
100
AcDbEntity
  8
0
100
AcDbLine
 62
7
  6
CONTINUOUS
 10
118.5908855754
 20
0.0164976126
 11
118.5976354161
 21
0.0162662074
  0
LINE
  5
241
100
AcDbEntity
  8
0
100
AcDbLine
 62
7
  6
CONTINUOUS
 10
116.8517501022
 20
23.0663151195
 11
116.7509212637
 21
23.0485251718
  0
LINE
  5
242
100
AcDbEntity
  8
DEFAULT_2
100
AcDbLine
 62
8
  6
CONTINUOUS
 10
139.5257140094
 20
2.4942504771
 11
140.7754716861
 21
2.4798010249
  0
LINE
  5
243
100
AcDbEntity
  8
0
100
AcDbLine
 62
7
  6
CONTINUOUS
 10
118.5907843451
 20
0.0165020541
 11
118.5975241759
 21
0.0162704356
  0
LINE
  5
244
100
AcDbEntity
  8
DEFAULT_2
100
AcDbLine
 62
8
  6
CONTINUOUS
 10
138.1592497974
 20
2.5167940151
 11
139.5257140094
 21
2.4942504771
  0
LINE
  5
245
100
AcDbEntity
  8
0
100
AcDbLine
 62
7
  6
CONTINUOUS
 10
118.5845921095
 20
0.0167490596
 11
118.5908855754
 21
0.0164976126
  0
LINE
  5
246
100
AcDbEntity
  8
DEFAULT_2
100
AcDbLine
 62
8
  6
CONTINUOUS
 10
136.6638366004
 20
2.5486965213
 11
138.1592497974
 21
2.5167940151
  0
LINE
  5
247
100
AcDbEntity
  8
0
100
AcDbLine
 62
7
  6
CONTINUOUS
 10
118.5786617488
 20
0.0170264598
 11
118.5845921095
 21
0.0167490596
  0
LINE
  5
248
100
AcDbEntity
  8
DEFAULT_2
100
AcDbLine
 62
8
  6
CONTINUOUS
 10
135.0267004338
 20
2.591200892
 11
136.6638366004
 21
2.5486965213
  0
LINE
  5
249
100
AcDbEntity
  8
0
100
AcDbLine
 62
7
  6
CONTINUOUS
 10
118.5729972936
 20
0.0173384936
 11
118.5786617488
 21
0.0170264598
  0
LINE
  5
24A
100
AcDbEntity
  8
0
100
AcDbLine
 62
7
  6
CONTINUOUS
 10
118.5729182005
 20
0.0173439408
 11
118.5785768355
 21
0.0170314715
  0
LINE
  5
24B
100
AcDbEntity
  8
0
100
AcDbLine
 62
7
  6
CONTINUOUS
 10
116.9674990383
 20
23.0839799346
 11
116.8517501022
 21
23.0663151195
  0
LINE
  5
24C
100
AcDbEntity
  8
DEFAULT_2
100
AcDbLine
 62
8
  6
CONTINUOUS
 10
124.1363759625
 20
2.9478447293
 11
125.4474948375
 21
2.909177262
  0
LINE
  5
24D
100
AcDbEntity
  8
DEFAULT_2
100
AcDbLine
 62
8
  6
CONTINUOUS
 10
133.2354009614
 20
2.6452729848
 11
135.0267004338
 21
2.591200892
  0
LINE
  5
24E
100
AcDbEntity
  8
DEFAULT_2
100
AcDbLine
 62
8
  6
CONTINUOUS
 10
125.4474948375
 20
2.909177262
 11
126.7585096837
 21
2.8670754098
  0
LINE
  5
24F
100
AcDbEntity
  8
DEFAULT_2
100
AcDbLine
 62
8
  6
CONTINUOUS
 10
131.2757178775
 20
2.7106858253
 11
133.2354009614
 21
2.6452729848
  0
LINE
  5
250
100
AcDbEntity
  8
DEFAULT_2
100
AcDbLine
 62
8
  6
CONTINUOUS
 10
126.7585096837
 20
2.8670754098
 11
129.1263811757
 21
2.7857919453
  0
LINE
  5
251
100
AcDbEntity
  8
DEFAULT_2
100
AcDbLine
 62
8
  6
CONTINUOUS
 10
129.1263811757
 20
2.7857919453
 11
131.2757178775
 21
2.7106858253
  0
LINE
  5
252
100
AcDbEntity
  8
0
100
AcDbLine
 62
7
  6
CONTINUOUS
 10
118.5674699401
 20
0.0176996703
 11
118.5729972936
 21
0.0173384936
  0
LINE
  5
253
100
AcDbEntity
  8
0
100
AcDbLine
 62
7
  6
CONTINUOUS
 10
116.8706105594
 20
23.0703415078
 11
117.1510688325
 21
23.1064286909
  0
LINE
  5
254
100
AcDbEntity
  8
0
100
AcDbLine
 62
7
  6
CONTINUOUS
 10
118.5619054264
 20
0.018134812
 11
118.5674699401
 21
0.0176996703
  0
LINE
  5
255
100
AcDbEntity
  8
0
100
AcDbLine
 62
7
  6
CONTINUOUS
 10
117.1030806963
 20
23.1009896003
 11
116.9674990383
 21
23.0839799346
  0
LINE
  5
256
100
AcDbEntity
  8
0
100
AcDbLine
 62
7
  6
CONTINUOUS
 10
118.55606223
 20
0.018687693
 11
118.5619054264
 21
0.018134812
  0
LINE
  5
257
100
AcDbEntity
  8
0
100
AcDbLine
 62
7
  6
CONTINUOUS
 10
150.3769251626
 20
0.0
 11
150.2523978753
 21
0.0108606956
  0
LINE
  5
258
100
AcDbEntity
  8
0
100
AcDbLine
 62
7
  6
CONTINUOUS
 10
117.2662989913
 20
23.1162918126
 11
117.1030806963
 21
23.1009896003
  0
LINE
  5
259
100
AcDbEntity
  8
0
100
AcDbLine
 62
7
  6
CONTINUOUS
 10
118.5496660582
 20
0.0194292347
 11
118.55606223
 21
0.018687693
  0
LINE
  5
25A
100
AcDbEntity
  8
0
100
AcDbLine
 62
7
  6
CONTINUOUS
 10
155.6250927939
 20
20.2484543481
 11
155.6234951158
 21
20.263015723
  0
LINE
  5
25B
100
AcDbEntity
  8
0
100
AcDbLine
 62
7
  6
CONTINUOUS
 10
155.6361867201
 20
20.0954303478
 11
155.6348159779
 21
20.1080405804
  0
LINE
  5
25C
100
AcDbEntity
  8
0
100
AcDbLine
 62
7
  6
CONTINUOUS
 10
155.6265630182
 20
20.2342198501
 11
155.6250878125
 21
20.2485011325
  0
LINE
  5
25D
100
AcDbEntity
  8
0
100
AcDbLine
 62
7
  6
CONTINUOUS
 10
155.6279246141
 20
20.2201783548
 11
155.6265674403
 21
20.2341756714
  0
LINE
  5
25E
100
AcDbEntity
  8
0
100
AcDbLine
 62
7
  6
CONTINUOUS
 10
155.6291657628
 20
20.2065062616
 11
155.6279207077
 21
20.2202199815
  0
LINE
  5
25F
100
AcDbEntity
  8
0
100
AcDbLine
 62
7
  6
CONTINUOUS
 10
155.6303060863
 20
20.1930464579
 11
155.6291691951
 21
20.2064671323
  0
LINE
  5
260
100
AcDbEntity
  8
0
100
AcDbLine
 62
7
  6
CONTINUOUS
 10
155.6313402344
 20
20.179920078
 11
155.6303060863
 21
20.1930464579
  0
LINE
  5
261
100
AcDbEntity
  8
0
100
AcDbLine
 62
7
  6
CONTINUOUS
 10
155.6322766122
 20
20.167090909
 11
155.6313402344
 21
20.179920078
  0
LINE
  5
262
100
AcDbEntity
  8
0
100
AcDbLine
 62
7
  6
CONTINUOUS
 10
155.6331141437
 20
20.1546547307
 11
155.6322766122
 21
20.167090909
  0
LINE
  5
263
100
AcDbEntity
  8
0
100
AcDbLine
 62
7
  6
CONTINUOUS
 10
118.3810363276
 20
0.2017452081
 11
118.3819308137
 21
0.1878723868
  0
LINE
  5
264
100
AcDbEntity
  8
0
100
AcDbLine
 62
7
  6
CONTINUOUS
 10
155.6338253822
 20
20.1431845805
 11
155.6331141437
 21
20.1546547307
  0
LINE
  5
265
100
AcDbEntity
  8
0
100
AcDbLine
 62
7
  6
CONTINUOUS
 10
155.6345947382
 20
20.1295433424
 11
155.6338253822
 21
20.1431845805
  0
LINE
  5
266
100
AcDbEntity
  8
0
100
AcDbLine
 62
7
  6
CONTINUOUS
 10
155.6352078637
 20
20.1174378443
 11
155.6345947382
 21
20.1295433424
  0
LINE
  5
267
100
AcDbEntity
  8
0
100
AcDbLine
 62
7
  6
CONTINUOUS
 10
155.635694614
 20
20.1067554036
 11
155.6352078637
 21
20.1174378443
  0
LINE
  5
268
100
AcDbEntity
  8
0
100
AcDbLine
 62
7
  6
CONTINUOUS
 10
155.635921773
 20
20.1013328385
 11
155.635694614
 21
20.1067554036
  0
LINE
  5
269
100
AcDbEntity
  8
0
100
AcDbLine
 62
7
  6
CONTINUOUS
 10
155.6360060396
 20
20.0992557217
 11
155.6359660915
 21
20.1002438019
  0
LINE
  5
26A
100
AcDbEntity
  8
0
100
AcDbLine
 62
9
  6
CONTINUOUS
 10
134.6361541895
 20
23.118109041
 11
134.6361520259
 21
23.119773774
  0
LINE
  5
26B
100
AcDbEntity
  8
0
100
AcDbLine
 62
7
  6
CONTINUOUS
 10
113.6368288046
 20
20.1115363162
 11
113.6362663354
 21
20.0982604658
  0
LINE
  5
26C
100
AcDbEntity
  8
0
100
AcDbLine
 62
7
  6
CONTINUOUS
 10
113.6373658408
 20
20.1227677258
 11
113.6368288046
 21
20.1115363162
  0
LINE
  5
26D
100
AcDbEntity
  8
0
100
AcDbLine
 62
7
  6
CONTINUOUS
 10
113.6379088873
 20
20.1330858924
 11
113.6373658408
 21
20.1227677258
  0
LINE
  5
26E
100
AcDbEntity
  8
0
100
AcDbLine
 62
7
  6
CONTINUOUS
 10
113.6386029952
 20
20.1451310759
 11
113.6379088873
 21
20.1330858924
  0
LINE
  5
26F
100
AcDbEntity
  8
0
100
AcDbLine
 62
7
  6
CONTINUOUS
 10
150.890508873
 20
0.1880671885
 11
150.8912326046
 21
0.2001805295
  0
LINE
  5
270
100
AcDbEntity
  8
0
100
AcDbLine
 62
7
  6
CONTINUOUS
 10
113.6392588671
 20
20.1555993288
 11
113.6386029952
 21
20.1451310759
  0
LINE
  5
271
100
AcDbEntity
  8
0
100
AcDbLine
 62
7
  6
CONTINUOUS
 10
113.6400666197
 20
20.1675382312
 11
113.6392588671
 21
20.1555993288
  0
LINE
  5
272
100
AcDbEntity
  8
0
100
AcDbLine
 62
7
  6
CONTINUOUS
 10
113.6410285005
 20
20.1806687671
 11
113.6400666197
 21
20.1675382312
  0
LINE
  5
273
100
AcDbEntity
  8
0
100
AcDbLine
 62
7
  6
CONTINUOUS
 10
113.6421503639
 20
20.1948079198
 11
113.6410285005
 21
20.1806687671
  0
LINE
  5
274
100
AcDbEntity
  8
0
100
AcDbLine
 62
7
  6
CONTINUOUS
 10
113.6429939819
 20
20.2047650312
 11
113.6421503639
 21
20.1948079198
  0
LINE
  5
275
100
AcDbEntity
  8
0
100
AcDbLine
 62
7
  6
CONTINUOUS
 10
150.2523978753
 20
0.0108606956
 11
150.2526685944
 21
0.0139647255
  0
LINE
  5
276
100
AcDbEntity
  8
0
100
AcDbLine
 62
7
  6
CONTINUOUS
 10
150.3781178991
 20
0.0136757575
 11
150.3769251626
 21
0.0
  0
LINE
  5
277
100
AcDbEntity
  8
0
100
AcDbLine
 62
7
  6
CONTINUOUS
 10
113.636153504
 20
20.0954028485
 11
113.6361559119
 21
20.0954303478
  0
LINE
  5
278
100
AcDbEntity
  8
0
100
AcDbLine
 62
7
  6
CONTINUOUS
 10
113.643929184
 20
20.2152390541
 11
113.6429939819
 21
20.2047650312
  0
LINE
  5
279
100
AcDbEntity
  8
0
100
AcDbLine
 62
7
  6
CONTINUOUS
 10
113.6449725693
 20
20.2263267224
 11
113.643929184
 21
20.2152390541
  0
LINE
  5
27A
100
AcDbEntity
  8
0
100
AcDbLine
 62
7
  6
CONTINUOUS
 10
113.646135737
 20
20.2380523363
 11
113.6449725693
 21
20.2263267224
  0
LINE
  5
27B
100
AcDbEntity
  8
0
100
AcDbLine
 62
7
  6
CONTINUOUS
 10
113.6474257621
 20
20.2503883005
 11
113.646135737
 21
20.2380523363
  0
LINE
  5
27C
100
AcDbEntity
  8
0
100
AcDbLine
 62
7
  6
CONTINUOUS
 10
113.6374958395
 20
20.1080405611
 11
113.6361250993
 21
20.0954303478
  0
LINE
  5
27D
100
AcDbEntity
  8
0
100
AcDbLine
 62
7
  6
CONTINUOUS
 10
113.6488522185
 20
20.2633298891
 11
113.6474257621
 21
20.2503883005
  0
LINE
  5
27E
100
AcDbEntity
  8
0
100
AcDbLine
 62
7
  6
CONTINUOUS
 10
113.6401322537
 20
20.1309060428
 11
113.6374958395
 21
20.1080405611
  0
LINE
  5
27F
100
AcDbEntity
  8
0
100
AcDbLine
 62
7
  6
CONTINUOUS
 10
113.6504290137
 20
20.2769054347
 11
113.6488522185
 21
20.2633298891
  0
LINE
  5
280
100
AcDbEntity
  8
0
100
AcDbLine
 62
7
  6
CONTINUOUS
 10
113.6521713573
 20
20.2911439018
 11
113.6504290137
 21
20.2769054347
  0
LINE
  5
281
100
AcDbEntity
  8
0
100
AcDbLine
 62
7
  6
CONTINUOUS
 10
113.6429494236
 20
20.153663567
 11
113.6401322537
 21
20.1309060428
  0
LINE
  5
282
100
AcDbEntity
  8
0
100
AcDbLine
 62
7
  6
CONTINUOUS
 10
113.6540913423
 20
20.3060406612
 11
113.6521713573
 21
20.2911439018
  0
LINE
  5
283
100
AcDbEntity
  8
0
100
AcDbLine
 62
7
  6
CONTINUOUS
 10
113.6458014326
 20
20.1752601406
 11
113.6429494236
 21
20.153663567
  0
LINE
  5
284
100
AcDbEntity
  8
0
100
AcDbLine
 62
9
  6
CONTINUOUS
 10
118.1328529706
 20
23.1199815774
 11
118.1326310706
 21
23.1183359248
  0
LINE
  5
285
100
AcDbEntity
  8
0
100
AcDbLine
 62
7
  6
CONTINUOUS
 10
113.6561952348
 20
20.3215457634
 11
113.6540913423
 21
20.3060406612
  0
LINE
  5
286
100
AcDbEntity
  8
0
100
AcDbLine
 62
7
  6
CONTINUOUS
 10
113.6486849622
 20
20.1958657016
 11
113.6458014326
 21
20.1752601406
  0
LINE
  5
287
100
AcDbEntity
  8
DEFAULT_2
100
AcDbLine
 62
8
  6
CONTINUOUS
 10
148.7036668653
 20
22.3463745418
 11
146.0425183142
 21
3.4113187143
  0
LINE
  5
288
100
AcDbEntity
  8
0
100
AcDbLine
 62
7
  6
CONTINUOUS
 10
113.6584882585
 20
20.337607904
 11
113.6561915088
 21
20.3215189875
  0
LINE
  5
289
100
AcDbEntity
  8
0
100
AcDbLine
 62
7
  6
CONTINUOUS
 10
113.6516088772
 20
20.2156884455
 11
113.6486849622
 21
20.1958657016
  0
LINE
  5
28A
100
AcDbEntity
  8
0
100
AcDbLine
 62
7
  6
CONTINUOUS
 10
113.6609766724
 20
20.3541890803
 11
113.6584882585
 21
20.337607904
  0
LINE
  5
28B
100
AcDbEntity
  8
0
100
AcDbLine
 62
7
  6
CONTINUOUS
 10
113.6545573004
 20
20.234736499
 11
113.6516088772
 21
20.2156884455
  0
LINE
  5
28C
100
AcDbEntity
  8
0
100
AcDbLine
 62
7
  6
CONTINUOUS
 10
150.8868439121
 20
0.1646440031
 11
150.890508873
 21
0.1880671885
  0
LINE
  5
28D
100
AcDbEntity
  8
0
100
AcDbLine
 62
7
  6
CONTINUOUS
 10
113.6636671206
 20
20.3712581326
 11
113.6609766724
 21
20.3541890803
  0
LINE
  5
28E
100
AcDbEntity
  8
0
100
AcDbLine
 62
7
  6
CONTINUOUS
 10
113.6575147914
 20
20.2530154451
 11
113.6545573004
 21
20.234736499
  0
LINE
  5
28F
100
AcDbEntity
  8
0
100
AcDbLine
 62
7
  6
CONTINUOUS
 10
113.6665656667
 20
20.3887839318
 11
113.6636671206
 21
20.3712581326
  0
LINE
  5
290
100
AcDbEntity
  8
0
100
AcDbLine
 62
7
  6
CONTINUOUS
 10
113.6604462751
 20
20.2704121485
 11
113.6575147914
 21
20.2530154451
  0
LINE
  5
291
100
AcDbEntity
  8
0
100
AcDbLine
 62
7
  6
CONTINUOUS
 10
113.6696777888
 20
20.4067357435
 11
113.6665656667
 21
20.3887839318
  0
LINE
  5
292
100
AcDbEntity
  8
0
100
AcDbLine
 62
7
  6
CONTINUOUS
 10
113.6633703039
 20
20.2871273018
 11
113.6604462751
 21
20.2704121485
  0
LINE
  5
293
100
AcDbEntity
  8
0
100
AcDbLine
 62
7
  6
CONTINUOUS
 10
113.6662451612
 20
20.3030042291
 11
113.6633703039
 21
20.2871273018
  0
LINE
  5
294
100
AcDbEntity
  8
0
100
AcDbLine
 62
7
  6
CONTINUOUS
 10
113.6730040175
 20
20.4250599788
 11
113.6696714599
 21
20.4067000656
  0
LINE
  5
295
100
AcDbEntity
  8
0
100
AcDbLine
 62
7
  6
CONTINUOUS
 10
113.6765815451
 20
20.4438997721
 11
113.6730109809
 21
20.4250974857
  0
LINE
  5
296
100
AcDbEntity
  8
0
100
AcDbLine
 62
7
  6
CONTINUOUS
 10
113.6804085757
 20
20.4631803801
 11
113.6765815451
 21
20.4438997721
  0
LINE
  5
297
100
AcDbEntity
  8
0
100
AcDbLine
 62
7
  6
CONTINUOUS
 10
113.6845123997
 20
20.4829750482
 11
113.6804085757
 21
20.4631803801
  0
LINE
  5
298
100
AcDbEntity
  8
0
100
AcDbLine
 62
7
  6
CONTINUOUS
 10
113.686665055
 20
20.493030733
 11
113.6845031328
 21
20.4829312921
  0
LINE
  5
299
100
AcDbEntity
  8
0
100
AcDbLine
 62
7
  6
CONTINUOUS
 10
113.6889143938
 20
20.5033166469
 11
113.6866747717
 21
20.4930756427
  0
LINE
  5
29A
100
AcDbEntity
  8
0
100
AcDbLine
 62
7
  6
CONTINUOUS
 10
113.6912339907
 20
20.5137012609
 11
113.6889143938
 21
20.5033166469
  0
LINE
  5
29B
100
AcDbEntity
  8
0
100
AcDbLine
 62
7
  6
CONTINUOUS
 10
113.6936363431
 20
20.5242325194
 11
113.6912339907
 21
20.5137012609
  0
LINE
  5
29C
100
AcDbEntity
  8
0
100
AcDbLine
 62
7
  6
CONTINUOUS
 10
113.6961242927
 20
20.5349133179
 11
113.6936363431
 21
20.5242325194
  0
LINE
  5
29D
100
AcDbEntity
  8
0
100
AcDbLine
 62
7
  6
CONTINUOUS
 10
113.69870072
 20
20.5457463335
 11
113.6961242927
 21
20.5349133179
  0
LINE
  5
29E
100
AcDbEntity
  8
0
100
AcDbLine
 62
7
  6
CONTINUOUS
 10
113.7013685386
 20
20.5567340135
 11
113.69870072
 21
20.5457463335
  0
LINE
  5
29F
100
AcDbEntity
  8
0
100
AcDbLine
 62
7
  6
CONTINUOUS
 10
113.7041306733
 20
20.5678784934
 11
113.7013685386
 21
20.5567340135
  0
LINE
  5
2A0
100
AcDbEntity
  8
0
100
AcDbLine
 62
7
  6
CONTINUOUS
 10
113.7069904025
 20
20.5791829583
 11
113.7041306733
 21
20.5678784934
  0
LINE
  5
2A1
100
AcDbEntity
  8
0
100
AcDbLine
 62
7
  6
CONTINUOUS
 10
113.7099516622
 20
20.5906526927
 11
113.7069904025
 21
20.5791829583
  0
LINE
  5
2A2
100
AcDbEntity
  8
0
100
AcDbLine
 62
7
  6
CONTINUOUS
 10
113.7130185376
 20
20.6022929471
 11
113.7099516622
 21
20.5906526927
  0
LINE
  5
2A3
100
AcDbEntity
  8
0
100
AcDbLine
 62
7
  6
CONTINUOUS
 10
113.7161952226
 20
20.6141087759
 11
113.7130185376
 21
20.6022929471
  0
LINE
  5
2A4
100
AcDbEntity
  8
0
100
AcDbLine
 62
7
  6
CONTINUOUS
 10
113.7194859843
 20
20.6261049079
 11
113.7161952226
 21
20.6141087759
  0
LINE
  5
2A5
100
AcDbEntity
  8
0
100
AcDbLine
 62
7
  6
CONTINUOUS
 10
113.722895152
 20
20.6382857193
 11
113.7194859843
 21
20.6261049079
  0
LINE
  5
2A6
100
AcDbEntity
  8
0
100
AcDbLine
 62
7
  6
CONTINUOUS
 10
113.7264271224
 20
20.6506552668
 11
113.722895152
 21
20.6382857193
  0
LINE
  5
2A7
100
AcDbEntity
  8
0
100
AcDbLine
 62
7
  6
CONTINUOUS
 10
150.8805428419
 20
0.1426755114
 11
150.8868439121
 21
0.1646440031
  0
LINE
  5
2A8
100
AcDbEntity
  8
0
100
AcDbLine
 62
7
  6
CONTINUOUS
 10
113.7300864215
 20
20.6632175125
 11
113.7264271224
 21
20.6506552668
  0
LINE
  5
2A9
100
AcDbEntity
  8
0
100
AcDbLine
 62
7
  6
CONTINUOUS
 10
113.7338777674
 20
20.6759765264
 11
113.7300864215
 21
20.6632175125
  0
LINE
  5
2AA
100
AcDbEntity
  8
0
100
AcDbLine
 62
7
  6
CONTINUOUS
 10
113.7378060766
 20
20.6889365043
 11
113.7338777674
 21
20.6759765264
  0
LINE
  5
2AB
100
AcDbEntity
  8
0
100
AcDbLine
 62
7
  6
CONTINUOUS
 10
113.7418759845
 20
20.7021001918
 11
113.7378060766
 21
20.6889365043
  0
LINE
  5
2AC
100
AcDbEntity
  8
0
100
AcDbLine
 62
7
  6
CONTINUOUS
 10
113.7460687786
 20
20.7153965591
 11
113.7418536737
 21
20.7020287334
  0
LINE
  5
2AD
100
AcDbEntity
  8
0
100
AcDbLine
 62
7
  6
CONTINUOUS
 10
113.7504591603
 20
20.7290474874
 11
113.7460921209
 21
20.715469859
  0
LINE
  5
2AE
100
AcDbEntity
  8
0
100
AcDbLine
 62
7
  6
CONTINUOUS
 10
113.7549838814
 20
20.7428410026
 11
113.7504591603
 21
20.7290474874
  0
LINE
  5
2AF
100
AcDbEntity
  8
0
100
AcDbLine
 62
7
  6
CONTINUOUS
 10
113.7596760169
 20
20.756866198
 11
113.7549838814
 21
20.7428410026
  0
LINE
  5
2B0
100
AcDbEntity
  8
0
100
AcDbLine
 62
7
  6
CONTINUOUS
 10
113.7645456779
 20
20.77113846
 11
113.7596760169
 21
20.756866198
  0
LINE
  5
2B1
100
AcDbEntity
  8
0
100
AcDbLine
 62
7
  6
CONTINUOUS
 10
113.7696031282
 20
20.7856720996
 11
113.7645456779
 21
20.77113846
  0
LINE
  5
2B2
100
AcDbEntity
  8
0
100
AcDbLine
 62
7
  6
CONTINUOUS
 10
113.7748587525
 20
20.8004803012
 11
113.7696031282
 21
20.7856720996
  0
LINE
  5
2B3
100
AcDbEntity
  8
0
100
AcDbLine
 62
7
  6
CONTINUOUS
 10
113.7803216234
 20
20.8155712477
 11
113.7748587525
 21
20.8004803012
  0
LINE
  5
2B4
100
AcDbEntity
  8
0
100
AcDbLine
 62
7
  6
CONTINUOUS
 10
113.7859912044
 20
20.830926321
 11
113.7803216234
 21
20.8155712477
  0
LINE
  5
2B5
100
AcDbEntity
  8
0
100
AcDbLine
 62
7
  6
CONTINUOUS
 10
113.7918618685
 20
20.8465145691
 11
113.7859912044
 21
20.830926321
  0
LINE
  5
2B6
100
AcDbEntity
  8
0
100
AcDbLine
 62
7
  6
CONTINUOUS
 10
113.7979273185
 20
20.8623053438
 11
113.7918618685
 21
20.8465145691
  0
LINE
  5
2B7
100
AcDbEntity
  8
0
100
AcDbLine
 62
7
  6
CONTINUOUS
 10
113.8041808785
 20
20.8782691073
 11
113.7979273185
 21
20.8623053438
  0
LINE
  5
2B8
100
AcDbEntity
  8
0
100
AcDbLine
 62
7
  6
CONTINUOUS
 10
113.8105817619
 20
20.8942937689
 11
113.8041425957
 21
20.878172324
  0
LINE
  5
2B9
100
AcDbEntity
  8
0
100
AcDbLine
 62
7
  6
CONTINUOUS
 10
113.8172988059
 20
20.9107853652
 11
113.8106216126
 21
20.8943925724
  0
LINE
  5
2BA
100
AcDbEntity
  8
0
100
AcDbLine
 62
7
  6
CONTINUOUS
 10
113.8242869687
 20
20.9276086025
 11
113.8172988059
 21
20.9107853652
  0
LINE
  5
2BB
100
AcDbEntity
  8
0
100
AcDbLine
 62
7
  6
CONTINUOUS
 10
150.8719937053
 20
0.1223926407
 11
150.8805428419
 21
0.1426755114
  0
LINE
  5
2BC
100
AcDbEntity
  8
0
100
AcDbLine
 62
7
  6
CONTINUOUS
 10
113.8316148667
 20
20.94490346
 11
113.82424256
 21
20.9275027304
  0
LINE
  5
2BD
100
AcDbEntity
  8
0
100
AcDbLine
 62
7
  6
CONTINUOUS
 10
113.8394518021
 20
20.9630287287
 11
113.8316148667
 21
20.94490346
  0
LINE
  5
2BE
100
AcDbEntity
  8
0
100
AcDbLine
 62
7
  6
CONTINUOUS
 10
113.8479608749
 20
20.9822985272
 11
113.8395028644
 21
20.9631456144
  0
LINE
  5
2BF
100
AcDbEntity
  8
0
100
AcDbLine
 62
7
  6
CONTINUOUS
 10
113.8571285918
 20
21.0026097313
 11
113.8479045987
 21
20.9821724324
  0
LINE
  5
2C0
100
AcDbEntity
  8
0
100
AcDbLine
 62
7
  6
CONTINUOUS
 10
113.8670046877
 20
21.0239990322
 11
113.8571285918
 21
21.0026097313
  0
LINE
  5
2C1
100
AcDbEntity
  8
0
100
AcDbLine
 62
7
  6
CONTINUOUS
 10
113.8773830066
 20
21.0459603045
 11
113.8670046877
 21
21.0239990322
  0
LINE
  5
2C2
100
AcDbEntity
  8
0
100
AcDbLine
 62
7
  6
CONTINUOUS
 10
113.8881816806
 20
21.0682844451
 11
113.8773830066
 21
21.0459603045
  0
LINE
  5
2C3
100
AcDbEntity
  8
0
100
AcDbLine
 62
7
  6
CONTINUOUS
 10
113.8994316022
 20
21.0910051953
 11
113.8881816806
 21
21.0682844451
  0
LINE
  5
2C4
100
AcDbEntity
  8
0
100
AcDbLine
 62
7
  6
CONTINUOUS
 10
113.9111733427
 20
21.1141711882
 11
113.8994316022
 21
21.0910051953
  0
LINE
  5
2C5
100
AcDbEntity
  8
0
100
AcDbLine
 62
7
  6
CONTINUOUS
 10
113.9234420649
 20
21.1378152675
 11
113.9111733427
 21
21.1141711882
  0
LINE
  5
2C6
100
AcDbEntity
  8
0
100
AcDbLine
 62
7
  6
CONTINUOUS
 10
113.9362591137
 20
21.1619402848
 11
113.9234420649
 21
21.1378152675
  0
LINE
  5
2C7
100
AcDbEntity
  8
0
100
AcDbLine
 62
7
  6
CONTINUOUS
 10
113.949639129
 20
21.1865352571
 11
113.9362591137
 21
21.1619402848
  0
LINE
  5
2C8
100
AcDbEntity
  8
0
100
AcDbLine
 62
7
  6
CONTINUOUS
 10
113.96359345
 20
21.2115829393
 11
113.949639129
 21
21.1865352571
  0
LINE
  5
2C9
100
AcDbEntity
  8
0
100
AcDbLine
 62
7
  6
CONTINUOUS
 10
150.8615823101
 20
0.1039520709
 11
150.8719937053
 21
0.1223926407
  0
LINE
  5
2CA
100
AcDbEntity
  8
0
100
AcDbLine
 62
7
  6
CONTINUOUS
 10
113.9781356609
 20
21.23707017
 11
113.96359345
 21
21.2115829393
  0
LINE
  5
2CB
100
AcDbEntity
  8
0
100
AcDbLine
 62
7
  6
CONTINUOUS
 10
113.9932860374
 20
21.2629951415
 11
113.9781356609
 21
21.23707017
  0
LINE
  5
2CC
100
AcDbEntity
  8
0
100
AcDbLine
 62
7
  6
CONTINUOUS
 10
114.0090548519
 20
21.289338495
 11
113.9932860374
 21
21.2629951415
  0
LINE
  5
2CD
100
AcDbEntity
  8
0
100
AcDbLine
 62
7
  6
CONTINUOUS
 10
114.0255941739
 20
21.3163097727
 11
114.0091684222
 21
21.2895259534
  0
LINE
  5
2CE
100
AcDbEntity
  8
0
100
AcDbLine
 62
7
  6
CONTINUOUS
 10
114.0427147222
 20
21.3435602043
 11
114.0254749394
 21
21.3161176521
  0
LINE
  5
2CF
100
AcDbEntity
  8
0
100
AcDbLine
 62
7
  6
CONTINUOUS
 10
114.0606667274
 20
21.3714468139
 11
114.0425894712
 21
21.3433632168
  0
LINE
  5
2D0
100
AcDbEntity
  8
0
100
AcDbLine
 62
7
  6
CONTINUOUS
 10
114.0801593104
 20
21.4009774531
 11
114.0605326592
 21
21.3712410573
  0
LINE
  5
2D1
100
AcDbEntity
  8
0
100
AcDbLine
 62
7
  6
CONTINUOUS
 10
114.1015499314
 20
21.4325409452
 11
114.080010169
 21
21.4007543512
  0
LINE
  5
2D2
100
AcDbEntity
  8
0
100
AcDbLine
 62
7
  6
CONTINUOUS
 10
114.124350728
 20
21.4652755039
 11
114.1013875434
 21
21.4323045131
  0
LINE
  5
2D3
100
AcDbEntity
  8
0
100
AcDbLine
 62
7
  6
CONTINUOUS
 10
114.1481934228
 20
21.4985658586
 11
114.1241781712
 21
21.4650311436
  0
LINE
  5
2D4
100
AcDbEntity
  8
0
100
AcDbLine
 62
7
  6
CONTINUOUS
 10
150.8496856017
 20
0.0874483467
 11
150.8615823101
 21
0.1039520709
  0
LINE
  5
2D5
100
AcDbEntity
  8
0
100
AcDbLine
 62
7
  6
CONTINUOUS
 10
114.1727898152
 20
21.531965698
 11
114.1480130607
 21
21.4983174815
  0
LINE
  5
2D6
100
AcDbEntity
  8
0
100
AcDbLine
 62
7
  6
CONTINUOUS
 10
114.1979276197
 20
21.5651738159
 11
114.1726033238
 21
21.5317159073
  0
LINE
  5
2D7
100
AcDbEntity
  8
0
100
AcDbLine
 62
7
  6
CONTINUOUS
 10
114.2235741015
 20
21.5981476895
 11
114.1977364555
 21
21.5649246684
  0
LINE
  5
2D8
100
AcDbEntity
  8
0
100
AcDbLine
 62
7
  6
CONTINUOUS
 10
114.2508573482
 20
21.6322819798
 11
114.2233750512
 21
21.5978951513
  0
LINE
  5
2D9
100
AcDbEntity
  8
0
100
AcDbLine
 62
7
  6
CONTINUOUS
 10
114.2810043627
 20
21.6689364667
 11
114.2506386422
 21
21.6320120698
  0
LINE
  5
2DA
100
AcDbEntity
  8
0
100
AcDbLine
 62
7
  6
CONTINUOUS
 10
114.3128377193
 20
21.7065054886
 11
114.2807622856
 21
21.6686463964
  0
LINE
  5
2DB
100
AcDbEntity
  8
0
100
AcDbLine
 62
7
  6
CONTINUOUS
 10
114.3442555828
 20
21.7425107025
 11
114.3125906404
 21
21.7062181958
  0
LINE
  5
2DC
100
AcDbEntity
  8
0
100
AcDbLine
 62
7
  6
CONTINUOUS
 10
150.8366608409
 20
0.072915203
 11
150.8496856017
 21
0.0874483467
  0
LINE
  5
2DD
100
AcDbEntity
  8
0
100
AcDbLine
 62
7
  6
CONTINUOUS
 10
114.3765114697
 20
21.7784333811
 11
114.3442555828
 21
21.7425107025
  0
LINE
  5
2DE
100
AcDbEntity
  8
0
100
AcDbLine
 62
7
  6
CONTINUOUS
 10
114.3762473588
 20
21.7781433684
 11
114.3440106662
 21
21.7422339821
  0
LINE
  5
2DF
100
AcDbEntity
  8
0
100
AcDbLine
 62
7
  6
CONTINUOUS
 10
114.4115884961
 20
21.8163699812
 11
114.3762473588
 21
21.7781433684
  0
LINE
  5
2E0
100
AcDbEntity
  8
0
100
AcDbLine
 62
7
  6
CONTINUOUS
 10
114.4482199455
 20
21.8548081678
 11
114.4115884961
 21
21.8163699812
  0
LINE
  5
2E1
100
AcDbEntity
  8
0
100
AcDbLine
 62
7
  6
CONTINUOUS
 10
114.4479266131
 20
21.8545049623
 11
114.4113018732
 21
21.8160645652
  0
LINE
  5
2E2
100
AcDbEntity
  8
0
100
AcDbLine
 62
7
  6
CONTINUOUS
 10
114.4851932235
 20
21.8924554421
 11
114.4482199455
 21
21.8548081678
  0
LINE
  5
2E3
100
AcDbEntity
  8
0
100
AcDbLine
 62
7
  6
CONTINUOUS
 10
114.4848906182
 20
21.892151825
 11
114.4479266131
 21
21.8545049623
  0
LINE
  5
2E4
100
AcDbEntity
  8
DEFAULT_2
100
AcDbLine
 62
8
  6
CONTINUOUS
 10
144.3343792144
 20
1.9186536525
 11
144.8917259397
 21
2.4760003778
  0
LINE
  5
2E5
100
AcDbEntity
  8
0
100
AcDbLine
 62
7
  6
CONTINUOUS
 10
114.523666936
 20
21.9304755491
 11
114.4851932235
 21
21.8924554421
  0
LINE
  5
2E6
100
AcDbEntity
  8
0
100
AcDbLine
 62
7
  6
CONTINUOUS
 10
114.5233514615
 20
21.9301684012
 11
114.4848906182
 21
21.892151825
  0
LINE
  5
2E7
100
AcDbEntity
  8
0
100
AcDbLine
 62
7
  6
CONTINUOUS
 10
114.5629046106
 20
21.9681061213
 11
114.5233514615
 21
21.9301684012
  0
LINE
  5
2E8
100
AcDbEntity
  8
0
100
AcDbLine
 62
7
  6
CONTINUOUS
 10
114.6029953923
 20
22.0054276522
 11
114.5625843442
 21
21.9678034751
  0
LINE
  5
2E9
100
AcDbEntity
  8
0
100
AcDbLine
 62
7
  6
CONTINUOUS
 10
150.8228398427
 20
0.0603354638
 11
150.8366608409
 21
0.072915203
  0
LINE
  5
2EA
100
AcDbEntity
  8
0
100
AcDbLine
 62
7
  6
CONTINUOUS
 10
114.6442257806
 20
22.0426873813
 11
114.6026587447
 21
22.0051188268
  0
LINE
  5
2EB
100
AcDbEntity
  8
0
100
AcDbLine
 62
7
  6
CONTINUOUS
 10
114.6866917758
 20
22.0799397226
 11
114.6442257806
 21
22.0426873813
  0
LINE
  5
2EC
100
AcDbEntity
  8
0
100
AcDbLine
 62
7
  6
CONTINUOUS
 10
114.6863209762
 20
22.0796191991
 11
114.6438846525
 21
22.0423836024
  0
LINE
  5
2ED
100
AcDbEntity
  8
0
100
AcDbLine
 62
7
  6
CONTINUOUS
 10
114.7310459751
 20
22.1176991739
 11
114.6866917758
 21
22.0799397226
  0
LINE
  5
2EE
100
AcDbEntity
  8
0
100
AcDbLine
 62
7
  6
CONTINUOUS
 10
114.7306815402
 20
22.1173935259
 11
114.6863209762
 21
22.0796191991
  0
LINE
  5
2EF
100
AcDbEntity
  8
0
100
AcDbLine
 62
7
  6
CONTINUOUS
 10
114.7769039736
 20
22.1555758131
 11
114.7306815402
 21
22.1173935259
  0
LINE
  5
2F0
100
AcDbEntity
  8
0
100
AcDbLine
 62
7
  6
CONTINUOUS
 10
114.8263907783
 20
22.1952060856
 11
114.7769039736
 21
22.1555758131
  0
LINE
  5
2F1
100
AcDbEntity
  8
0
100
AcDbLine
 62
7
  6
CONTINUOUS
 10
114.8259669378
 20
22.1948718983
 11
114.7764905356
 21
22.1552394008
  0
LINE
  5
2F2
100
AcDbEntity
  8
0
100
AcDbLine
 62
7
  6
CONTINUOUS
 10
114.8785446231
 20
22.2356728149
 11
114.8263907783
 21
22.1952060856
  0
LINE
  5
2F3
100
AcDbEntity
  8
0
100
AcDbLine
 62
7
  6
CONTINUOUS
 10
114.878212465
 20
22.2354190888
 11
114.8259669378
 21
22.1948718983
  0
LINE
  5
2F4
100
AcDbEntity
  8
0
100
AcDbLine
 62
7
  6
CONTINUOUS
 10
114.9084329937
 20
22.2583031399
 11
114.878212465
 21
22.2354190888
  0
LINE
  5
2F5
100
AcDbEntity
  8
0
100
AcDbLine
 62
7
  6
CONTINUOUS
 10
150.8085410022
 20
0.0496605162
 11
150.8228398427
 21
0.0603354638
  0
LINE
  5
2F6
100
AcDbEntity
  8
0
100
AcDbLine
 62
7
  6
CONTINUOUS
 10
114.9386427015
 20
22.2807861355
 11
114.9084329937
 21
22.2583031399
  0
LINE
  5
2F7
100
AcDbEntity
  8
0
100
AcDbLine
 62
7
  6
CONTINUOUS
 10
114.959199637
 20
22.2958674616
 11
114.9386427015
 21
22.2807861355
  0
LINE
  5
2F8
100
AcDbEntity
  8
0
100
AcDbLine
 62
7
  6
CONTINUOUS
 10
114.9777122484
 20
22.3092966084
 11
114.9592118006
 21
22.2958763223
  0
LINE
  5
2F9
100
AcDbEntity
  8
0
100
AcDbLine
 62
7
  6
CONTINUOUS
 10
114.9967466102
 20
22.3229411134
 11
114.9777122484
 21
22.3092966084
  0
LINE
  5
2FA
100
AcDbEntity
  8
0
100
AcDbLine
 62
7
  6
CONTINUOUS
 10
115.0553822208
 20
22.3500275232
 11
115.0400269135
 21
22.3392691195
  0
LINE
  5
2FB
100
AcDbEntity
  8
0
100
AcDbLine
 62
7
  6
CONTINUOUS
 10
115.0726234067
 20
22.3619784519
 11
115.0553822208
 21
22.3500275232
  0
LINE
  5
2FC
100
AcDbEntity
  8
0
100
AcDbLine
 62
7
  6
CONTINUOUS
 10
115.0920127632
 20
22.3752578976
 11
115.0726234067
 21
22.3619784519
  0
LINE
  5
2FD
100
AcDbEntity
  8
0
100
AcDbLine
 62
7
  6
CONTINUOUS
 10
114.9967466102
 20
22.3229411134
 11
115.1444612386
 21
22.4231724049
  0
LINE
  5
2FE
100
AcDbEntity
  8
0
100
AcDbLine
 62
7
  6
CONTINUOUS
 10
115.1131979237
 20
22.3895759098
 11
115.0920127632
 21
22.3752578976
  0
LINE
  5
2FF
100
AcDbEntity
  8
0
100
AcDbLine
 62
7
  6
CONTINUOUS
 10
115.1282701776
 20
22.3996425841
 11
115.1131979237
 21
22.3895759098
  0
LINE
  5
300
100
AcDbEntity
  8
0
100
AcDbLine
 62
7
  6
CONTINUOUS
 10
115.1442132902
 20
22.4101838091
 11
115.1282701776
 21
22.3996425841
  0
LINE
  5
301
100
AcDbEntity
  8
0
100
AcDbLine
 62
7
  6
CONTINUOUS
 10
115.1611096875
 20
22.4212365756
 11
115.1442132902
 21
22.4101838091
  0
LINE
  5
302
100
AcDbEntity
  8
0
100
AcDbLine
 62
7
  6
CONTINUOUS
 10
115.1789306822
 20
22.4327633867
 11
115.1611096875
 21
22.4212365756
  0
LINE
  5
303
100
AcDbEntity
  8
0
100
AcDbLine
 62
7
  6
CONTINUOUS
 10
115.1976160883
 20
22.4447069795
 11
115.1789306822
 21
22.4327633867
  0
LINE
  5
304
100
AcDbEntity
  8
0
100
AcDbLine
 62
7
  6
CONTINUOUS
 10
115.2171272263
 20
22.4570249664
 11
115.1976160883
 21
22.4447069795
  0
LINE
  5
305
100
AcDbEntity
  8
0
100
AcDbLine
 62
7
  6
CONTINUOUS
 10
115.2374456651
 20
22.4696883364
 11
115.2171272263
 21
22.4570249664
  0
LINE
  5
306
100
AcDbEntity
  8
0
100
AcDbLine
 62
7
  6
CONTINUOUS
 10
115.2585538888
 20
22.4826689109
 11
115.2374456651
 21
22.4696883364
  0
LINE
  5
307
100
AcDbEntity
  8
0
100
AcDbLine
 62
7
  6
CONTINUOUS
 10
150.7940812317
 20
0.040816232
 11
150.8085410022
 21
0.0496605162
  0
LINE
  5
308
100
AcDbEntity
  8
0
100
AcDbLine
 62
7
  6
CONTINUOUS
 10
115.2804347487
 20
22.4959390385
 11
115.2585538888
 21
22.4826689109
  0
LINE
  5
309
100
AcDbEntity
  8
0
100
AcDbLine
 62
7
  6
CONTINUOUS
 10
115.1444612386
 20
22.4231724049
 11
115.3563768089
 21
22.5510777436
  0
LINE
  5
30A
100
AcDbEntity
  8
0
100
AcDbLine
 62
7
  6
CONTINUOUS
 10
115.3031039257
 20
22.5094909004
 11
115.2804347487
 21
22.4959390385
  0
LINE
  5
30B
100
AcDbEntity
  8
0
100
AcDbLine
 62
7
  6
CONTINUOUS
 10
115.3147591181
 20
22.5163816563
 11
115.3031039257
 21
22.5094909004
  0
LINE
  5
30C
100
AcDbEntity
  8
0
100
AcDbLine
 62
7
  6
CONTINUOUS
 10
115.3387670992
 20
22.5304131779
 11
115.3147591181
 21
22.5163816563
  0
LINE
  5
30D
100
AcDbEntity
  8
0
100
AcDbLine
 62
7
  6
CONTINUOUS
 10
115.3637812513
 20
22.5448030431
 11
115.3387670992
 21
22.5304131779
  0
LINE
  5
30E
100
AcDbEntity
  8
0
100
AcDbLine
 62
7
  6
CONTINUOUS
 10
115.3898941453
 20
22.5595786592
 11
115.3637812513
 21
22.5448030431
  0
LINE
  5
30F
100
AcDbEntity
  8
0
100
AcDbLine
 62
7
  6
CONTINUOUS
 10
115.4172008642
 20
22.5747647928
 11
115.3898941453
 21
22.5595786592
  0
LINE
  5
310
100
AcDbEntity
  8
0
100
AcDbLine
 62
7
  6
CONTINUOUS
 10
115.4457981575
 20
22.5903827841
 11
115.4172008642
 21
22.5747647928
  0
LINE
  5
311
100
AcDbEntity
  8
0
100
AcDbLine
 62
7
  6
CONTINUOUS
 10
115.4757869131
 20
22.6064515537
 11
115.4457981575
 21
22.5903827841
  0
LINE
  5
312
100
AcDbEntity
  8
0
100
AcDbLine
 62
7
  6
CONTINUOUS
 10
115.5073015138
 20
22.6230025012
 11
115.4757869131
 21
22.6064515537
  0
LINE
  5
313
100
AcDbEntity
  8
0
100
AcDbLine
 62
7
  6
CONTINUOUS
 10
115.3563768089
 20
22.5510777436
 11
115.5814586304
 21
22.6689571055
  0
LINE
  5
314
100
AcDbEntity
  8
0
100
AcDbLine
 62
7
  6
CONTINUOUS
 10
115.5236797847
 20
22.6314703674
 11
115.5073015138
 21
22.6230025012
  0
LINE
  5
315
100
AcDbEntity
  8
0
100
AcDbLine
 62
7
  6
CONTINUOUS
 10
115.540498359
 20
22.6400718539
 11
115.5236797847
 21
22.6314703674
  0
LINE
  5
316
100
AcDbEntity
  8
0
100
AcDbLine
 62
7
  6
CONTINUOUS
 10
115.5577773753
 20
22.6488105303
 11
115.540498359
 21
22.6400718539
  0
LINE
  5
317
100
AcDbEntity
  8
0
100
AcDbLine
 62
7
  6
CONTINUOUS
 10
115.5755413908
 20
22.6576916163
 11
115.5577773753
 21
22.6488105303
  0
LINE
  5
318
100
AcDbEntity
  8
0
100
AcDbLine
 62
7
  6
CONTINUOUS
 10
150.7797477665
 20
0.033684726
 11
150.7940812317
 21
0.040816232
  0
LINE
  5
319
100
AcDbEntity
  8
0
100
AcDbLine
 62
7
  6
CONTINUOUS
 10
115.593818909
 20
22.6667216014
 11
115.5755413908
 21
22.6576916163
  0
LINE
  5
31A
100
AcDbEntity
  8
0
100
AcDbLine
 62
7
  6
CONTINUOUS
 10
115.6126387601
 20
22.675906349
 11
115.593818909
 21
22.6667216014
  0
LINE
  5
31B
100
AcDbEntity
  8
0
100
AcDbLine
 62
7
  6
CONTINUOUS
 10
115.6320299772
 20
22.6852509998
 11
115.6126387601
 21
22.675906349
  0
LINE
  5
31C
100
AcDbEntity
  8
0
100
AcDbLine
 62
7
  6
CONTINUOUS
 10
115.6520219908
 20
22.6947600292
 11
115.6320299772
 21
22.6852509998
  0
LINE
  5
31D
100
AcDbEntity
  8
0
100
AcDbLine
 62
7
  6
CONTINUOUS
 10
115.6726503387
 20
22.7044398656
 11
115.6520219908
 21
22.6947600292
  0
LINE
  5
31E
100
AcDbEntity
  8
0
100
AcDbLine
 62
7
  6
CONTINUOUS
 10
115.6939577239
 20
22.7142991445
 11
115.6726503387
 21
22.7044398656
  0
LINE
  5
31F
100
AcDbEntity
  8
0
100
AcDbLine
 62
7
  6
CONTINUOUS
 10
115.7159875534
 20
22.7243455007
 11
115.6939577239
 21
22.7142991445
  0
LINE
  5
320
100
AcDbEntity
  8
0
100
AcDbLine
 62
7
  6
CONTINUOUS
 10
115.5814586304
 20
22.6689571055
 11
115.8191431981
 21
22.7757732988
  0
LINE
  5
321
100
AcDbEntity
  8
0
100
AcDbLine
 62
7
  6
CONTINUOUS
 10
115.7387835553
 20
22.7345853194
 11
115.7159875534
 21
22.7243455007
  0
LINE
  5
322
100
AcDbEntity
  8
0
100
AcDbLine
 62
7
  6
CONTINUOUS
 10
115.7623927203
 20
22.7450249586
 11
115.7387835553
 21
22.7345853194
  0
LINE
  5
323
100
AcDbEntity
  8
0
100
AcDbLine
 62
7
  6
CONTINUOUS
 10
115.786875689
 20
22.7556750507
 11
115.7623927203
 21
22.7450249586
  0
LINE
  5
324
100
AcDbEntity
  8
0
100
AcDbLine
 62
7
  6
CONTINUOUS
 10
115.8122973266
 20
22.7665459295
 11
115.786875689
 21
22.7556750507
  0
LINE
  5
325
100
AcDbEntity
  8
0
100
AcDbLine
 62
7
  6
CONTINUOUS
 10
115.8387229995
 20
22.7776458197
 11
115.8122973266
 21
22.7665459295
  0
LINE
  5
326
100
AcDbEntity
  8
0
100
AcDbLine
 62
7
  6
CONTINUOUS
 10
115.8662240249
 20
22.7889829299
 11
115.8387229995
 21
22.7776458197
  0
LINE
  5
327
100
AcDbEntity
  8
0
100
AcDbLine
 62
7
  6
CONTINUOUS
 10
115.8948924404
 20
22.8005710005
 11
115.8662240249
 21
22.7889829299
  0
LINE
  5
328
100
AcDbEntity
  8
0
100
AcDbLine
 62
7
  6
CONTINUOUS
 10
150.7660390214
 20
0.0282001105
 11
150.7797477665
 21
0.033684726
  0
LINE
  5
329
100
AcDbEntity
  8
0
100
AcDbLine
 62
7
  6
CONTINUOUS
 10
115.9248256853
 20
22.8124222934
 11
115.8948924404
 21
22.8005710005
  0
LINE
  5
32A
100
AcDbEntity
  8
0
100
AcDbLine
 62
7
  6
CONTINUOUS
 10
115.9561234202
 20
22.8245459369
 11
115.9248256853
 21
22.8124222934
  0
LINE
  5
32B
100
AcDbEntity
  8
0
100
AcDbLine
 62
7
  6
CONTINUOUS
 10
115.8191431981
 20
22.7757732988
 11
116.0682658392
 21
22.8703450703
  0
LINE
  5
32C
100
AcDbEntity
  8
0
100
AcDbLine
 62
7
  6
CONTINUOUS
 10
115.9889100778
 20
22.8369560315
 11
115.9561234202
 21
22.8245459369
  0
LINE
  5
32D
100
AcDbEntity
  8
0
100
AcDbLine
 62
7
  6
CONTINUOUS
 10
116.0233309477
 20
22.8496687898
 11
115.9889100778
 21
22.8369560315
  0
LINE
  5
32E
100
AcDbEntity
  8
0
100
AcDbLine
 62
7
  6
CONTINUOUS
 10
116.0595350007
 20
22.8626950242
 11
116.0233309477
 21
22.8496687898
  0
LINE
  5
32F
100
AcDbEntity
  8
0
100
AcDbLine
 62
7
  6
CONTINUOUS
 10
116.0977076184
 20
22.8760508331
 11
116.0595350007
 21
22.8626950242
  0
LINE
  5
330
100
AcDbEntity
  8
0
100
AcDbLine
 62
7
  6
CONTINUOUS
 10
116.1380668239
 20
22.8897539227
 11
116.0977076184
 21
22.8760508331
  0
LINE
  5
331
100
AcDbEntity
  8
0
100
AcDbLine
 62
7
  6
CONTINUOUS
 10
116.1808456533
 20
22.9038155161
 11
116.1380668239
 21
22.8897539227
  0
LINE
  5
332
100
AcDbEntity
  8
0
100
AcDbLine
 62
7
  6
CONTINUOUS
 10
150.7536757694
 20
0.024265915
 11
150.7660390214
 21
0.0282001105
  0
LINE
  5
333
100
AcDbEntity
  8
0
100
AcDbLine
 62
7
  6
CONTINUOUS
 10
116.2263469958
 20
22.9182563836
 11
116.1808456533
 21
22.9038155161
  0
LINE
  5
334
100
AcDbEntity
  8
0
100
AcDbLine
 62
7
  6
CONTINUOUS
 10
116.0682658392
 20
22.8703450703
 11
116.3273383602
 21
22.951507452
  0
LINE
  5
335
100
AcDbEntity
  8
0
100
AcDbLine
 62
7
  6
CONTINUOUS
 10
116.2749049505
 20
22.9330897277
 11
116.2263469958
 21
22.9182563836
  0
LINE
  5
336
100
AcDbEntity
  8
0
100
AcDbLine
 62
7
  6
CONTINUOUS
 10
116.3269383459
 20
22.9483327403
 11
116.2749049505
 21
22.9330897277
  0
LINE
  5
337
100
AcDbEntity
  8
0
100
AcDbLine
 62
7
  6
CONTINUOUS
 10
117.1510688325
 20
23.1064286909
 11
117.4352536065
 21
23.1263211008
  0
LINE
  5
338
100
AcDbEntity
  8
0
100
AcDbLine
 62
7
  6
CONTINUOUS
 10
117.4379382301
 20
23.1263751426
 11
117.2662989913
 21
23.1162918126
  0
LINE
  5
339
100
AcDbEntity
  8
0
100
AcDbLine
 62
9
  6
CONTINUOUS
 10
117.5390482223
 20
23.1273657023
 11
117.5363151383
 21
23.1272303328
  0
LINE
  5
33A
100
AcDbEntity
  8
DEFAULT_2
100
AcDbLine
 62
8
  6
CONTINUOUS
 10
149.1766860757
 20
22.7734968768
 11
151.4065808436
 21
22.8704488232
  0
LINE
  5
33B
100
AcDbEntity
  8
0
100
AcDbLine
 62
9
  6
CONTINUOUS
 10
151.8004766726
 20
23.1269652011
 11
151.8018078824
 21
23.1270209732
  0
LINE
  5
33C
100
AcDbEntity
  8
0
100
AcDbLine
 62
9
  6
CONTINUOUS
 10
117.4749094108
 20
23.1270790498
 11
117.4718351469
 21
23.1269652011
  0
LINE
  5
33D
100
AcDbEntity
  8
0
100
AcDbLine
 62
9
  6
CONTINUOUS
 10
151.3597986128
 20
23.1223804069
 11
151.393797752
 21
23.1236036882
  0
LINE
  5
33E
100
AcDbEntity
  8
0
100
AcDbLine
 62
7
  6
CONTINUOUS
 10
117.4415687387
 20
23.1264952379
 11
117.4379580056
 21
23.1263730772
  0
LINE
  5
33F
100
AcDbEntity
  8
0
100
AcDbLine
 62
7
  6
CONTINUOUS
 10
151.8350286262
 20
23.1262547243
 11
151.8319551469
 21
23.1261542008
  0
LINE
  5
340
100
AcDbEntity
  8
0
100
AcDbLine
 62
7
  6
CONTINUOUS
 10
117.4553189529
 20
23.126707326
 11
117.4460632276
 21
23.1264082152
  0
LINE
  5
341
100
AcDbEntity
  8
0
100
AcDbLine
 62
9
  6
CONTINUOUS
 10
151.393797752
 20
23.1236036882
 11
151.410487169
 21
23.124130048
  0
LINE
  5
342
100
AcDbEntity
  8
0
100
AcDbLine
 62
9
  6
CONTINUOUS
 10
151.3089301493
 20
23.12085504
 11
151.3597986128
 21
23.1223804069
  0
LINE
  5
343
100
AcDbEntity
  8
0
100
AcDbLine
 62
9
  6
CONTINUOUS
 10
117.4599748144
 20
23.1268281031
 11
117.4535440001
 21
23.1266394378
  0
LINE
  5
344
100
AcDbEntity
  8
0
100
AcDbLine
 62
9
  6
CONTINUOUS
 10
117.4460632276
 20
23.1264082152
 11
117.440359646
 21
23.1262451125
  0
LINE
  5
345
100
AcDbEntity
  8
0
100
AcDbLine
 62
9
  6
CONTINUOUS
 10
117.4671119392
 20
23.1269684162
 11
117.4618574146
 21
23.1268235846
  0
LINE
  5
346
100
AcDbEntity
  8
0
100
AcDbLine
 62
7
  6
CONTINUOUS
 10
151.3860872252
 20
23.1243312874
 11
151.307687582
 21
23.1221730005
  0
LINE
  5
347
100
AcDbEntity
  8
0
100
AcDbLine
 62
9
  6
CONTINUOUS
 10
151.410487169
 20
23.124130048
 11
151.4295517495
 21
23.1246246811
  0
LINE
  5
348
100
AcDbEntity
  8
0
100
AcDbLine
 62
7
  6
CONTINUOUS
 10
117.4599748144
 20
23.1268281031
 11
117.4553189529
 21
23.126707326
  0
LINE
  5
349
100
AcDbEntity
  8
0
100
AcDbLine
 62
9
  6
CONTINUOUS
 10
151.2622115242
 20
23.119734991
 11
151.3089301493
 21
23.12085504
  0
LINE
  5
34A
100
AcDbEntity
  8
0
100
AcDbLine
 62
7
  6
CONTINUOUS
 10
151.4229338211
 20
23.1251415951
 11
151.3860872252
 21
23.1243312874
  0
LINE
  5
34B
100
AcDbEntity
  8
0
100
AcDbLine
 62
9
  6
CONTINUOUS
 10
117.4898765908
 20
23.1272165489
 11
117.4832310838
 21
23.1270702715
  0
LINE
  5
34C
100
AcDbEntity
  8
0
100
AcDbLine
 62
7
  6
CONTINUOUS
 10
151.307687582
 20
23.1221730005
 11
151.2652487853
 21
23.1212577233
  0
LINE
  5
34D
100
AcDbEntity
  8
0
100
AcDbLine
 62
9
  6
CONTINUOUS
 10
151.4295517495
 20
23.1246246811
 11
151.4534994096
 21
23.1251285653
  0
LINE
  5
34E
100
AcDbEntity
  8
0
100
AcDbLine
 62
7
  6
CONTINUOUS
 10
117.4449920871
 20
23.1265628275
 11
117.4413345038
 21
23.1264889579
  0
LINE
  5
34F
100
AcDbEntity
  8
0
100
AcDbLine
 62
7
  6
CONTINUOUS
 10
117.4671119392
 20
23.1269684162
 11
117.4599748144
 21
23.1268281031
  0
LINE
  5
350
100
AcDbEntity
  8
0
100
AcDbLine
 62
9
  6
CONTINUOUS
 10
151.2316195376
 20
23.1191675366
 11
151.2622115242
 21
23.119734991
  0
LINE
  5
351
100
AcDbEntity
  8
0
100
AcDbLine
 62
7
  6
CONTINUOUS
 10
151.2652487853
 20
23.1212577233
 11
151.2207891063
 21
23.1205486308
  0
LINE
  5
352
100
AcDbEntity
  8
0
100
AcDbLine
 62
9
  6
CONTINUOUS
 10
151.4534994096
 20
23.1251285653
 11
151.4992349996
 21
23.1258469749
  0
LINE
  5
353
100
AcDbEntity
  8
0
100
AcDbLine
 62
9
  6
CONTINUOUS
 10
117.5203382698
 20
23.1273424043
 11
117.5112646675
 21
23.1271988675
  0
LINE
  5
354
100
AcDbEntity
  8
0
100
AcDbLine
 62
7
  6
CONTINUOUS
 10
151.473603632
 20
23.1259222166
 11
151.4229338211
 21
23.1251415951
  0
LINE
  5
355
100
AcDbEntity
  8
0
100
AcDbLine
 62
7
  6
CONTINUOUS
 10
117.4749094108
 20
23.1270790498
 11
117.4671119392
 21
23.1269684162
  0
LINE
  5
356
100
AcDbEntity
  8
0
100
AcDbLine
 62
9
  6
CONTINUOUS
 10
151.1897003586
 20
23.1186197904
 11
151.2316195376
 21
23.1191675366
  0
LINE
  5
357
100
AcDbEntity
  8
0
100
AcDbLine
 62
9
  6
CONTINUOUS
 10
151.5747153754
 20
23.1266077791
 11
151.6086077168
 21
23.1270477749
  0
LINE
  5
358
100
AcDbEntity
  8
0
100
AcDbLine
 62
7
  6
CONTINUOUS
 10
151.8233179571
 20
23.1265847151
 11
151.8214467977
 21
23.1265645676
  0
LINE
  5
359
100
AcDbEntity
  8
0
100
AcDbLine
 62
9
  6
CONTINUOUS
 10
151.4992349996
 20
23.1258469749
 11
151.5747153754
 21
23.1266077791
  0
LINE
  5
35A
100
AcDbEntity
  8
0
100
AcDbLine
 62
7
  6
CONTINUOUS
 10
151.5474154651
 20
23.1266598954
 11
151.473603632
 21
23.1259222166
  0
LINE
  5
35B
100
AcDbEntity
  8
0
100
AcDbLine
 62
7
  6
CONTINUOUS
 10
151.2207891063
 20
23.1205486308
 11
151.1744314588
 21
23.1201049077
  0
LINE
  5
35C
100
AcDbEntity
  8
0
100
AcDbLine
 62
9
  6
CONTINUOUS
 10
117.6333234015
 20
23.1271836217
 11
117.619832673
 21
23.1270551023
  0
LINE
  5
35D
100
AcDbEntity
  8
0
100
AcDbLine
 62
7
  6
CONTINUOUS
 10
117.4898765908
 20
23.1272165489
 11
117.4749094108
 21
23.1270790498
  0
LINE
  5
35E
100
AcDbEntity
  8
0
100
AcDbLine
 62
9
  6
CONTINUOUS
 10
151.1517072356
 20
23.1183672529
 11
151.1897003586
 21
23.1186197904
  0
LINE
  5
35F
100
AcDbEntity
  8
0
100
AcDbLine
 62
7
  6
CONTINUOUS
 10
117.448993863
 20
23.1265847151
 11
117.4449920871
 21
23.1265628275
  0
LINE
  5
360
100
AcDbEntity
  8
0
100
AcDbLine
 62
7
  6
CONTINUOUS
 10
151.6589428206
 20
23.127253786
 11
151.5474154651
 21
23.1266598954
  0
LINE
  5
361
100
AcDbEntity
  8
0
100
AcDbLine
 62
7
  6
CONTINUOUS
 10
117.5203382698
 20
23.1273424043
 11
117.4898765908
 21
23.1272165489
  0
LINE
  5
362
100
AcDbEntity
  8
0
100
AcDbLine
 62
9
  6
CONTINUOUS
 10
151.6399675424
 20
23.1271874193
 11
151.6496374207
 21
23.1272229638
  0
LINE
  5
363
100
AcDbEntity
  8
0
100
AcDbLine
 62
7
  6
CONTINUOUS
 10
151.7334939782
 20
23.1273655852
 11
151.6589428206
 21
23.127253786
  0
LINE
  5
364
100
AcDbEntity
  8
0
100
AcDbLine
 62
9
  6
CONTINUOUS
 10
150.9849957593
 20
23.1181689058
 11
151.1517072356
 21
23.1183672529
  0
LINE
  5
365
100
AcDbEntity
  8
0
100
AcDbLine
 62
9
  6
CONTINUOUS
 10
151.700278293
 20
23.1273487714
 11
151.7075457255
 21
23.1273576657
  0
LINE
  5
366
100
AcDbEntity
  8
0
100
AcDbLine
 62
7
  6
CONTINUOUS
 10
117.5390482223
 20
23.1273657023
 11
117.5203382698
 21
23.1273424043
  0
LINE
  5
367
100
AcDbEntity
  8
0
100
AcDbLine
 62
7
  6
CONTINUOUS
 10
151.1744314588
 20
23.1201049077
 11
149.3401554525
 21
23.119567679
  0
LINE
  5
368
100
AcDbEntity
  8
0
100
AcDbLine
 62
7
  6
CONTINUOUS
 10
113.6361587189
 20
20.0954303478
 11
155.6361764718
 21
20.0954303478
  0
LINE
  5
369
100
AcDbEntity
  8
0
100
AcDbLine
 62
7
  6
CONTINUOUS
 10
151.827102592
 20
23.126565592
 11
151.8214359914
 21
23.1265649309
  0
LINE
  5
36A
100
AcDbEntity
  8
0
100
AcDbLine
 62
9
  6
CONTINUOUS
 10
150.9849957593
 20
23.1181689058
 11
120.1987746484
 21
23.1178345239
  0
LINE
  5
36B
100
AcDbEntity
  8
0
100
AcDbLine
 62
7
  6
CONTINUOUS
 10
149.3401554525
 20
23.119567679
 11
119.932152238
 21
23.1195676794
  0
LINE
  5
36C
100
AcDbEntity
  8
0
100
AcDbLine
 62
9
  6
CONTINUOUS
 10
120.1987746484
 20
23.1178345239
 11
118.1206045839
 21
23.1183672529
  0
LINE
  5
36D
100
AcDbEntity
  8
0
100
AcDbLine
 62
7
  6
CONTINUOUS
 10
119.932152238
 20
23.1195676794
 11
118.1112427487
 21
23.1200360004
  0
LINE
  5
36E
100
AcDbEntity
  8
0
100
AcDbLine
 62
7
  6
CONTINUOUS
 10
117.6333234015
 20
23.1271836217
 11
117.5390482223
 21
23.1273657023
  0
LINE
  5
36F
100
AcDbEntity
  8
0
100
AcDbLine
 62
9
  6
CONTINUOUS
 10
151.7499266838
 20
23.1273464606
 11
151.7548858208
 21
23.1273358931
  0
LINE
  5
370
100
AcDbEntity
  8
0
100
AcDbLine
 62
7
  6
CONTINUOUS
 10
151.7724324332
 20
23.1272744351
 11
151.7334939782
 21
23.1273655852
  0
LINE
  5
371
100
AcDbEntity
  8
0
100
AcDbLine
 62
7
  6
CONTINUOUS
 10
151.827319733
 20
23.1265628275
 11
151.8233179571
 21
23.1265847151
  0
LINE
  5
372
100
AcDbEntity
  8
0
100
AcDbLine
 62
7
  6
CONTINUOUS
 10
117.7411307524
 20
23.1265271337
 11
117.6333234015
 21
23.1271836217
  0
LINE
  5
373
100
AcDbEntity
  8
0
100
AcDbLine
 62
9
  6
CONTINUOUS
 10
118.1206045839
 20
23.1183672529
 11
118.0826114609
 21
23.1186197904
  0
LINE
  5
374
100
AcDbEntity
  8
0
100
AcDbLine
 62
7
  6
CONTINUOUS
 10
118.1112427487
 20
23.1200360004
 11
118.0774627113
 21
23.1202617939
  0
LINE
  5
375
100
AcDbEntity
  8
0
100
AcDbLine
 62
7
  6
CONTINUOUS
 10
151.7901394109
 20
23.127155327
 11
151.7724324332
 21
23.1272744351
  0
LINE
  5
376
100
AcDbEntity
  8
0
100
AcDbLine
 62
9
  6
CONTINUOUS
 10
151.8309063948
 20
23.1262548843
 11
151.8319521735
 21
23.1262451125
  0
LINE
  5
377
100
AcDbEntity
  8
0
100
AcDbLine
 62
9
  6
CONTINUOUS
 10
117.7730768199
 20
23.1258469749
 11
117.7117525454
 21
23.1264941922
  0
LINE
  5
378
100
AcDbEntity
  8
0
100
AcDbLine
 62
7
  6
CONTINUOUS
 10
117.450864983
 20
23.126564568
 11
117.448993863
 21
23.1265847151
  0
LINE
  5
379
100
AcDbEntity
  8
0
100
AcDbLine
 62
7
  6
CONTINUOUS
 10
117.8075084954
 20
23.1258068596
 11
117.7411307524
 21
23.1265271337
  0
LINE
  5
37A
100
AcDbEntity
  8
0
100
AcDbLine
 62
7
  6
CONTINUOUS
 10
118.0774627113
 20
23.1202617939
 11
118.0446791401
 21
23.120640218
  0
LINE
  5
37B
100
AcDbEntity
  8
0
100
AcDbLine
 62
7
  6
CONTINUOUS
 10
151.8018078824
 20
23.1270209732
 11
151.7901394109
 21
23.127155327
  0
LINE
  5
37C
100
AcDbEntity
  8
0
100
AcDbLine
 62
9
  6
CONTINUOUS
 10
118.0826114609
 20
23.1186197904
 11
118.0406922819
 21
23.1191675366
  0
LINE
  5
37D
100
AcDbEntity
  8
0
100
AcDbLine
 62
7
  6
CONTINUOUS
 10
117.8440790563
 20
23.1252382724
 11
117.8075084954
 21
23.1258068596
  0
LINE
  5
37E
100
AcDbEntity
  8
0
100
AcDbLine
 62
9
  6
CONTINUOUS
 10
117.8188124099
 20
23.1251285653
 11
117.7730768199
 21
23.1258469749
  0
LINE
  5
37F
100
AcDbEntity
  8
0
100
AcDbLine
 62
7
  6
CONTINUOUS
 10
118.0446791401
 20
23.120640218
 11
117.9974502644
 21
23.121445486
  0
LINE
  5
380
100
AcDbEntity
  8
0
100
AcDbLine
 62
7
  6
CONTINUOUS
 10
151.8095171147
 20
23.1268890499
 11
151.8018078824
 21
23.1270209732
  0
LINE
  5
381
100
AcDbEntity
  8
0
100
AcDbLine
 62
9
  6
CONTINUOUS
 10
118.0406922819
 20
23.1191675366
 11
118.0101002953
 21
23.119734991
  0
LINE
  5
382
100
AcDbEntity
  8
0
100
AcDbLine
 62
9
  6
CONTINUOUS
 10
151.6194703035
 20
23.1271003714
 11
151.6279835634
 21
23.1269435571
  0
LINE
  5
383
100
AcDbEntity
  8
0
100
AcDbLine
 62
7
  6
CONTINUOUS
 10
117.8699089018
 20
23.1247233995
 11
117.8440790563
 21
23.1252382724
  0
LINE
  5
384
100
AcDbEntity
  8
0
100
AcDbLine
 62
7
  6
CONTINUOUS
 10
151.8309773164
 20
23.1264889579
 11
151.827319733
 21
23.1265628275
  0
LINE
  5
385
100
AcDbEntity
  8
0
100
AcDbLine
 62
9
  6
CONTINUOUS
 10
117.84276007
 20
23.1246246811
 11
117.8188124099
 21
23.1251285653
  0
LINE
  5
386
100
AcDbEntity
  8
0
100
AcDbLine
 62
7
  6
CONTINUOUS
 10
151.8142987152
 20
23.1267806975
 11
151.8095171147
 21
23.1268890499
  0
LINE
  5
387
100
AcDbEntity
  8
0
100
AcDbLine
 62
7
  6
CONTINUOUS
 10
117.9974502644
 20
23.121445486
 11
117.952664292
 21
23.1224690832
  0
LINE
  5
388
100
AcDbEntity
  8
0
100
AcDbLine
 62
9
  6
CONTINUOUS
 10
118.0101002953
 20
23.119734991
 11
117.9633816702
 21
23.12085504
  0
LINE
  5
389
100
AcDbEntity
  8
0
100
AcDbLine
 62
7
  6
CONTINUOUS
 10
117.8971536705
 20
23.124030057
 11
117.8699089018
 21
23.1247233995
  0
LINE
  5
38A
100
AcDbEntity
  8
0
100
AcDbLine
 62
9
  6
CONTINUOUS
 10
117.8618246505
 20
23.124130048
 11
117.84276007
 21
23.1246246811
  0
LINE
  5
38B
100
AcDbEntity
  8
0
100
AcDbLine
 62
9
  6
CONTINUOUS
 10
151.8044584749
 20
23.1269805671
 11
151.8104544049
 21
23.1268235846
  0
LINE
  5
38C
100
AcDbEntity
  8
0
100
AcDbLine
 62
7
  6
CONTINUOUS
 10
151.8167207409
 20
23.1267152307
 11
151.8142987152
 21
23.1267806975
  0
LINE
  5
38D
100
AcDbEntity
  8
0
100
AcDbLine
 62
9
  6
CONTINUOUS
 10
151.7901394109
 20
23.127155327
 11
151.7949765436
 21
23.1270215829
  0
LINE
  5
38E
100
AcDbEntity
  8
0
100
AcDbLine
 62
7
  6
CONTINUOUS
 10
117.952664292
 20
23.1224690832
 11
117.8971536705
 21
23.124030057
  0
LINE
  5
38F
100
AcDbEntity
  8
0
100
AcDbLine
 62
9
  6
CONTINUOUS
 10
151.6589428206
 20
23.127253786
 11
151.6642014379
 21
23.1270993979
  0
LINE
  5
390
100
AcDbEntity
  8
0
100
AcDbLine
 62
9
  6
CONTINUOUS
 10
117.9633816702
 20
23.12085504
 11
117.9125132067
 21
23.1223804069
  0
LINE
  5
391
100
AcDbEntity
  8
0
100
AcDbLine
 62
9
  6
CONTINUOUS
 10
117.8785140675
 20
23.1236036882
 11
117.8618246505
 21
23.124130048
  0
LINE
  5
392
100
AcDbEntity
  8
0
100
AcDbLine
 62
9
  6
CONTINUOUS
 10
151.8142987152
 20
23.1267806975
 11
151.8187678194
 21
23.1266394378
  0
LINE
  5
393
100
AcDbEntity
  8
0
100
AcDbLine
 62
7
  6
CONTINUOUS
 10
151.8262905864
 20
23.1264070793
 11
151.8167207409
 21
23.1267152307
  0
LINE
  5
394
100
AcDbEntity
  8
0
100
AcDbLine
 62
9
  6
CONTINUOUS
 10
151.8262905864
 20
23.1264070793
 11
151.8309063948
 21
23.1262548843
  0
LINE
  5
395
100
AcDbEntity
  8
0
100
AcDbLine
 62
7
  6
CONTINUOUS
 10
151.8343488791
 20
23.1263731158
 11
151.8307430801
 21
23.1264952379
  0
LINE
  5
396
100
AcDbEntity
  8
0
100
AcDbLine
 62
9
  6
CONTINUOUS
 10
117.9125132067
 20
23.1223804069
 11
117.8785140675
 21
23.1236036882
  0
LINE
  5
397
100
AcDbEntity
  8
DEFAULT_2
100
AcDbLine
 62
8
  6
CONTINUOUS
 10
117.8657309759
 20
22.8704488232
 11
120.0956257438
 21
22.7734968768
  0
LINE
  5
398
100
AcDbEntity
  8
0
100
AcDbLine
 62
7
  6
CONTINUOUS
 10
117.4403526657
 20
23.1260906603
 11
117.4371907851
 21
23.1262335579
  0
LINE
  5
399
100
AcDbEntity
  8
0
100
AcDbLine
 62
9
  6
CONTINUOUS
 10
151.7144941811
 20
23.1273636317
 11
151.7173276232
 21
23.1272226532
  0
LINE
  5
39A
100
AcDbEntity
  8
0
100
AcDbLine
 62
9
  6
CONTINUOUS
 10
151.7334939782
 20
23.1273655852
 11
151.7359966812
 21
23.1272303328
  0
LINE
  5
39B
100
AcDbEntity
  8
0
100
AcDbLine
 62
7
  6
CONTINUOUS
 10
152.006012545
 20
23.1162918343
 11
151.8343735894
 21
23.1263751426
  0
LINE
  5
39C
100
AcDbEntity
  8
0
100
AcDbLine
 62
7
  6
CONTINUOUS
 10
152.121242987
 20
23.1064286909
 11
151.8370582129
 21
23.1263211008
  0
LINE
  5
39D
100
AcDbEntity
  8
0
100
AcDbLine
 62
9
  6
CONTINUOUS
 10
151.759603958
 20
23.1273233542
 11
151.761047152
 21
23.1271988675
  0
LINE
  5
39E
100
AcDbEntity
  8
0
100
AcDbLine
 62
7
  6
CONTINUOUS
 10
152.1692306601
 20
23.1009896517
 11
152.006012545
 21
23.1162918343
  0
LINE
  5
39F
100
AcDbEntity
  8
0
100
AcDbLine
 62
7
  6
CONTINUOUS
 10
152.3048121952
 20
23.0839800167
 11
152.1692306601
 21
23.1009896517
  0
LINE
  5
3A0
100
AcDbEntity
  8
0
100
AcDbLine
 62
7
  6
CONTINUOUS
 10
152.4017012601
 20
23.0703415078
 11
152.121242987
 21
23.1064286909
  0
LINE
  5
3A1
100
AcDbEntity
  8
0
100
AcDbLine
 62
7
  6
CONTINUOUS
 10
118.5425239453
 20
0.0204543136
 11
118.5496660582
 21
0.0194292347
  0
LINE
  5
3A2
100
AcDbEntity
  8
0
100
AcDbLine
 62
7
  6
CONTINUOUS
 10
152.4205610427
 20
23.066315231
 11
152.3048121952
 21
23.0839800167
  0
LINE
  5
3A3
100
AcDbEntity
  8
0
100
AcDbLine
 62
7
  6
CONTINUOUS
 10
152.5213898149
 20
23.0485253109
 11
152.4205610427
 21
23.066315231
  0
LINE
  5
3A4
100
AcDbEntity
  8
0
100
AcDbLine
 62
7
  6
CONTINUOUS
 10
118.5345178193
 20
0.0218825882
 11
118.5425239453
 21
0.0204543136
  0
LINE
  5
3A5
100
AcDbEntity
  8
0
100
AcDbLine
 62
7
  6
CONTINUOUS
 10
152.6768868454
 20
23.0184717791
 11
152.4017012601
 21
23.0703415078
  0
LINE
  5
3A6
100
AcDbEntity
  8
0
100
AcDbLine
 62
7
  6
CONTINUOUS
 10
152.6105983521
 20
23.0308925527
 11
152.5213898149
 21
23.0485253109
  0
LINE
  5
3A7
100
AcDbEntity
  8
0
100
AcDbLine
 62
7
  6
CONTINUOUS
 10
152.6905084164
 20
23.0135650262
 11
152.6105983521
 21
23.0308925527
  0
LINE
  5
3A8
100
AcDbEntity
  8
0
100
AcDbLine
 62
7
  6
CONTINUOUS
 10
118.5253947875
 20
0.0239049448
 11
118.5345178193
 21
0.0218825882
  0
LINE
  5
3A9
100
AcDbEntity
  8
0
100
AcDbLine
 62
7
  6
CONTINUOUS
 10
152.7628108774
 20
22.9966191171
 11
152.6905084164
 21
23.0135650262
  0
LINE
  5
3AA
100
AcDbEntity
  8
0
100
AcDbLine
 62
7
  6
CONTINUOUS
 10
152.9449734593
 20
22.951507452
 11
152.6768868454
 21
23.0184717791
  0
LINE
  5
3AB
100
AcDbEntity
  8
0
100
AcDbLine
 62
7
  6
CONTINUOUS
 10
152.8287665106
 20
22.9800933441
 11
152.7628108774
 21
22.9966191171
  0
LINE
  5
3AC
100
AcDbEntity
  8
0
100
AcDbLine
 62
7
  6
CONTINUOUS
 10
152.8893666055
 20
22.963997466
 11
152.8287665106
 21
22.9800933441
  0
LINE
  5
3AD
100
AcDbEntity
  8
0
100
AcDbLine
 62
7
  6
CONTINUOUS
 10
118.5147284444
 20
0.0268454673
 11
118.5253947875
 21
0.0239049448
  0
LINE
  5
3AE
100
AcDbEntity
  8
0
100
AcDbLine
 62
7
  6
CONTINUOUS
 10
152.945372544
 20
22.9483330066
 11
152.8893666055
 21
22.963997466
  0
LINE
  5
3AF
100
AcDbEntity
  8
0
100
AcDbLine
 62
7
  6
CONTINUOUS
 10
152.9974059249
 20
22.9330900104
 11
152.945372544
 21
22.9483330066
  0
LINE
  5
3B0
100
AcDbEntity
  8
0
100
AcDbLine
 62
7
  6
CONTINUOUS
 10
153.045963867
 20
22.9182566817
 11
152.9974059249
 21
22.9330900104
  0
LINE
  5
3B1
100
AcDbEntity
  8
0
100
AcDbLine
 62
7
  6
CONTINUOUS
 10
153.2040459803
 20
22.8703450703
 11
152.9449734593
 21
22.951507452
  0
LINE
  5
3B2
100
AcDbEntity
  8
0
100
AcDbLine
 62
7
  6
CONTINUOUS
 10
153.0914651992
 20
22.9038158286
 11
153.045963867
 21
22.9182566817
  0
LINE
  5
3B3
100
AcDbEntity
  8
0
100
AcDbLine
 62
7
  6
CONTINUOUS
 10
153.1342440196
 20
22.8897542489
 11
153.0914651992
 21
22.9038158286
  0
LINE
  5
3B4
100
AcDbEntity
  8
0
100
AcDbLine
 62
7
  6
CONTINUOUS
 10
153.1746032176
 20
22.8760511722
 11
153.1342440196
 21
22.8897542489
  0
LINE
  5
3B5
100
AcDbEntity
  8
0
100
AcDbLine
 62
7
  6
CONTINUOUS
 10
118.5022022854
 20
0.0311539031
 11
118.5147284444
 21
0.0268454673
  0
LINE
  5
3B6
100
AcDbEntity
  8
0
100
AcDbLine
 62
7
  6
CONTINUOUS
 10
153.2127758292
 20
22.8626953754
 11
153.1746032176
 21
22.8760511722
  0
LINE
  5
3B7
100
AcDbEntity
  8
0
100
AcDbLine
 62
7
  6
CONTINUOUS
 10
153.2489798766
 20
22.8496691527
 11
153.2127758292
 21
22.8626953754
  0
LINE
  5
3B8
100
AcDbEntity
  8
0
100
AcDbLine
 62
7
  6
CONTINUOUS
 10
153.2834007421
 20
22.8369564054
 11
153.2489798766
 21
22.8496691527
  0
LINE
  5
3B9
100
AcDbEntity
  8
0
100
AcDbLine
 62
7
  6
CONTINUOUS
 10
153.316187396
 20
22.8245463212
 11
153.2834007421
 21
22.8369564054
  0
LINE
  5
3BA
100
AcDbEntity
  8
0
100
AcDbLine
 62
7
  6
CONTINUOUS
 10
153.4531686214
 20
22.7757732988
 11
153.2040459803
 21
22.8703450703
  0
LINE
  5
3BB
100
AcDbEntity
  8
0
100
AcDbLine
 62
7
  6
CONTINUOUS
 10
153.3474851274
 20
22.8124226877
 11
153.316187396
 21
22.8245463212
  0
LINE
  5
3BC
100
AcDbEntity
  8
0
100
AcDbLine
 62
7
  6
CONTINUOUS
 10
153.3774183697
 20
22.8005714044
 11
153.3474851274
 21
22.8124226877
  0
LINE
  5
3BD
100
AcDbEntity
  8
0
100
AcDbLine
 62
7
  6
CONTINUOUS
 10
153.4060867831
 20
22.7889833428
 11
153.3774183697
 21
22.8005714044
  0
LINE
  5
3BE
100
AcDbEntity
  8
0
100
AcDbLine
 62
7
  6
CONTINUOUS
 10
153.4335878066
 20
22.7776462415
 11
153.4060867831
 21
22.7889833428
  0
LINE
  5
3BF
100
AcDbEntity
  8
0
100
AcDbLine
 62
7
  6
CONTINUOUS
 10
153.4600134779
 20
22.7665463597
 11
153.4335878066
 21
22.7776462415
  0
LINE
  5
3C0
100
AcDbEntity
  8
0
100
AcDbLine
 62
7
  6
CONTINUOUS
 10
153.4854351145
 20
22.7556754889
 11
153.4600134779
 21
22.7665463597
  0
LINE
  5
3C1
100
AcDbEntity
  8
0
100
AcDbLine
 62
7
  6
CONTINUOUS
 10
118.4881077881
 20
0.0372083052
 11
118.5022022854
 21
0.0311539031
  0
LINE
  5
3C2
100
AcDbEntity
  8
0
100
AcDbLine
 62
7
  6
CONTINUOUS
 10
153.5099180824
 20
22.7450254046
 11
153.4854351145
 21
22.7556754889
  0
LINE
  5
3C3
100
AcDbEntity
  8
0
100
AcDbLine
 62
7
  6
CONTINUOUS
 10
153.5335272467
 20
22.7345857729
 11
153.5099180824
 21
22.7450254046
  0
LINE
  5
3C4
100
AcDbEntity
  8
0
100
AcDbLine
 62
7
  6
CONTINUOUS
 10
153.5563232481
 20
22.7243459615
 11
153.5335272467
 21
22.7345857729
  0
LINE
  5
3C5
100
AcDbEntity
  8
0
100
AcDbLine
 62
7
  6
CONTINUOUS
 10
153.6908531891
 20
22.6689571055
 11
153.4531686214
 21
22.7757732988
  0
LINE
  5
3C6
100
AcDbEntity
  8
0
100
AcDbLine
 62
7
  6
CONTINUOUS
 10
153.5783530775
 20
22.7142996123
 11
153.5563232481
 21
22.7243459615
  0
LINE
  5
3C7
100
AcDbEntity
  8
0
100
AcDbLine
 62
7
  6
CONTINUOUS
 10
153.5996604627
 20
22.70444034
 11
153.5783530775
 21
22.7142996123
  0
LINE
  5
3C8
100
AcDbEntity
  8
0
100
AcDbLine
 62
7
  6
CONTINUOUS
 10
153.6202888107
 20
22.6947605101
 11
153.5996604627
 21
22.70444034
  0
LINE
  5
3C9
100
AcDbEntity
  8
0
100
AcDbLine
 62
7
  6
CONTINUOUS
 10
153.6402808244
 20
22.6852514872
 11
153.6202888107
 21
22.6947605101
  0
LINE
  5
3CA
100
AcDbEntity
  8
0
100
AcDbLine
 62
7
  6
CONTINUOUS
 10
153.6596720419
 20
22.6759068425
 11
153.6402808244
 21
22.6852514872
  0
LINE
  5
3CB
100
AcDbEntity
  8
0
100
AcDbLine
 62
7
  6
CONTINUOUS
 10
153.6784918936
 20
22.6667221008
 11
153.6596720419
 21
22.6759068425
  0
LINE
  5
3CC
100
AcDbEntity
  8
0
100
AcDbLine
 62
7
  6
CONTINUOUS
 10
153.6967694125
 20
22.6576921213
 11
153.6784918936
 21
22.6667221008
  0
LINE
  5
3CD
100
AcDbEntity
  8
0
100
AcDbLine
 62
7
  6
CONTINUOUS
 10
153.7145334288
 20
22.648811041
 11
153.6967694125
 21
22.6576921213
  0
LINE
  5
3CE
100
AcDbEntity
  8
0
100
AcDbLine
 62
7
  6
CONTINUOUS
 10
153.7318124456
 20
22.64007237
 11
153.7145334288
 21
22.648811041
  0
LINE
  5
3CF
100
AcDbEntity
  8
0
100
AcDbLine
 62
7
  6
CONTINUOUS
 10
153.7486310207
 20
22.6314708889
 11
153.7318124456
 21
22.64007237
  0
LINE
  5
3D0
100
AcDbEntity
  8
0
100
AcDbLine
 62
7
  6
CONTINUOUS
 10
153.780967036
 20
22.6146648776
 11
153.7486310207
 21
22.6314708889
  0
LINE
  5
3D1
100
AcDbEntity
  8
0
100
AcDbLine
 62
7
  6
CONTINUOUS
 10
153.9159350106
 20
22.5510777436
 11
153.6908531891
 21
22.6689571055
  0
LINE
  5
3D2
100
AcDbEntity
  8
0
100
AcDbLine
 62
7
  6
CONTINUOUS
 10
153.8116993977
 20
22.5983598994
 11
153.780967036
 21
22.6146648776
  0
LINE
  5
3D3
100
AcDbEntity
  8
0
100
AcDbLine
 62
7
  6
CONTINUOUS
 10
118.4731181308
 20
0.0452177695
 11
118.4881077881
 21
0.0372083052
  0
LINE
  5
3D4
100
AcDbEntity
  8
0
100
AcDbLine
 62
7
  6
CONTINUOUS
 10
153.8409787203
 20
22.5825191728
 11
153.8116993977
 21
22.5983598994
  0
LINE
  5
3D5
100
AcDbEntity
  8
0
100
AcDbLine
 62
7
  6
CONTINUOUS
 10
153.8689185542
 20
22.567119548
 11
153.8409787203
 21
22.5825191728
  0
LINE
  5
3D6
100
AcDbEntity
  8
0
100
AcDbLine
 62
7
  6
CONTINUOUS
 10
153.8956163502
 20
22.5521415833
 11
153.8689185542
 21
22.567119548
  0
LINE
  5
3D7
100
AcDbEntity
  8
0
100
AcDbLine
 62
7
  6
CONTINUOUS
 10
153.9211681577
 20
22.5375621129
 11
153.8956163502
 21
22.5521415833
  0
LINE
  5
3D8
100
AcDbEntity
  8
0
100
AcDbLine
 62
7
  6
CONTINUOUS
 10
153.9456677635
 20
22.5233550344
 11
153.9211681577
 21
22.5375621129
  0
LINE
  5
3D9
100
AcDbEntity
  8
0
100
AcDbLine
 62
7
  6
CONTINUOUS
 10
153.9692068989
 20
22.5094914908
 11
153.9456677635
 21
22.5233550344
  0
LINE
  5
3DA
100
AcDbEntity
  8
0
100
AcDbLine
 62
7
  6
CONTINUOUS
 10
153.9918760766
 20
22.4959396372
 11
153.9692068989
 21
22.5094914908
  0
LINE
  5
3DB
100
AcDbEntity
  8
0
100
AcDbLine
 62
7
  6
CONTINUOUS
 10
154.1278505809
 20
22.4231724049
 11
153.9159350106
 21
22.5510777436
  0
LINE
  5
3DC
100
AcDbEntity
  8
0
100
AcDbLine
 62
7
  6
CONTINUOUS
 10
154.0137569371
 20
22.4826695177
 11
153.9918760766
 21
22.4959396372
  0
LINE
  5
3DD
100
AcDbEntity
  8
0
100
AcDbLine
 62
7
  6
CONTINUOUS
 10
154.0348651646
 20
22.4696889492
 11
154.0137569371
 21
22.4826695177
  0
LINE
  5
3DE
100
AcDbEntity
  8
0
100
AcDbLine
 62
7
  6
CONTINUOUS
 10
154.0551836104
 20
22.457025583
 11
154.0348651646
 21
22.4696889492
  0
LINE
  5
3DF
100
AcDbEntity
  8
0
100
AcDbLine
 62
7
  6
CONTINUOUS
 10
154.0746947586
 20
22.4447075974
 11
154.0551836104
 21
22.457025583
  0
LINE
  5
3E0
100
AcDbEntity
  8
0
100
AcDbLine
 62
7
  6
CONTINUOUS
 10
154.0933801786
 20
22.4327640032
 11
154.0746947586
 21
22.4447075974
  0
LINE
  5
3E1
100
AcDbEntity
  8
0
100
AcDbLine
 62
7
  6
CONTINUOUS
 10
154.1024024284
 20
22.4269449945
 11
154.0933801786
 21
22.4327640032
  0
LINE
  5
3E2
100
AcDbEntity
  8
0
100
AcDbLine
 62
7
  6
CONTINUOUS
 10
154.1197688137
 20
22.4156478673
 11
154.1024024284
 21
22.4269449945
  0
LINE
  5
3E3
100
AcDbEntity
  8
0
100
AcDbLine
 62
7
  6
CONTINUOUS
 10
154.1361846446
 20
22.4048511335
 11
154.1197688137
 21
22.4156478673
  0
LINE
  5
3E4
100
AcDbEntity
  8
0
100
AcDbLine
 62
7
  6
CONTINUOUS
 10
118.4578806591
 20
0.0552867717
 11
118.4731181308
 21
0.0452177695
  0
LINE
  5
3E5
100
AcDbEntity
  8
0
100
AcDbLine
 62
7
  6
CONTINUOUS
 10
154.1516791903
 20
22.3945538785
 11
154.1361846446
 21
22.4048511335
  0
LINE
  5
3E6
100
AcDbEntity
  8
0
100
AcDbLine
 62
7
  6
CONTINUOUS
 10
154.1663552521
 20
22.384704116
 11
154.1516791903
 21
22.3945538785
  0
LINE
  5
3E7
100
AcDbEntity
  8
0
100
AcDbLine
 62
7
  6
CONTINUOUS
 10
154.2755652093
 20
22.3229411134
 11
154.1278505809
 21
22.4231724049
  0
LINE
  5
3E8
100
AcDbEntity
  8
0
100
AcDbLine
 62
7
  6
CONTINUOUS
 10
154.1869808124
 20
22.3707007132
 11
154.1663552521
 21
22.384704116
  0
LINE
  5
3E9
100
AcDbEntity
  8
0
100
AcDbLine
 62
7
  6
CONTINUOUS
 10
154.2056807871
 20
22.3578401038
 11
154.1869808124
 21
22.3707007132
  0
LINE
  5
3EA
100
AcDbEntity
  8
0
100
AcDbLine
 62
7
  6
CONTINUOUS
 10
154.2221900461
 20
22.3463541343
 11
154.2056807871
 21
22.3578401038
  0
LINE
  5
3EB
100
AcDbEntity
  8
0
100
AcDbLine
 62
7
  6
CONTINUOUS
 10
154.2322841252
 20
22.3392696693
 11
154.2221900461
 21
22.3463541343
  0
LINE
  5
3EC
100
AcDbEntity
  8
0
100
AcDbLine
 62
7
  6
CONTINUOUS
 10
154.296797463
 20
22.30771008
 11
154.2755652093
 21
22.3229411134
  0
LINE
  5
3ED
100
AcDbEntity
  8
0
100
AcDbLine
 62
7
  6
CONTINUOUS
 10
154.3246779952
 20
22.2874039387
 11
154.296797463
 21
22.30771008
  0
LINE
  5
3EE
100
AcDbEntity
  8
0
100
AcDbLine
 62
7
  6
CONTINUOUS
 10
154.3459845666
 20
22.2716669596
 11
154.3246779952
 21
22.2874039387
  0
LINE
  5
3EF
100
AcDbEntity
  8
0
100
AcDbLine
 62
7
  6
CONTINUOUS
 10
154.3641805683
 20
22.258076622
 11
154.3461004826
 21
22.2715808266
  0
LINE
  5
3F0
100
AcDbEntity
  8
0
100
AcDbLine
 62
7
  6
CONTINUOUS
 10
154.3943290681
 20
22.2352435881
 11
154.3639879164
 21
22.2582212502
  0
LINE
  5
3F1
100
AcDbEntity
  8
0
100
AcDbLine
 62
7
  6
CONTINUOUS
 10
154.3947138889
 20
22.2349495323
 11
154.3641805683
 21
22.258076622
  0
LINE
  5
3F2
100
AcDbEntity
  8
0
100
AcDbLine
 62
7
  6
CONTINUOUS
 10
154.4601663933
 20
22.1839252972
 11
154.3943290681
 21
22.2352435881
  0
LINE
  5
3F3
100
AcDbEntity
  8
0
100
AcDbLine
 62
7
  6
CONTINUOUS
 10
118.4428311154
 20
0.0675526141
 11
118.4578806591
 21
0.0552867717
  0
LINE
  5
3F4
100
AcDbEntity
  8
0
100
AcDbLine
 62
7
  6
CONTINUOUS
 10
154.5452345897
 20
22.1143665939
 11
154.4593932591
 21
22.1845401296
  0
LINE
  5
3F5
100
AcDbEntity
  8
0
100
AcDbLine
 62
7
  6
CONTINUOUS
 10
154.6314013798
 20
22.0397319047
 11
154.5444191317
 21
22.1150520646
  0
LINE
  5
3F6
100
AcDbEntity
  8
0
100
AcDbLine
 62
7
  6
CONTINUOUS
 10
154.7121726439
 20
21.9654904333
 11
154.6306402757
 21
22.0404110111
  0
LINE
  5
3F7
100
AcDbEntity
  8
0
100
AcDbLine
 62
7
  6
CONTINUOUS
 10
154.7893906127
 20
21.8901740452
 11
154.7114576342
 21
21.9661672463
  0
LINE
  5
3F8
100
AcDbEntity
  8
DEFAULT_2
100
AcDbLine
 62
8
  6
CONTINUOUS
 10
141.437932605
 20
1.9186536525
 11
140.9499984124
 21
2.4065878451
  0
LINE
  5
3F9
100
AcDbEntity
  8
0
100
AcDbLine
 62
7
  6
CONTINUOUS
 10
118.4284160741
 20
0.0820953985
 11
118.4428311154
 21
0.0675526141
  0
LINE
  5
3FA
100
AcDbEntity
  8
0
100
AcDbLine
 62
7
  6
CONTINUOUS
 10
154.862547165
 20
21.8144252949
 11
154.7887162476
 21
21.8908516241
  0
LINE
  5
3FB
100
AcDbEntity
  8
0
100
AcDbLine
 62
7
  6
CONTINUOUS
 10
154.9293261868
 20
21.7410751803
 11
154.8619077404
 21
21.8151074275
  0
LINE
  5
3FC
100
AcDbEntity
  8
0
100
AcDbLine
 62
7
  6
CONTINUOUS
 10
154.992268573
 20
21.6677844052
 11
154.9287792534
 21
21.7416936222
  0
LINE
  5
3FD
100
AcDbEntity
  8
0
100
AcDbLine
 62
7
  6
CONTINUOUS
 10
155.0492796322
 20
21.5974600326
 11
154.9917280714
 21
21.6684324195
  0
LINE
  5
3FE
100
AcDbEntity
  8
0
100
AcDbLine
 62
7
  6
CONTINUOUS
 10
118.4150754729
 20
0.0989568613
 11
118.4284160741
 21
0.0820953985
  0
LINE
  5
3FF
100
AcDbEntity
  8
0
100
AcDbLine
 62
7
  6
CONTINUOUS
 10
155.0997902615
 20
21.5316063722
 11
155.0488349455
 21
21.5980243419
  0
LINE
  5
400
100
AcDbEntity
  8
0
100
AcDbLine
 62
7
  6
CONTINUOUS
 10
155.1479810786
 20
21.4652472024
 11
155.0993733525
 21
21.5321647686
  0
LINE
  5
401
100
AcDbEntity
  8
0
100
AcDbLine
 62
7
  6
CONTINUOUS
 10
155.1919665169
 20
21.4012556205
 11
155.1475950976
 21
21.4657936266
  0
LINE
  5
402
100
AcDbEntity
  8
0
100
AcDbLine
 62
7
  6
CONTINUOUS
 10
155.2292651264
 20
21.3440821428
 11
155.1916323609
 21
21.4017552117
  0
LINE
  5
403
100
AcDbEntity
  8
0
100
AcDbLine
 62
7
  6
CONTINUOUS
 10
155.2626780131
 20
21.2902937811
 11
155.2289846731
 21
21.3445228959
  0
LINE
  5
404
100
AcDbEntity
  8
0
100
AcDbLine
 62
7
  6
CONTINUOUS
 10
118.4032706275
 20
0.1181153124
 11
118.4150754729
 21
0.0989568613
  0
LINE
  5
405
100
AcDbEntity
  8
0
100
AcDbLine
 62
7
  6
CONTINUOUS
 10
155.2934960194
 20
21.2382474592
 11
155.2624235912
 21
21.2907133208
  0
LINE
  5
406
100
AcDbEntity
  8
0
100
AcDbLine
 62
7
  6
CONTINUOUS
 10
155.3219121726
 20
21.1879158917
 11
155.2932647083
 21
21.238647554
  0
LINE
  5
407
100
AcDbEntity
  8
0
100
AcDbLine
 62
7
  6
CONTINUOUS
 10
155.3480484596
 20
21.1393784177
 11
155.3217024092
 21
21.1882963724
  0
LINE
  5
408
100
AcDbEntity
  8
0
100
AcDbLine
 62
7
  6
CONTINUOUS
 10
155.3720147
 20
21.0927315163
 11
155.3478588766
 21
21.1397389042
  0
LINE
  5
409
100
AcDbEntity
  8
0
100
AcDbLine
 62
7
  6
CONTINUOUS
 10
155.3940272116
 20
21.0478442761
 11
155.3718437013
 21
21.0930722237
  0
LINE
  5
40A
100
AcDbEntity
  8
0
100
AcDbLine
 62
7
  6
CONTINUOUS
 10
155.4142722867
 20
21.0046034811
 11
155.3938721816
 21
21.0481678485
  0
LINE
  5
40B
100
AcDbEntity
  8
0
100
AcDbLine
 62
7
  6
CONTINUOUS
 10
118.3934859578
 20
0.1394637191
 11
118.4032706275
 21
0.1181153124
  0
LINE
  5
40C
100
AcDbEntity
  8
0
100
AcDbLine
 62
7
  6
CONTINUOUS
 10
155.4320092625
 20
20.9649741729
 11
155.4141339231
 21
21.0049059354
  0
LINE
  5
40D
100
AcDbEntity
  8
0
100
AcDbLine
 62
7
  6
CONTINUOUS
 10
155.4472464737
 20
20.929462172
 11
155.4318940124
 21
20.9652373913
  0
LINE
  5
40E
100
AcDbEntity
  8
0
100
AcDbLine
 62
7
  6
CONTINUOUS
 10
155.460914864
 20
20.8963125894
 11
155.447146393
 21
20.9297002077
  0
LINE
  5
40F
100
AcDbEntity
  8
0
100
AcDbLine
 62
7
  6
CONTINUOUS
 10
155.473593796
 20
20.8643412096
 11
155.4608251966
 21
20.8965343525
  0
LINE
  5
410
100
AcDbEntity
  8
0
100
AcDbLine
 62
7
  6
CONTINUOUS
 10
155.4854458842
 20
20.8332686385
 11
155.4735109374
 21
20.8645542536
  0
LINE
  5
411
100
AcDbEntity
  8
0
100
AcDbLine
 62
7
  6
CONTINUOUS
 10
155.4965884875
 20
20.8028886786
 11
155.4854458842
 21
20.8332686385
  0
LINE
  5
412
100
AcDbEntity
  8
0
100
AcDbLine
 62
7
  6
CONTINUOUS
 10
155.5069805697
 20
20.7734148709
 11
155.4966581127
 21
20.8026950134
  0
LINE
  5
413
100
AcDbEntity
  8
0
100
AcDbLine
 62
7
  6
CONTINUOUS
 10
155.5164950481
 20
20.7453508434
 11
155.506917276
 21
20.7735979745
  0
LINE
  5
414
100
AcDbEntity
  8
0
100
AcDbLine
 62
7
  6
CONTINUOUS
 10
155.5254021729
 20
20.7180321222
 11
155.5164950481
 21
20.7453508434
  0
LINE
  5
415
100
AcDbEntity
  8
0
100
AcDbLine
 62
7
  6
CONTINUOUS
 10
155.53375301
 20
20.6913908962
 11
155.5254548529
 21
20.717867303
  0
LINE
  5
416
100
AcDbEntity
  8
0
100
AcDbLine
 62
7
  6
CONTINUOUS
 10
118.3862120695
 20
0.1628068612
 11
118.3934859578
 21
0.1394637191
  0
LINE
  5
417
100
AcDbEntity
  8
0
100
AcDbLine
 62
7
  6
CONTINUOUS
 10
155.5414869962
 20
20.6657224654
 11
155.53375301
 21
20.6913908962
  0
LINE
  5
418
100
AcDbEntity
  8
0
100
AcDbLine
 62
7
  6
CONTINUOUS
 10
155.5486942314
 20
20.640836035
 11
155.5414869962
 21
20.6657224654
  0
LINE
  5
419
100
AcDbEntity
  8
0
100
AcDbLine
 62
7
  6
CONTINUOUS
 10
155.5554114683
 20
20.6166996633
 11
155.5486942314
 21
20.640836035
  0
LINE
  5
41A
100
AcDbEntity
  8
0
100
AcDbLine
 62
7
  6
CONTINUOUS
 10
155.5616730017
 20
20.5932813732
 11
155.5554114683
 21
20.6166996633
  0
LINE
  5
41B
100
AcDbEntity
  8
0
100
AcDbLine
 62
7
  6
CONTINUOUS
 10
155.5675119574
 20
20.570544584
 11
155.5616730017
 21
20.5932813732
  0
LINE
  5
41C
100
AcDbEntity
  8
0
100
AcDbLine
 62
7
  6
CONTINUOUS
 10
155.5729596767
 20
20.5484503054
 11
155.5675119574
 21
20.570544584
  0
LINE
  5
41D
100
AcDbEntity
  8
0
100
AcDbLine
 62
7
  6
CONTINUOUS
 10
155.5780425283
 20
20.5269710016
 11
155.5729596767
 21
20.5484503054
  0
LINE
  5
41E
100
AcDbEntity
  8
0
100
AcDbLine
 62
7
  6
CONTINUOUS
 10
155.582784327
 20
20.5060828342
 11
155.5780425283
 21
20.5269710016
  0
LINE
  5
41F
100
AcDbEntity
  8
0
100
AcDbLine
 62
7
  6
CONTINUOUS
 10
155.587208137
 20
20.4857585118
 11
155.582784327
 21
20.5060828342
  0
LINE
  5
420
100
AcDbEntity
  8
0
100
AcDbLine
 62
7
  6
CONTINUOUS
 10
155.5913356424
 20
20.465969916
 11
155.587208137
 21
20.4857585118
  0
LINE
  5
421
100
AcDbEntity
  8
0
100
AcDbLine
 62
7
  6
CONTINUOUS
 10
155.5951683633
 20
20.446784467
 11
155.5913164776
 21
20.4660638025
  0
LINE
  5
422
100
AcDbEntity
  8
0
100
AcDbLine
 62
7
  6
CONTINUOUS
 10
155.5987762069
 20
20.4279135784
 11
155.5951857904
 21
20.4466952899
  0
LINE
  5
423
100
AcDbEntity
  8
0
100
AcDbLine
 62
7
  6
CONTINUOUS
 10
155.602123711
 20
20.4096020386
 11
155.5987762069
 21
20.4279135784
  0
LINE
  5
424
100
AcDbEntity
  8
0
100
AcDbLine
 62
7
  6
CONTINUOUS
 10
155.6089414904
 20
20.2871274434
 11
155.6060666311
 21
20.3030043769
  0
LINE
  5
425
100
AcDbEntity
  8
0
100
AcDbLine
 62
7
  6
CONTINUOUS
 10
155.6118655225
 20
20.2704122762
 11
155.6089414904
 21
20.2871274434
  0
LINE
  5
426
100
AcDbEntity
  8
0
100
AcDbLine
 62
7
  6
CONTINUOUS
 10
155.6052441203
 20
20.3917372722
 11
155.602123711
 21
20.4096020386
  0
LINE
  5
427
100
AcDbEntity
  8
0
100
AcDbLine
 62
7
  6
CONTINUOUS
 10
118.381932786
 20
0.1878530081
 11
118.3862120695
 21
0.1628068612
  0
LINE
  5
428
100
AcDbEntity
  8
0
100
AcDbLine
 62
7
  6
CONTINUOUS
 10
118.3819308137
 20
0.1878723868
 11
118.3862035213
 21
0.1628427097
  0
LINE
  5
429
100
AcDbEntity
  8
0
100
AcDbLine
 62
7
  6
CONTINUOUS
 10
155.6147970086
 20
20.2530155634
 11
155.6118655225
 21
20.2704122762
  0
LINE
  5
42A
100
AcDbEntity
  8
0
100
AcDbLine
 62
7
  6
CONTINUOUS
 10
155.6081392648
 20
20.3743751793
 11
155.6052310885
 21
20.3918136297
  0
LINE
  5
42B
100
AcDbEntity
  8
0
100
AcDbLine
 62
7
  6
CONTINUOUS
 10
155.6177545021
 20
20.2347366062
 11
155.6147970086
 21
20.2530155634
  0
LINE
  5
42C
100
AcDbEntity
  8
0
100
AcDbLine
 62
7
  6
CONTINUOUS
 10
155.6108570191
 20
20.3572840338
 11
155.608151063
 21
20.3743027242
  0
LINE
  5
42D
100
AcDbEntity
  8
0
100
AcDbLine
 62
7
  6
CONTINUOUS
 10
155.6207029279
 20
20.215688541
 11
155.6177545021
 21
20.2347366062
  0
LINE
  5
42E
100
AcDbEntity
  8
0
100
AcDbLine
 62
7
  6
CONTINUOUS
 10
155.6133738777
 20
20.340666072
 11
155.6108570191
 21
20.3572840338
  0
LINE
  5
42F
100
AcDbEntity
  8
0
100
AcDbLine
 62
7
  6
CONTINUOUS
 10
155.6236268454
 20
20.1958657845
 11
155.6207029279
 21
20.215688541
  0
LINE
  5
430
100
AcDbEntity
  8
0
100
AcDbLine
 62
7
  6
CONTINUOUS
 10
155.615712948
 20
20.3244328338
 11
155.6133738777
 21
20.340666072
  0
LINE
  5
431
100
AcDbEntity
  8
DEFAULT_2
100
AcDbLine
 62
8
  6
CONTINUOUS
 10
123.1740038894
 20
3.8082824581
 11
120.5686449542
 21
22.3463745417
  0
LINE
  5
432
100
AcDbEntity
  8
0
100
AcDbLine
 62
7
  6
CONTINUOUS
 10
155.6265103774
 20
20.1752602098
 11
155.6236268454
 21
20.1958657845
  0
LINE
  5
433
100
AcDbEntity
  8
0
100
AcDbLine
 62
7
  6
CONTINUOUS
 10
155.617884911
 20
20.3085677989
 11
155.615712948
 21
20.3244328338
  0
LINE
  5
434
100
AcDbEntity
  8
0
100
AcDbLine
 62
9
  6
CONTINUOUS
 10
151.1394588487
 20
23.1199815774
 11
151.1396807488
 21
23.1183359248
  0
LINE
  5
435
100
AcDbEntity
  8
0
100
AcDbLine
 62
7
  6
CONTINUOUS
 10
155.6293623888
 20
20.1536636228
 11
155.6265103774
 21
20.1752602098
  0
LINE
  5
436
100
AcDbEntity
  8
0
100
AcDbLine
 62
7
  6
CONTINUOUS
 10
155.6198997531
 20
20.2930545844
 11
155.617884911
 21
20.3085677989
  0
LINE
  5
437
100
AcDbEntity
  8
0
100
AcDbLine
 62
7
  6
CONTINUOUS
 10
155.6321795612
 20
20.1309060816
 11
155.6293623888
 21
20.1536636228
  0
LINE
  5
438
100
AcDbEntity
  8
0
100
AcDbLine
 62
7
  6
CONTINUOUS
 10
155.621766876
 20
20.2778763557
 11
155.6198997531
 21
20.2930545844
  0
LINE
  5
439
100
AcDbEntity
  8
0
100
AcDbLine
 62
7
  6
CONTINUOUS
 10
155.6234951158
 20
20.263015723
 11
155.621766876
 21
20.2778763557
  0
LINE
  5
43A
100
AcDbEntity
  8
0
100
AcDbLine
 62
7
  6
CONTINUOUS
 10
155.6348159779
 20
20.1080405804
 11
155.6321795612
 21
20.1309060816
  0
ARC
  5
43B
100
AcDbEntity
  8
0
100
AcDbCircle
 62
7
  6
CONTINUOUS
 10
226.8704278667
 20
-1.8778894848
 40
76.0076080298
100
AcDbArc
 50
163.1959351869
 51
178.433321799
  0
ARC
  5
43C
100
AcDbEntity
  8
0
100
AcDbCircle
 62
7
  6
CONTINUOUS
 10
42.4018839528
 20
-1.8778894848
 40
76.0076080298
100
AcDbArc
 50
1.5678581304
 51
16.8041360489
  0
ARC
  5
43D
100
AcDbEntity
  8
DEFAULT_2
100
AcDbCircle
 62
8
  6
CONTINUOUS
 10
145.0522502455
 20
3.5504918153
 40
1.0
100
AcDbArc
 50
273.422279435
 51
352.0
  0
ARC
  5
43E
100
AcDbEntity
  8
DEFAULT_2
100
AcDbCircle
 62
8
  6
CONTINUOUS
 10
124.1642719581
 20
3.947455559
 40
1.0
100
AcDbArc
 50
188.0
 51
268.4014700175
  0
ARC
  5
43F
100
AcDbEntity
  8
DEFAULT_2
100
AcDbCircle
 62
8
  6
CONTINUOUS
 10
149.1984046879
 20
22.2739687976
 40
0.5
100
AcDbArc
 50
92.489552922
 51
172.0
  0
ARC
  5
440
100
AcDbEntity
  8
DEFAULT_2
100
AcDbCircle
 62
8
  6
CONTINUOUS
 10
120.0739071316
 20
22.2739687976
 40
0.5
100
AcDbArc
 50
8.0
 51
87.510447078
  0
ARC
  5
441
100
AcDbEntity
  8
DEFAULT_2
100
AcDbCircle
 62
8
  6
CONTINUOUS
 10
151.8268390086
 20
22.8765300524
 40
0.25
100
AcDbArc
 50
87.6572780444
 51
151.5153725788
  0
ARC
  5
442
100
AcDbEntity
  8
DEFAULT_2
100
AcDbCircle
 62
8
  6
CONTINUOUS
 10
144.1576025192
 20
2.0954303478
 40
0.25
100
AcDbArc
 50
270.0
 51
315.0
  0
ARC
  5
443
100
AcDbEntity
  8
DEFAULT_2
100
AcDbCircle
 62
8
  6
CONTINUOUS
 10
141.6147093003
 20
2.0954303478
 40
0.25
100
AcDbArc
 50
225.0
 51
270.0
  0
ARC
  5
444
100
AcDbEntity
  8
DEFAULT_2
100
AcDbCircle
 62
8
  6
CONTINUOUS
 10
117.4454728109
 20
22.8765300524
 40
0.25
100
AcDbArc
 50
28.4846274212
 51
92.3427219556
  0
ARC
  5
445
100
AcDbEntity
  8
DEFAULT_2
100
AcDbCircle
 62
8
  6
CONTINUOUS
 10
145.0685026158
 20
2.2992236814
 40
0.249999999
100
AcDbArc
 50
93.4344131586
 51
134.999996706
  0
ARC
  5
446
100
AcDbEntity
  8
DEFAULT_2
100
AcDbCircle
 62
8
  6
CONTINUOUS
 10
140.7732217358
 20
2.2298111497
 40
0.2499999989
100
AcDbArc
 50
45.0000030519
 51
89.4843424289
  0
ARC
  5
447
100
AcDbEntity
  8
DEFAULT_2
100
AcDbCircle
 62
8
  6
CONTINUOUS
 10
151.3961559161
 20
23.1102222952
 40
0.2399999984
100
AcDbArc
 50
272.4895521944
 51
331.5153726335
  0
ARC
  5
448
100
AcDbEntity
  8
DEFAULT_2
100
AcDbCircle
 62
8
  6
CONTINUOUS
 10
117.8761559034
 20
23.1102222952
 40
0.2399999984
100
AcDbArc
 50
208.4846273665
 51
267.5104478056
  0
ENDSEC
  0
SECTION
  2
OBJECTS
  0
DICTIONARY
  5
C
100
AcDbDictionary
280
0
281
1
  3
ACAD_GROUP
350
D
  3
ACAD_MLINESTYLE
350
17
  3
ACAD_LAYOUT
350
1A
  3
ACAD_PLOTSETTINGS
350
19
  3
ACAD_PLOTSTYLENAME
350
E
  0
DICTIONARY
  5
D
102
{ACAD_REACTORS
330
C
102
}
100
AcDbDictionary
280
0
281
1
  0
ACDBDICTIONARYWDFLT
  5
E
102
{ACAD_REACTORS
330
C
102
}
100
AcDbDictionary
281
1
  3
Normal
350
F
100
AcDbDictionaryWithDefault
340
F
  0
DICTIONARY
  5
17
102
{ACAD_REACTORS
330
C
102
}
100
AcDbDictionary
280
0
281
1
  3
Standard
350
18
  0
DICTIONARY
  5
19
102
{ACAD_REACTORS
330
C
102
}
100
AcDbDictionary
281
1
  0
DICTIONARY
  5
1A
102
{ACAD_REACTORS
330
C
102
}
100
AcDbDictionary
281
1
  3
Model
350
449
  3
Layout1
350
44A
  0
ACDBPLACEHOLDER
  5
F
102
{ACAD_REACTORS
330
E
102
}
  0
MLINESTYLE
  5
18
102
{ACAD_REACTORS
330
17
102
}
100
AcDbMlineStyle
  2
STANDARD
 70
0
  3

 62
256
 51
90.0
 52
90.0
 71
2
 49
0.5
 62
256
  6
BYLAYER
 49
-0.5
 62
256
  6
BYLAYER
  0
LAYOUT
  5
449
102
{ACAD_REACTORS
330
1A
102
}
100
AcDbPlotSettings
  1

  2
none_device
  4
ANSI_B_(17.00_x_11.00_Inches)
  6

 40
0.0
 41
0.0
 42
0.0
 43
0.0
 44
431.8
 45
279.4
 46
0.0
 47
0.0
 48
0.0
 49
0.0
140
0.0
141
0.0
142
1.0
143
1.0
 70
1024
 72
0
 73
0
 74
0
  7

 75
0
147
1.0
148
0.0
149
0.0
100
AcDbLayout
  1
Model
 70
0
 71
0
 10
0.0
 20
0.0
 11
17.0
 21
11.0
 12
0.0
 22
0.0
 32
0.0
 14
0.0
 24
0.0
 34
0.0
 15
0.0
 25
0.0
 35
0.0
146
0.0
 13
0.0
 23
0.0
 33
0.0
 16
1.0
 26
0.0
 36
0.0
 17
0.0
 27
1.0
 37
0.0
 76
0
330
212
345
0
346
0
  0
LAYOUT
  5
44A
102
{ACAD_REACTORS
330
1A
102
}
100
AcDbPlotSettings
  1

  2
none_device
  4
ANSI_B_(17.00_x_11.00_Inches)
  6

 40
0.0
 41
0.0
 42
0.0
 43
0.0
 44
431.8
 45
279.4
 46
0.0
 47
0.0
 48
0.0
 49
0.0
140
0.0
141
0.0
142
1.0
143
1.0
 70
0
 72
0
 73
0
 74
0
  7

 75
0
147
1.0
148
0.0
149
0.0
100
AcDbLayout
  1
Layout1
 70
0
 71
1
 10
0.0
 20
0.0
 11
17.0
 21
11.0
 12
0.0
 22
0.0
 32
0.0
 14
0.0
 24
0.0
 34
0.0
 15
0.0
 25
0.0
 35
0.0
146
0.0
 13
0.0
 23
0.0
 33
0.0
 16
1.0
 26
0.0
 36
0.0
 17
0.0
 27
1.0
 37
0.0
 76
0
330
213
345
0
346
0
  0
ENDSEC
  0
EOF
