  0
SECTION
  2
HEADER
  9
$ACADVER
  1
AC1021
  9
$DWGCODEPAGE
  3
ANSI_1252
  9
$EXTMAX
 10
17.0
 20
11.0
 30
0.0
  9
$EXTMIN
 10
0.0
 20
0.0
 30
0.0
  9
$LIMMIN
 10
0.0
 20
0.0
  9
$LIMMAX
 10
17.0
 20
11.0
  9
$VIEWCTR
 10
8.5
 20
5.5
  9
$VIEWSIZE
 40
11.0
  9
$CLAYER
  8
0
  9
$LTSCALE
 40
0.935
  9
$CELTYPE
  6
BYLAYER
  9
$DIMSCALE
 40
1.0
  9
$DIMASZ
 40
0.1875
  9
$DIMEXO
 40
0.10625
  9
$DIMDLI
 40
0.646
  9
$DIMEXE
 40
0.306
  9
$DIMCEN
 40
0.153
  9
$DIMLFAC
 40
1.0
  9
$DIMBLK
  1
_FILLED
  9
$DIMTXT
 40
0.125
  9
$DIMTOL
 70
0
  9
$DIMLIM
 70
0
  9
$DIMTFAC
 40
1.0
  9
$PDMODE
 70
3
  9
$PDSIZE
 40
0.03125
  9
$HANDSEED
  5
4EF
  9
$TILEMODE
 70
1
  9
$MEASUREMENT
 70
0
  9
$INSUNITS
 70
1
  0
ENDSEC
  0
SECTION
  2
CLASSES
  0
CLASS
  1
ACDBDICTIONARYWDFLT
  2
AcDbDictionaryWithDefault
  3
AutoCAD 2000
 90
0
 91
1
280
0
281
0
  0
CLASS
  1
ACDBPLACEHOLDER
  2
AcDbPlaceHolder
  3
AutoCAD 2000
 90
0
 91
1
280
0
281
0
  0
CLASS
  1
LAYOUT
  2
AcDbLayout
  3
AutoCAD 2000
 90
0
 91
0
280
0
281
0
  0
ENDSEC
  0
SECTION
  2
TABLES
  0
TABLE
  2
VPORT
  5
8
100
AcDbSymbolTable
 70
2
  0
VPORT
  5
1F4
100
AcDbSymbolTableRecord
100
AcDbViewportTableRecord
  2
*ACTIVE
 70
0
 10
0.0
 20
0.0
 11
1.0
 21
1.0
 12
8.5
 22
5.5
 13
0.0
 23
0.0
 14
1.0
 24
1.0
 15
0.0
 25
0.0
 16
0.0
 26
0.0
 36
1.0
 17
0.0
 27
0.0
 37
0.0
 40
11.0
 41
1.5454545455
 42
50.0
 43
0.0
 44
0.0
 50
0.0
 51
0.0
 71
0
 72
100
 73
1
 74
1
 75
0
 76
0
 77
0
 78
0
  0
ENDTAB
  0
TABLE
  2
LTYPE
  5
5
100
AcDbSymbolTable
 70
6
  0
LTYPE
  5
14
100
AcDbSymbolTableRecord
100
AcDbLinetypeTableRecord
  2
BYBLOCK
 70
0
  3

 72
65
 73
0
 40
0.0
  0
LTYPE
  5
15
100
AcDbSymbolTableRecord
100
AcDbLinetypeTableRecord
  2
BYLAYER
 70
0
  3

 72
65
 73
0
 40
0.0
  0
LTYPE
  5
16
100
AcDbSymbolTableRecord
100
AcDbLinetypeTableRecord
  2
CONTINUOUS
 70
64
  3
Solid line
 72
65
 73
0
 40
0.0
  0
LTYPE
  5
1F5
100
AcDbSymbolTableRecord
100
AcDbLinetypeTableRecord
  2
CENTER
 70
64
  3
____ _ ____ _ ____ _ ____ _ ____ _ ____ _ ____
 72
65
 73
4
 40
0.6
 49
0.375
 74
0
 49
-0.075
 74
0
 49
0.075
 74
0
 49
-0.075
 74
0
  0
LTYPE
  5
1F6
100
AcDbSymbolTableRecord
100
AcDbLinetypeTableRecord
  2
HIDDEN
 70
64
  3
- - - - - - - - - - - - - - - - - - - -
 72
65
 73
2
 40
0.2
 49
0.1
 74
0
 49
-0.1
 74
0
  0
LTYPE
  5
1F7
100
AcDbSymbolTableRecord
100
AcDbLinetypeTableRecord
  2
PHANTOM
 70
64
  3
_____ _ _ _____ _ _ _____ _ _ _____
 72
65
 73
6
 40
0.8
 49
0.45
 74
0
 49
-0.05
 74
0
 49
0.1
 74
0
 49
-0.05
 74
0
 49
0.1
 74
0
 49
-0.05
 74
0
  0
LTYPE
  5
1F8
100
AcDbSymbolTableRecord
100
AcDbLinetypeTableRecord
  2
DOT
 70
64
  3
. . . . . . . . . . . . . . . . . . . .
 72
65
 73
2
 40
0.2
 49
0.1
 74
0
 49
-0.1
 74
0
  0
LTYPE
  5
1F9
100
AcDbSymbolTableRecord
100
AcDbLinetypeTableRecord
  2
DASHED
 70
64
  3
- - - - - - - - - - - - - - - - - - - -
 72
65
 73
2
 40
0.2
 49
0.1
 74
0
 49
-0.1
 74
0
  0
ENDTAB
  0
TABLE
  2
LAYER
  5
2
100
AcDbSymbolTable
 70
36
  0
LAYER
  5
10
100
AcDbSymbolTableRecord
100
AcDbLayerTableRecord
  2
0
 70
0
 62
7
  6
CONTINUOUS
370
-3
390
F
  0
LAYER
  5
1FA
100
AcDbSymbolTableRecord
100
AcDbLayerTableRecord
  2
DEFAULT_1
 70
0
 62
7
  6
CENTER
370
-3
390
F
  0
LAYER
  5
1FB
100
AcDbSymbolTableRecord
100
AcDbLayerTableRecord
  2
DEFAULT_2
 70
0
 62
8
  6
HIDDEN
370
-3
390
F
  0
LAYER
  5
1FC
100
AcDbSymbolTableRecord
100
AcDbLayerTableRecord
  2
DEFAULT_3
 70
0
 62
7
  6
PHANTOM
370
-3
390
F
  0
LAYER
  5
1FD
100
AcDbSymbolTableRecord
100
AcDbLayerTableRecord
  2
1_CURVES
 70
0
 62
7
  6
CONTINUOUS
370
-3
390
F
  0
LAYER
  5
1FE
100
AcDbSymbolTableRecord
100
AcDbLayerTableRecord
  2
1_CURVES-JETS
 70
0
 62
7
  6
CONTINUOUS
370
-3
390
F
  0
LAYER
  5
1FF
100
AcDbSymbolTableRecord
100
AcDbLayerTableRecord
  2
1_CURVES_TOLERANCES
 70
0
 62
7
  6
CONTINUOUS
370
-3
390
F
  0
LAYER
  5
200
100
AcDbSymbolTableRecord
100
AcDbLayerTableRecord
  2
2_PLANES
 70
0
 62
7
  6
CONTINUOUS
370
-3
390
F
  0
LAYER
  5
201
100
AcDbSymbolTableRecord
100
AcDbLayerTableRecord
  2
3_POINTS
 70
0
 62
7
  6
CONTINUOUS
370
-3
390
F
  0
LAYER
  5
202
100
AcDbSymbolTableRecord
100
AcDbLayerTableRecord
  2
3_POINTS-JETS
 70
0
 62
7
  6
CONTINUOUS
370
-3
390
F
  0
LAYER
  5
203
100
AcDbSymbolTableRecord
100
AcDbLayerTableRecord
  2
4_CSYS
 70
0
 62
7
  6
CONTINUOUS
370
-3
390
F
  0
LAYER
  5
204
100
AcDbSymbolTableRecord
100
AcDbLayerTableRecord
  2
5_AXIS
 70
0
 62
7
  6
CONTINUOUS
370
-3
390
F
  0
LAYER
  5
205
100
AcDbSymbolTableRecord
100
AcDbLayerTableRecord
  2
5_AXIS-JETS
 70
0
 62
7
  6
CONTINUOUS
370
-3
390
F
  0
LAYER
  5
206
100
AcDbSymbolTableRecord
100
AcDbLayerTableRecord
  2
6_SURFACES
 70
0
 62
7
  6
CONTINUOUS
370
-3
390
F
  0
LAYER
  5
207
100
AcDbSymbolTableRecord
100
AcDbLayerTableRecord
  2
6_SURFACES-OFFSET-FIBRE
 70
0
 62
7
  6
CONTINUOUS
370
-3
390
F
  0
LAYER
  5
208
100
AcDbSymbolTableRecord
100
AcDbLayerTableRecord
  2
6_SURFACES-TOOLING
 70
0
 62
7
  6
CONTINUOUS
370
-3
390
F
  0
LAYER
  5
209
100
AcDbSymbolTableRecord
100
AcDbLayerTableRecord
  2
6_SURFACES_POUR_DECOUPE
 70
0
 62
7
  6
CONTINUOUS
370
-3
390
F
  0
LAYER
  5
20A
100
AcDbSymbolTableRecord
100
AcDbLayerTableRecord
  2
6_SURFACES_TOOLING
 70
0
 62
7
  6
CONTINUOUS
370
-3
390
F
  0
LAYER
  5
20B
100
AcDbSymbolTableRecord
100
AcDbLayerTableRecord
  2
7_NOTES
 70
0
 62
7
  6
CONTINUOUS
370
-3
390
F
  0
LAYER
  5
20C
100
AcDbSymbolTableRecord
100
AcDbLayerTableRecord
  2
8_ZONE-ROBINETERIE
 70
0
 62
7
  6
CONTINUOUS
370
-3
390
F
  0
LAYER
  5
20D
100
AcDbSymbolTableRecord
100
AcDbLayerTableRecord
  2
MIA_PLUS_TROU
 70
0
 62
7
  6
CONTINUOUS
370
-3
390
F
  0
LAYER
  5
20E
100
AcDbSymbolTableRecord
100
AcDbLayerTableRecord
  2
MIA_TROU
 70
0
 62
7
  6
CONTINUOUS
370
-3
390
F
  0
LAYER
  5
20F
100
AcDbSymbolTableRecord
100
AcDbLayerTableRecord
  2
XSEC_DATUMS
 70
0
 62
7
  6
CONTINUOUS
370
-3
390
F
  0
ENDTAB
  0
TABLE
  2
STYLE
  5
3
100
AcDbSymbolTable
 70
1
  0
STYLE
  5
11
100
AcDbSymbolTableRecord
100
AcDbTextStyleTableRecord
  2
STANDARD
 70
0
 40
0.0
 41
0.8
 50
0.0
 71
0
 42
0.2
  3
txt
  4

  0
STYLE
  5
210
100
AcDbSymbolTableRecord
100
AcDbTextStyleTableRecord
  2
TEXTSTYLE_1
 70
0
 40
0.0
 41
0.8
 50
0.0
 71
0
 42
0.2
  3
gdt
  4

  0
ENDTAB
  0
TABLE
  2
VIEW
  5
6
100
AcDbSymbolTable
 70
0
  0
ENDTAB
  0
TABLE
  2
UCS
  5
7
100
AcDbSymbolTable
 70
0
  0
ENDTAB
  0
TABLE
  2
APPID
  5
9
100
AcDbSymbolTable
 70
1
  0
APPID
  5
211
100
AcDbSymbolTableRecord
100
AcDbRegAppTableRecord
  2
ACAD
 70
0
  0
ENDTAB
  0
TABLE
  2
BLOCK_RECORD
  5
1
100
AcDbSymbolTable
 70
0
  0
BLOCK_RECORD
  5
212
100
AcDbSymbolTableRecord
100
AcDbBlockTableRecord
  2
*Model_Space
  0
BLOCK_RECORD
  5
213
100
AcDbSymbolTableRecord
100
AcDbBlockTableRecord
  2
*Paper_Space
  0
ENDTAB
  0
TABLE
  2
DIMSTYLE
  5
A
100
AcDbSymbolTable
 70
1
100
AcDbDimStyleTable
 71
0
  0
DIMSTYLE
105
214
100
AcDbSymbolTableRecord
100
AcDbDimStyleTableRecord
  2
STANDARD
 70
0
  3

  4

 40
1.0
 41
0.1875
 42
0.0625
 43
0.38
 44
0.18
 45
0.0
 46
0.0
 47
0.00001
 48
0.00001
140
0.125
141
0.09
142
0.0
143
25.4
144
1.0
145
0.0
146
1.0
147
0.09
 71
0.0
 72
0.0
 73
1
 74
1
 75
0
 76
0
 77
0
 78
4
170
0
171
2
172
0
173
0
174
0
175
0
176
0
177
0
178
0
270
2
271
5
272
5
273
2
274
2
275
0
280
0
281
0
282
0
283
1
284
4
285
0
286
0
287
3
288
0
340
11
  0
ENDTAB
  0
ENDSEC
  0
SECTION
  2
BLOCKS
  0
BLOCK
  5
20
100
AcDbEntity
  8
0
100
AcDbBlockBegin
  2
*Model_Space
 70
0
 10
0.0
 20
0.0
 30
0.0
  3
*Model_Space
  1

  0
ENDBLK
  5
21
100
AcDbEntity
  8
0
100
AcDbBlockEnd
  0
BLOCK
  5
1C
100
AcDbEntity
  8
0
100
AcDbBlockBegin
  2
*Paper_Space
 70
0
 10
0.0
 20
0.0
 30
0.0
  3
*Paper_Space
  1

  0
ENDBLK
  5
1D
100
AcDbEntity
  8
0
100
AcDbBlockEnd
  0
ENDSEC
  0
SECTION
  2
ENTITIES
  0
LINE
  5
215
100
AcDbEntity
  8
0
100
AcDbLine
 62
7
  6
CONTINUOUS
 10
1.8131780464
 20
107.0938815954
 11
1.8109701016
 21
107.0369853797
  0
LINE
  5
216
100
AcDbEntity
  8
0
100
AcDbLine
 62
7
  6
CONTINUOUS
 10
4.5534819944
 20
103.7956387394
 11
4.551441785
 21
103.7645941318
  0
LINE
  5
217
100
AcDbEntity
  8
0
100
AcDbLine
 62
7
  6
CONTINUOUS
 10
4.5514415502
 20
103.7645467369
 11
4.5534819944
 21
103.7956387394
  0
LINE
  5
218
100
AcDbEntity
  8
0
100
AcDbLine
 62
7
  6
CONTINUOUS
 10
1.8179925259
 20
107.1503349306
 11
1.8131780464
 21
107.0938815954
  0
LINE
  5
219
100
AcDbEntity
  8
0
100
AcDbLine
 62
9
  6
CONTINUOUS
 10
7.5139131693
 20
100.8075288707
 11
7.508176085
 21
100.754453423
  0
LINE
  5
21A
100
AcDbEntity
  8
0
100
AcDbLine
 62
7
  6
CONTINUOUS
 10
1.8252115875
 20
107.2056206898
 11
1.8179925259
 21
107.1503349306
  0
LINE
  5
21B
100
AcDbEntity
  8
0
100
AcDbLine
 62
7
  6
CONTINUOUS
 10
1.8350052184
 20
107.261120817
 11
1.8252115875
 21
107.2056206898
  0
LINE
  5
21C
100
AcDbEntity
  8
0
100
AcDbLine
 62
9
  6
CONTINUOUS
 10
15.2105137659
 20
98.3981354692
 11
15.2199513174
 21
98.4481001085
  0
LINE
  5
21D
100
AcDbEntity
  8
0
100
AcDbLine
 62
7
  6
CONTINUOUS
 10
4.5534821558
 20
103.7956411987
 11
4.5593589897
 21
103.8265487328
  0
LINE
  5
21E
100
AcDbEntity
  8
0
100
AcDbLine
 62
9
  6
CONTINUOUS
 10
7.5245168397
 20
100.8599957954
 11
7.5139131693
 21
100.8075288707
  0
LINE
  5
21F
100
AcDbEntity
  8
0
100
AcDbLine
 62
7
  6
CONTINUOUS
 10
1.8483276223
 20
107.320280295
 11
1.8350052184
 21
107.261120817
  0
LINE
  5
220
100
AcDbEntity
  8
0
100
AcDbLine
 62
7
  6
CONTINUOUS
 10
1.8668647689
 20
107.3864056536
 11
1.8483276223
 21
107.320280295
  0
LINE
  5
221
100
AcDbEntity
  8
0
100
AcDbLine
 62
9
  6
CONTINUOUS
 10
15.2199513174
 20
98.4481001085
 11
15.2341769563
 21
98.4969823872
  0
LINE
  5
222
100
AcDbEntity
  8
0
100
AcDbLine
 62
9
  6
CONTINUOUS
 10
7.539865517
 20
100.9112526091
 11
7.5245168397
 21
100.8599957954
  0
LINE
  5
223
100
AcDbEntity
  8
0
100
AcDbLine
 62
7
  6
CONTINUOUS
 10
4.5593589897
 20
103.8265487328
 11
4.5689549134
 21
103.8564623927
  0
LINE
  5
224
100
AcDbEntity
  8
0
100
AcDbLine
 62
7
  6
CONTINUOUS
 10
1.8928237048
 20
107.4615184971
 11
1.8668647689
 21
107.3864056536
  0
LINE
  5
225
100
AcDbEntity
  8
0
100
AcDbLine
 62
9
  6
CONTINUOUS
 10
15.2341769563
 20
98.4969823872
 11
15.2530165505
 21
98.5442454119
  0
LINE
  5
226
100
AcDbEntity
  8
0
100
AcDbLine
 62
9
  6
CONTINUOUS
 10
7.5597832189
 20
100.9607116198
 11
7.539865517
 21
100.9112526091
  0
LINE
  5
227
100
AcDbEntity
  8
0
100
AcDbLine
 62
7
  6
CONTINUOUS
 10
1.9276025669
 20
107.5436657003
 11
1.8928237048
 21
107.4615184971
  0
LINE
  5
228
100
AcDbEntity
  8
0
100
AcDbLine
 62
9
  6
CONTINUOUS
 10
36.0754512905
 20
96.3916384283
 11
36.0162566516
 21
96.2519298027
  0
LINE
  5
229
100
AcDbEntity
  8
0
100
AcDbLine
 62
7
  6
CONTINUOUS
 10
4.5689549134
 20
103.8564623927
 11
4.5820518087
 21
103.8848477254
  0
LINE
  5
22A
100
AcDbEntity
  8
0
100
AcDbLine
 62
9
  6
CONTINUOUS
 10
36.1445293258
 20
96.5261909913
 11
36.0754512905
 21
96.3916384283
  0
LINE
  5
22B
100
AcDbEntity
  8
0
100
AcDbLine
 62
7
  6
CONTINUOUS
 10
1.9719562019
 20
107.629841488
 11
1.9276025669
 21
107.5436657003
  0
LINE
  5
22C
100
AcDbEntity
  8
0
100
AcDbLine
 62
9
  6
CONTINUOUS
 10
15.2530165505
 20
98.5442454119
 11
15.2763070072
 21
98.5894992144
  0
LINE
  5
22D
100
AcDbEntity
  8
0
100
AcDbLine
 62
9
  6
CONTINUOUS
 10
7.5840415762
 20
101.0078057485
 11
7.5597832189
 21
100.9607116198
  0
LINE
  5
22E
100
AcDbEntity
  8
0
100
AcDbLine
 62
9
  6
CONTINUOUS
 10
39.4825071675
 20
94.5421627897
 11
39.5499214148
 21
94.6698011882
  0
LINE
  5
22F
100
AcDbEntity
  8
0
100
AcDbLine
 62
9
  6
CONTINUOUS
 10
36.2229171985
 20
96.6544765413
 11
36.1445293258
 21
96.5261909913
  0
LINE
  5
230
100
AcDbEntity
  8
0
100
AcDbLine
 62
7
  6
CONTINUOUS
 10
4.5985789984
 20
103.9115649273
 11
4.5820422072
 21
103.8848298525
  0
LINE
  5
231
100
AcDbEntity
  8
0
100
AcDbLine
 62
7
  6
CONTINUOUS
 10
2.025914551
 20
107.7167692133
 11
1.9719562019
 21
107.629841488
  0
LINE
  5
232
100
AcDbEntity
  8
0
100
AcDbLine
 62
9
  6
CONTINUOUS
 10
39.4055591972
 20
94.4195851463
 11
39.4825071675
 21
94.5421627897
  0
LINE
  5
233
100
AcDbEntity
  8
0
100
AcDbLine
 62
9
  6
CONTINUOUS
 10
7.6123624515
 20
101.0519950309
 11
7.5840415762
 21
101.0078057485
  0
LINE
  5
234
100
AcDbEntity
  8
0
100
AcDbLine
 62
9
  6
CONTINUOUS
 10
15.2763070072
 20
98.5894992144
 11
15.3038593058
 21
98.6323344007
  0
LINE
  5
235
100
AcDbEntity
  8
0
100
AcDbLine
 62
9
  6
CONTINUOUS
 10
36.3099374574
 20
96.7755542499
 11
36.2229171985
 21
96.6544765413
  0
LINE
  5
236
100
AcDbEntity
  8
0
100
AcDbLine
 62
9
  6
CONTINUOUS
 10
39.3196492888
 20
94.3030490449
 11
39.4055591972
 21
94.4195851463
  0
LINE
  5
237
100
AcDbEntity
  8
0
100
AcDbLine
 62
7
  6
CONTINUOUS
 10
2.088382425
 20
107.8008568108
 11
2.025914551
 21
107.7167692133
  0
LINE
  5
238
100
AcDbEntity
  8
0
100
AcDbLine
 62
9
  6
CONTINUOUS
 10
7.6444211278
 20
101.0927728088
 11
7.6123624515
 21
101.0519950309
  0
LINE
  5
239
100
AcDbEntity
  8
0
100
AcDbLine
 62
9
  6
CONTINUOUS
 10
15.3038593058
 20
98.6323344007
 11
15.3352530594
 21
98.672105591
  0
LINE
  5
23A
100
AcDbEntity
  8
0
100
AcDbLine
 62
7
  6
CONTINUOUS
 10
4.618284448
 20
103.9361328743
 11
4.5985789984
 21
103.9115649273
  0
LINE
  5
23B
100
AcDbEntity
  8
0
100
AcDbLine
 62
9
  6
CONTINUOUS
 10
36.4050637443
 20
96.8889079883
 11
36.3099374574
 21
96.7755542499
  0
LINE
  5
23C
100
AcDbEntity
  8
0
100
AcDbLine
 62
9
  6
CONTINUOUS
 10
39.2253294464
 20
94.1933077416
 11
39.3196492888
 21
94.3030490449
  0
LINE
  5
23D
100
AcDbEntity
  8
0
100
AcDbLine
 62
7
  6
CONTINUOUS
 10
2.158402802
 20
107.8800859774
 11
2.088382425
 21
107.8008568108
  0
LINE
  5
23E
100
AcDbEntity
  8
0
100
AcDbLine
 62
7
  6
CONTINUOUS
 10
36.6277737992
 20
100.9036501509
 11
36.6412957965
 21
100.9179445876
  0
LINE
  5
23F
100
AcDbEntity
  8
0
100
AcDbLine
 62
7
  6
CONTINUOUS
 10
38.9937362072
 20
100.8748420303
 11
38.9802142099
 21
100.8605475936
  0
LINE
  5
240
100
AcDbEntity
  8
0
100
AcDbLine
 62
9
  6
CONTINUOUS
 10
60.2893626027
 20
75.797305652
 11
60.3242060633
 21
75.8336073276
  0
LINE
  5
241
100
AcDbEntity
  8
0
100
AcDbLine
 62
9
  6
CONTINUOUS
 10
7.6798500319
 20
101.129671539
 11
7.6444211278
 21
101.0927728088
  0
LINE
  5
242
100
AcDbEntity
  8
0
100
AcDbLine
 62
9
  6
CONTINUOUS
 10
15.3352530594
 20
98.672105591
 11
15.3701141497
 21
98.7084085939
  0
LINE
  5
243
100
AcDbEntity
  8
0
100
AcDbLine
 62
9
  6
CONTINUOUS
 10
36.5078087163
 20
96.9941240086
 11
36.4050637443
 21
96.8889079883
  0
LINE
  5
244
100
AcDbEntity
  8
0
100
AcDbLine
 62
9
  6
CONTINUOUS
 10
39.1231233885
 20
94.0909616729
 11
39.2253294464
 21
94.1933077416
  0
LINE
  5
245
100
AcDbEntity
  8
0
100
AcDbLine
 62
7
  6
CONTINUOUS
 10
4.6183056857
 20
103.9361562678
 11
4.6408886555
 21
103.9581625742
  0
LINE
  5
246
100
AcDbEntity
  8
0
100
AcDbLine
 62
7
  6
CONTINUOUS
 10
4.6408587887
 20
103.9581368297
 11
4.618284448
 21
103.9361328743
  0
LINE
  5
247
100
AcDbEntity
  8
0
100
AcDbLine
 62
7
  6
CONTINUOUS
 10
2.234974643
 20
107.953116645
 11
2.158402802
 21
107.8800859774
  0
LINE
  5
248
100
AcDbEntity
  8
0
100
AcDbLine
 62
9
  6
CONTINUOUS
 10
36.617567531
 20
97.0907148042
 11
36.5078087163
 21
96.9941240086
  0
LINE
  5
249
100
AcDbEntity
  8
0
100
AcDbLine
 62
9
  6
CONTINUOUS
 10
39.0136096282
 20
93.99658235
 11
39.1231233885
 21
94.0909616729
  0
LINE
  5
24A
100
AcDbEntity
  8
0
100
AcDbLine
 62
9
  6
CONTINUOUS
 10
15.3701141497
 20
98.7084085939
 11
15.4083056749
 21
98.7411008453
  0
LINE
  5
24B
100
AcDbEntity
  8
0
100
AcDbLine
 62
9
  6
CONTINUOUS
 10
60.2511802113
 20
75.7646296408
 11
60.2893626027
 21
75.797305652
  0
LINE
  5
24C
100
AcDbEntity
  8
0
100
AcDbLine
 62
9
  6
CONTINUOUS
 10
7.718242949
 20
101.1622681539
 11
7.6798500319
 21
101.129671539
  0
LINE
  5
24D
100
AcDbEntity
  8
0
100
AcDbLine
 62
9
  6
CONTINUOUS
 10
67.9032670883
 20
73.3598477252
 11
67.941660012
 21
73.3924443402
  0
LINE
  5
24E
100
AcDbEntity
  8
0
100
AcDbLine
 62
7
  6
CONTINUOUS
 10
2.3171755084
 20
108.0191253123
 11
2.234974643
 21
107.953116645
  0
LINE
  5
24F
100
AcDbEntity
  8
0
100
AcDbLine
 62
7
  6
CONTINUOUS
 10
4.6661283365
 20
103.9773436769
 11
4.6408587887
 21
103.9581368297
  0
LINE
  5
250
100
AcDbEntity
  8
0
100
AcDbLine
 62
7
  6
CONTINUOUS
 10
70.95538167
 20
70.5447722057
 11
70.9806512178
 21
70.5639790528
  0
LINE
  5
251
100
AcDbEntity
  8
0
100
AcDbLine
 62
9
  6
CONTINUOUS
 10
36.7336735435
 20
97.1782114691
 11
36.617567531
 21
97.0907148042
  0
LINE
  5
252
100
AcDbEntity
  8
0
100
AcDbLine
 62
9
  6
CONTINUOUS
 10
38.8974216056
 20
93.9107039789
 11
39.0136096282
 21
93.99658235
  0
LINE
  5
253
100
AcDbEntity
  8
0
100
AcDbLine
 62
9
  6
CONTINUOUS
 10
60.2100725721
 20
75.7359344882
 11
60.2511802113
 21
75.7646296408
  0
LINE
  5
254
100
AcDbEntity
  8
0
100
AcDbLine
 62
9
  6
CONTINUOUS
 10
15.4083056749
 20
98.7411008453
 11
15.4494394975
 21
98.7697927528
  0
LINE
  5
255
100
AcDbEntity
  8
0
100
AcDbLine
 62
9
  6
CONTINUOUS
 10
7.7591596797
 20
101.1901889126
 11
7.718242949
 21
101.1622681539
  0
LINE
  5
256
100
AcDbEntity
  8
0
100
AcDbLine
 62
9
  6
CONTINUOUS
 10
67.8623503508
 20
73.331926968
 11
67.9032670883
 21
73.3598477252
  0
LINE
  5
257
100
AcDbEntity
  8
0
100
AcDbLine
 62
7
  6
CONTINUOUS
 10
2.4036143184
 20
108.0772667768
 11
2.3171755084
 21
108.0191253123
  0
LINE
  5
258
100
AcDbEntity
  8
0
100
AcDbLine
 62
7
  6
CONTINUOUS
 10
73.217895688
 20
66.4448491058
 11
73.304334498
 21
66.5029905703
  0
LINE
  5
259
100
AcDbEntity
  8
0
100
AcDbLine
 62
9
  6
CONTINUOUS
 10
36.8554701074
 20
97.2562365034
 11
36.7336735435
 21
97.1782114691
  0
LINE
  5
25A
100
AcDbEntity
  8
0
100
AcDbLine
 62
9
  6
CONTINUOUS
 10
38.7751934991
 20
93.8337843085
 11
38.8974216056
 21
93.9107039789
  0
LINE
  5
25B
100
AcDbEntity
  8
0
100
AcDbLine
 62
7
  6
CONTINUOUS
 10
36.6412957965
 20
100.9179445876
 11
36.6637180845
 21
100.9320206114
  0
LINE
  5
25C
100
AcDbEntity
  8
0
100
AcDbLine
 62
7
  6
CONTINUOUS
 10
38.9802142099
 20
100.8605475936
 11
38.9577919219
 21
100.8464715698
  0
LINE
  5
25D
100
AcDbEntity
  8
0
100
AcDbLine
 62
7
  6
CONTINUOUS
 10
4.6933798105
 20
103.9932045079
 11
4.6661283365
 21
103.9773436769
  0
LINE
  5
25E
100
AcDbEntity
  8
0
100
AcDbLine
 62
7
  6
CONTINUOUS
 10
70.9281301959
 20
70.5289113747
 11
70.95538167
 21
70.5447722057
  0
LINE
  5
25F
100
AcDbEntity
  8
0
100
AcDbLine
 62
9
  6
CONTINUOUS
 10
60.1666503917
 20
75.7116598921
 11
60.2100725721
 21
75.7359344882
  0
LINE
  5
260
100
AcDbEntity
  8
0
100
AcDbLine
 62
7
  6
CONTINUOUS
 10
2.4918091917
 20
108.1265409597
 11
2.4036143184
 21
108.0772667768
  0
LINE
  5
261
100
AcDbEntity
  8
0
100
AcDbLine
 62
7
  6
CONTINUOUS
 10
73.1297008147
 20
66.3955749228
 11
73.217895688
 21
66.4448491058
  0
LINE
  5
262
100
AcDbEntity
  8
0
100
AcDbLine
 62
9
  6
CONTINUOUS
 10
15.4494394975
 20
98.7697927528
 11
15.4928958717
 21
98.7940465413
  0
LINE
  5
263
100
AcDbEntity
  8
0
100
AcDbLine
 62
9
  6
CONTINUOUS
 10
36.9822968621
 20
97.3244790155
 11
36.8554701074
 21
97.2562365034
  0
LINE
  5
264
100
AcDbEntity
  8
0
100
AcDbLine
 62
9
  6
CONTINUOUS
 10
7.8021310877
 20
101.2131136859
 11
7.7591596797
 21
101.1901889126
  0
LINE
  5
265
100
AcDbEntity
  8
0
100
AcDbLine
 62
9
  6
CONTINUOUS
 10
67.8193789359
 20
73.3090021978
 11
67.8623503508
 21
73.331926968
  0
LINE
  5
266
100
AcDbEntity
  8
0
100
AcDbLine
 62
9
  6
CONTINUOUS
 10
38.6475462865
 20
93.7662160595
 11
38.7751934991
 21
93.8337843085
  0
LINE
  5
267
100
AcDbEntity
  8
0
100
AcDbLine
 62
7
  6
CONTINUOUS
 10
2.5780441374
 20
108.1661610346
 11
2.4918091917
 21
108.1265409597
  0
LINE
  5
268
100
AcDbEntity
  8
0
100
AcDbLine
 62
7
  6
CONTINUOUS
 10
73.043465869
 20
66.3559548479
 11
73.1297008147
 21
66.3955749228
  0
LINE
  5
269
100
AcDbEntity
  8
0
100
AcDbLine
 62
9
  6
CONTINUOUS
 10
37.1134935795
 20
97.3826818392
 11
36.9822968621
 21
97.3244790155
  0
LINE
  5
26A
100
AcDbEntity
  8
0
100
AcDbLine
 62
7
  6
CONTINUOUS
 10
36.6637180845
 20
100.9320206114
 11
36.694870016
 21
100.9457710953
  0
LINE
  5
26B
100
AcDbEntity
  8
0
100
AcDbLine
 62
7
  6
CONTINUOUS
 10
38.9577919219
 20
100.8464715698
 11
38.9266399904
 21
100.8327210859
  0
LINE
  5
26C
100
AcDbEntity
  8
0
100
AcDbLine
 62
9
  6
CONTINUOUS
 10
38.5151748102
 20
93.7083795472
 11
38.6475462865
 21
93.7662160595
  0
LINE
  5
26D
100
AcDbEntity
  8
0
100
AcDbLine
 62
9
  6
CONTINUOUS
 10
60.1212878995
 20
75.6920454095
 11
60.1666503917
 21
75.7116598921
  0
LINE
  5
26E
100
AcDbEntity
  8
0
100
AcDbLine
 62
9
  6
CONTINUOUS
 10
15.4928958717
 20
98.7940465413
 11
15.5382816643
 21
98.8136653721
  0
LINE
  5
26F
100
AcDbEntity
  8
0
100
AcDbLine
 62
7
  6
CONTINUOUS
 10
4.7217173889
 20
104.0053797723
 11
4.6933798105
 21
103.9932045079
  0
LINE
  5
270
100
AcDbEntity
  8
0
100
AcDbLine
 62
7
  6
CONTINUOUS
 10
70.8997926176
 20
70.5167361103
 11
70.9281301959
 21
70.5289113747
  0
LINE
  5
271
100
AcDbEntity
  8
0
100
AcDbLine
 62
9
  6
CONTINUOUS
 10
60.5425118478
 20
99.0938379752
 11
59.9400560839
 21
98.84302232
  0
LINE
  5
272
100
AcDbEntity
  8
0
100
AcDbLine
 62
9
  6
CONTINUOUS
 10
15.6433078545
 20
75.662655955
 11
15.0423644863
 21
75.4135938825
  0
LINE
  5
273
100
AcDbEntity
  8
0
100
AcDbLine
 62
9
  6
CONTINUOUS
 10
7.8466644784
 20
101.2307796266
 11
7.8021310877
 21
101.2131136859
  0
LINE
  5
274
100
AcDbEntity
  8
0
100
AcDbLine
 62
9
  6
CONTINUOUS
 10
67.7748455385
 20
73.2913362618
 11
67.8193789359
 21
73.3090021978
  0
LINE
  5
275
100
AcDbEntity
  8
0
100
AcDbLine
 62
9
  6
CONTINUOUS
 10
61.1841348888
 20
99.3427274154
 11
60.5425118478
 21
99.0938379752
  0
LINE
  5
276
100
AcDbEntity
  8
0
100
AcDbLine
 62
9
  6
CONTINUOUS
 10
15.0423644863
 20
75.4135938825
 11
14.4027812775
 21
75.1664399343
  0
LINE
  5
277
100
AcDbEntity
  8
0
100
AcDbLine
 62
7
  6
CONTINUOUS
 10
2.659186863
 20
108.1964936583
 11
2.5780441374
 21
108.1661610346
  0
LINE
  5
278
100
AcDbEntity
  8
0
100
AcDbLine
 62
7
  6
CONTINUOUS
 10
72.9623231434
 20
66.3256222242
 11
73.043465869
 21
66.3559548479
  0
LINE
  5
279
100
AcDbEntity
  8
0
100
AcDbLine
 62
9
  6
CONTINUOUS
 10
59.9400560839
 20
98.84302232
 11
59.9233644282
 21
98.8369408362
  0
LINE
  5
27A
100
AcDbEntity
  8
0
100
AcDbLine
 62
9
  6
CONTINUOUS
 10
61.8645672316
 20
99.5895535237
 11
61.1841348888
 21
99.3427274154
  0
LINE
  5
27B
100
AcDbEntity
  8
0
100
AcDbLine
 62
9
  6
CONTINUOUS
 10
14.4027812775
 20
75.1664399343
 11
13.7249120893
 21
74.921329089
  0
LINE
  5
27C
100
AcDbEntity
  8
0
100
AcDbLine
 62
9
  6
CONTINUOUS
 10
15.6604830776
 20
75.6688564188
 11
15.6433078545
 21
75.662655955
  0
LINE
  5
27D
100
AcDbEntity
  8
0
100
AcDbLine
 62
9
  6
CONTINUOUS
 10
37.2483976271
 20
97.4306291733
 11
37.1134935795
 21
97.3826818392
  0
LINE
  5
27E
100
AcDbEntity
  8
0
100
AcDbLine
 62
9
  6
CONTINUOUS
 10
38.3789067526
 20
93.6606381633
 11
38.5151748102
 21
93.7083795472
  0
LINE
  5
27F
100
AcDbEntity
  8
0
100
AcDbLine
 62
9
  6
CONTINUOUS
 10
62.5834694053
 20
99.8341964531
 11
61.8645672316
 21
99.5895535237
  0
LINE
  5
280
100
AcDbEntity
  8
0
100
AcDbLine
 62
9
  6
CONTINUOUS
 10
13.7249120893
 20
74.921329089
 11
13.0090898258
 21
74.678378458
  0
LINE
  5
281
100
AcDbEntity
  8
0
100
AcDbLine
 62
7
  6
CONTINUOUS
 10
36.694870016
 20
100.9457710953
 11
36.7345145061
 21
100.9590913897
  0
LINE
  5
282
100
AcDbEntity
  8
0
100
AcDbLine
 62
7
  6
CONTINUOUS
 10
38.9106677456
 20
100.9511376671
 11
38.8870039893
 21
100.9431868337
  0
LINE
  5
283
100
AcDbEntity
  8
0
100
AcDbLine
 62
7
  6
CONTINUOUS
 10
38.9266399904
 20
100.8327210859
 11
38.8869955003
 21
100.8194007915
  0
LINE
  5
284
100
AcDbEntity
  8
0
100
AcDbLine
 62
9
  6
CONTINUOUS
 10
63.3404787418
 20
100.0765361295
 11
62.5834694053
 21
99.8341964531
  0
LINE
  5
285
100
AcDbEntity
  8
0
100
AcDbLine
 62
9
  6
CONTINUOUS
 10
13.0090898258
 20
74.678378458
 11
12.2556718174
 21
74.4377060034
  0
LINE
  5
286
100
AcDbEntity
  8
0
100
AcDbLine
 62
9
  6
CONTINUOUS
 10
15.5382816643
 20
98.8136653721
 11
15.5852223968
 21
98.8284794066
  0
LINE
  5
287
100
AcDbEntity
  8
0
100
AcDbLine
 62
9
  6
CONTINUOUS
 10
60.0743721542
 20
75.6772416416
 11
60.1212878995
 21
75.6920454095
  0
LINE
  5
288
100
AcDbEntity
  8
0
100
AcDbLine
 62
9
  6
CONTINUOUS
 10
64.1352163126
 20
100.3164546643
 11
63.3404787418
 21
100.0765361295
  0
LINE
  5
289
100
AcDbEntity
  8
0
100
AcDbLine
 62
9
  6
CONTINUOUS
 10
12.2556718174
 20
74.4377060034
 11
11.4650293902
 21
74.1994269623
  0
LINE
  5
28A
100
AcDbEntity
  8
0
100
AcDbLine
 62
7
  6
CONTINUOUS
 10
2.7321930723
 20
108.2184688758
 11
2.659186863
 21
108.1964936583
  0
LINE
  5
28B
100
AcDbEntity
  8
0
100
AcDbLine
 62
7
  6
CONTINUOUS
 10
72.8893169341
 20
66.3036470068
 11
72.9623231434
 21
66.3256222242
  0
LINE
  5
28C
100
AcDbEntity
  8
0
100
AcDbLine
 62
7
  6
CONTINUOUS
 10
4.7506024843
 20
104.0139053318
 11
4.7217173889
 21
104.0053797723
  0
LINE
  5
28D
100
AcDbEntity
  8
0
100
AcDbLine
 62
7
  6
CONTINUOUS
 10
70.8709075221
 20
70.5082105507
 11
70.8997926176
 21
70.5167361103
  0
LINE
  5
28E
100
AcDbEntity
  8
0
100
AcDbLine
 62
9
  6
CONTINUOUS
 10
64.9672843099
 20
100.553835374
 11
64.1352163126
 21
100.3164546643
  0
LINE
  5
28F
100
AcDbEntity
  8
0
100
AcDbLine
 62
9
  6
CONTINUOUS
 10
11.4650293902
 20
74.1994269623
 11
10.6375523633
 21
73.963655491
  0
LINE
  5
290
100
AcDbEntity
  8
0
100
AcDbLine
 62
7
  6
CONTINUOUS
 10
1.8109701016
 20
107.0369853797
 11
1.8107483201
 21
106.9806885895
  0
LINE
  5
291
100
AcDbEntity
  8
0
100
AcDbLine
 62
9
  6
CONTINUOUS
 10
39.5499214148
 20
94.6698011882
 11
39.6074672839
 21
94.801714418
  0
LINE
  5
292
100
AcDbEntity
  8
0
100
AcDbLine
 62
7
  6
CONTINUOUS
 10
1.8107483201
 20
106.9806885895
 11
1.8108016089
 21
67.5000774893
  0
LINE
  5
293
100
AcDbEntity
  8
0
100
AcDbLine
 62
7
  6
CONTINUOUS
 10
73.304334498
 20
66.5029905703
 11
73.3865353635
 21
66.5689992376
  0
LINE
  5
294
100
AcDbEntity
  8
0
100
AcDbLine
 62
7
  6
CONTINUOUS
 10
1.8108016089
 20
67.5000774893
 11
1.8123305306
 21
67.4431164535
  0
LINE
  5
295
100
AcDbEntity
  8
0
100
AcDbLine
 62
7
  6
CONTINUOUS
 10
4.5471936011
 20
102.5156881881
 11
4.5456894621
 21
101.5335179322
  0
LINE
  5
296
100
AcDbEntity
  8
0
100
AcDbLine
 62
7
  6
CONTINUOUS
 10
4.5461827069
 20
101.967432375
 11
4.5488225725
 21
103.3104445494
  0
LINE
  5
297
100
AcDbEntity
  8
0
100
AcDbLine
 62
7
  6
CONTINUOUS
 10
4.551441785
 20
103.7645941318
 11
4.5488213121
 21
103.309543592
  0
LINE
  5
298
100
AcDbEntity
  8
0
100
AcDbLine
 62
7
  6
CONTINUOUS
 10
4.5492861547
 20
103.3987377454
 11
4.5499393748
 21
103.48882706
  0
LINE
  5
299
100
AcDbEntity
  8
0
100
AcDbLine
 62
9
  6
CONTINUOUS
 10
67.941660012
 20
73.3924443402
 11
67.9770889222
 21
73.4293430717
  0
LINE
  5
29A
100
AcDbEntity
  8
0
100
AcDbLine
 62
7
  6
CONTINUOUS
 10
4.551441546
 20
70.7575691457
 11
4.5487369296
 21
71.2605295008
  0
LINE
  5
29B
100
AcDbEntity
  8
0
100
AcDbLine
 62
7
  6
CONTINUOUS
 10
4.5509405371
 20
70.8599079564
 11
4.5506699909
 21
70.911182367
  0
LINE
  5
29C
100
AcDbEntity
  8
0
100
AcDbLine
 62
7
  6
CONTINUOUS
 10
4.5514417846
 20
70.7575217599
 11
4.5509986567
 21
70.8485071759
  0
LINE
  5
29D
100
AcDbEntity
  8
0
100
AcDbLine
 62
7
  6
CONTINUOUS
 10
4.5488249476
 20
71.2099332696
 11
4.5456978699
 21
72.9769899508
  0
LINE
  5
29E
100
AcDbEntity
  8
0
100
AcDbLine
 62
7
  6
CONTINUOUS
 10
4.5465119184
 20
72.3574178341
 11
4.5459131125
 21
72.7512989836
  0
LINE
  5
29F
100
AcDbEntity
  8
0
100
AcDbLine
 62
7
  6
CONTINUOUS
 10
4.5457746563
 20
72.8837736226
 11
4.5456302226
 21
73.3102891149
  0
LINE
  5
2A0
100
AcDbEntity
  8
0
100
AcDbLine
 62
7
  6
CONTINUOUS
 10
4.548270599
 20
87.2610579413
 11
4.5456894621
 21
101.5335179322
  0
LINE
  5
2A1
100
AcDbEntity
  8
0
100
AcDbLine
 62
7
  6
CONTINUOUS
 10
4.5456124159
 20
73.2189230863
 11
4.548270599
 21
87.2610579413
  0
LINE
  5
2A2
100
AcDbEntity
  8
0
100
AcDbLine
 62
7
  6
CONTINUOUS
 10
4.5457848751
 20
101.6494401845
 11
4.5456287334
 21
101.4253604157
  0
LINE
  5
2A3
100
AcDbEntity
  8
0
100
AcDbLine
 62
9
  6
CONTINUOUS
 10
36.0162566516
 20
96.2519298027
 11
35.9673908693
 21
96.1081132355
  0
LINE
  5
2A4
100
AcDbEntity
  8
0
100
AcDbLine
 62
7
  6
CONTINUOUS
 10
71.0032043207
 20
70.5859596148
 11
70.980621351
 21
70.5639533084
  0
LINE
  5
2A5
100
AcDbEntity
  8
0
100
AcDbLine
 62
7
  6
CONTINUOUS
 10
70.9806512178
 20
70.5639790528
 11
71.0032255585
 21
70.5859830083
  0
LINE
  5
2A6
100
AcDbEntity
  8
0
100
AcDbLine
 62
9
  6
CONTINUOUS
 10
60.3242060633
 20
75.8336073276
 11
60.3555694998
 21
75.8733876697
  0
LINE
  5
2A7
100
AcDbEntity
  8
0
100
AcDbLine
 62
7
  6
CONTINUOUS
 10
1.8123305306
 20
67.4431164535
 11
1.8165121923
 21
67.3862929538
  0
LINE
  5
2A8
100
AcDbEntity
  8
0
100
AcDbLine
 62
7
  6
CONTINUOUS
 10
36.6232550032
 20
100.8892460906
 11
36.6277737992
 21
100.9036501509
  0
LINE
  5
2A9
100
AcDbEntity
  8
0
100
AcDbLine
 62
9
  6
CONTINUOUS
 10
15.205986032
 20
98.3478882915
 11
15.2105137659
 21
98.3981354692
  0
LINE
  5
2AA
100
AcDbEntity
  8
0
100
AcDbLine
 62
9
  6
CONTINUOUS
 10
7.5081761456
 20
73.7676625407
 11
7.5081761208
 21
100.7544534147
  0
LINE
  5
2AB
100
AcDbEntity
  8
0
100
AcDbLine
 62
9
  6
CONTINUOUS
 10
39.6074672839
 20
94.801714418
 11
39.6550477362
 21
94.9376497515
  0
LINE
  5
2AC
100
AcDbEntity
  8
0
100
AcDbLine
 62
7
  6
CONTINUOUS
 10
4.5534880979
 20
70.7264279898
 11
4.5514415502
 21
70.7575691457
  0
LINE
  5
2AD
100
AcDbEntity
  8
0
100
AcDbLine
 62
7
  6
CONTINUOUS
 10
4.5514417846
 20
70.7575217599
 11
4.5534889049
 21
70.7264216542
  0
LINE
  5
2AE
100
AcDbEntity
  8
0
100
AcDbLine
 62
7
  6
CONTINUOUS
 10
38.9982550032
 20
100.8892460906
 11
38.9937362072
 21
100.8748420303
  0
LINE
  5
2AF
100
AcDbEntity
  8
0
100
AcDbLine
 62
7
  6
CONTINUOUS
 10
73.3865353635
 20
66.5689992376
 11
73.4631072044
 21
66.6420299051
  0
LINE
  5
2B0
100
AcDbEntity
  8
0
100
AcDbLine
 62
7
  6
CONTINUOUS
 10
1.8165121923
 20
67.3862929538
 11
1.8231503812
 21
67.3304637096
  0
LINE
  5
2B1
100
AcDbEntity
  8
0
100
AcDbLine
 62
7
  6
CONTINUOUS
 10
1.8231503812
 20
67.3304637096
 11
1.8322652181
 21
67.2751319572
  0
LINE
  5
2B2
100
AcDbEntity
  8
0
100
AcDbLine
 62
9
  6
CONTINUOUS
 10
35.9673908693
 20
96.1081132355
 11
35.9291800803
 21
95.9611726312
  0
LINE
  5
2B3
100
AcDbEntity
  8
0
100
AcDbLine
 62
9
  6
CONTINUOUS
 10
67.9770889222
 20
73.4293430717
 11
68.0091476039
 21
73.4701208522
  0
LINE
  5
2B4
100
AcDbEntity
  8
0
100
AcDbLine
 62
9
  6
CONTINUOUS
 10
60.3555694998
 20
75.8733876697
 11
60.3831119862
 21
75.9162156837
  0
LINE
  5
2B5
100
AcDbEntity
  8
0
100
AcDbLine
 62
9
  6
CONTINUOUS
 10
7.5139131084
 20
73.7145870376
 11
7.5081760241
 21
73.7676625123
  0
LINE
  5
2B6
100
AcDbEntity
  8
0
100
AcDbLine
 62
9
  6
CONTINUOUS
 10
15.2088980547
 20
95.175090964
 11
15.2058358491
 21
92.6216905653
  0
LINE
  5
2B7
100
AcDbEntity
  8
0
100
AcDbLine
 62
9
  6
CONTINUOUS
 10
15.2058358491
 20
92.6216905653
 11
15.2003286502
 21
89.4586906547
  0
LINE
  5
2B8
100
AcDbEntity
  8
0
100
AcDbLine
 62
9
  6
CONTINUOUS
 10
15.2003286502
 20
89.4586906547
 11
15.1906394128
 21
85.1978936887
  0
LINE
  5
2B9
100
AcDbEntity
  8
0
100
AcDbLine
 62
9
  6
CONTINUOUS
 10
15.1747851231
 20
79.0212068725
 11
15.1680630959
 21
76.1577900024
  0
LINE
  5
2BA
100
AcDbEntity
  8
0
100
AcDbLine
 62
9
  6
CONTINUOUS
 10
15.1906394128
 20
85.1978936887
 11
15.1747851231
 21
79.0212068725
  0
LINE
  5
2BB
100
AcDbEntity
  8
0
100
AcDbLine
 62
7
  6
CONTINUOUS
 10
1.8322652181
 20
67.2751319572
 11
1.8446210156
 21
67.2170128682
  0
LINE
  5
2BC
100
AcDbEntity
  8
0
100
AcDbLine
 62
9
  6
CONTINUOUS
 10
15.2059860651
 20
98.3478882778
 11
15.2085633524
 21
97.0225457001
  0
LINE
  5
2BD
100
AcDbEntity
  8
0
100
AcDbLine
 62
9
  6
CONTINUOUS
 10
15.2085633524
 20
97.0225457001
 11
15.2092773299
 21
96.4585112065
  0
LINE
  5
2BE
100
AcDbEntity
  8
0
100
AcDbLine
 62
9
  6
CONTINUOUS
 10
15.2092773299
 20
96.4585112065
 11
15.2094316464
 21
95.9802180766
  0
LINE
  5
2BF
100
AcDbEntity
  8
0
100
AcDbLine
 62
9
  6
CONTINUOUS
 10
15.2094316464
 20
95.9802180766
 11
15.2088980547
 21
95.175090964
  0
LINE
  5
2C0
100
AcDbEntity
  8
0
100
AcDbLine
 62
9
  6
CONTINUOUS
 10
39.6550477362
 20
94.9376497515
 11
39.6924479533
 21
95.0773059225
  0
LINE
  5
2C1
100
AcDbEntity
  8
0
100
AcDbLine
 62
9
  6
CONTINUOUS
 10
39.7360355676
 20
95.6615027006
 11
39.7196816054
 21
95.8119875313
  0
LINE
  5
2C2
100
AcDbEntity
  8
0
100
AcDbLine
 62
9
  6
CONTINUOUS
 10
68.1075968371
 20
100.8075288707
 11
68.1133339214
 21
100.754453423
  0
LINE
  5
2C3
100
AcDbEntity
  8
0
100
AcDbLine
 62
9
  6
CONTINUOUS
 10
15.1726130904
 20
76.1075503331
 11
15.1680630343
 21
76.1577899892
  0
LINE
  5
2C4
100
AcDbEntity
  8
0
100
AcDbLine
 62
9
  6
CONTINUOUS
 10
60.4155239744
 20
98.3478882915
 11
60.4109962405
 21
98.3981354692
  0
LINE
  5
2C5
100
AcDbEntity
  8
0
100
AcDbLine
 62
7
  6
CONTINUOUS
 10
73.8091794758
 20
107.078999429
 11
73.8049978141
 21
107.1358229287
  0
LINE
  5
2C6
100
AcDbEntity
  8
0
100
AcDbLine
 62
7
  6
CONTINUOUS
 10
71.0680219085
 20
103.7956878927
 11
71.0700684563
 21
103.7645467369
  0
LINE
  5
2C7
100
AcDbEntity
  8
0
100
AcDbLine
 62
7
  6
CONTINUOUS
 10
71.0700682219
 20
103.7645941227
 11
71.0680211016
 21
103.7956942283
  0
LINE
  5
2C8
100
AcDbEntity
  8
0
100
AcDbLine
 62
9
  6
CONTINUOUS
 10
35.8802265461
 20
95.5110579413
 11
35.8858565502
 21
95.3648655592
  0
LINE
  5
2C9
100
AcDbEntity
  8
0
100
AcDbLine
 62
9
  6
CONTINUOUS
 10
39.7412834604
 20
95.5110579413
 11
39.7360355676
 21
95.6615027006
  0
LINE
  5
2CA
100
AcDbEntity
  8
0
100
AcDbLine
 62
7
  6
CONTINUOUS
 10
73.8107083976
 20
107.0220383933
 11
73.8091794758
 21
107.078999429
  0
LINE
  5
2CB
100
AcDbEntity
  8
0
100
AcDbLine
 62
7
  6
CONTINUOUS
 10
71.0703127952
 20
103.7135047026
 11
71.0727730769
 21
103.2615863765
  0
LINE
  5
2CC
100
AcDbEntity
  8
0
100
AcDbLine
 62
7
  6
CONTINUOUS
 10
71.0700682219
 20
103.7645941227
 11
71.0710030532
 21
103.5815647807
  0
LINE
  5
2CD
100
AcDbEntity
  8
0
100
AcDbLine
 62
9
  6
CONTINUOUS
 10
60.4467248834
 20
79.0212068725
 11
60.4534469105
 21
76.1577900024
  0
LINE
  5
2CE
100
AcDbEntity
  8
0
100
AcDbLine
 62
9
  6
CONTINUOUS
 10
60.4122326766
 20
96.4585112065
 11
60.4467248834
 21
79.0212068725
  0
LINE
  5
2CF
100
AcDbEntity
  8
0
100
AcDbLine
 62
7
  6
CONTINUOUS
 10
71.0726850589
 20
103.3121826153
 11
71.0755256075
 21
101.8280555642
  0
LINE
  5
2D0
100
AcDbEntity
  8
0
100
AcDbLine
 62
7
  6
CONTINUOUS
 10
71.0753123423
 20
101.9771393086
 11
71.0758780924
 21
101.4333319074
  0
LINE
  5
2D1
100
AcDbEntity
  8
0
100
AcDbLine
 62
7
  6
CONTINUOUS
 10
71.073239409
 20
87.2610498338
 11
71.0758205444
 21
72.9885979296
  0
LINE
  5
2D2
100
AcDbEntity
  8
0
100
AcDbLine
 62
7
  6
CONTINUOUS
 10
73.8107549567
 20
106.7859260791
 11
73.8107083976
 21
107.0220383933
  0
LINE
  5
2D3
100
AcDbEntity
  8
0
100
AcDbLine
 62
9
  6
CONTINUOUS
 10
37.8107579884
 20
98.6674203457
 11
37.8107550032
 21
97.5166279629
  0
LINE
  5
2D4
100
AcDbEntity
  8
0
100
AcDbLine
 62
9
  6
CONTINUOUS
 10
37.8107550032
 20
93.5749004525
 11
37.8107550032
 21
93.4003737176
  0
LINE
  5
2D5
100
AcDbEntity
  8
DEFAULT_1
100
AcDbLine
 62
7
  6
CENTER
 10
37.8107550032
 20
64.7168127197
 11
37.8107550032
 21
93.4003737176
  0
LINE
  5
2D6
100
AcDbEntity
  8
DEFAULT_1
100
AcDbLine
 62
7
  6
CENTER
 10
37.8107550032
 20
93.5749004525
 11
37.8107550032
 21
97.5166279629
  0
LINE
  5
2D7
100
AcDbEntity
  8
DEFAULT_1
100
AcDbLine
 62
7
  6
CENTER
 10
37.8107579884
 20
98.6674203457
 11
37.8107550032
 21
109.1839053071
  0
LINE
  5
2D8
100
AcDbEntity
  8
0
100
AcDbLine
 62
9
  6
CONTINUOUS
 10
68.1133338609
 20
73.7676625407
 11
68.1133338857
 21
100.7544534147
  0
LINE
  5
2D9
100
AcDbEntity
  8
0
100
AcDbLine
 62
7
  6
CONTINUOUS
 10
73.8107540761
 20
67.7112036948
 11
73.8107549567
 21
106.7859260791
  0
LINE
  5
2DA
100
AcDbEntity
  8
0
100
AcDbLine
 62
7
  6
CONTINUOUS
 10
73.8107616863
 20
67.5414272931
 11
73.8107540761
 21
67.7112036948
  0
LINE
  5
2DB
100
AcDbEntity
  8
0
100
AcDbLine
 62
7
  6
CONTINUOUS
 10
71.0758121366
 20
101.5451259528
 11
71.0732394075
 21
87.2610579413
  0
LINE
  5
2DC
100
AcDbEntity
  8
0
100
AcDbLine
 62
7
  6
CONTINUOUS
 10
71.075881273
 20
73.0967554862
 11
71.0753272995
 21
72.5546834911
  0
LINE
  5
2DD
100
AcDbEntity
  8
0
100
AcDbLine
 62
9
  6
CONTINUOUS
 10
60.4136306591
 20
97.3865707927
 11
60.4122326766
 21
96.4585112065
  0
LINE
  5
2DE
100
AcDbEntity
  8
0
100
AcDbLine
 62
7
  6
CONTINUOUS
 10
71.0743164053
 20
72.0064277026
 11
71.0754873308
 21
72.665259674
  0
LINE
  5
2DF
100
AcDbEntity
  8
0
100
AcDbLine
 62
9
  6
CONTINUOUS
 10
60.4155239413
 20
98.3478882778
 11
60.4145429395
 21
97.8242434506
  0
LINE
  5
2E0
100
AcDbEntity
  8
0
100
AcDbLine
 62
9
  6
CONTINUOUS
 10
60.4145429395
 20
97.8242434506
 11
60.4136306591
 21
97.3865707927
  0
LINE
  5
2E1
100
AcDbEntity
  8
0
100
AcDbLine
 62
7
  6
CONTINUOUS
 10
71.0743827322
 20
72.0388467289
 11
71.072687434
 21
71.2116713308
  0
LINE
  5
2E2
100
AcDbEntity
  8
0
100
AcDbLine
 62
7
  6
CONTINUOUS
 10
73.8105399049
 20
67.4851305029
 11
73.8107616863
 21
67.5414272931
  0
LINE
  5
2E3
100
AcDbEntity
  8
0
100
AcDbLine
 62
7
  6
CONTINUOUS
 10
71.0700684644
 20
70.7575691457
 11
71.0726886943
 21
71.2125722927
  0
LINE
  5
2E4
100
AcDbEntity
  8
0
100
AcDbLine
 62
7
  6
CONTINUOUS
 10
71.072687434
 20
71.2116713308
 11
71.0715706317
 21
71.0332888211
  0
LINE
  5
2E5
100
AcDbEntity
  8
0
100
AcDbLine
 62
9
  6
CONTINUOUS
 10
35.8854746222
 20
95.6615048878
 11
35.8802265461
 21
95.5110579413
  0
LINE
  5
2E6
100
AcDbEntity
  8
0
100
AcDbLine
 62
9
  6
CONTINUOUS
 10
39.7356543352
 20
95.3648772178
 11
39.7412834604
 21
95.5110579413
  0
LINE
  5
2E7
100
AcDbEntity
  8
0
100
AcDbLine
 62
7
  6
CONTINUOUS
 10
73.80833196
 20
67.4282342872
 11
73.8105399049
 21
67.4851305029
  0
LINE
  5
2E8
100
AcDbEntity
  8
0
100
AcDbLine
 62
7
  6
CONTINUOUS
 10
71.0680280121
 20
70.7264771432
 11
71.0700682214
 21
70.7575217508
  0
LINE
  5
2E9
100
AcDbEntity
  8
0
100
AcDbLine
 62
7
  6
CONTINUOUS
 10
71.0700684563
 20
70.7575691457
 11
71.0680280121
 21
70.7264771432
  0
LINE
  5
2EA
100
AcDbEntity
  8
0
100
AcDbLine
 62
7
  6
CONTINUOUS
 10
73.8035174805
 20
67.3717809519
 11
73.80833196
 21
67.4282342872
  0
LINE
  5
2EB
100
AcDbEntity
  8
0
100
AcDbLine
 62
9
  6
CONTINUOUS
 10
60.448896916
 20
76.1075503331
 11
60.4534469722
 21
76.1577899892
  0
LINE
  5
2EC
100
AcDbEntity
  8
0
100
AcDbLine
 62
9
  6
CONTINUOUS
 10
68.1075968981
 20
73.7145870376
 11
68.1133339824
 21
73.7676625123
  0
LINE
  5
2ED
100
AcDbEntity
  8
0
100
AcDbLine
 62
9
  6
CONTINUOUS
 10
35.9018287755
 20
95.811990211
 11
35.8854746222
 21
95.6615048878
  0
LINE
  5
2EE
100
AcDbEntity
  8
0
100
AcDbLine
 62
9
  6
CONTINUOUS
 10
39.7193646138
 20
95.2199975921
 11
39.7356543352
 21
95.3648772178
  0
LINE
  5
2EF
100
AcDbEntity
  8
0
100
AcDbLine
 62
7
  6
CONTINUOUS
 10
73.796298419
 20
67.3164951928
 11
73.8035174805
 21
67.3717809519
  0
LINE
  5
2F0
100
AcDbEntity
  8
0
100
AcDbLine
 62
7
  6
CONTINUOUS
 10
73.786504788
 20
67.2609950655
 11
73.796298419
 21
67.3164951928
  0
LINE
  5
2F1
100
AcDbEntity
  8
0
100
AcDbLine
 62
9
  6
CONTINUOUS
 10
35.9291800803
 20
95.9611726312
 11
35.9018287755
 21
95.811990211
  0
LINE
  5
2F2
100
AcDbEntity
  8
0
100
AcDbLine
 62
9
  6
CONTINUOUS
 10
39.6924479533
 20
95.0773059225
 11
39.7193646138
 21
95.2199975921
  0
LINE
  5
2F3
100
AcDbEntity
  8
0
100
AcDbLine
 62
9
  6
CONTINUOUS
 10
60.439447185
 20
76.0575952278
 11
60.448896916
 21
76.1075503331
  0
LINE
  5
2F4
100
AcDbEntity
  8
0
100
AcDbLine
 62
7
  6
CONTINUOUS
 10
71.0621535756
 20
70.6955772035
 11
71.0680280121
 21
70.7264771432
  0
LINE
  5
2F5
100
AcDbEntity
  8
0
100
AcDbLine
 62
9
  6
CONTINUOUS
 10
68.0969932277
 20
73.662120107
 11
68.1075968981
 21
73.7145870376
  0
LINE
  5
2F6
100
AcDbEntity
  8
0
100
AcDbLine
 62
7
  6
CONTINUOUS
 10
73.7731823842
 20
67.2018355875
 11
73.786504788
 21
67.2609950655
  0
LINE
  5
2F7
100
AcDbEntity
  8
0
100
AcDbLine
 62
7
  6
CONTINUOUS
 10
73.7546452376
 20
67.135710229
 11
73.7731823842
 21
67.2018355875
  0
LINE
  5
2F8
100
AcDbEntity
  8
0
100
AcDbLine
 62
9
  6
CONTINUOUS
 10
60.4252380725
 20
76.0087160398
 11
60.439447185
 21
76.0575952278
  0
LINE
  5
2F9
100
AcDbEntity
  8
0
100
AcDbLine
 62
9
  6
CONTINUOUS
 10
68.0816445491
 20
73.6108632876
 11
68.0969932277
 21
73.662120107
  0
LINE
  5
2FA
100
AcDbEntity
  8
0
100
AcDbLine
 62
7
  6
CONTINUOUS
 10
71.0525606541
 20
70.6656677634
 11
71.0621535756
 21
70.6955772035
  0
LINE
  5
2FB
100
AcDbEntity
  8
0
100
AcDbLine
 62
7
  6
CONTINUOUS
 10
73.7286863016
 20
67.0605973854
 11
73.7546452376
 21
67.135710229
  0
LINE
  5
2FC
100
AcDbEntity
  8
0
100
AcDbLine
 62
9
  6
CONTINUOUS
 10
60.4064114889
 20
75.9614551045
 11
60.4252380725
 21
76.0087160398
  0
LINE
  5
2FD
100
AcDbEntity
  8
0
100
AcDbLine
 62
9
  6
CONTINUOUS
 10
68.0617268447
 20
73.5614042716
 11
68.0816445491
 21
73.6108632876
  0
LINE
  5
2FE
100
AcDbEntity
  8
0
100
AcDbLine
 62
7
  6
CONTINUOUS
 10
73.6939074396
 20
66.9784501822
 11
73.7286863016
 21
67.0605973854
  0
LINE
  5
2FF
100
AcDbEntity
  8
0
100
AcDbLine
 62
7
  6
CONTINUOUS
 10
71.0394677992
 20
70.6372860301
 11
71.0525606541
 21
70.6656677634
  0
LINE
  5
300
100
AcDbEntity
  8
0
100
AcDbLine
 62
7
  6
CONTINUOUS
 10
73.6495538046
 20
66.8922743946
 11
73.6939074396
 21
66.9784501822
  0
LINE
  5
301
100
AcDbEntity
  8
0
100
AcDbLine
 62
9
  6
CONTINUOUS
 10
60.3831119862
 20
75.9162156837
 11
60.4064114889
 21
75.9614551045
  0
LINE
  5
302
100
AcDbEntity
  8
0
100
AcDbLine
 62
9
  6
CONTINUOUS
 10
68.0374684838
 20
73.5143101383
 11
68.0617268447
 21
73.5614042716
  0
LINE
  5
303
100
AcDbEntity
  8
0
100
AcDbLine
 62
7
  6
CONTINUOUS
 10
71.0229310081
 20
70.6105509552
 11
71.0394677992
 21
70.6372860301
  0
LINE
  5
304
100
AcDbEntity
  8
0
100
AcDbLine
 62
7
  6
CONTINUOUS
 10
73.5955954554
 20
66.8053466693
 11
73.6495538046
 21
66.8922743946
  0
LINE
  5
305
100
AcDbEntity
  8
0
100
AcDbLine
 62
9
  6
CONTINUOUS
 10
68.0091476039
 20
73.4701208522
 11
68.0374684838
 21
73.5143101383
  0
LINE
  5
306
100
AcDbEntity
  8
0
100
AcDbLine
 62
7
  6
CONTINUOUS
 10
73.5331275814
 20
66.7212590718
 11
73.5955954554
 21
66.8053466693
  0
LINE
  5
307
100
AcDbEntity
  8
0
100
AcDbLine
 62
7
  6
CONTINUOUS
 10
71.0032255585
 20
70.5859830083
 11
71.0229310081
 21
70.6105509552
  0
LINE
  5
308
100
AcDbEntity
  8
0
100
AcDbLine
 62
7
  6
CONTINUOUS
 10
73.4631072044
 20
66.6420299051
 11
73.5331275814
 21
66.7212590718
  0
LINE
  5
309
100
AcDbEntity
  8
0
100
AcDbLine
 62
9
  6
CONTINUOUS
 10
59.9233644282
 20
98.8369408362
 11
59.8995446876
 21
98.8303552754
  0
LINE
  5
30A
100
AcDbEntity
  8
0
100
AcDbLine
 62
9
  6
CONTINUOUS
 10
15.6851977082
 20
75.6755907758
 11
15.6604830776
 21
75.6688564188
  0
LINE
  5
30B
100
AcDbEntity
  8
0
100
AcDbLine
 62
9
  6
CONTINUOUS
 10
37.3863247514
 20
97.4681347178
 11
37.2483976271
 21
97.4306291733
  0
LINE
  5
30C
100
AcDbEntity
  8
0
100
AcDbLine
 62
9
  6
CONTINUOUS
 10
65.8362637183
 20
100.7885621842
 11
64.9672843099
 21
100.553835374
  0
LINE
  5
30D
100
AcDbEntity
  8
0
100
AcDbLine
 62
9
  6
CONTINUOUS
 10
10.6375523633
 20
73.963655491
 11
9.7736526888
 21
73.7305055832
  0
LINE
  5
30E
100
AcDbEntity
  8
0
100
AcDbLine
 62
9
  6
CONTINUOUS
 10
38.2395977674
 20
93.6232705555
 11
38.3789067526
 21
93.6606381633
  0
LINE
  5
30F
100
AcDbEntity
  8
0
100
AcDbLine
 62
9
  6
CONTINUOUS
 10
67.7292607625
 20
73.2791317112
 11
67.7748455385
 21
73.2913362618
  0
LINE
  5
310
100
AcDbEntity
  8
0
100
AcDbLine
 62
9
  6
CONTINUOUS
 10
7.892249248
 20
101.2429841835
 11
7.8466644784
 21
101.2307796266
  0
LINE
  5
311
100
AcDbEntity
  8
0
100
AcDbLine
 62
7
  6
CONTINUOUS
 10
38.8869955003
 20
100.8194007915
 11
38.8391601702
 21
100.8066120619
  0
LINE
  5
312
100
AcDbEntity
  8
0
100
AcDbLine
 62
7
  6
CONTINUOUS
 10
38.8870039893
 20
100.9431868337
 11
38.839145695
 21
100.9303920813
  0
LINE
  5
313
100
AcDbEntity
  8
0
100
AcDbLine
 62
7
  6
CONTINUOUS
 10
36.7345145061
 20
100.9590913897
 11
36.7823498362
 21
100.9718801193
  0
LINE
  5
314
100
AcDbEntity
  8
0
100
AcDbLine
 62
9
  6
CONTINUOUS
 10
66.7417222755
 20
101.0205218
 11
65.8362637183
 21
100.7885621842
  0
LINE
  5
315
100
AcDbEntity
  8
0
100
AcDbLine
 62
9
  6
CONTINUOUS
 10
9.7736526888
 20
73.7305055832
 11
8.8737555726
 21
73.5000885748
  0
LINE
  5
316
100
AcDbEntity
  8
0
100
AcDbLine
 62
9
  6
CONTINUOUS
 10
8.8737555726
 20
73.5000885748
 11
7.9383627399
 21
73.2725284595
  0
LINE
  5
317
100
AcDbEntity
  8
0
100
AcDbLine
 62
9
  6
CONTINUOUS
 10
67.6831472683
 20
101.2495874234
 11
66.7417222755
 21
101.0205218
  0
LINE
  5
318
100
AcDbEntity
  8
0
100
AcDbLine
 62
7
  6
CONTINUOUS
 10
72.8252438598
 20
66.2882792834
 11
72.8893169341
 21
66.3036470068
  0
LINE
  5
319
100
AcDbEntity
  8
0
100
AcDbLine
 62
7
  6
CONTINUOUS
 10
2.7962661466
 20
108.2338365992
 11
2.7321930723
 21
108.2184688758
  0
LINE
  5
31A
100
AcDbEntity
  8
0
100
AcDbLine
 62
9
  6
CONTINUOUS
 10
7.9383627399
 20
73.2725284595
 11
7.8434897741
 21
73.2514657231
  0
LINE
  5
31B
100
AcDbEntity
  8
0
100
AcDbLine
 62
9
  6
CONTINUOUS
 10
67.7780205246
 20
101.2706502208
 11
67.6831472683
 21
101.2495874234
  0
LINE
  5
31C
100
AcDbEntity
  8
0
100
AcDbLine
 62
9
  6
CONTINUOUS
 10
59.8995446876
 20
98.8303552754
 11
59.8673310912
 21
98.8232407414
  0
LINE
  5
31D
100
AcDbEntity
  8
0
100
AcDbLine
 62
7
  6
CONTINUOUS
 10
38.8391601702
 20
100.8066120619
 11
38.7834980558
 21
100.7944522272
  0
LINE
  5
31E
100
AcDbEntity
  8
0
100
AcDbLine
 62
7
  6
CONTINUOUS
 10
38.839145695
 20
100.9303920813
 11
38.7835128822
 21
100.9182386828
  0
LINE
  5
31F
100
AcDbEntity
  8
0
100
AcDbLine
 62
7
  6
CONTINUOUS
 10
36.7823498362
 20
100.9718801193
 11
36.8380119506
 21
100.984039954
  0
LINE
  5
320
100
AcDbEntity
  8
0
100
AcDbLine
 62
9
  6
CONTINUOUS
 10
15.71876709
 20
75.6828748623
 11
15.6851977082
 21
75.6755907758
  0
LINE
  5
321
100
AcDbEntity
  8
0
100
AcDbLine
 62
9
  6
CONTINUOUS
 10
60.0264237161
 20
75.6673964342
 11
60.0743721542
 21
75.6772416416
  0
LINE
  5
322
100
AcDbEntity
  8
0
100
AcDbLine
 62
9
  6
CONTINUOUS
 10
15.5852223968
 20
98.8284794066
 11
15.6332024983
 21
98.8383073111
  0
LINE
  5
323
100
AcDbEntity
  8
0
100
AcDbLine
 62
9
  6
CONTINUOUS
 10
7.8434897741
 20
73.2514657231
 11
7.7399221289
 21
73.231226877
  0
LINE
  5
324
100
AcDbEntity
  8
0
100
AcDbLine
 62
9
  6
CONTINUOUS
 10
67.8815886547
 20
101.2908891477
 11
67.7780205246
 21
101.2706502208
  0
LINE
  5
325
100
AcDbEntity
  8
0
100
AcDbLine
 62
9
  6
CONTINUOUS
 10
37.5265605327
 20
97.4950423827
 11
37.3863247514
 21
97.4681347178
  0
LINE
  5
326
100
AcDbEntity
  8
0
100
AcDbLine
 62
9
  6
CONTINUOUS
 10
38.0979644837
 20
93.5964453324
 11
38.2395977674
 21
93.6232705555
  0
LINE
  5
327
100
AcDbEntity
  8
0
100
AcDbLine
 62
7
  6
CONTINUOUS
 10
72.7672410573
 20
66.2774015024
 11
72.8252438598
 21
66.2882792834
  0
LINE
  5
328
100
AcDbEntity
  8
0
100
AcDbLine
 62
7
  6
CONTINUOUS
 10
2.8542689492
 20
108.2447143802
 11
2.7962661466
 21
108.2338365992
  0
LINE
  5
329
100
AcDbEntity
  8
0
100
AcDbLine
 62
9
  6
CONTINUOUS
 10
59.8673310912
 20
98.8232407414
 11
59.8255723772
 21
98.8156186665
  0
LINE
  5
32A
100
AcDbEntity
  8
0
100
AcDbLine
 62
7
  6
CONTINUOUS
 10
38.7834980558
 20
100.7944522272
 11
38.7204327794
 21
100.783013831
  0
LINE
  5
32B
100
AcDbEntity
  8
0
100
AcDbLine
 62
7
  6
CONTINUOUS
 10
38.7835128822
 20
100.9182386828
 11
38.7204134645
 21
100.9067941361
  0
LINE
  5
32C
100
AcDbEntity
  8
0
100
AcDbLine
 62
7
  6
CONTINUOUS
 10
36.8380119506
 20
100.984039954
 11
36.901077227
 21
100.9954783502
  0
LINE
  5
32D
100
AcDbEntity
  8
0
100
AcDbLine
 62
9
  6
CONTINUOUS
 10
15.76240747
 20
75.6906861722
 11
15.71876709
 21
75.6828748623
  0
LINE
  5
32E
100
AcDbEntity
  8
0
100
AcDbLine
 62
7
  6
CONTINUOUS
 10
70.8421798538
 20
70.5032440132
 11
70.8709075221
 21
70.5082105507
  0
LINE
  5
32F
100
AcDbEntity
  8
0
100
AcDbLine
 62
9
  6
CONTINUOUS
 10
7.7399221289
 20
73.231226877
 11
7.6280937182
 21
73.2118944399
  0
LINE
  5
330
100
AcDbEntity
  8
0
100
AcDbLine
 62
9
  6
CONTINUOUS
 10
67.9934167694
 20
101.3102215209
 11
67.8815886547
 21
101.2908891477
  0
LINE
  5
331
100
AcDbEntity
  8
0
100
AcDbLine
 62
7
  6
CONTINUOUS
 10
4.7793301526
 20
104.0188718693
 11
4.7506024843
 21
104.0139053318
  0
LINE
  5
332
100
AcDbEntity
  8
0
100
AcDbLine
 62
9
  6
CONTINUOUS
 10
59.8255723772
 20
98.8156186665
 11
59.7731768838
 21
98.8075205175
  0
LINE
  5
333
100
AcDbEntity
  8
0
100
AcDbLine
 62
9
  6
CONTINUOUS
 10
7.6280937182
 20
73.2118944399
 11
7.5084970673
 21
73.1935469857
  0
LINE
  5
334
100
AcDbEntity
  8
0
100
AcDbLine
 62
9
  6
CONTINUOUS
 10
68.1130129398
 20
101.3285688969
 11
67.9934167694
 21
101.3102215209
  0
LINE
  5
335
100
AcDbEntity
  8
0
100
AcDbLine
 62
7
  6
CONTINUOUS
 10
38.7204327794
 20
100.783013831
 11
38.6504443059
 21
100.7723839265
  0
LINE
  5
336
100
AcDbEntity
  8
0
100
AcDbLine
 62
7
  6
CONTINUOUS
 10
38.7204134645
 20
100.9067941361
 11
38.6504650575
 21
100.8961703232
  0
LINE
  5
337
100
AcDbEntity
  8
0
100
AcDbLine
 62
7
  6
CONTINUOUS
 10
36.901077227
 20
100.9954783502
 11
36.9710657006
 21
101.0061082547
  0
LINE
  5
338
100
AcDbEntity
  8
0
100
AcDbLine
 62
9
  6
CONTINUOUS
 10
15.8172752681
 20
75.6989921217
 11
15.76240747
 21
75.6906861722
  0
LINE
  5
339
100
AcDbEntity
  8
0
100
AcDbLine
 62
9
  6
CONTINUOUS
 10
67.6831472666
 20
73.2725284792
 11
67.7292607625
 21
73.2791317112
  0
LINE
  5
33A
100
AcDbEntity
  8
0
100
AcDbLine
 62
9
  6
CONTINUOUS
 10
7.9383627382
 20
101.2495874234
 11
7.892249248
 21
101.2429841835
  0
LINE
  5
33B
100
AcDbEntity
  8
0
100
AcDbLine
 62
7
  6
CONTINUOUS
 10
72.7118168847
 20
66.2696237348
 11
72.7672410573
 21
66.2774015024
  0
LINE
  5
33C
100
AcDbEntity
  8
0
100
AcDbLine
 62
7
  6
CONTINUOUS
 10
2.9096931218
 20
108.2524921478
 11
2.8542689492
 21
108.2447143802
  0
LINE
  5
33D
100
AcDbEntity
  8
0
100
AcDbLine
 62
9
  6
CONTINUOUS
 10
59.7731768838
 20
98.8075205175
 11
59.7089819062
 21
98.7989689297
  0
LINE
  5
33E
100
AcDbEntity
  8
0
100
AcDbLine
 62
9
  6
CONTINUOUS
 10
15.8846073071
 20
75.7077690534
 11
15.8172752681
 21
75.6989921217
  0
LINE
  5
33F
100
AcDbEntity
  8
0
100
AcDbLine
 62
7
  6
CONTINUOUS
 10
38.6504443059
 20
100.7723839265
 11
38.5740652897
 21
100.7626434136
  0
LINE
  5
340
100
AcDbEntity
  8
0
100
AcDbLine
 62
7
  6
CONTINUOUS
 10
38.6504650575
 20
100.8961703232
 11
38.5740438996
 21
100.8864244243
  0
LINE
  5
341
100
AcDbEntity
  8
0
100
AcDbLine
 62
7
  6
CONTINUOUS
 10
36.9710657006
 20
101.0061082547
 11
37.0474447167
 21
101.0158487676
  0
LINE
  5
342
100
AcDbEntity
  8
0
100
AcDbLine
 62
9
  6
CONTINUOUS
 10
59.7089819062
 20
98.7989689297
 11
59.6317497092
 21
98.7899878177
  0
LINE
  5
343
100
AcDbEntity
  8
0
100
AcDbLine
 62
9
  6
CONTINUOUS
 10
37.6683339188
 20
97.51123036
 11
37.5265605327
 21
97.4950423827
  0
LINE
  5
344
100
AcDbEntity
  8
0
100
AcDbLine
 62
9
  6
CONTINUOUS
 10
15.965736588
 20
75.7169922854
 11
15.8846073071
 21
75.7077690534
  0
LINE
  5
345
100
AcDbEntity
  8
0
100
AcDbLine
 62
9
  6
CONTINUOUS
 10
37.9547381704
 20
93.5802924758
 11
38.0979644837
 21
93.5964453324
  0
LINE
  5
346
100
AcDbEntity
  8
0
100
AcDbLine
 62
7
  6
CONTINUOUS
 10
38.5740652897
 20
100.7626434136
 11
38.4918770214
 21
100.7538664235
  0
LINE
  5
347
100
AcDbEntity
  8
0
100
AcDbLine
 62
7
  6
CONTINUOUS
 10
38.5740438996
 20
100.8864244243
 11
38.4919015473
 21
100.8776523222
  0
LINE
  5
348
100
AcDbEntity
  8
0
100
AcDbLine
 62
7
  6
CONTINUOUS
 10
37.0474447167
 20
101.0158487676
 11
37.1296329851
 21
101.0246257577
  0
LINE
  5
349
100
AcDbEntity
  8
0
100
AcDbLine
 62
9
  6
CONTINUOUS
 10
59.6317497092
 20
98.7899878177
 11
59.540079139
 21
98.7806011445
  0
LINE
  5
34A
100
AcDbEntity
  8
0
100
AcDbLine
 62
9
  6
CONTINUOUS
 10
16.0621850971
 20
75.7266359201
 11
15.965736588
 21
75.7169922854
  0
LINE
  5
34B
100
AcDbEntity
  8
0
100
AcDbLine
 62
9
  6
CONTINUOUS
 10
59.978202152
 20
75.662655955
 11
60.0264237161
 21
75.6673964342
  0
LINE
  5
34C
100
AcDbEntity
  8
0
100
AcDbLine
 62
9
  6
CONTINUOUS
 10
15.6332024983
 20
98.8383073111
 11
15.6814539226
 21
98.84302232
  0
LINE
  5
34D
100
AcDbEntity
  8
0
100
AcDbLine
 62
7
  6
CONTINUOUS
 10
72.6557468827
 20
66.2643127198
 11
72.7118168847
 21
66.2696237348
  0
LINE
  5
34E
100
AcDbEntity
  8
0
100
AcDbLine
 62
7
  6
CONTINUOUS
 10
2.9657631237
 20
108.2578031628
 11
2.9096931218
 21
108.2524921478
  0
LINE
  5
34F
100
AcDbEntity
  8
0
100
AcDbLine
 62
9
  6
CONTINUOUS
 10
59.540079139
 20
98.7806011445
 11
59.4323316681
 21
98.7708383849
  0
LINE
  5
350
100
AcDbEntity
  8
0
100
AcDbLine
 62
7
  6
CONTINUOUS
 10
38.4918770214
 20
100.7538664235
 11
38.4045050032
 21
100.7461197545
  0
LINE
  5
351
100
AcDbEntity
  8
0
100
AcDbLine
 62
7
  6
CONTINUOUS
 10
38.4919015473
 20
100.8776523222
 11
38.4044849015
 21
100.8699016479
  0
LINE
  5
352
100
AcDbEntity
  8
0
100
AcDbLine
 62
7
  6
CONTINUOUS
 10
37.1296329851
 20
101.0246257577
 11
37.2170050032
 21
101.0323724267
  0
LINE
  5
353
100
AcDbEntity
  8
0
100
AcDbLine
 62
9
  6
CONTINUOUS
 10
16.1757784427
 20
75.736668835
 11
16.0621850971
 21
75.7266359201
  0
LINE
  5
354
100
AcDbEntity
  8
0
100
AcDbLine
 62
9
  6
CONTINUOUS
 10
59.4323316681
 20
98.7708383849
 11
59.3065271104
 21
98.7607422165
  0
LINE
  5
355
100
AcDbEntity
  8
0
100
AcDbLine
 62
9
  6
CONTINUOUS
 10
16.3086623012
 20
75.747035992
 11
16.1757784427
 21
75.736668835
  0
LINE
  5
356
100
AcDbEntity
  8
0
100
AcDbLine
 62
7
  6
CONTINUOUS
 10
38.4045050032
 20
100.7461197545
 11
38.312614189
 21
100.7394623632
  0
LINE
  5
357
100
AcDbEntity
  8
0
100
AcDbLine
 62
7
  6
CONTINUOUS
 10
38.4044849015
 20
100.8699016479
 11
38.3126386528
 21
100.8632474595
  0
LINE
  5
358
100
AcDbEntity
  8
0
100
AcDbLine
 62
7
  6
CONTINUOUS
 10
37.2170050032
 20
101.0323724267
 11
37.3088958174
 21
101.039029818
  0
LINE
  5
359
100
AcDbEntity
  8
0
100
AcDbLine
 62
9
  6
CONTINUOUS
 10
59.3065271104
 20
98.7607422165
 11
59.1601661549
 21
98.7503803058
  0
LINE
  5
35A
100
AcDbEntity
  8
0
100
AcDbLine
 62
9
  6
CONTINUOUS
 10
16.4639801827
 20
75.757676716
 11
16.3086623012
 21
75.747035992
  0
LINE
  5
35B
100
AcDbEntity
  8
0
100
AcDbLine
 62
9
  6
CONTINUOUS
 10
59.1601661549
 20
98.7503803058
 11
58.9900952627
 21
98.7398786321
  0
LINE
  5
35C
100
AcDbEntity
  8
0
100
AcDbLine
 62
7
  6
CONTINUOUS
 10
70.8421645903
 20
70.5032431006
 11
70.8145514612
 21
70.5015894364
  0
LINE
  5
35D
100
AcDbEntity
  8
0
100
AcDbLine
 62
7
  6
CONTINUOUS
 10
70.8145050209
 20
70.5015891947
 11
70.8421645903
 21
70.5032431006
  0
LINE
  5
35E
100
AcDbEntity
  8
0
100
AcDbLine
 62
7
  6
CONTINUOUS
 10
4.7793454162
 20
104.018872782
 11
4.8069585452
 21
104.0205264462
  0
LINE
  5
35F
100
AcDbEntity
  8
0
100
AcDbLine
 62
7
  6
CONTINUOUS
 10
4.8070049856
 20
104.0205266878
 11
4.7793454162
 21
104.018872782
  0
LINE
  5
360
100
AcDbEntity
  8
0
100
AcDbLine
 62
9
  6
CONTINUOUS
 10
16.6439120683
 20
75.7683471061
 11
16.4639801827
 21
75.757676716
  0
LINE
  5
361
100
AcDbEntity
  8
0
100
AcDbLine
 62
7
  6
CONTINUOUS
 10
38.312614189
 20
100.7394623632
 11
38.2169039234
 21
100.7339449166
  0
LINE
  5
362
100
AcDbEntity
  8
0
100
AcDbLine
 62
7
  6
CONTINUOUS
 10
38.3126386528
 20
100.8632474595
 11
38.2168883647
 21
100.8577276371
  0
LINE
  5
363
100
AcDbEntity
  8
0
100
AcDbLine
 62
7
  6
CONTINUOUS
 10
37.3088958174
 20
101.039029818
 11
37.404606083
 21
101.0445472646
  0
LINE
  5
364
100
AcDbEntity
  8
0
100
AcDbLine
 62
9
  6
CONTINUOUS
 10
58.9900952627
 20
98.7398786321
 11
58.8028655478
 21
98.7299928436
  0
LINE
  5
365
100
AcDbEntity
  8
0
100
AcDbLine
 62
9
  6
CONTINUOUS
 10
16.8343395365
 20
75.7779114435
 11
16.6439120683
 21
75.7683471061
  0
LINE
  5
366
100
AcDbEntity
  8
0
100
AcDbLine
 62
7
  6
CONTINUOUS
 10
72.598757679
 20
66.2614963649
 11
72.6557468827
 21
66.2643127198
  0
LINE
  5
367
100
AcDbEntity
  8
0
100
AcDbLine
 62
7
  6
CONTINUOUS
 10
3.0227523275
 20
108.2606195177
 11
2.9657631237
 21
108.2578031628
  0
LINE
  5
368
100
AcDbEntity
  8
0
100
AcDbLine
 62
9
  6
CONTINUOUS
 10
58.8028655478
 20
98.7299928436
 11
58.6236581827
 21
98.7220895326
  0
LINE
  5
369
100
AcDbEntity
  8
0
100
AcDbLine
 62
7
  6
CONTINUOUS
 10
38.2169039234
 20
100.7339449166
 11
38.1181026193
 21
100.7296094057
  0
LINE
  5
36A
100
AcDbEntity
  8
0
100
AcDbLine
 62
7
  6
CONTINUOUS
 10
38.2168883647
 20
100.8577276371
 11
38.118121814
 21
100.8533936301
  0
LINE
  5
36B
100
AcDbEntity
  8
0
100
AcDbLine
 62
7
  6
CONTINUOUS
 10
37.404606083
 20
101.0445472646
 11
37.5034073872
 21
101.0488827755
  0
LINE
  5
36C
100
AcDbEntity
  8
0
100
AcDbLine
 62
9
  6
CONTINUOUS
 10
17.0110977431
 20
75.785245773
 11
16.8343395365
 21
75.7779114435
  0
LINE
  5
36D
100
AcDbEntity
  8
0
100
AcDbLine
 62
9
  6
CONTINUOUS
 10
37.8107550032
 20
97.5166279713
 11
37.6683339188
 21
97.51123036
  0
LINE
  5
36E
100
AcDbEntity
  8
0
100
AcDbLine
 62
9
  6
CONTINUOUS
 10
37.8107550032
 20
93.574900444
 11
37.9547381704
 21
93.5802924758
  0
LINE
  5
36F
100
AcDbEntity
  8
0
100
AcDbLine
 62
9
  6
CONTINUOUS
 10
58.6236581827
 20
98.7220895326
 11
58.4641271859
 21
98.7163760653
  0
LINE
  5
370
100
AcDbEntity
  8
0
100
AcDbLine
 62
9
  6
CONTINUOUS
 10
17.1682945055
 20
75.7904526489
 11
17.0110977431
 21
75.785245773
  0
LINE
  5
371
100
AcDbEntity
  8
0
100
AcDbLine
 62
7
  6
CONTINUOUS
 10
38.1181026193
 20
100.7296094057
 11
38.0169622142
 21
100.7264888264
  0
LINE
  5
372
100
AcDbEntity
  8
0
100
AcDbLine
 62
7
  6
CONTINUOUS
 10
38.118121814
 20
100.8533936301
 11
38.0169537403
 21
100.850272127
  0
LINE
  5
373
100
AcDbEntity
  8
0
100
AcDbLine
 62
7
  6
CONTINUOUS
 10
37.5034073872
 20
101.0488827755
 11
37.6045477922
 21
101.0520033549
  0
LINE
  5
374
100
AcDbEntity
  8
0
100
AcDbLine
 62
9
  6
CONTINUOUS
 10
58.4641271859
 20
98.7163760653
 11
58.3212053551
 21
98.712430154
  0
LINE
  5
375
100
AcDbEntity
  8
0
100
AcDbLine
 62
9
  6
CONTINUOUS
 10
17.308588894
 20
75.7939187695
 11
17.1682945055
 21
75.7904526489
  0
LINE
  5
376
100
AcDbEntity
  8
0
100
AcDbLine
 62
9
  6
CONTINUOUS
 10
58.3212053551
 20
98.712430154
 11
58.1937830069
 21
98.710012402
  0
LINE
  5
377
100
AcDbEntity
  8
0
100
AcDbLine
 62
7
  6
CONTINUOUS
 10
38.0169622142
 20
100.7264888264
 11
37.9142524477
 21
100.7246069281
  0
LINE
  5
378
100
AcDbEntity
  8
0
100
AcDbLine
 62
7
  6
CONTINUOUS
 10
38.0169537403
 20
100.850272127
 11
37.9142603698
 21
100.8483905331
  0
LINE
  5
379
100
AcDbEntity
  8
0
100
AcDbLine
 62
7
  6
CONTINUOUS
 10
37.6045477922
 20
101.0520033549
 11
37.7072575587
 21
101.0538852531
  0
LINE
  5
37A
100
AcDbEntity
  8
0
100
AcDbLine
 62
9
  6
CONTINUOUS
 10
17.4331914811
 20
75.7958822304
 11
17.308588894
 21
75.7939187695
  0
LINE
  5
37B
100
AcDbEntity
  8
0
100
AcDbLine
 62
7
  6
CONTINUOUS
 10
5.3245383432
 20
104.0246619192
 11
5.2842408865
 21
104.0240935078
  0
LINE
  5
37C
100
AcDbEntity
  8
0
100
AcDbLine
 62
7
  6
CONTINUOUS
 10
5.2856315642
 20
104.0241105877
 11
5.3259932806
 21
104.024686276
  0
LINE
  5
37D
100
AcDbEntity
  8
0
100
AcDbLine
 62
7
  6
CONTINUOUS
 10
5.3245383432
 20
104.0246619192
 11
5.3661782819
 21
104.0252249705
  0
LINE
  5
37E
100
AcDbEntity
  8
0
100
AcDbLine
 62
7
  6
CONTINUOUS
 10
70.4152128051
 20
70.4988644784
 11
70.2553317242
 21
70.4968909121
  0
LINE
  5
37F
100
AcDbEntity
  8
0
100
AcDbLine
 62
7
  6
CONTINUOUS
 10
5.2856315642
 20
104.0241105877
 11
5.1642460643
 21
104.0228632306
  0
LINE
  5
380
100
AcDbEntity
  8
0
100
AcDbLine
 62
9
  6
CONTINUOUS
 10
58.1937830069
 20
98.710012402
 11
58.0807506875
 21
98.7089458395
  0
LINE
  5
381
100
AcDbEntity
  8
0
100
AcDbLine
 62
7
  6
CONTINUOUS
 10
70.3771897267
 20
70.498477275
 11
70.6104147686
 21
70.5004019642
  0
LINE
  5
382
100
AcDbEntity
  8
0
100
AcDbLine
 62
7
  6
CONTINUOUS
 10
72.5417534317
 20
66.2610398977
 11
72.598757679
 21
66.2614963649
  0
LINE
  5
383
100
AcDbEntity
  8
0
100
AcDbLine
 62
7
  6
CONTINUOUS
 10
3.0797565747
 20
108.2610759849
 11
3.0227523275
 21
108.2606195177
  0
LINE
  5
384
100
AcDbEntity
  8
0
100
AcDbLine
 62
7
  6
CONTINUOUS
 10
5.2062972013
 20
104.0232514042
 11
5.0110952378
 21
104.0217139183
  0
LINE
  5
385
100
AcDbEntity
  8
0
100
AcDbLine
 62
7
  6
CONTINUOUS
 10
37.9142524477
 20
100.7246069281
 11
37.8107550032
 21
100.7239780332
  0
LINE
  5
386
100
AcDbEntity
  8
0
100
AcDbLine
 62
7
  6
CONTINUOUS
 10
37.9142603698
 20
100.8483905331
 11
37.8107550032
 21
100.8477615418
  0
LINE
  5
387
100
AcDbEntity
  8
0
100
AcDbLine
 62
7
  6
CONTINUOUS
 10
37.7072575587
 20
101.0538852531
 11
37.8107550032
 21
101.054514148
  0
LINE
  5
388
100
AcDbEntity
  8
0
100
AcDbLine
 62
7
  6
CONTINUOUS
 10
70.6090117393
 20
70.5003927869
 11
70.8145050209
 21
70.5015891947
  0
LINE
  5
389
100
AcDbEntity
  8
0
100
AcDbLine
 62
9
  6
CONTINUOUS
 10
17.5432182542
 20
75.7965213373
 11
17.4331914811
 21
75.7958822304
  0
LINE
  5
38A
100
AcDbEntity
  8
0
100
AcDbLine
 62
7
  6
CONTINUOUS
 10
4.8069585452
 20
104.0205264388
 11
5.0124982671
 21
104.0217230957
  0
LINE
  5
38B
100
AcDbEntity
  8
0
100
AcDbLine
 62
9
  6
CONTINUOUS
 10
58.0807506875
 20
98.7089458395
 11
53.035913722
 21
98.690811931
  0
LINE
  5
38C
100
AcDbEntity
  8
0
100
AcDbLine
 62
9
  6
CONTINUOUS
 10
53.035913722
 20
98.690811931
 11
47.9718442578
 21
98.6778275927
  0
LINE
  5
38D
100
AcDbEntity
  8
0
100
AcDbLine
 62
9
  6
CONTINUOUS
 10
47.9718442578
 20
98.6778275927
 11
42.894547337
 21
98.6700237936
  0
LINE
  5
38E
100
AcDbEntity
  8
0
100
AcDbLine
 62
9
  6
CONTINUOUS
 10
68.1130129398
 20
101.3285688969
 11
68.0782829818
 21
101.3285236422
  0
LINE
  5
38F
100
AcDbEntity
  8
0
100
AcDbLine
 62
9
  6
CONTINUOUS
 10
68.0782829818
 20
101.3285236422
 11
68.016052314
 21
101.3284514425
  0
LINE
  5
390
100
AcDbEntity
  8
0
100
AcDbLine
 62
9
  6
CONTINUOUS
 10
68.016052314
 20
101.3284514425
 11
67.9572808419
 21
101.3283942478
  0
LINE
  5
391
100
AcDbEntity
  8
0
100
AcDbLine
 62
9
  6
CONTINUOUS
 10
67.9572808419
 20
101.3283942478
 11
67.9009609454
 21
101.3283501094
  0
LINE
  5
392
100
AcDbEntity
  8
0
100
AcDbLine
 62
7
  6
CONTINUOUS
 10
70.0388551728
 20
70.4967662636
 11
70.256823056
 21
70.4969020858
  0
LINE
  5
393
100
AcDbEntity
  8
0
100
AcDbLine
 62
9
  6
CONTINUOUS
 10
8.1785902819
 20
73.1939404198
 11
7.5084970673
 21
73.1935469857
  0
LINE
  5
394
100
AcDbEntity
  8
0
100
AcDbLine
 62
9
  6
CONTINUOUS
 10
42.894547337
 20
98.6700237936
 11
37.8107550032
 21
98.6674203457
  0
LINE
  5
395
100
AcDbEntity
  8
0
100
AcDbLine
 62
9
  6
CONTINUOUS
 10
67.9009609454
 20
101.3283501094
 11
67.8473350837
 21
101.3283159856
  0
LINE
  5
396
100
AcDbEntity
  8
0
100
AcDbLine
 62
9
  6
CONTINUOUS
 10
67.8473350837
 20
101.3283159856
 11
67.8208448279
 21
101.3283007605
  0
LINE
  5
397
100
AcDbEntity
  8
0
100
AcDbLine
 62
9
  6
CONTINUOUS
 10
67.8208448279
 20
101.3283007605
 11
67.7943575228
 21
101.3282862481
  0
LINE
  5
398
100
AcDbEntity
  8
0
100
AcDbLine
 62
7
  6
CONTINUOUS
 10
5.3646869506
 20
104.0252137968
 11
5.641227003
 21
104.0253662001
  0
LINE
  5
399
100
AcDbEntity
  8
0
100
AcDbLine
 62
9
  6
CONTINUOUS
 10
67.7943575228
 20
101.3282862481
 11
67.7086157373
 21
101.3282448424
  0
LINE
  5
39A
100
AcDbEntity
  8
0
100
AcDbLine
 62
9
  6
CONTINUOUS
 10
67.7086157373
 20
101.3282448424
 11
67.6732519011
 21
101.3282304792
  0
LINE
  5
39B
100
AcDbEntity
  8
0
100
AcDbLine
 62
9
  6
CONTINUOUS
 10
67.6732519011
 20
101.3282304792
 11
67.6341440806
 21
101.3282164098
  0
LINE
  5
39C
100
AcDbEntity
  8
0
100
AcDbLine
 62
7
  6
CONTINUOUS
 10
69.9802830037
 20
70.4967496824
 11
70.0453290887
 21
70.4967686081
  0
LINE
  5
39D
100
AcDbEntity
  8
0
100
AcDbLine
 62
7
  6
CONTINUOUS
 10
37.8107708641
 20
70.4906330105
 11
69.9146015479
 21
70.4967403646
  0
LINE
  5
39E
100
AcDbEntity
  8
0
100
AcDbLine
 62
7
  6
CONTINUOUS
 10
69.9923478454
 20
70.4967521866
 11
69.8675333839
 21
70.4967324854
  0
LINE
  5
39F
100
AcDbEntity
  8
0
100
AcDbLine
 62
9
  6
CONTINUOUS
 10
24.2390929681
 20
75.7978415183
 11
17.5432182542
 21
75.7965213373
  0
LINE
  5
3A0
100
AcDbEntity
  8
0
100
AcDbLine
 62
9
  6
CONTINUOUS
 10
67.6341440806
 20
101.3282164098
 11
67.5544387037
 21
101.3281936132
  0
LINE
  5
3A1
100
AcDbEntity
  8
0
100
AcDbLine
 62
9
  6
CONTINUOUS
 10
67.5544387037
 20
101.3281936132
 11
67.5180386705
 21
101.3281859012
  0
LINE
  5
3A2
100
AcDbEntity
  8
0
100
AcDbLine
 62
7
  6
CONTINUOUS
 10
5.7539766224
 20
104.0253833972
 11
37.8107550032
 21
104.0314828751
  0
LINE
  5
3A3
100
AcDbEntity
  8
0
100
AcDbLine
 62
7
  6
CONTINUOUS
 10
5.7795903068
 20
104.0253885829
 11
5.5761809175
 21
104.0253472745
  0
LINE
  5
3A4
100
AcDbEntity
  8
0
100
AcDbLine
 62
7
  6
CONTINUOUS
 10
3.0695740043
 20
66.2610274366
 11
72.4854888445
 21
66.2610995041
  0
LINE
  5
3A5
100
AcDbEntity
  8
0
100
AcDbLine
 62
9
  6
CONTINUOUS
 10
8.1785902819
 20
73.1939404198
 11
67.4429197246
 21
73.1939404198
  0
LINE
  5
3A6
100
AcDbEntity
  8
0
100
AcDbLine
 62
9
  6
CONTINUOUS
 10
31.0052006395
 20
75.7986390101
 11
24.2390929681
 21
75.7978415183
  0
LINE
  5
3A7
100
AcDbEntity
  8
0
100
AcDbLine
 62
9
  6
CONTINUOUS
 10
37.8107550032
 20
75.7989059209
 11
31.0052006395
 21
75.7986390101
  0
LINE
  5
3A8
100
AcDbEntity
  8
0
100
AcDbLine
 62
9
  6
CONTINUOUS
 10
37.8107550032
 20
75.7989059209
 11
44.616309367
 21
75.7986390101
  0
LINE
  5
3A9
100
AcDbEntity
  8
DEFAULT_1
100
AcDbLine
 62
7
  6
CENTER
 10
0.0
 20
87.2610579413
 11
75.2938606993
 21
87.2610579413
  0
LINE
  5
3AA
100
AcDbEntity
  8
DEFAULT_1
100
AcDbLine
 62
7
  6
CENTER
 10
34.2107550032
 20
95.5110579413
 11
41.4107550032
 21
95.5110579413
  0
LINE
  5
3AB
100
AcDbEntity
  8
0
100
AcDbLine
 62
9
  6
CONTINUOUS
 10
67.5180386705
 20
101.3281859012
 11
67.4295714584
 21
101.3281744022
  0
LINE
  5
3AC
100
AcDbEntity
  8
0
100
AcDbLine
 62
9
  6
CONTINUOUS
 10
67.4295714584
 20
101.3281744022
 11
67.4046295317
 21
101.3281731347
  0
LINE
  5
3AD
100
AcDbEntity
  8
0
100
AcDbLine
 62
9
  6
CONTINUOUS
 10
67.4046295317
 20
101.3281731347
 11
8.3386941857
 21
101.3281726878
  0
LINE
  5
3AE
100
AcDbEntity
  8
0
100
AcDbLine
 62
7
  6
CONTINUOUS
 10
72.5519360022
 20
108.261088446
 11
72.1852296731
 21
108.2610589724
  0
LINE
  5
3AF
100
AcDbEntity
  8
0
100
AcDbLine
 62
7
  6
CONTINUOUS
 10
72.1852296731
 20
108.2610589724
 11
72.1069294007
 21
108.2610575332
  0
LINE
  5
3B0
100
AcDbEntity
  8
0
100
AcDbLine
 62
7
  6
CONTINUOUS
 10
72.1069294007
 20
108.2610575332
 11
3.0797565747
 21
108.2610759849
  0
LINE
  5
3B1
100
AcDbEntity
  8
0
100
AcDbLine
 62
7
  6
CONTINUOUS
 10
37.8107708641
 20
70.4906330044
 11
5.7324526243
 21
70.4967364597
  0
LINE
  5
3B2
100
AcDbEntity
  8
0
100
AcDbLine
 62
7
  6
CONTINUOUS
 10
5.7106397824
 20
70.496739853
 11
5.7801424775
 21
70.4967271851
  0
LINE
  5
3B3
100
AcDbEntity
  8
0
100
AcDbLine
 62
9
  6
CONTINUOUS
 10
67.4429197246
 20
73.1939404198
 11
67.4781475881
 21
73.1939364463
  0
LINE
  5
3B4
100
AcDbEntity
  8
0
100
AcDbLine
 62
9
  6
CONTINUOUS
 10
67.4781475881
 20
73.1939364463
 11
67.5163662222
 21
73.1939302946
  0
LINE
  5
3B5
100
AcDbEntity
  8
0
100
AcDbLine
 62
9
  6
CONTINUOUS
 10
44.616309367
 20
75.7986390101
 11
51.3824170383
 21
75.7978415183
  0
LINE
  5
3B6
100
AcDbEntity
  8
0
100
AcDbLine
 62
9
  6
CONTINUOUS
 10
51.3824170383
 20
75.7978415183
 11
58.0782917522
 21
75.7965213373
  0
LINE
  5
3B7
100
AcDbEntity
  8
0
100
AcDbLine
 62
7
  6
CONTINUOUS
 10
5.4449778087
 20
104.0253433957
 11
5.4854677634
 21
104.0253414921
  0
LINE
  5
3B8
100
AcDbEntity
  8
0
100
AcDbLine
 62
7
  6
CONTINUOUS
 10
69.8890573818
 20
104.0253794229
 11
70.0207432932
 21
104.0253559245
  0
LINE
  5
3B9
100
AcDbEntity
  8
0
100
AcDbLine
 62
7
  6
CONTINUOUS
 10
37.8107550032
 20
104.0314828751
 11
69.910870224
 21
104.0253760295
  0
LINE
  5
3BA
100
AcDbEntity
  8
0
100
AcDbLine
 62
7
  6
CONTINUOUS
 10
69.8413675289
 20
104.0253886974
 11
69.7642405492
 21
104.025404582
  0
LINE
  5
3BB
100
AcDbEntity
  8
0
100
AcDbLine
 62
7
  6
CONTINUOUS
 10
5.7324526243
 20
70.4967364597
 11
5.3732162267
 21
70.4968496969
  0
LINE
  5
3BC
100
AcDbEntity
  8
0
100
AcDbLine
 62
9
  6
CONTINUOUS
 10
67.5163662222
 20
73.1939302946
 11
67.5940125241
 21
73.1939119482
  0
LINE
  5
3BD
100
AcDbEntity
  8
0
100
AcDbLine
 62
9
  6
CONTINUOUS
 10
67.5940125241
 20
73.1939119482
 11
67.6296826154
 21
73.1939009578
  0
LINE
  5
3BE
100
AcDbEntity
  8
0
100
AcDbLine
 62
9
  6
CONTINUOUS
 10
67.6296826154
 20
73.1939009578
 11
67.6620496537
 21
73.1938896264
  0
LINE
  5
3BF
100
AcDbEntity
  8
0
100
AcDbLine
 62
7
  6
CONTINUOUS
 10
70.029285481
 20
104.0253530596
 11
69.9733288644
 21
104.0253674563
  0
LINE
  5
3C0
100
AcDbEntity
  8
0
100
AcDbLine
 62
7
  6
CONTINUOUS
 10
70.0207432932
 20
104.0253559245
 11
70.2482937796
 21
104.0252661857
  0
LINE
  5
3C1
100
AcDbEntity
  8
0
100
AcDbLine
 62
9
  6
CONTINUOUS
 10
67.6620496537
 20
73.1938896264
 11
67.7192631822
 21
73.1938664034
  0
LINE
  5
3C2
100
AcDbEntity
  8
0
100
AcDbLine
 62
9
  6
CONTINUOUS
 10
67.7192631822
 20
73.1938664034
 11
67.7461092677
 21
73.1938540628
  0
LINE
  5
3C3
100
AcDbEntity
  8
0
100
AcDbLine
 62
9
  6
CONTINUOUS
 10
67.7461092677
 20
73.1938540628
 11
67.7727399298
 21
73.1938409187
  0
LINE
  5
3C4
100
AcDbEntity
  8
0
100
AcDbLine
 62
9
  6
CONTINUOUS
 10
67.7727399298
 20
73.1938409187
 11
67.7993534718
 21
73.1938269528
  0
LINE
  5
3C5
100
AcDbEntity
  8
0
100
AcDbLine
 62
9
  6
CONTINUOUS
 10
32.7269626695
 20
98.6700237936
 11
37.8107550032
 21
98.6674203457
  0
LINE
  5
3C6
100
AcDbEntity
  8
0
100
AcDbLine
 62
9
  6
CONTINUOUS
 10
7.5084970667
 20
101.3285688969
 11
8.3386941857
 21
101.3281726878
  0
LINE
  5
3C7
100
AcDbEntity
  8
0
100
AcDbLine
 62
9
  6
CONTINUOUS
 10
67.7993534718
 20
73.1938269528
 11
67.8802239844
 21
73.1937796768
  0
LINE
  5
3C8
100
AcDbEntity
  8
0
100
AcDbLine
 62
9
  6
CONTINUOUS
 10
67.8802239844
 20
73.1937796768
 11
67.93701113
 21
73.1937387209
  0
LINE
  5
3C9
100
AcDbEntity
  8
0
100
AcDbLine
 62
9
  6
CONTINUOUS
 10
67.93701113
 20
73.1937387209
 11
67.9975199134
 21
73.1936836668
  0
LINE
  5
3CA
100
AcDbEntity
  8
0
100
AcDbLine
 62
7
  6
CONTINUOUS
 10
72.4854888445
 20
66.2610995041
 11
72.5417534317
 21
66.2610398977
  0
LINE
  5
3CB
100
AcDbEntity
  8
0
100
AcDbLine
 62
9
  6
CONTINUOUS
 10
67.9975199134
 20
73.1936836668
 11
68.1130129392
 21
73.1935469857
  0
LINE
  5
3CC
100
AcDbEntity
  8
0
100
AcDbLine
 62
9
  6
CONTINUOUS
 10
27.6496657487
 20
98.6778275927
 11
32.7269626695
 21
98.6700237936
  0
LINE
  5
3CD
100
AcDbEntity
  8
0
100
AcDbLine
 62
9
  6
CONTINUOUS
 10
22.5855962844
 20
98.690811931
 11
27.6496657487
 21
98.6778275927
  0
LINE
  5
3CE
100
AcDbEntity
  8
0
100
AcDbLine
 62
9
  6
CONTINUOUS
 10
17.5407593189
 20
98.7089458395
 11
22.5855962844
 21
98.690811931
  0
LINE
  5
3CF
100
AcDbEntity
  8
0
100
AcDbLine
 62
9
  6
CONTINUOUS
 10
58.0782917522
 20
75.7965213373
 11
58.1883185254
 21
75.7958822304
  0
LINE
  5
3D0
100
AcDbEntity
  8
0
100
AcDbLine
 62
7
  6
CONTINUOUS
 10
4.8070049812
 20
70.5015891949
 11
5.0743795077
 21
70.4999671787
  0
LINE
  5
3D1
100
AcDbEntity
  8
0
100
AcDbLine
 62
7
  6
CONTINUOUS
 10
37.8107550032
 20
100.7239780332
 11
37.7072575587
 21
100.7246069281
  0
LINE
  5
3D2
100
AcDbEntity
  8
0
100
AcDbLine
 62
7
  6
CONTINUOUS
 10
37.8107550032
 20
100.8477615418
 11
37.7072496367
 21
100.8483905331
  0
LINE
  5
3D3
100
AcDbEntity
  8
0
100
AcDbLine
 62
7
  6
CONTINUOUS
 10
37.8107550032
 20
101.054514148
 11
37.9142524477
 21
101.0538852531
  0
LINE
  5
3D4
100
AcDbEntity
  8
0
100
AcDbLine
 62
7
  6
CONTINUOUS
 10
70.8145514612
 20
104.0205264387
 11
70.5471304988
 21
104.0221487039
  0
LINE
  5
3D5
100
AcDbEntity
  8
0
100
AcDbLine
 62
7
  6
CONTINUOUS
 10
5.0728328326
 20
70.4999783654
 11
5.2514183339
 21
70.4984004184
  0
LINE
  5
3D6
100
AcDbEntity
  8
0
100
AcDbLine
 62
7
  6
CONTINUOUS
 10
70.5486771739
 20
104.0221375171
 11
70.3700916726
 21
104.0237154641
  0
LINE
  5
3D7
100
AcDbEntity
  8
0
100
AcDbLine
 62
9
  6
CONTINUOUS
 10
17.4277269996
 20
98.710012402
 11
17.5407593189
 21
98.7089458395
  0
LINE
  5
3D8
100
AcDbEntity
  8
0
100
AcDbLine
 62
7
  6
CONTINUOUS
 10
70.2469095746
 20
104.0252720322
 11
70.2892456108
 21
104.0247923817
  0
LINE
  5
3D9
100
AcDbEntity
  8
0
100
AcDbLine
 62
7
  6
CONTINUOUS
 10
70.33045376
 20
104.024178655
 11
70.3713769077
 21
104.0237014296
  0
LINE
  5
3DA
100
AcDbEntity
  8
0
100
AcDbLine
 62
7
  6
CONTINUOUS
 10
70.3700916726
 20
104.0237154641
 11
70.3291331819
 21
104.0241956164
  0
LINE
  5
3DB
100
AcDbEntity
  8
0
100
AcDbLine
 62
7
  6
CONTINUOUS
 10
5.2501330988
 20
70.498414453
 11
5.3746004318
 21
70.4968438504
  0
LINE
  5
3DC
100
AcDbEntity
  8
0
100
AcDbLine
 62
7
  6
CONTINUOUS
 10
3.0123198774
 20
66.2618127734
 11
3.0695740043
 21
66.2610274366
  0
LINE
  5
3DD
100
AcDbEntity
  8
0
100
AcDbLine
 62
7
  6
CONTINUOUS
 10
72.6091901291
 20
108.2603031092
 11
72.5519360022
 21
108.261088446
  0
LINE
  5
3DE
100
AcDbEntity
  8
0
100
AcDbLine
 62
7
  6
CONTINUOUS
 10
5.3322643956
 20
70.4973235009
 11
5.2910562464
 21
70.4979372275
  0
LINE
  5
3DF
100
AcDbEntity
  8
0
100
AcDbLine
 62
7
  6
CONTINUOUS
 10
70.2892456108
 20
104.0247923817
 11
70.33045376
 21
104.024178655
  0
LINE
  5
3E0
100
AcDbEntity
  8
0
100
AcDbLine
 62
7
  6
CONTINUOUS
 10
70.3291331819
 20
104.0241956164
 11
70.287871522
 21
104.0248154486
  0
LINE
  5
3E1
100
AcDbEntity
  8
0
100
AcDbLine
 62
9
  6
CONTINUOUS
 10
58.1883185254
 20
75.7958822304
 11
58.3129211125
 21
75.7939187695
  0
LINE
  5
3E2
100
AcDbEntity
  8
0
100
AcDbLine
 62
7
  6
CONTINUOUS
 10
37.7072575587
 20
100.7246069281
 11
37.6045477922
 21
100.7264888264
  0
LINE
  5
3E3
100
AcDbEntity
  8
0
100
AcDbLine
 62
7
  6
CONTINUOUS
 10
37.7072496367
 20
100.8483905331
 11
37.6045562661
 21
100.850272127
  0
LINE
  5
3E4
100
AcDbEntity
  8
0
100
AcDbLine
 62
7
  6
CONTINUOUS
 10
37.9142524477
 20
101.0538852531
 11
38.0169622142
 21
101.0520033549
  0
LINE
  5
3E5
100
AcDbEntity
  8
0
100
AcDbLine
 62
9
  6
CONTINUOUS
 10
17.3003046513
 20
98.712430154
 11
17.4277269996
 21
98.710012402
  0
LINE
  5
3E6
100
AcDbEntity
  8
0
100
AcDbLine
 62
9
  6
CONTINUOUS
 10
58.3129211125
 20
75.7939187695
 11
58.453215501
 21
75.7904526489
  0
LINE
  5
3E7
100
AcDbEntity
  8
0
100
AcDbLine
 62
9
  6
CONTINUOUS
 10
17.1573828205
 20
98.7163760653
 11
17.3003046513
 21
98.712430154
  0
LINE
  5
3E8
100
AcDbEntity
  8
0
100
AcDbLine
 62
7
  6
CONTINUOUS
 10
37.6045477922
 20
100.7264888264
 11
37.5034073872
 21
100.7296094057
  0
LINE
  5
3E9
100
AcDbEntity
  8
0
100
AcDbLine
 62
7
  6
CONTINUOUS
 10
37.6045562661
 20
100.850272127
 11
37.5033881925
 21
100.8533936301
  0
LINE
  5
3EA
100
AcDbEntity
  8
0
100
AcDbLine
 62
7
  6
CONTINUOUS
 10
38.0169622142
 20
101.0520033549
 11
38.1181026193
 21
101.0488827755
  0
LINE
  5
3EB
100
AcDbEntity
  8
0
100
AcDbLine
 62
9
  6
CONTINUOUS
 10
58.453215501
 20
75.7904526489
 11
58.6104122634
 21
75.785245773
  0
LINE
  5
3EC
100
AcDbEntity
  8
0
100
AcDbLine
 62
9
  6
CONTINUOUS
 10
16.9978518237
 20
98.7220895326
 11
17.1573828205
 21
98.7163760653
  0
LINE
  5
3ED
100
AcDbEntity
  8
0
100
AcDbLine
 62
9
  6
CONTINUOUS
 10
37.6667720985
 20
93.5802924562
 11
37.8107550032
 21
93.574900444
  0
LINE
  5
3EE
100
AcDbEntity
  8
0
100
AcDbLine
 62
9
  6
CONTINUOUS
 10
37.9531761098
 20
97.5112303582
 11
37.8107550032
 21
97.5166279713
  0
LINE
  5
3EF
100
AcDbEntity
  8
0
100
AcDbLine
 62
9
  6
CONTINUOUS
 10
58.6104122634
 20
75.785245773
 11
58.7871704699
 21
75.7779114435
  0
LINE
  5
3F0
100
AcDbEntity
  8
0
100
AcDbLine
 62
7
  6
CONTINUOUS
 10
37.5034073872
 20
100.7296094057
 11
37.404606083
 21
100.7339449166
  0
LINE
  5
3F1
100
AcDbEntity
  8
0
100
AcDbLine
 62
7
  6
CONTINUOUS
 10
37.5033881925
 20
100.8533936301
 11
37.4046216417
 21
100.8577276371
  0
LINE
  5
3F2
100
AcDbEntity
  8
0
100
AcDbLine
 62
7
  6
CONTINUOUS
 10
38.1181026193
 20
101.0488827755
 11
38.2169039234
 21
101.0445472646
  0
LINE
  5
3F3
100
AcDbEntity
  8
0
100
AcDbLine
 62
9
  6
CONTINUOUS
 10
16.8186444587
 20
98.7299928436
 11
16.9978518237
 21
98.7220895326
  0
LINE
  5
3F4
100
AcDbEntity
  8
0
100
AcDbLine
 62
9
  6
CONTINUOUS
 10
58.7871704699
 20
75.7779114435
 11
58.9775979381
 21
75.7683471061
  0
LINE
  5
3F5
100
AcDbEntity
  8
0
100
AcDbLine
 62
9
  6
CONTINUOUS
 10
16.6314147438
 20
98.7398786321
 11
16.8186444587
 21
98.7299928436
  0
LINE
  5
3F6
100
AcDbEntity
  8
0
100
AcDbLine
 62
7
  6
CONTINUOUS
 10
37.404606083
 20
100.7339449166
 11
37.3088958174
 21
100.7394623632
  0
LINE
  5
3F7
100
AcDbEntity
  8
0
100
AcDbLine
 62
7
  6
CONTINUOUS
 10
37.4046216417
 20
100.8577276371
 11
37.3088713537
 21
100.8632474595
  0
LINE
  5
3F8
100
AcDbEntity
  8
0
100
AcDbLine
 62
7
  6
CONTINUOUS
 10
38.2169039234
 20
101.0445472646
 11
38.312614189
 21
101.039029818
  0
LINE
  5
3F9
100
AcDbEntity
  8
0
100
AcDbLine
 62
7
  6
CONTINUOUS
 10
2.9552354414
 20
66.2651157803
 11
3.0123198774
 21
66.2618127734
  0
LINE
  5
3FA
100
AcDbEntity
  8
0
100
AcDbLine
 62
7
  6
CONTINUOUS
 10
72.6662745651
 20
108.2570001023
 11
72.6091901291
 21
108.2603031092
  0
LINE
  5
3FB
100
AcDbEntity
  8
0
100
AcDbLine
 62
9
  6
CONTINUOUS
 10
58.9775979381
 20
75.7683471061
 11
59.1575298238
 21
75.757676716
  0
LINE
  5
3FC
100
AcDbEntity
  8
0
100
AcDbLine
 62
7
  6
CONTINUOUS
 10
4.7793969325
 20
70.5032363684
 11
4.8070049812
 21
70.5015891949
  0
LINE
  5
3FD
100
AcDbEntity
  8
0
100
AcDbLine
 62
7
  6
CONTINUOUS
 10
70.842113074
 20
104.0188795142
 11
70.8145050252
 21
104.0205266876
  0
LINE
  5
3FE
100
AcDbEntity
  8
0
100
AcDbLine
 62
9
  6
CONTINUOUS
 10
16.4613438516
 20
98.7503803058
 11
16.6314147438
 21
98.7398786321
  0
LINE
  5
3FF
100
AcDbEntity
  8
0
100
AcDbLine
 62
9
  6
CONTINUOUS
 10
59.1575298238
 20
75.757676716
 11
59.3128477053
 21
75.747035992
  0
LINE
  5
400
100
AcDbEntity
  8
0
100
AcDbLine
 62
9
  6
CONTINUOUS
 10
16.314982896
 20
98.7607422165
 11
16.4613438516
 21
98.7503803058
  0
LINE
  5
401
100
AcDbEntity
  8
0
100
AcDbLine
 62
7
  6
CONTINUOUS
 10
37.3088958174
 20
100.7394623632
 11
37.2170050032
 21
100.7461197545
  0
LINE
  5
402
100
AcDbEntity
  8
0
100
AcDbLine
 62
7
  6
CONTINUOUS
 10
37.3088713537
 20
100.8632474595
 11
37.2170251049
 21
100.8699016479
  0
LINE
  5
403
100
AcDbEntity
  8
0
100
AcDbLine
 62
7
  6
CONTINUOUS
 10
38.312614189
 20
101.039029818
 11
38.4045050032
 21
101.0323724267
  0
LINE
  5
404
100
AcDbEntity
  8
0
100
AcDbLine
 62
9
  6
CONTINUOUS
 10
59.3128477053
 20
75.747035992
 11
59.4457315637
 21
75.736668835
  0
LINE
  5
405
100
AcDbEntity
  8
0
100
AcDbLine
 62
9
  6
CONTINUOUS
 10
16.1891783383
 20
98.7708383849
 11
16.314982896
 21
98.7607422165
  0
LINE
  5
406
100
AcDbEntity
  8
0
100
AcDbLine
 62
9
  6
CONTINUOUS
 10
59.4457315637
 20
75.736668835
 11
59.5593249093
 21
75.7266359201
  0
LINE
  5
407
100
AcDbEntity
  8
0
100
AcDbLine
 62
7
  6
CONTINUOUS
 10
37.2170050032
 20
100.7461197545
 11
37.1296329851
 21
100.7538664235
  0
LINE
  5
408
100
AcDbEntity
  8
0
100
AcDbLine
 62
7
  6
CONTINUOUS
 10
37.2170251049
 20
100.8699016479
 11
37.1296084592
 21
100.8776523222
  0
LINE
  5
409
100
AcDbEntity
  8
0
100
AcDbLine
 62
7
  6
CONTINUOUS
 10
38.4045050032
 20
101.0323724267
 11
38.4918770214
 21
101.0246257577
  0
LINE
  5
40A
100
AcDbEntity
  8
0
100
AcDbLine
 62
9
  6
CONTINUOUS
 10
16.0814308675
 20
98.7806011445
 11
16.1891783383
 21
98.7708383849
  0
LINE
  5
40B
100
AcDbEntity
  8
0
100
AcDbLine
 62
9
  6
CONTINUOUS
 10
59.9883075081
 20
98.8383073111
 11
59.9400560839
 21
98.84302232
  0
LINE
  5
40C
100
AcDbEntity
  8
0
100
AcDbLine
 62
9
  6
CONTINUOUS
 10
15.6433078545
 20
75.662655955
 11
15.5950862904
 21
75.6673964342
  0
LINE
  5
40D
100
AcDbEntity
  8
0
100
AcDbLine
 62
9
  6
CONTINUOUS
 10
59.5593249093
 20
75.7266359201
 11
59.6557734185
 21
75.7169922854
  0
LINE
  5
40E
100
AcDbEntity
  8
0
100
AcDbLine
 62
9
  6
CONTINUOUS
 10
15.9897602973
 20
98.7899878177
 11
16.0814308675
 21
98.7806011445
  0
LINE
  5
40F
100
AcDbEntity
  8
0
100
AcDbLine
 62
7
  6
CONTINUOUS
 10
2.8992248943
 20
66.2708993414
 11
2.9552354414
 21
66.2651157803
  0
LINE
  5
410
100
AcDbEntity
  8
0
100
AcDbLine
 62
7
  6
CONTINUOUS
 10
72.7222851121
 20
108.2512165411
 11
72.6662745651
 21
108.2570001023
  0
LINE
  5
411
100
AcDbEntity
  8
0
100
AcDbLine
 62
7
  6
CONTINUOUS
 10
37.1296329851
 20
100.7538664235
 11
37.0474447167
 21
100.7626434136
  0
LINE
  5
412
100
AcDbEntity
  8
0
100
AcDbLine
 62
7
  6
CONTINUOUS
 10
37.1296084592
 20
100.8776523222
 11
37.0474661068
 21
100.8864244243
  0
LINE
  5
413
100
AcDbEntity
  8
0
100
AcDbLine
 62
7
  6
CONTINUOUS
 10
38.4918770214
 20
101.0246257577
 11
38.5740652897
 21
101.0158487676
  0
LINE
  5
414
100
AcDbEntity
  8
0
100
AcDbLine
 62
9
  6
CONTINUOUS
 10
37.5235453562
 20
93.5964453573
 11
37.6667720985
 21
93.5802924562
  0
LINE
  5
415
100
AcDbEntity
  8
0
100
AcDbLine
 62
9
  6
CONTINUOUS
 10
59.6557734185
 20
75.7169922854
 11
59.7369026994
 21
75.7077690534
  0
LINE
  5
416
100
AcDbEntity
  8
0
100
AcDbLine
 62
9
  6
CONTINUOUS
 10
38.0949509374
 20
97.4950421592
 11
37.9531761098
 21
97.5112303582
  0
LINE
  5
417
100
AcDbEntity
  8
0
100
AcDbLine
 62
9
  6
CONTINUOUS
 10
15.9125281003
 20
98.7989689297
 11
15.9897602973
 21
98.7899878177
  0
LINE
  5
418
100
AcDbEntity
  8
0
100
AcDbLine
 62
7
  6
CONTINUOUS
 10
37.0474447167
 20
100.7626434136
 11
36.9710657006
 21
100.7723839265
  0
LINE
  5
419
100
AcDbEntity
  8
0
100
AcDbLine
 62
7
  6
CONTINUOUS
 10
37.0474661068
 20
100.8864244243
 11
36.971044949
 21
100.8961703232
  0
LINE
  5
41A
100
AcDbEntity
  8
0
100
AcDbLine
 62
7
  6
CONTINUOUS
 10
38.5740652897
 20
101.0158487676
 11
38.6504443059
 21
101.0061082547
  0
LINE
  5
41B
100
AcDbEntity
  8
0
100
AcDbLine
 62
9
  6
CONTINUOUS
 10
59.7369026994
 20
75.7077690534
 11
59.8042347384
 21
75.6989921217
  0
LINE
  5
41C
100
AcDbEntity
  8
0
100
AcDbLine
 62
9
  6
CONTINUOUS
 10
15.8483331227
 20
98.8075205175
 11
15.9125281003
 21
98.7989689297
  0
LINE
  5
41D
100
AcDbEntity
  8
0
100
AcDbLine
 62
9
  6
CONTINUOUS
 10
7.9383627399
 20
73.2725284792
 11
7.8922492439
 21
73.2791317112
  0
LINE
  5
41E
100
AcDbEntity
  8
0
100
AcDbLine
 62
9
  6
CONTINUOUS
 10
67.6831472683
 20
101.2495874234
 11
67.7292607585
 21
101.2429841835
  0
LINE
  5
41F
100
AcDbEntity
  8
0
100
AcDbLine
 62
7
  6
CONTINUOUS
 10
2.8433957539
 20
66.2792252908
 11
2.8992248943
 21
66.2708993414
  0
LINE
  5
420
100
AcDbEntity
  8
0
100
AcDbLine
 62
7
  6
CONTINUOUS
 10
72.7781142525
 20
108.2428905917
 11
72.7222851121
 21
108.2512165411
  0
LINE
  5
421
100
AcDbEntity
  8
0
100
AcDbLine
 62
9
  6
CONTINUOUS
 10
59.8042347384
 20
75.6989921217
 11
59.8591025365
 21
75.6906861722
  0
LINE
  5
422
100
AcDbEntity
  8
0
100
AcDbLine
 62
7
  6
CONTINUOUS
 10
36.9710657006
 20
100.7723839265
 11
36.901077227
 21
100.783013831
  0
LINE
  5
423
100
AcDbEntity
  8
0
100
AcDbLine
 62
7
  6
CONTINUOUS
 10
36.971044949
 20
100.8961703232
 11
36.9010965419
 21
100.9067941361
  0
LINE
  5
424
100
AcDbEntity
  8
0
100
AcDbLine
 62
7
  6
CONTINUOUS
 10
38.6504443059
 20
101.0061082547
 11
38.7204327794
 21
100.9954783502
  0
LINE
  5
425
100
AcDbEntity
  8
0
100
AcDbLine
 62
9
  6
CONTINUOUS
 10
67.9934162883
 20
73.2118944399
 11
68.1130129392
 21
73.1935469857
  0
LINE
  5
426
100
AcDbEntity
  8
0
100
AcDbLine
 62
9
  6
CONTINUOUS
 10
7.5084970667
 20
101.3285688969
 11
7.6280932371
 21
101.3102215209
  0
LINE
  5
427
100
AcDbEntity
  8
0
100
AcDbLine
 62
9
  6
CONTINUOUS
 10
15.7959376293
 20
98.8156186665
 11
15.8483331227
 21
98.8075205175
  0
LINE
  5
428
100
AcDbEntity
  8
0
100
AcDbLine
 62
7
  6
CONTINUOUS
 10
4.7507029208
 20
70.5081872449
 11
4.7793969325
 21
70.5032363684
  0
LINE
  5
429
100
AcDbEntity
  8
0
100
AcDbLine
 62
7
  6
CONTINUOUS
 10
70.8708070856
 20
104.0139286377
 11
70.842113074
 21
104.0188795142
  0
LINE
  5
42A
100
AcDbEntity
  8
0
100
AcDbLine
 62
9
  6
CONTINUOUS
 10
67.8815878776
 20
73.231226877
 11
67.9934162883
 21
73.2118944399
  0
LINE
  5
42B
100
AcDbEntity
  8
0
100
AcDbLine
 62
9
  6
CONTINUOUS
 10
7.6280932371
 20
101.3102215209
 11
7.7399213518
 21
101.2908891477
  0
LINE
  5
42C
100
AcDbEntity
  8
0
100
AcDbLine
 62
9
  6
CONTINUOUS
 10
59.8591025365
 20
75.6906861722
 11
59.9027429165
 21
75.6828748623
  0
LINE
  5
42D
100
AcDbEntity
  8
0
100
AcDbLine
 62
7
  6
CONTINUOUS
 10
36.901077227
 20
100.783013831
 11
36.8380119506
 21
100.7944522272
  0
LINE
  5
42E
100
AcDbEntity
  8
0
100
AcDbLine
 62
7
  6
CONTINUOUS
 10
36.9010965419
 20
100.9067941361
 11
36.8379971243
 21
100.9182386828
  0
LINE
  5
42F
100
AcDbEntity
  8
0
100
AcDbLine
 62
7
  6
CONTINUOUS
 10
38.7204327794
 20
100.9954783502
 11
38.7834980558
 21
100.984039954
  0
LINE
  5
430
100
AcDbEntity
  8
0
100
AcDbLine
 62
9
  6
CONTINUOUS
 10
15.7541789153
 20
98.8232407414
 11
15.7959376293
 21
98.8156186665
  0
LINE
  5
431
100
AcDbEntity
  8
0
100
AcDbLine
 62
9
  6
CONTINUOUS
 10
37.3819127271
 20
93.623270444
 11
37.5235453562
 21
93.5964453573
  0
LINE
  5
432
100
AcDbEntity
  8
0
100
AcDbLine
 62
9
  6
CONTINUOUS
 10
38.2351874494
 20
97.4681342097
 11
38.0949509374
 21
97.4950421592
  0
LINE
  5
433
100
AcDbEntity
  8
0
100
AcDbLine
 62
9
  6
CONTINUOUS
 10
67.7780202324
 20
73.2514657231
 11
67.8815878776
 21
73.231226877
  0
LINE
  5
434
100
AcDbEntity
  8
0
100
AcDbLine
 62
9
  6
CONTINUOUS
 10
7.7399213518
 20
101.2908891477
 11
7.8434894819
 21
101.2706502208
  0
LINE
  5
435
100
AcDbEntity
  8
0
100
AcDbLine
 62
7
  6
CONTINUOUS
 10
2.7842737807
 20
66.2908845429
 11
2.8433957539
 21
66.2792252908
  0
LINE
  5
436
100
AcDbEntity
  8
0
100
AcDbLine
 62
7
  6
CONTINUOUS
 10
72.8372362257
 20
108.2312313397
 11
72.7781142525
 21
108.2428905917
  0
LINE
  5
437
100
AcDbEntity
  8
0
100
AcDbLine
 62
9
  6
CONTINUOUS
 10
60.0362876096
 20
98.8284794066
 11
59.9883075081
 21
98.8383073111
  0
LINE
  5
438
100
AcDbEntity
  8
0
100
AcDbLine
 62
9
  6
CONTINUOUS
 10
15.5950862904
 20
75.6673964342
 11
15.5471378522
 21
75.6772416416
  0
LINE
  5
439
100
AcDbEntity
  8
0
100
AcDbLine
 62
9
  6
CONTINUOUS
 10
59.9027429165
 20
75.6828748623
 11
59.9363122983
 21
75.6755907758
  0
LINE
  5
43A
100
AcDbEntity
  8
0
100
AcDbLine
 62
7
  6
CONTINUOUS
 10
36.8380119506
 20
100.7944522272
 11
36.7823498362
 21
100.8066120619
  0
LINE
  5
43B
100
AcDbEntity
  8
0
100
AcDbLine
 62
7
  6
CONTINUOUS
 10
36.8379971243
 20
100.9182386828
 11
36.7823643114
 21
100.9303920813
  0
LINE
  5
43C
100
AcDbEntity
  8
0
100
AcDbLine
 62
7
  6
CONTINUOUS
 10
38.7834980558
 20
100.984039954
 11
38.8391601702
 21
100.9718801193
  0
LINE
  5
43D
100
AcDbEntity
  8
0
100
AcDbLine
 62
9
  6
CONTINUOUS
 10
15.7219653189
 20
98.8303552754
 11
15.7541789153
 21
98.8232407414
  0
LINE
  5
43E
100
AcDbEntity
  8
0
100
AcDbLine
 62
9
  6
CONTINUOUS
 10
67.6831472666
 20
73.2725284595
 11
67.7780202324
 21
73.2514657231
  0
LINE
  5
43F
100
AcDbEntity
  8
0
100
AcDbLine
 62
9
  6
CONTINUOUS
 10
7.8434894819
 20
101.2706502208
 11
7.9383627382
 21
101.2495874234
  0
LINE
  5
440
100
AcDbEntity
  8
0
100
AcDbLine
 62
9
  6
CONTINUOUS
 10
66.7477544338
 20
73.5000885748
 11
67.6831472666
 21
73.2725284595
  0
LINE
  5
441
100
AcDbEntity
  8
0
100
AcDbLine
 62
9
  6
CONTINUOUS
 10
7.9383627382
 20
101.2495874234
 11
8.8797877309
 21
101.0205218
  0
LINE
  5
442
100
AcDbEntity
  8
0
100
AcDbLine
 62
7
  6
CONTINUOUS
 10
2.7183837182
 20
66.3074322998
 11
2.7842737807
 21
66.2908845429
  0
LINE
  5
443
100
AcDbEntity
  8
0
100
AcDbLine
 62
7
  6
CONTINUOUS
 10
72.9031262883
 20
108.2146835827
 11
72.8372362257
 21
108.2312313397
  0
LINE
  5
444
100
AcDbEntity
  8
0
100
AcDbLine
 62
9
  6
CONTINUOUS
 10
65.8478573176
 20
73.7305055832
 11
66.7477544338
 21
73.5000885748
  0
LINE
  5
445
100
AcDbEntity
  8
0
100
AcDbLine
 62
9
  6
CONTINUOUS
 10
8.8797877309
 20
101.0205218
 11
9.7852462882
 21
100.7885621842
  0
LINE
  5
446
100
AcDbEntity
  8
0
100
AcDbLine
 62
7
  6
CONTINUOUS
 10
36.7823498362
 20
100.8066120619
 11
36.7345145061
 21
100.8194007915
  0
LINE
  5
447
100
AcDbEntity
  8
0
100
AcDbLine
 62
7
  6
CONTINUOUS
 10
36.7823643114
 20
100.9303920813
 11
36.7345060172
 21
100.9431868337
  0
LINE
  5
448
100
AcDbEntity
  8
0
100
AcDbLine
 62
7
  6
CONTINUOUS
 10
38.8391601702
 20
100.9718801193
 11
38.8869955003
 21
100.9590913897
  0
LINE
  5
449
100
AcDbEntity
  8
0
100
AcDbLine
 62
9
  6
CONTINUOUS
 10
7.8922492439
 20
73.2791317112
 11
7.846664468
 21
73.2913362618
  0
LINE
  5
44A
100
AcDbEntity
  8
0
100
AcDbLine
 62
9
  6
CONTINUOUS
 10
67.7292607585
 20
101.2429841835
 11
67.7748455281
 21
101.2307796266
  0
LINE
  5
44B
100
AcDbEntity
  8
0
100
AcDbLine
 62
9
  6
CONTINUOUS
 10
37.2426059265
 20
93.6606373379
 11
37.3819127271
 21
93.623270444
  0
LINE
  5
44C
100
AcDbEntity
  8
0
100
AcDbLine
 62
9
  6
CONTINUOUS
 10
64.9839576432
 20
73.963655491
 11
65.8478573176
 21
73.7305055832
  0
LINE
  5
44D
100
AcDbEntity
  8
0
100
AcDbLine
 62
9
  6
CONTINUOUS
 10
9.7852462882
 20
100.7885621842
 11
10.6542256966
 21
100.553835374
  0
LINE
  5
44E
100
AcDbEntity
  8
0
100
AcDbLine
 62
9
  6
CONTINUOUS
 10
38.3731141446
 20
97.4306286206
 11
38.2351874494
 21
97.4681342097
  0
LINE
  5
44F
100
AcDbEntity
  8
0
100
AcDbLine
 62
9
  6
CONTINUOUS
 10
59.9363122983
 20
75.6755907758
 11
59.9610269288
 21
75.6688564188
  0
LINE
  5
450
100
AcDbEntity
  8
0
100
AcDbLine
 62
9
  6
CONTINUOUS
 10
15.6981455783
 20
98.8369408362
 11
15.7219653189
 21
98.8303552754
  0
LINE
  5
451
100
AcDbEntity
  8
0
100
AcDbLine
 62
9
  6
CONTINUOUS
 10
64.1564806163
 20
74.1994269623
 11
64.9839576432
 21
73.963655491
  0
LINE
  5
452
100
AcDbEntity
  8
0
100
AcDbLine
 62
9
  6
CONTINUOUS
 10
10.6542256966
 20
100.553835374
 11
11.4862936938
 21
100.3164546643
  0
LINE
  5
453
100
AcDbEntity
  8
0
100
AcDbLine
 62
7
  6
CONTINUOUS
 10
4.7218207206
 20
70.5166989137
 11
4.7507029208
 21
70.5081872449
  0
LINE
  5
454
100
AcDbEntity
  8
0
100
AcDbLine
 62
7
  6
CONTINUOUS
 10
70.8996892859
 20
104.0054169689
 11
70.8708070856
 21
104.0139286377
  0
LINE
  5
455
100
AcDbEntity
  8
0
100
AcDbLine
 62
9
  6
CONTINUOUS
 10
63.365838189
 20
74.4377060034
 11
64.1564806163
 21
74.1994269623
  0
LINE
  5
456
100
AcDbEntity
  8
0
100
AcDbLine
 62
9
  6
CONTINUOUS
 10
11.4862936938
 20
100.3164546643
 11
12.2810312646
 21
100.0765361295
  0
LINE
  5
457
100
AcDbEntity
  8
0
100
AcDbLine
 62
7
  6
CONTINUOUS
 10
2.643265146
 20
66.3310707592
 11
2.7183837182
 21
66.3074322998
  0
LINE
  5
458
100
AcDbEntity
  8
0
100
AcDbLine
 62
7
  6
CONTINUOUS
 10
72.9782448604
 20
108.1910451234
 11
72.9031262883
 21
108.2146835827
  0
LINE
  5
459
100
AcDbEntity
  8
0
100
AcDbLine
 62
9
  6
CONTINUOUS
 10
15.5471378522
 20
75.6772416416
 11
15.500222107
 21
75.6920454095
  0
LINE
  5
45A
100
AcDbEntity
  8
0
100
AcDbLine
 62
9
  6
CONTINUOUS
 10
60.0832283421
 20
98.8136653721
 11
60.0362876096
 21
98.8284794066
  0
LINE
  5
45B
100
AcDbEntity
  8
0
100
AcDbLine
 62
9
  6
CONTINUOUS
 10
62.6124201806
 20
74.678378458
 11
63.365838189
 21
74.4377060034
  0
LINE
  5
45C
100
AcDbEntity
  8
0
100
AcDbLine
 62
9
  6
CONTINUOUS
 10
12.2810312646
 20
100.0765361295
 11
13.0380406012
 21
99.8341964531
  0
LINE
  5
45D
100
AcDbEntity
  8
0
100
AcDbLine
 62
7
  6
CONTINUOUS
 10
36.7345145061
 20
100.8194007915
 11
36.694870016
 21
100.8327210859
  0
LINE
  5
45E
100
AcDbEntity
  8
0
100
AcDbLine
 62
7
  6
CONTINUOUS
 10
36.7345060172
 20
100.9431868337
 11
36.7108422608
 21
100.9511376671
  0
LINE
  5
45F
100
AcDbEntity
  8
0
100
AcDbLine
 62
7
  6
CONTINUOUS
 10
38.8869955003
 20
100.9590913897
 11
38.9266399904
 21
100.9457710953
  0
LINE
  5
460
100
AcDbEntity
  8
0
100
AcDbLine
 62
9
  6
CONTINUOUS
 10
61.8965979171
 20
74.921329089
 11
62.6124201806
 21
74.678378458
  0
LINE
  5
461
100
AcDbEntity
  8
0
100
AcDbLine
 62
9
  6
CONTINUOUS
 10
13.0380406012
 20
99.8341964531
 11
13.7569427749
 21
99.5895535237
  0
LINE
  5
462
100
AcDbEntity
  8
0
100
AcDbLine
 62
9
  6
CONTINUOUS
 10
37.1063403395
 20
93.708377526
 11
37.2426059265
 21
93.6606373379
  0
LINE
  5
463
100
AcDbEntity
  8
0
100
AcDbLine
 62
9
  6
CONTINUOUS
 10
38.5080177784
 20
97.3826813003
 11
38.3731141446
 21
97.4306286206
  0
LINE
  5
464
100
AcDbEntity
  8
0
100
AcDbLine
 62
9
  6
CONTINUOUS
 10
59.9610269288
 20
75.6688564188
 11
59.978202152
 21
75.662655955
  0
LINE
  5
465
100
AcDbEntity
  8
0
100
AcDbLine
 62
9
  6
CONTINUOUS
 10
61.2187287289
 20
75.1664399343
 11
61.8965979171
 21
74.921329089
  0
LINE
  5
466
100
AcDbEntity
  8
0
100
AcDbLine
 62
9
  6
CONTINUOUS
 10
13.7569427749
 20
99.5895535237
 11
14.4373751177
 21
99.3427274154
  0
LINE
  5
467
100
AcDbEntity
  8
0
100
AcDbLine
 62
9
  6
CONTINUOUS
 10
15.6814539226
 20
98.84302232
 11
15.6981455783
 21
98.8369408362
  0
LINE
  5
468
100
AcDbEntity
  8
0
100
AcDbLine
 62
9
  6
CONTINUOUS
 10
60.5791455202
 20
75.4135938825
 11
61.2187287289
 21
75.1664399343
  0
LINE
  5
469
100
AcDbEntity
  8
0
100
AcDbLine
 62
9
  6
CONTINUOUS
 10
14.4373751177
 20
99.3427274154
 11
15.0789981586
 21
99.0938379752
  0
LINE
  5
46A
100
AcDbEntity
  8
0
100
AcDbLine
 62
7
  6
CONTINUOUS
 10
2.5605427471
 20
66.3633578066
 11
2.643265146
 21
66.3310707592
  0
LINE
  5
46B
100
AcDbEntity
  8
0
100
AcDbLine
 62
7
  6
CONTINUOUS
 10
73.0609672594
 20
108.1587580759
 11
72.9782448604
 21
108.1910451234
  0
LINE
  5
46C
100
AcDbEntity
  8
0
100
AcDbLine
 62
9
  6
CONTINUOUS
 10
7.846664468
 20
73.2913362618
 11
7.8021310706
 21
73.3090021978
  0
LINE
  5
46D
100
AcDbEntity
  8
0
100
AcDbLine
 62
9
  6
CONTINUOUS
 10
67.7748455281
 20
101.2307796266
 11
67.8193789188
 21
101.2131136859
  0
LINE
  5
46E
100
AcDbEntity
  8
0
100
AcDbLine
 62
9
  6
CONTINUOUS
 10
59.978202152
 20
75.662655955
 11
60.5791455202
 21
75.4135938825
  0
LINE
  5
46F
100
AcDbEntity
  8
0
100
AcDbLine
 62
9
  6
CONTINUOUS
 10
15.0789981586
 20
99.0938379752
 11
15.6814539226
 21
98.84302232
  0
LINE
  5
470
100
AcDbEntity
  8
0
100
AcDbLine
 62
7
  6
CONTINUOUS
 10
4.6935342984
 20
70.5288337764
 11
4.7218207206
 21
70.5166989137
  0
LINE
  5
471
100
AcDbEntity
  8
0
100
AcDbLine
 62
7
  6
CONTINUOUS
 10
70.9279757081
 20
103.9932821061
 11
70.8996892859
 21
104.0054169689
  0
LINE
  5
472
100
AcDbEntity
  8
0
100
AcDbLine
 62
9
  6
CONTINUOUS
 10
60.1286141348
 20
98.7940465413
 11
60.0832283421
 21
98.8136653721
  0
LINE
  5
473
100
AcDbEntity
  8
0
100
AcDbLine
 62
9
  6
CONTINUOUS
 10
15.500222107
 20
75.6920454095
 11
15.4548596147
 21
75.7116598921
  0
LINE
  5
474
100
AcDbEntity
  8
0
100
AcDbLine
 62
9
  6
CONTINUOUS
 10
36.9739700069
 20
93.7662130273
 11
37.1063403395
 21
93.708377526
  0
LINE
  5
475
100
AcDbEntity
  8
0
100
AcDbLine
 62
7
  6
CONTINUOUS
 10
36.694870016
 20
100.8327210859
 11
36.6637180845
 21
100.8464715698
  0
LINE
  5
476
100
AcDbEntity
  8
0
100
AcDbLine
 62
7
  6
CONTINUOUS
 10
38.9266399904
 20
100.9457710953
 11
38.9577919219
 21
100.9320206114
  0
LINE
  5
477
100
AcDbEntity
  8
0
100
AcDbLine
 62
9
  6
CONTINUOUS
 10
38.639214403
 20
97.3244783989
 11
38.5080177784
 21
97.3826813003
  0
LINE
  5
478
100
AcDbEntity
  8
0
100
AcDbLine
 62
7
  6
CONTINUOUS
 10
2.4733261193
 20
66.4051318043
 11
2.5605427471
 21
66.3633578066
  0
LINE
  5
479
100
AcDbEntity
  8
0
100
AcDbLine
 62
7
  6
CONTINUOUS
 10
73.1481838871
 20
108.1169840782
 11
73.0609672594
 21
108.1587580759
  0
LINE
  5
47A
100
AcDbEntity
  8
0
100
AcDbLine
 62
9
  6
CONTINUOUS
 10
36.8463230636
 20
93.8337805174
 11
36.9739700069
 21
93.7662130273
  0
LINE
  5
47B
100
AcDbEntity
  8
0
100
AcDbLine
 62
9
  6
CONTINUOUS
 10
7.8021310706
 20
73.3090021978
 11
7.7591596557
 21
73.331926968
  0
LINE
  5
47C
100
AcDbEntity
  8
0
100
AcDbLine
 62
9
  6
CONTINUOUS
 10
67.8193789188
 20
101.2131136859
 11
67.8623503267
 21
101.1901889126
  0
LINE
  5
47D
100
AcDbEntity
  8
0
100
AcDbLine
 62
9
  6
CONTINUOUS
 10
38.7660413059
 20
97.2562356758
 11
38.639214403
 21
97.3244783989
  0
LINE
  5
47E
100
AcDbEntity
  8
0
100
AcDbLine
 62
9
  6
CONTINUOUS
 10
60.1720705089
 20
98.7697927528
 11
60.1286141348
 21
98.7940465413
  0
LINE
  5
47F
100
AcDbEntity
  8
0
100
AcDbLine
 62
9
  6
CONTINUOUS
 10
15.4548596147
 20
75.7116598921
 11
15.4114374343
 21
75.7359344882
  0
LINE
  5
480
100
AcDbEntity
  8
0
100
AcDbLine
 62
7
  6
CONTINUOUS
 10
4.6662919554
 20
70.5446631383
 11
4.6935342984
 21
70.5288337764
  0
LINE
  5
481
100
AcDbEntity
  8
0
100
AcDbLine
 62
7
  6
CONTINUOUS
 10
70.9552180511
 20
103.9774527443
 11
70.9279757081
 21
103.9932821061
  0
LINE
  5
482
100
AcDbEntity
  8
0
100
AcDbLine
 62
7
  6
CONTINUOUS
 10
2.3848920923
 20
66.4565621316
 11
2.4733261193
 21
66.4051318043
  0
LINE
  5
483
100
AcDbEntity
  8
0
100
AcDbLine
 62
7
  6
CONTINUOUS
 10
73.2366179141
 20
108.0655537509
 11
73.1481838871
 21
108.1169840782
  0
LINE
  5
484
100
AcDbEntity
  8
0
100
AcDbLine
 62
7
  6
CONTINUOUS
 10
36.6637180845
 20
100.8464715698
 11
36.6412957965
 21
100.8605475936
  0
LINE
  5
485
100
AcDbEntity
  8
0
100
AcDbLine
 62
7
  6
CONTINUOUS
 10
38.9577919219
 20
100.9320206114
 11
38.9802142099
 21
100.9179445876
  0
LINE
  5
486
100
AcDbEntity
  8
0
100
AcDbLine
 62
9
  6
CONTINUOUS
 10
36.724095189
 20
93.910699344
 11
36.8463230636
 21
93.8337805174
  0
LINE
  5
487
100
AcDbEntity
  8
0
100
AcDbLine
 62
9
  6
CONTINUOUS
 10
38.8878380777
 20
97.1782103459
 11
38.7660413059
 21
97.2562356758
  0
LINE
  5
488
100
AcDbEntity
  8
0
100
AcDbLine
 62
9
  6
CONTINUOUS
 10
7.7591596557
 20
73.331926968
 11
7.7182429181
 21
73.3598477252
  0
LINE
  5
489
100
AcDbEntity
  8
0
100
AcDbLine
 62
9
  6
CONTINUOUS
 10
67.8623503267
 20
101.1901889126
 11
67.9032670575
 21
101.1622681539
  0
LINE
  5
48A
100
AcDbEntity
  8
0
100
AcDbLine
 62
9
  6
CONTINUOUS
 10
60.2132043315
 20
98.7411008453
 11
60.1720705089
 21
98.7697927528
  0
LINE
  5
48B
100
AcDbEntity
  8
0
100
AcDbLine
 62
9
  6
CONTINUOUS
 10
15.4114374343
 20
75.7359344882
 11
15.3703297952
 21
75.7646296408
  0
LINE
  5
48C
100
AcDbEntity
  8
0
100
AcDbLine
 62
7
  6
CONTINUOUS
 10
2.2989353054
 20
66.5166641746
 11
2.3848920923
 21
66.4565621316
  0
LINE
  5
48D
100
AcDbEntity
  8
0
100
AcDbLine
 62
7
  6
CONTINUOUS
 10
73.322574701
 20
108.0054517079
 11
73.2366179141
 21
108.0655537509
  0
LINE
  5
48E
100
AcDbEntity
  8
0
100
AcDbLine
 62
9
  6
CONTINUOUS
 10
36.6079073558
 20
93.9965767778
 11
36.724095189
 21
93.910699344
  0
LINE
  5
48F
100
AcDbEntity
  8
0
100
AcDbLine
 62
9
  6
CONTINUOUS
 10
39.0039439809
 20
97.0907135762
 11
38.8878380777
 21
97.1782103459
  0
LINE
  5
490
100
AcDbEntity
  8
0
100
AcDbLine
 62
7
  6
CONTINUOUS
 10
4.6409760845
 20
70.5638779924
 11
4.6662919554
 21
70.5446631383
  0
LINE
  5
491
100
AcDbEntity
  8
0
100
AcDbLine
 62
7
  6
CONTINUOUS
 10
70.980533922
 20
103.9582378902
 11
70.9552180511
 21
103.9774527443
  0
LINE
  5
492
100
AcDbEntity
  8
0
100
AcDbLine
 62
7
  6
CONTINUOUS
 10
2.2175760624
 20
66.5845217781
 11
2.2989353054
 21
66.5166641746
  0
LINE
  5
493
100
AcDbEntity
  8
0
100
AcDbLine
 62
7
  6
CONTINUOUS
 10
73.4039339441
 20
107.9375941044
 11
73.322574701
 21
108.0054517079
  0
LINE
  5
494
100
AcDbEntity
  8
0
100
AcDbLine
 62
9
  6
CONTINUOUS
 10
7.7182429181
 20
73.3598477252
 11
7.6798499945
 21
73.3924443402
  0
LINE
  5
495
100
AcDbEntity
  8
0
100
AcDbLine
 62
9
  6
CONTINUOUS
 10
67.9032670575
 20
101.1622681539
 11
67.9416599745
 21
101.129671539
  0
LINE
  5
496
100
AcDbEntity
  8
0
100
AcDbLine
 62
9
  6
CONTINUOUS
 10
15.3703297952
 20
75.7646296408
 11
15.3321474038
 21
75.797305652
  0
LINE
  5
497
100
AcDbEntity
  8
0
100
AcDbLine
 62
9
  6
CONTINUOUS
 10
60.2513958568
 20
98.7084085939
 11
60.2132043315
 21
98.7411008453
  0
LINE
  5
498
100
AcDbEntity
  8
0
100
AcDbLine
 62
9
  6
CONTINUOUS
 10
36.498393551
 20
94.0909552313
 11
36.6079073558
 21
93.9965767778
  0
LINE
  5
499
100
AcDbEntity
  8
0
100
AcDbLine
 62
9
  6
CONTINUOUS
 10
39.1137025292
 20
96.9941228338
 11
39.0039439809
 21
97.0907135762
  0
LINE
  5
49A
100
AcDbEntity
  8
0
100
AcDbLine
 62
7
  6
CONTINUOUS
 10
4.6183608713
 20
70.5858988546
 11
4.6409760845
 21
70.5638779924
  0
LINE
  5
49B
100
AcDbEntity
  8
0
100
AcDbLine
 62
7
  6
CONTINUOUS
 10
71.0031491352
 20
103.936217028
 11
70.980533922
 21
103.9582378902
  0
LINE
  5
49C
100
AcDbEntity
  8
0
100
AcDbLine
 62
7
  6
CONTINUOUS
 10
2.1421291816
 20
66.659260505
 11
2.2175760624
 21
66.5845217781
  0
LINE
  5
49D
100
AcDbEntity
  8
0
100
AcDbLine
 62
7
  6
CONTINUOUS
 10
73.4793808248
 20
107.8628553776
 11
73.4039339441
 21
107.9375941044
  0
LINE
  5
49E
100
AcDbEntity
  8
0
100
AcDbLine
 62
9
  6
CONTINUOUS
 10
36.3961874386
 20
94.1933003188
 11
36.498393551
 21
94.0909552313
  0
LINE
  5
49F
100
AcDbEntity
  8
0
100
AcDbLine
 62
9
  6
CONTINUOUS
 10
39.2164476907
 20
96.8889064092
 11
39.1137025292
 21
96.9941228338
  0
LINE
  5
4A0
100
AcDbEntity
  8
0
100
AcDbLine
 62
9
  6
CONTINUOUS
 10
60.286256947
 20
98.672105591
 11
60.2513958568
 21
98.7084085939
  0
LINE
  5
4A1
100
AcDbEntity
  8
0
100
AcDbLine
 62
9
  6
CONTINUOUS
 10
7.6798499945
 20
73.3924443402
 11
7.6444210842
 21
73.4293430717
  0
LINE
  5
4A2
100
AcDbEntity
  8
0
100
AcDbLine
 62
9
  6
CONTINUOUS
 10
67.9416599745
 20
101.129671539
 11
67.9770888787
 21
101.0927728088
  0
LINE
  5
4A3
100
AcDbEntity
  8
0
100
AcDbLine
 62
9
  6
CONTINUOUS
 10
15.3321474038
 20
75.797305652
 11
15.2973039432
 21
75.8336073276
  0
LINE
  5
4A4
100
AcDbEntity
  8
0
100
AcDbLine
 62
7
  6
CONTINUOUS
 10
36.6412957965
 20
100.8605475936
 11
36.6277737992
 21
100.8748420303
  0
LINE
  5
4A5
100
AcDbEntity
  8
0
100
AcDbLine
 62
7
  6
CONTINUOUS
 10
38.9802142099
 20
100.9179445876
 11
38.9937362072
 21
100.9036501509
  0
LINE
  5
4A6
100
AcDbEntity
  8
0
100
AcDbLine
 62
9
  6
CONTINUOUS
 10
36.3018677722
 20
94.3030401893
 11
36.3961874386
 21
94.1933003188
  0
LINE
  5
4A7
100
AcDbEntity
  8
0
100
AcDbLine
 62
7
  6
CONTINUOUS
 10
2.0734942375
 20
66.7399934108
 11
2.1421291816
 21
66.659260505
  0
LINE
  5
4A8
100
AcDbEntity
  8
0
100
AcDbLine
 62
7
  6
CONTINUOUS
 10
73.5480157689
 20
107.7821224718
 11
73.4793808248
 21
107.8628553776
  0
LINE
  5
4A9
100
AcDbEntity
  8
0
100
AcDbLine
 62
9
  6
CONTINUOUS
 10
39.3115743295
 20
96.7755519587
 11
39.2164476907
 21
96.8889064092
  0
LINE
  5
4AA
100
AcDbEntity
  8
0
100
AcDbLine
 62
7
  6
CONTINUOUS
 10
4.5986322626
 20
70.6104755695
 11
4.6183608713
 21
70.5858988546
  0
LINE
  5
4AB
100
AcDbEntity
  8
0
100
AcDbLine
 62
7
  6
CONTINUOUS
 10
71.0228777439
 20
103.9116403131
 11
71.0031491352
 21
103.936217028
  0
LINE
  5
4AC
100
AcDbEntity
  8
0
100
AcDbLine
 62
9
  6
CONTINUOUS
 10
60.3176507006
 20
98.6323344007
 11
60.286256947
 21
98.672105591
  0
LINE
  5
4AD
100
AcDbEntity
  8
0
100
AcDbLine
 62
9
  6
CONTINUOUS
 10
15.2973039432
 20
75.8336073276
 11
15.2659405066
 21
75.8733876697
  0
LINE
  5
4AE
100
AcDbEntity
  8
0
100
AcDbLine
 62
9
  6
CONTINUOUS
 10
7.6444210842
 20
73.4293430717
 11
7.6123624025
 21
73.4701208522
  0
LINE
  5
4AF
100
AcDbEntity
  8
0
100
AcDbLine
 62
9
  6
CONTINUOUS
 10
67.9770888787
 20
101.0927728088
 11
68.009147555
 21
101.0519950309
  0
LINE
  5
4B0
100
AcDbEntity
  8
0
100
AcDbLine
 62
9
  6
CONTINUOUS
 10
36.2159580868
 20
94.4195744593
 11
36.3018677722
 21
94.3030401893
  0
LINE
  5
4B1
100
AcDbEntity
  8
0
100
AcDbLine
 62
9
  6
CONTINUOUS
 10
39.3985943595
 20
96.6544742006
 11
39.3115743295
 21
96.7755519587
  0
LINE
  5
4B2
100
AcDbEntity
  8
0
100
AcDbLine
 62
7
  6
CONTINUOUS
 10
2.0126638572
 20
66.8252620121
 11
2.0734942375
 21
66.7399934108
  0
LINE
  5
4B3
100
AcDbEntity
  8
0
100
AcDbLine
 62
7
  6
CONTINUOUS
 10
73.6088461493
 20
107.6968538704
 11
73.5480157689
 21
107.7821224718
  0
LINE
  5
4B4
100
AcDbEntity
  8
0
100
AcDbLine
 62
9
  6
CONTINUOUS
 10
60.3452029993
 20
98.5894992144
 11
60.3176507006
 21
98.6323344007
  0
LINE
  5
4B5
100
AcDbEntity
  8
0
100
AcDbLine
 62
9
  6
CONTINUOUS
 10
15.2659405066
 20
75.8733876697
 11
15.2383980202
 21
75.9162156837
  0
LINE
  5
4B6
100
AcDbEntity
  8
0
100
AcDbLine
 62
9
  6
CONTINUOUS
 10
7.6123624025
 20
73.4701208522
 11
7.5840415227
 21
73.5143101383
  0
LINE
  5
4B7
100
AcDbEntity
  8
0
100
AcDbLine
 62
9
  6
CONTINUOUS
 10
68.009147555
 20
101.0519950309
 11
68.0374684302
 21
101.0078057485
  0
LINE
  5
4B8
100
AcDbEntity
  8
0
100
AcDbLine
 62
9
  6
CONTINUOUS
 10
36.139009585
 20
94.542151097
 11
36.2159580868
 21
94.4195744593
  0
LINE
  5
4B9
100
AcDbEntity
  8
0
100
AcDbLine
 62
7
  6
CONTINUOUS
 10
4.5820809775
 20
70.6372138812
 11
4.5986322626
 21
70.6104755695
  0
LINE
  5
4BA
100
AcDbEntity
  8
0
100
AcDbLine
 62
7
  6
CONTINUOUS
 10
71.0394290289
 20
103.8849020013
 11
71.0228777439
 21
103.9116403131
  0
LINE
  5
4BB
100
AcDbEntity
  8
0
100
AcDbLine
 62
9
  6
CONTINUOUS
 10
39.4769819809
 20
96.5261886771
 11
39.3985943595
 21
96.6544742006
  0
LINE
  5
4BC
100
AcDbEntity
  8
0
100
AcDbLine
 62
7
  6
CONTINUOUS
 10
1.9606902125
 20
66.9126556798
 11
2.0126638572
 21
66.8252620121
  0
LINE
  5
4BD
100
AcDbEntity
  8
0
100
AcDbLine
 62
7
  6
CONTINUOUS
 10
73.660819794
 20
107.6094602028
 11
73.6088461493
 21
107.6968538704
  0
LINE
  5
4BE
100
AcDbEntity
  8
0
100
AcDbLine
 62
9
  6
CONTINUOUS
 10
36.0715941218
 20
94.6697896987
 11
36.139009585
 21
94.542151097
  0
LINE
  5
4BF
100
AcDbEntity
  8
0
100
AcDbLine
 62
9
  6
CONTINUOUS
 10
7.5840415227
 20
73.5143101383
 11
7.5597831617
 21
73.5614042716
  0
LINE
  5
4C0
100
AcDbEntity
  8
0
100
AcDbLine
 62
9
  6
CONTINUOUS
 10
15.2383980202
 20
75.9162156837
 11
15.2150985175
 21
75.9614551045
  0
LINE
  5
4C1
100
AcDbEntity
  8
0
100
AcDbLine
 62
9
  6
CONTINUOUS
 10
68.0374684302
 20
101.0078057485
 11
68.0617267875
 21
100.9607116198
  0
LINE
  5
4C2
100
AcDbEntity
  8
0
100
AcDbLine
 62
9
  6
CONTINUOUS
 10
60.368493456
 20
98.5442454119
 11
60.3452029993
 21
98.5894992144
  0
LINE
  5
4C3
100
AcDbEntity
  8
0
100
AcDbLine
 62
9
  6
CONTINUOUS
 10
39.5460599893
 20
96.3916356856
 11
39.4769819809
 21
96.5261886771
  0
LINE
  5
4C4
100
AcDbEntity
  8
0
100
AcDbLine
 62
7
  6
CONTINUOUS
 10
1.9184948455
 20
66.9984397962
 11
1.9606902125
 21
66.9126556798
  0
LINE
  5
4C5
100
AcDbEntity
  8
0
100
AcDbLine
 62
7
  6
CONTINUOUS
 10
73.703015161
 20
107.5236760864
 11
73.660819794
 21
107.6094602028
  0
LINE
  5
4C6
100
AcDbEntity
  8
0
100
AcDbLine
 62
7
  6
CONTINUOUS
 10
4.5689682989
 20
70.6656191432
 11
4.5820809775
 21
70.6372138812
  0
LINE
  5
4C7
100
AcDbEntity
  8
0
100
AcDbLine
 62
7
  6
CONTINUOUS
 10
71.0525417075
 20
103.8564967394
 11
71.0394290289
 21
103.8849020013
  0
LINE
  5
4C8
100
AcDbEntity
  8
0
100
AcDbLine
 62
9
  6
CONTINUOUS
 10
36.0140477353
 20
94.8017016566
 11
36.0715941218
 21
94.6697896987
  0
LINE
  5
4C9
100
AcDbEntity
  8
0
100
AcDbLine
 62
9
  6
CONTINUOUS
 10
39.6052542467
 20
96.2519274723
 11
39.5460599893
 21
96.3916356856
  0
LINE
  5
4CA
100
AcDbEntity
  8
0
100
AcDbLine
 62
7
  6
CONTINUOUS
 10
1.8857993196
 20
67.0794555258
 11
1.9184948455
 21
66.9984397962
  0
LINE
  5
4CB
100
AcDbEntity
  8
0
100
AcDbLine
 62
7
  6
CONTINUOUS
 10
73.7357106868
 20
107.4426603568
 11
73.703015161
 21
107.5236760864
  0
LINE
  5
4CC
100
AcDbEntity
  8
0
100
AcDbLine
 62
9
  6
CONTINUOUS
 10
7.5597831617
 20
73.5614042716
 11
7.5398654573
 21
73.6108632876
  0
LINE
  5
4CD
100
AcDbEntity
  8
0
100
AcDbLine
 62
9
  6
CONTINUOUS
 10
68.0617267875
 20
100.9607116198
 11
68.0816444894
 21
100.9112526091
  0
LINE
  5
4CE
100
AcDbEntity
  8
0
100
AcDbLine
 62
9
  6
CONTINUOUS
 10
60.3873330501
 20
98.4969823872
 11
60.368493456
 21
98.5442454119
  0
LINE
  5
4CF
100
AcDbEntity
  8
0
100
AcDbLine
 62
9
  6
CONTINUOUS
 10
15.2150985175
 20
75.9614551045
 11
15.196271934
 21
76.0087160398
  0
LINE
  5
4D0
100
AcDbEntity
  8
0
100
AcDbLine
 62
9
  6
CONTINUOUS
 10
35.9664673278
 20
94.9376333279
 11
36.0140477353
 21
94.8017016566
  0
LINE
  5
4D1
100
AcDbEntity
  8
0
100
AcDbLine
 62
9
  6
CONTINUOUS
 10
39.654119709
 20
96.1081113185
 11
39.6052542467
 21
96.2519274723
  0
LINE
  5
4D2
100
AcDbEntity
  8
0
100
AcDbLine
 62
7
  6
CONTINUOUS
 10
1.8617319317
 20
67.1526781984
 11
1.8857993196
 21
67.0794555258
  0
LINE
  5
4D3
100
AcDbEntity
  8
0
100
AcDbLine
 62
7
  6
CONTINUOUS
 10
73.7597780748
 20
107.3694376842
 11
73.7357106868
 21
107.4426603568
  0
LINE
  5
4D4
100
AcDbEntity
  8
0
100
AcDbLine
 62
7
  6
CONTINUOUS
 10
4.5593728772
 20
70.6955126169
 11
4.5689682989
 21
70.6656191432
  0
LINE
  5
4D5
100
AcDbEntity
  8
0
100
AcDbLine
 62
7
  6
CONTINUOUS
 10
71.0525509696
 20
103.8564729749
 11
71.0621409651
 21
103.8265882082
  0
LINE
  5
4D6
100
AcDbEntity
  8
0
100
AcDbLine
 62
7
  6
CONTINUOUS
 10
36.6277737992
 20
100.8748420303
 11
36.6232550032
 21
100.8892460906
  0
LINE
  5
4D7
100
AcDbEntity
  8
0
100
AcDbLine
 62
7
  6
CONTINUOUS
 10
38.9937362072
 20
100.9036501509
 11
38.9982550032
 21
100.8892460906
  0
LINE
  5
4D8
100
AcDbEntity
  8
0
100
AcDbLine
 62
9
  6
CONTINUOUS
 10
7.5398654573
 20
73.6108632876
 11
7.5245167787
 21
73.662120107
  0
LINE
  5
4D9
100
AcDbEntity
  8
0
100
AcDbLine
 62
9
  6
CONTINUOUS
 10
68.0816444894
 20
100.9112526091
 11
68.0969931668
 21
100.8599957954
  0
LINE
  5
4DA
100
AcDbEntity
  8
0
100
AcDbLine
 62
9
  6
CONTINUOUS
 10
60.4015586891
 20
98.4481001085
 11
60.3873330501
 21
98.4969823872
  0
LINE
  5
4DB
100
AcDbEntity
  8
0
100
AcDbLine
 62
9
  6
CONTINUOUS
 10
15.196271934
 20
76.0087160398
 11
15.1820628214
 21
76.0575952278
  0
LINE
  5
4DC
100
AcDbEntity
  8
0
100
AcDbLine
 62
9
  6
CONTINUOUS
 10
35.9290664736
 20
95.0772866597
 11
35.9664673278
 21
94.9376333279
  0
LINE
  5
4DD
100
AcDbEntity
  8
0
100
AcDbLine
 62
7
  6
CONTINUOUS
 10
1.8446210156
 20
67.2170128682
 11
1.8617319317
 21
67.1526781984
  0
LINE
  5
4DE
100
AcDbEntity
  8
0
100
AcDbLine
 62
7
  6
CONTINUOUS
 10
73.7768889908
 20
107.3051030143
 11
73.7597780748
 21
107.3694376842
  0
LINE
  5
4DF
100
AcDbEntity
  8
0
100
AcDbLine
 62
9
  6
CONTINUOUS
 10
39.6923304712
 20
95.9611701865
 11
39.654119709
 21
96.1081113185
  0
LINE
  5
4E0
100
AcDbEntity
  8
0
100
AcDbLine
 62
7
  6
CONTINUOUS
 10
73.7892447884
 20
107.2469839254
 11
73.7768889908
 21
107.3051030143
  0
LINE
  5
4E1
100
AcDbEntity
  8
0
100
AcDbLine
 62
9
  6
CONTINUOUS
 10
7.5245167787
 20
73.662120107
 11
7.5139131084
 21
73.7145870376
  0
LINE
  5
4E2
100
AcDbEntity
  8
0
100
AcDbLine
 62
9
  6
CONTINUOUS
 10
68.0969931668
 20
100.8599957954
 11
68.1075968371
 21
100.8075288707
  0
LINE
  5
4E3
100
AcDbEntity
  8
0
100
AcDbLine
 62
7
  6
CONTINUOUS
 10
4.5534889049
 20
70.7264216542
 11
4.5593728772
 21
70.6955126169
  0
LINE
  5
4E4
100
AcDbEntity
  8
0
100
AcDbLine
 62
7
  6
CONTINUOUS
 10
71.0680211016
 20
103.7956942283
 11
71.0621371293
 21
103.8266032657
  0
LINE
  5
4E5
100
AcDbEntity
  8
0
100
AcDbLine
 62
9
  6
CONTINUOUS
 10
15.1820628214
 20
76.0575952278
 11
15.1726130904
 21
76.1075503331
  0
LINE
  5
4E6
100
AcDbEntity
  8
0
100
AcDbLine
 62
9
  6
CONTINUOUS
 10
60.4109962405
 20
98.3981354692
 11
60.4015586891
 21
98.4481001085
  0
LINE
  5
4E7
100
AcDbEntity
  8
0
100
AcDbLine
 62
9
  6
CONTINUOUS
 10
35.9021480826
 20
95.2199796381
 11
35.9290664736
 21
95.0772866597
  0
LINE
  5
4E8
100
AcDbEntity
  8
0
100
AcDbLine
 62
9
  6
CONTINUOUS
 10
39.7196816054
 20
95.8119875313
 11
39.6923304712
 21
95.9611701865
  0
LINE
  5
4E9
100
AcDbEntity
  8
0
100
AcDbLine
 62
7
  6
CONTINUOUS
 10
73.7983596252
 20
107.191652173
 11
73.7892447884
 21
107.2469839254
  0
LINE
  5
4EA
100
AcDbEntity
  8
0
100
AcDbLine
 62
7
  6
CONTINUOUS
 10
73.8049978141
 20
107.1358229287
 11
73.7983596252
 21
107.191652173
  0
LINE
  5
4EB
100
AcDbEntity
  8
0
100
AcDbLine
 62
9
  6
CONTINUOUS
 10
35.8858565502
 20
95.3648655592
 11
35.9021480826
 21
95.2199796381
  0
CIRCLE
  5
4EC
100
AcDbEntity
  8
0
100
AcDbCircle
 62
9
  6
CONTINUOUS
 10
37.8107550032
 20
95.5110579413
 40
1.4482233047
  0
ENDSEC
  0
SECTION
  2
OBJECTS
  0
DICTIONARY
  5
C
100
AcDbDictionary
280
0
281
1
  3
ACAD_GROUP
350
D
  3
ACAD_MLINESTYLE
350
17
  3
ACAD_LAYOUT
350
1A
  3
ACAD_PLOTSETTINGS
350
19
  3
ACAD_PLOTSTYLENAME
350
E
  0
DICTIONARY
  5
D
102
{ACAD_REACTORS
330
C
102
}
100
AcDbDictionary
280
0
281
1
  0
ACDBDICTIONARYWDFLT
  5
E
102
{ACAD_REACTORS
330
C
102
}
100
AcDbDictionary
281
1
  3
Normal
350
F
100
AcDbDictionaryWithDefault
340
F
  0
DICTIONARY
  5
17
102
{ACAD_REACTORS
330
C
102
}
100
AcDbDictionary
280
0
281
1
  3
Standard
350
18
  0
DICTIONARY
  5
19
102
{ACAD_REACTORS
330
C
102
}
100
AcDbDictionary
281
1
  0
DICTIONARY
  5
1A
102
{ACAD_REACTORS
330
C
102
}
100
AcDbDictionary
281
1
  3
Model
350
4ED
  3
Layout1
350
4EE
  0
ACDBPLACEHOLDER
  5
F
102
{ACAD_REACTORS
330
E
102
}
  0
MLINESTYLE
  5
18
102
{ACAD_REACTORS
330
17
102
}
100
AcDbMlineStyle
  2
STANDARD
 70
0
  3

 62
256
 51
90.0
 52
90.0
 71
2
 49
0.5
 62
256
  6
BYLAYER
 49
-0.5
 62
256
  6
BYLAYER
  0
LAYOUT
  5
4ED
102
{ACAD_REACTORS
330
1A
102
}
100
AcDbPlotSettings
  1

  2
none_device
  4
ANSI_B_(17.00_x_11.00_Inches)
  6

 40
0.0
 41
0.0
 42
0.0
 43
0.0
 44
431.8
 45
279.4
 46
0.0
 47
0.0
 48
0.0
 49
0.0
140
0.0
141
0.0
142
1.0
143
1.0
 70
1024
 72
0
 73
0
 74
0
  7

 75
0
147
1.0
148
0.0
149
0.0
100
AcDbLayout
  1
Model
 70
0
 71
0
 10
0.0
 20
0.0
 11
17.0
 21
11.0
 12
0.0
 22
0.0
 32
0.0
 14
0.0
 24
0.0
 34
0.0
 15
0.0
 25
0.0
 35
0.0
146
0.0
 13
0.0
 23
0.0
 33
0.0
 16
1.0
 26
0.0
 36
0.0
 17
0.0
 27
1.0
 37
0.0
 76
0
330
212
345
0
346
0
  0
LAYOUT
  5
4EE
102
{ACAD_REACTORS
330
1A
102
}
100
AcDbPlotSettings
  1

  2
none_device
  4
ANSI_B_(17.00_x_11.00_Inches)
  6

 40
0.0
 41
0.0
 42
0.0
 43
0.0
 44
431.8
 45
279.4
 46
0.0
 47
0.0
 48
0.0
 49
0.0
140
0.0
141
0.0
142
1.0
143
1.0
 70
0
 72
0
 73
0
 74
0
  7

 75
0
147
1.0
148
0.0
149
0.0
100
AcDbLayout
  1
Layout1
 70
0
 71
1
 10
0.0
 20
0.0
 11
17.0
 21
11.0
 12
0.0
 22
0.0
 32
0.0
 14
0.0
 24
0.0
 34
0.0
 15
0.0
 25
0.0
 35
0.0
146
0.0
 13
0.0
 23
0.0
 33
0.0
 16
1.0
 26
0.0
 36
0.0
 17
0.0
 27
1.0
 37
0.0
 76
0
330
213
345
0
346
0
  0
ENDSEC
  0
EOF
