  0
SECTION
  2
HEADER
  9
$ACADVER
  1
AC1014
  9
$ACADMAINTVER
 70
     9
  9
$DWGCODEPAGE
  3
ANSI_1252
  9
$INSBASE
 10
146.0665740050328
 20
-21.95035666029685
 30
0.0
  9
$EXTMIN
 10
84.80994831349363
 20
-23.58802323045523
 30
-0.0015258207003583
  9
$EXTMAX
 10
157.4498842428899
 20
0.4228166388609225
 30
0.0000000349246037
  9
$LIMMIN
 10
0.0
 20
0.0
  9
$LIMMAX
 10
187.3118571637889
 20
134.3269220688476
  9
$ORTHOMODE
 70
     1
  9
$REGENMODE
 70
     1
  9
$FILLMODE
 70
     1
  9
$QTEXTMODE
 70
     0
  9
$MIRRTEXT
 70
     0
  9
$DRAGMODE
 70
     2
  9
$LTSCALE
 40
2.0
  9
$OSMODE
 70
    55
  9
$ATTMODE
 70
     1
  9
$TEXTSIZE
 40
0.15
  9
$TRACEWID
 40
1.0
  9
$TEXTSTYLE
  7
CARTOUCHE
  9
$CLAYER
  8
0
  9
$CELTYPE
  6
BYLAYER
  9
$CECOLOR
 62
   256
  9
$CELTSCALE
 40
1.0
  9
$DELOBJ
 70
     1
  9
$DISPSILH
 70
     0
  9
$DIMSCALE
 40
16.0
  9
$DIMASZ
 40
0.1
  9
$DIMEXO
 40
0.0625
  9
$DIMDLI
 40
0.25
  9
$DIMRND
 40
0.0
  9
$DIMDLE
 40
0.0
  9
$DIMEXE
 40
0.1
  9
$DIMTP
 40
0.0
  9
$DIMTM
 40
0.0
  9
$DIMTXT
 40
0.1
  9
$DIMCEN
 40
0.0625
  9
$DIMTSZ
 40
0.0
  9
$DIMTOL
 70
     0
  9
$DIMLIM
 70
     0
  9
$DIMTIH
 70
     1
  9
$DIMTOH
 70
     1
  9
$DIMSE1
 70
     0
  9
$DIMSE2
 70
     0
  9
$DIMTAD
 70
     0
  9
$DIMZIN
 70
    12
  9
$DIMBLK
  1

  9
$DIMASO
 70
     1
  9
$DIMSHO
 70
     1
  9
$DIMPOST
  1
\X
  9
$DIMAPOST
  1
cm
  9
$DIMALT
 70
     1
  9
$DIMALTD
 70
     1
  9
$DIMALTF
 40
2.54
  9
$DIMLFAC
 40
1.0
  9
$DIMTOFL
 70
     0
  9
$DIMTVP
 40
0.0
  9
$DIMTIX
 70
     0
  9
$DIMSOXD
 70
     0
  9
$DIMSAH
 70
     0
  9
$DIMBLK1
  1

  9
$DIMBLK2
  1

  9
$DIMSTYLE
  2
STANDARD
  9
$DIMCLRD
 70
     0
  9
$DIMCLRE
 70
     0
  9
$DIMCLRT
 70
     0
  9
$DIMTFAC
 40
1.0
  9
$DIMGAP
 40
0.08
  9
$DIMJUST
 70
     0
  9
$DIMSD1
 70
     0
  9
$DIMSD2
 70
     0
  9
$DIMTOLJ
 70
     1
  9
$DIMTZIN
 70
     4
  9
$DIMALTZ
 70
    12
  9
$DIMALTTZ
 70
     4
  9
$DIMFIT
 70
     3
  9
$DIMUPT
 70
     0
  9
$DIMUNIT
 70
     5
  9
$DIMDEC
 70
     4
  9
$DIMTDEC
 70
     4
  9
$DIMALTU
 70
     2
  9
$DIMALTTD
 70
     1
  9
$DIMTXSTY
  7
ROMANS
  9
$DIMAUNIT
 70
     0
  9
$LUNITS
 70
     2
  9
$LUPREC
 70
     2
  9
$SKETCHINC
 40
1.0
  9
$FILLETRAD
 40
0.5
  9
$AUNITS
 70
     0
  9
$AUPREC
 70
     0
  9
$MENU
  1
.
  9
$ELEVATION
 40
0.0
  9
$PELEVATION
 40
0.0
  9
$THICKNESS
 40
0.0
  9
$LIMCHECK
 70
     0
  9
$BLIPMODE
 70
     0
  9
$CHAMFERA
 40
0.0
  9
$CHAMFERB
 40
0.0
  9
$CHAMFERC
 40
20.0
  9
$CHAMFERD
 40
0.0
  9
$SKPOLY
 70
     0
  9
$TDCREATE
 40
2452072.673626736
  9
$TDUPDATE
 40
2453690.460545254
  9
$TDINDWG
 40
2.1371124421
  9
$TDUSRTIMER
 40
2.1371029514
  9
$USRTIMER
 70
     1
  9
$ANGBASE
 50
0.0
  9
$ANGDIR
 70
     0
  9
$PDMODE
 70
    33
  9
$PDSIZE
 40
0.25
  9
$PLINEWID
 40
0.0
  9
$COORDS
 70
     1
  9
$SPLFRAME
 70
     0
  9
$SPLINETYPE
 70
     6
  9
$SPLINESEGS
 70
     8
  9
$ATTDIA
 70
     0
  9
$ATTREQ
 70
     1
  9
$HANDLING
 70
 22529
  9
$HANDSEED
  5
132
  9
$SURFTAB1
 70
     6
  9
$SURFTAB2
 70
     6
  9
$SURFTYPE
 70
     6
  9
$SURFU
 70
     6
  9
$SURFV
 70
     6
  9
$UCSNAME
  2

  9
$UCSORG
 10
0.0
 20
0.0
 30
0.0
  9
$UCSXDIR
 10
1.0
 20
0.0
 30
0.0
  9
$UCSYDIR
 10
0.0
 20
1.0
 30
0.0
  9
$PUCSNAME
  2

  9
$PUCSORG
 10
0.0
 20
0.0
 30
0.0
  9
$PUCSXDIR
 10
1.0
 20
0.0
 30
0.0
  9
$PUCSYDIR
 10
0.0
 20
1.0
 30
0.0
  9
$USERI1
 70
     0
  9
$USERI2
 70
     0
  9
$USERI3
 70
     0
  9
$USERI4
 70
     0
  9
$USERI5
 70
     0
  9
$USERR1
 40
0.0
  9
$USERR2
 40
0.0
  9
$USERR3
 40
0.0
  9
$USERR4
 40
0.0
  9
$USERR5
 40
0.0
  9
$WORLDVIEW
 70
     1
  9
$SHADEDGE
 70
     3
  9
$SHADEDIF
 70
    70
  9
$TILEMODE
 70
     1
  9
$MAXACTVP
 70
    48
  9
$PINSBASE
 10
0.0
 20
0.0
 30
0.0
  9
$PLIMCHECK
 70
     0
  9
$PEXTMIN
 10
0.0
 20
0.0
 30
0.0
  9
$PEXTMAX
 10
0.0
 20
0.0
 30
0.0
  9
$PLIMMIN
 10
0.0
 20
0.0
  9
$PLIMMAX
 10
12.0
 20
9.0
  9
$UNITMODE
 70
     0
  9
$VISRETAIN
 70
     1
  9
$PLINEGEN
 70
     0
  9
$PSLTSCALE
 70
     1
  9
$TREEDEPTH
 70
  3020
  9
$PICKSTYLE
 70
     1
  9
$CMLSTYLE
  2
STANDARD
  9
$CMLJUST
 70
     0
  9
$CMLSCALE
 40
20.0
  9
$PROXYGRAPHICS
 70
     1
  9
$MEASUREMENT
 70
     0
  0
ENDSEC
  0
SECTION
  2
CLASSES
  0
CLASS
  1
ACDBDICTIONARYWDFLT
  2
AcDbDictionaryWithDefault
  3
AutoCAD 2000
 90
        0
280
     0
281
     0
  0
CLASS
  1
ACDBPLACEHOLDER
  2
AcDbPlaceHolder
  3
AutoCAD 2000
 90
        0
280
     0
281
     0
  0
CLASS
  1
LAYOUT
  2
AcDbLayout
  3
AutoCAD 2000
 90
        0
280
     0
281
     0
  0
CLASS
  1
DICTIONARYVAR
  2
AcDbDictionaryVar
  3
AutoCAD 2000
 90
        0
280
     0
281
     0
  0
CLASS
  1
IMAGEDEF
  2
AcDbRasterImageDef
  3
ISM
 90
        0
280
     0
281
     0
  0
CLASS
  1
LONG_TRANSACTION
  2
AcDbLongTransaction
  3
AutoCAD 2000
 90
        0
280
     0
281
     0
  0
CLASS
  1
LWPOLYLINE
  2
AcDbPolyline
  3
AutoCAD 2000
 90
        0
280
     0
281
     1
  0
CLASS
  1
HATCH
  2
AcDbHatch
  3
AutoCAD 2000
 90
        0
280
     0
281
     1
  0
CLASS
  1
XRECORD
  2
AcDbXrecord
  3
AutoCAD 2000
 90
        0
280
     0
281
     0
  0
CLASS
  1
LONG_TRANSACTION
  2
AcDbLongTransaction
  3
AutoCAD 2000
 90
        0
280
     0
281
     0
  0
CLASS
  1
LWPOLYLINE
  2
AcDbPolyline
  3
AutoCAD 2000
 90
        0
280
     0
281
     1
  0
CLASS
  1
HATCH
  2
AcDbHatch
  3
AutoCAD 2000
 90
        0
280
     0
281
     1
  0
CLASS
  1
XRECORD
  2
AcDbXrecord
  3
AutoCAD 2000
 90
        0
280
     0
281
     0
  0
ENDSEC
  0
SECTION
  2
TABLES
  0
TABLE
  2
VPORT
  5
1D
330
0
100
AcDbSymbolTable
 70
     3
  0
VPORT
  5
10E
330
1D
100
AcDbSymbolTableRecord
100
AcDbViewportTableRecord
  2
*ACTIVE
 70
     0
 10
0.0
 20
0.0
 11
1.0
 21
1.0
 12
121.1299162029774
 22
-11.58260329679152
 13
0.0
 23
0.0
 14
10.0
 24
10.0
 15
10.0
 25
10.0
 16
0.0
 26
0.0
 36
1.0
 17
0.0
 27
0.0
 37
0.0
 40
49.0930892077666
 41
1.786792452830188
 42
50.0
 43
0.0
 44
0.0
 50
0.0
 51
0.0
 71
     0
 72
   100
 73
     1
 74
     3
 75
     0
 76
     0
 77
     0
 78
     2
  0
ENDTAB
  0
TABLE
  2
LTYPE
  5
18
330
0
100
AcDbSymbolTable
 70
     3
  0
LTYPE
  5
19
330
18
100
AcDbSymbolTableRecord
100
AcDbLinetypeTableRecord
  2
BYBLOCK
 70
     0
  3

 72
    65
 73
     0
 40
0.0
  0
LTYPE
  5
1A
330
18
100
AcDbSymbolTableRecord
100
AcDbLinetypeTableRecord
  2
BYLAYER
 70
     0
  3

 72
    65
 73
     0
 40
0.0
  0
LTYPE
  5
8
330
18
100
AcDbSymbolTableRecord
100
AcDbLinetypeTableRecord
  2
CONTINUOUS
 70
     0
  3
Solid line
 72
    65
 73
     0
 40
0.0
  0
LTYPE
  5
65
330
18
100
AcDbSymbolTableRecord
100
AcDbLinetypeTableRecord
  2
CENTER
 70
     0
  3
Center ____ _ ____ _ ____ _ ____ _ ____ _ ____
 72
    65
 73
     4
 40
50.8
 49
31.75
 74
     0
 49
-6.349999999999999
 74
     0
 49
6.349999999999999
 74
     0
 49
-6.349999999999999
 74
     0
  0
LTYPE
  5
2F
330
18
100
AcDbSymbolTableRecord
100
AcDbLinetypeTableRecord
  2
HIDDEN
 70
     0
  3
Hidden __ __ __ __ __ __ __ __ __ __ __ __ __ _
 72
    65
 73
     2
 40
9.524999999999998
 49
6.349999999999999
 74
     0
 49
-3.174999999999999
 74
     0
  0
ENDTAB
  0
TABLE
  2
LAYER
  5
10
102
{ACAD_XDICTIONARY
360
11
102
}
330
0
100
AcDbSymbolTable
 70
     2
  0
LAYER
  5
4
330
10
100
AcDbSymbolTableRecord
100
AcDbLayerTableRecord
  2
0
 70
     0
 62
     7
  6
CONTINUOUS
  0
LAYER
  5
64
330
10
100
AcDbSymbolTableRecord
100
AcDbLayerTableRecord
  2
CENTER
 70
     0
 62
     1
  6
CENTER
  0
ENDTAB
  0
TABLE
  2
STYLE
  5
15
330
0
100
AcDbSymbolTable
 70
     3
  0
STYLE
  5
16
330
15
100
AcDbSymbolTableRecord
100
AcDbTextStyleTableRecord
  2
STANDARD
 70
     0
 40
0.0
 41
1.0
 50
0.0
 71
     0
 42
0.125
  3
txt
  4

  0
STYLE
  5
2C
330
15
100
AcDbSymbolTableRecord
100
AcDbTextStyleTableRecord
  2
CARTOUCHE
 70
     0
 40
0.0
 41
1.0
 50
0.0
 71
     0
 42
0.15
  3
romans.shx
  4

  0
STYLE
  5
23
330
15
100
AcDbSymbolTableRecord
100
AcDbTextStyleTableRecord
  2
ROMANS
 70
     0
 40
0.0
 41
1.0
 50
0.0
 71
     0
 42
1.0
  3
romans.shx
  4

  0
ENDTAB
  0
TABLE
  2
VIEW
  5
1B
330
0
100
AcDbSymbolTable
 70
     0
  0
ENDTAB
  0
TABLE
  2
UCS
  5
1C
330
0
100
AcDbSymbolTable
 70
     0
  0
ENDTAB
  0
TABLE
  2
APPID
  5
1F
330
0
100
AcDbSymbolTable
 70
     1
  0
APPID
  5
20
330
1F
100
AcDbSymbolTableRecord
100
AcDbRegAppTableRecord
  2
ACAD
 70
     0
  0
ENDTAB
  0
TABLE
  2
DIMSTYLE
  5
21
330
0
100
AcDbSymbolTable
 70
     1
  0
DIMSTYLE
105
22
330
21
100
AcDbSymbolTableRecord
100
AcDbDimStyleTableRecord
  2
STANDARD
 70
     0
  3
\X
  4
cm
  5

  6

  7

 40
16.0
 41
0.1
 42
0.0625
 43
0.25
 44
0.1
 45
0.0
 46
0.0
 47
0.0
 48
0.0
140
0.1
141
0.0625
142
0.0
143
2.54
144
1.0
145
0.0
146
1.0
147
0.08
 71
     0
 72
     0
 73
     1
 74
     1
 75
     0
 76
     0
 77
     0
 78
    12
170
     1
171
     1
172
     0
173
     0
174
     0
175
     0
176
     0
177
     0
178
     0
270
     5
271
     4
272
     4
273
     2
274
     1
340
23
275
     0
280
     0
281
     0
282
     0
283
     1
284
     4
285
    12
286
     4
287
     3
288
     0
  0
ENDTAB
  0
TABLE
  2
BLOCK_RECORD
  5
1
330
0
100
AcDbSymbolTable
 70
     0
  0
BLOCK_RECORD
  5
2
102
{ACAD_XDICTIONARY
360
83
102
}
330
1
100
AcDbSymbolTableRecord
100
AcDbBlockTableRecord
  2
*MODEL_SPACE
  0
BLOCK_RECORD
  5
78
102
{ACAD_XDICTIONARY
360
85
102
}
330
1
100
AcDbSymbolTableRecord
100
AcDbBlockTableRecord
  2
*PAPER_SPACE
  0
ENDTAB
  0
ENDSEC
  0
SECTION
  2
BLOCKS
  0
BLOCK
  5
3
330
2
100
AcDbEntity
  8
0
100
AcDbBlockBegin
  2
*MODEL_SPACE
 70
     0
 10
0.0
 20
0.0
 30
0.0
  3
*MODEL_SPACE
  1

  0
ENDBLK
  5
9
330
2
100
AcDbEntity
  8
0
100
AcDbBlockEnd
  0
BLOCK
  5
7A
330
78
100
AcDbEntity
 67
     1
  8
0
100
AcDbBlockBegin
  2
*PAPER_SPACE
 70
     0
 10
0.0
 20
0.0
 30
0.0
  3
*PAPER_SPACE
  1

  0
ENDBLK
  5
7B
330
78
100
AcDbEntity
 67
     1
  8
0
100
AcDbBlockEnd
  0
ENDSEC
  0
SECTION
  2
ENTITIES
  0
LINE
  5
2E
330
2
100
AcDbEntity
  8
0
  6
HIDDEN
 48
0.05
100
AcDbLine
 10
90.43559008443025
 20
-2.950195363972195
 30
0.0
 11
152.3649915032856
 21
-2.95051563699935
 31
0.0
  0
LINE
  5
31
330
2
100
AcDbEntity
  8
0
 48
0.1
100
AcDbLine
 10
84.816587733043
 20
-4.200356660296847
 30
0.0
 11
157.4415740050328
 21
-4.205641148067719
 31
0.0
  0
LINE
  5
32
330
2
100
AcDbEntity
  8
0
 48
0.1
100
AcDbLine
 10
141.418601899461
 20
-21.95035666029685
 30
0.0
 11
104.4856475788759
 21
-21.95035666029685
 31
0.0
  0
LINE
  5
33
330
2
100
AcDbEntity
  8
0
 48
0.1
100
AcDbLine
 10
100.1823777612279
 20
-20.1494450356822
 30
0.0
 11
146.0665740050328
 21
-20.95035666029684
 31
0.0
  0
ARC
  5
34
330
2
100
AcDbEntity
  8
0
  6
HIDDEN
100
AcDbCircle
 10
93.55015923472619
 20
-7.209495335360944
 30
0.0
 40
1.0
100
AcDbArc
 50
204.9999999999992
 51
275.0047234204841
  0
LINE
  5
35
330
2
100
AcDbEntity
  8
0
 48
0.1
100
AcDbLine
 10
90.13326598841329
 20
-2.700194909979522
 30
0.0
 11
97.51581161942986
 21
-18.41775673543512
 31
0.0
  0
LINE
  5
36
330
2
100
AcDbEntity
  8
0
 48
0.1
100
AcDbLine
 10
125.3302688902445
 20
-4.203288401703984
 30
0.0
 11
121.9891460374328
 21
-7.878500591458439
 31
0.0
  0
LINE
  5
37
330
2
100
AcDbEntity
  8
0
 48
0.1
100
AcDbLine
 10
92.95189276183227
 20
-8.205679303446114
 30
0.0
 11
121.2492028882761
 21
-8.205825497787106
 31
0.0
  0
ARC
  5
38
330
2
100
AcDbEntity
  8
0
 48
0.1
100
AcDbCircle
 10
92.95190163956888
 20
-7.705671738349863
 30
0.0
 40
0.5000075651750624
100
AcDbArc
 50
199.9952539178493
 51
269.99898282279
  0
ARC
  5
39
330
2
100
AcDbEntity
  8
0
 48
0.1
100
AcDbCircle
 10
104.4856475788759
 20
-20.95035666029684
 30
0.0
 40
1.0
100
AcDbArc
 50
192.0773902765357
 51
270.0
  0
ARC
  5
3A
330
2
100
AcDbEntity
  8
0
 48
0.1
100
AcDbCircle
 10
100.2347349805398
 20
-17.14990195021302
 30
0.0
 40
3.0
100
AcDbArc
 50
204.9999999999999
 51
269.0
  0
LINE
  5
3B
330
2
100
AcDbEntity
  8
0
 48
0.1
100
AcDbLine
 10
103.5077816998056
 20
-21.15958935982074
 30
0.0
 11
103.3032985557251
 21
-20.20392091078597
 31
0.0
  0
ARC
  5
3C
330
2
100
AcDbEntity
  8
0
 48
0.1
100
AcDbCircle
 10
121.2492080546449
 20
-7.205825497800451
 30
0.0
 40
1.0
100
AcDbArc
 50
269.9997039888706
 51
317.7261329239527
  0
SPLINE
  5
3D
330
2
100
AcDbEntity
  8
0
 48
0.1
100
AcDbSpline
210
0.0
220
0.0
230
1.0
 70
     8
 71
     3
 72
     9
 73
     5
 74
     0
 42
0.0000000001
 43
0.0000000001
 40
0.1165173794749202
 40
0.1165173794749202
 40
0.1165173794749202
 40
0.1165173794749202
 40
2.887919171353102
 40
7.050154376241129
 40
7.050154376241129
 40
7.050154376241129
 40
7.050154376241129
 10
85.89901235238553
 20
-2.700175910344653
 30
0.0
 10
85.95588859674618
 20
-2.625442047694679
 30
0.0
 10
87.75776910696569
 20
2.734970037038904
 30
0.0
 10
89.55270449380378
 20
-1.154297542779371
 30
0.0
 10
90.39569250121767
 20
-2.699086191691252
 30
0.0
  0
SPLINE
  5
3E
330
2
100
AcDbEntity
  8
0
 48
0.1
100
AcDbSpline
210
0.0
220
0.0
230
1.0
 70
     8
 71
     3
 72
     9
 73
     5
 74
     0
 42
0.0000000001
 43
0.0000000001
 40
0.5587251771179909
 40
0.5587251771179909
 40
0.5587251771179909
 40
0.5587251771179909
 40
2.887919171353102
 40
3.831065891084784
 40
3.831065891084784
 40
3.831065891084784
 40
3.831065891084784
 10
84.9036286070987
 20
-2.700356660296847
 30
0.0
 10
85.1430369177288
 20
-2.147232102644149
 30
0.0
 10
86.08307847068225
 20
0.0165600871802327
 30
0.0
 10
87.78631689163519
 20
0.4051991943060535
 30
0.0
 10
87.92249322782614
 20
0.4223876767847539
 30
0.0
  0
LINE
  5
3F
330
2
100
AcDbEntity
  8
0
 48
0.1
100
AcDbLine
 10
84.816587733043
 20
-2.950171638957653
 30
0.0
 11
84.816587733043
 21
-4.200356660296847
 31
0.0
  0
LINE
  5
41
330
2
100
AcDbEntity
  8
0
  6
HIDDEN
 48
0.05
100
AcDbLine
 10
91.03222040802037
 20
-4.041927996691116
 30
0.0
 11
92.64385144768954
 21
-7.632113597101632
 31
0.0
  0
LINE
  5
42
330
2
100
AcDbEntity
  8
0
  6
HIDDEN
 48
0.05
100
AcDbLine
 10
90.39828818845681
 20
-2.676986456273422
 30
0.0
 11
91.0342465499626
 21
-4.04627307210816
 31
0.0
  0
LINE
  5
44
330
2
100
AcDbEntity
  8
0
  6
HIDDEN
 48
0.05
100
AcDbLine
 10
130.0665039764792
 20
-5.018364968434943
 30
0.0
 11
121.0665039764792
 21
-5.018364968434943
 31
0.0
  0
LINE
  5
45
330
2
100
AcDbEntity
  8
0
  6
HIDDEN
 48
0.05
100
AcDbLine
 10
130.0665039764792
 20
-3.893364968434943
 30
0.0
 11
121.0665039764792
 21
-3.893364968434943
 31
0.0
  0
ARC
  5
46
330
2
100
AcDbEntity
  8
0
  6
HIDDEN
 48
0.05
100
AcDbCircle
 10
119.8165039764792
 20
-4.518364968434943
 30
0.0
 40
0.5
100
AcDbArc
 50
180.0
 51
270.0
  0
ARC
  5
47
330
2
100
AcDbEntity
  8
0
  6
HIDDEN
 48
0.05
100
AcDbCircle
 10
119.8165039764792
 20
-4.393364968434943
 30
0.0
 40
0.5
100
AcDbArc
 50
90.0
 51
180.0
  0
LINE
  5
48
330
2
100
AcDbEntity
  8
0
  6
HIDDEN
 48
0.05
100
AcDbLine
 10
119.3165039764792
 20
-4.393364968434943
 30
0.0
 11
119.3165039764792
 21
-4.518364968434943
 31
0.0
  0
CIRCLE
  5
49
330
2
100
AcDbEntity
  8
0
  6
HIDDEN
 48
0.05
100
AcDbCircle
 10
120.3165039764792
 20
-4.455864968434943
 30
0.0
 40
0.234375
  0
CIRCLE
  5
4A
330
2
100
AcDbEntity
  8
0
  6
HIDDEN
 48
0.05
100
AcDbCircle
 10
120.3165039764792
 20
-4.455864968434943
 30
0.0
 40
0.125
  0
LINE
  5
4B
330
2
100
AcDbEntity
  8
0
  6
HIDDEN
 48
0.05
100
AcDbLine
 10
121.3165039764792
 20
-4.268364968434943
 30
0.0
 11
121.3165039764792
 21
-4.643364968434936
 31
0.0
  0
ARC
  5
4C
330
2
100
AcDbEntity
  8
0
  6
HIDDEN
 48
0.05
100
AcDbCircle
 10
120.9415039764792
 20
-4.643364968434936
 30
0.0
 40
0.375
100
AcDbArc
 50
270.0
 51
359.9999999999996
  0
LINE
  5
4D
330
2
100
AcDbEntity
  8
0
  6
HIDDEN
 48
0.05
100
AcDbLine
 10
121.0665039764792
 20
-5.018364968434936
 30
0.0
 11
120.8477539764793
 21
-5.018364968434936
 31
0.0
  0
LINE
  5
4E
330
2
100
AcDbEntity
  8
0
  6
HIDDEN
 48
0.05
100
AcDbLine
 10
119.8165039764792
 20
-5.018364968434943
 30
0.0
 11
120.8477539764793
 21
-5.018364968434943
 31
0.0
  0
ARC
  5
4F
330
2
100
AcDbEntity
  8
0
  6
HIDDEN
 48
0.05
100
AcDbCircle
 10
120.9415039764792
 20
-4.268364968434943
 30
0.0
 40
0.375
100
AcDbArc
 50
0.0000000000004071
 51
90.0
  0
LINE
  5
50
330
2
100
AcDbEntity
  8
0
  6
HIDDEN
 48
0.05
100
AcDbLine
 10
120.8477539764792
 20
-3.893364968434943
 30
0.0
 11
121.0665039764792
 21
-3.893364968434943
 31
0.0
  0
LINE
  5
51
330
2
100
AcDbEntity
  8
0
  6
HIDDEN
 48
0.05
100
AcDbLine
 10
119.8165039764792
 20
-3.893364968434943
 30
0.0
 11
120.8477539764792
 21
-3.893364968434943
 31
0.0
  0
ARC
  5
52
330
2
100
AcDbEntity
  8
0
  6
HIDDEN
 48
0.05
100
AcDbCircle
 10
130.0665039764792
 20
-4.518364968434943
 30
0.0
 40
0.5
100
AcDbArc
 50
270.0
 51
359.9999999999997
  0
ARC
  5
53
330
2
100
AcDbEntity
  8
0
  6
HIDDEN
 48
0.05
100
AcDbCircle
 10
130.0665039764792
 20
-4.393364968434943
 30
0.0
 40
0.5
100
AcDbArc
 50
359.9999999999997
 51
90.0
  0
LINE
  5
54
330
2
100
AcDbEntity
  8
0
  6
HIDDEN
 48
0.05
100
AcDbLine
 10
128.1290039764792
 20
-4.268364968434943
 30
0.0
 11
128.1290039764792
 21
-4.643364968434943
 31
0.0
  0
CIRCLE
  5
55
330
2
100
AcDbEntity
  8
0
  6
HIDDEN
 48
0.05
100
AcDbCircle
 10
128.6915740050328
 20
-4.455864968434943
 30
0.0
 40
0.125
  0
CIRCLE
  5
56
330
2
100
AcDbEntity
  8
0
  6
HIDDEN
 48
0.05
100
AcDbCircle
 10
128.6915740050328
 20
-4.455864968434943
 30
0.0
 40
0.234375
  0
ARC
  5
57
330
2
100
AcDbEntity
  8
0
  6
HIDDEN
 48
0.05
100
AcDbCircle
 10
128.5040039764792
 20
-4.643364968434943
 30
0.0
 40
0.375
100
AcDbArc
 50
180.0000000000002
 51
269.9999999999997
  0
LINE
  5
59
330
2
100
AcDbEntity
  8
0
  6
HIDDEN
100
AcDbLine
 10
125.3302637930224
 20
-4.203288401677651
 30
0.0
 11
126.4643035656802
 21
-2.950382932420984
 31
0.0
  0
ARC
  5
5A
330
2
100
AcDbEntity
  8
0
  6
HIDDEN
 48
0.05
100
AcDbCircle
 10
128.5040039764792
 20
-4.26836496843495
 30
0.0
 40
0.375
100
AcDbArc
 50
90.0
 51
179.9999999999996
  0
LINE
  5
5B
330
2
100
AcDbEntity
  8
0
  6
HIDDEN
 48
0.05
100
AcDbLine
 10
130.5665039764792
 20
-4.393364968434943
 30
0.0
 11
130.5665039764792
 21
-4.518364968434943
 31
0.0
  0
LINE
  5
5C
330
2
100
AcDbEntity
  8
0
 48
0.1
100
AcDbLine
 10
152.2556937832117
 20
-4.205263802445776
 30
0.0
 11
151.0080687268638
 21
-18.21182388853982
 31
0.0
  0
ARC
  5
5D
330
2
100
AcDbEntity
  8
0
 48
0.1
100
AcDbCircle
 10
141.418601899461
 20
-20.95035666029684
 30
0.0
 40
1.0
100
AcDbArc
 50
270.0
 51
347.9226097234643
  0
LINE
  5
5E
330
2
100
AcDbEntity
  8
0
 48
0.1
100
AcDbLine
 10
144.6183507003295
 20
-21.37713335559348
 30
0.0
 11
144.1582643358542
 21
-20.91704699111819
 31
0.0
  0
LINE
  5
5F
330
2
100
AcDbEntity
  8
0
 48
0.1
100
AcDbLine
 10
144.6183507003295
 20
-21.37713335559348
 30
0.0
 11
144.3483123270594
 21
-21.10709498232343
 31
0.0
  0
LINE
  5
60
330
2
100
AcDbEntity
  8
0
 48
0.1
100
AcDbLine
 10
147.5147973097362
 20
-21.37713335559348
 30
0.0
 11
147.9415858180385
 21
-20.95034484729114
 31
0.0
  0
LINE
  5
61
330
2
100
AcDbEntity
  8
0
 48
0.1
100
AcDbLine
 10
147.5147973097362
 20
-21.37713335559348
 30
0.0
 11
147.7848356830063
 21
-21.10709498232343
 31
0.0
  0
ARC
  5
62
330
2
100
AcDbEntity
  8
0
 48
0.1
100
AcDbCircle
 10
148.0194846325885
 20
-17.95035666029685
 30
0.0
 40
3.0
100
AcDbArc
 50
269.9999999999998
 51
355.0
  0
LINE
  5
63
330
2
100
AcDbEntity
  8
CENTER
 48
0.05
100
AcDbLine
 10
146.0665740050328
 20
-23.58320456348657
 30
0.0
 11
146.0665740050328
 21
-18.31750875710712
 31
0.0
  0
LINE
  5
66
330
2
100
AcDbEntity
  8
0
 48
0.1
100
AcDbLine
 10
147.3380206144396
 20
-21.45035666029684
 30
0.0
 11
144.7951273956261
 21
-21.45035666029684
 31
0.0
  0
LINE
  5
67
330
2
100
AcDbEntity
  8
0
 48
0.1
100
AcDbLine
 10
144.7951273956261
 20
-21.45035666029684
 30
0.0
 11
147.3380206144396
 21
-21.45035666029684
 31
0.0
  0
ARC
  5
68
330
2
100
AcDbEntity
  8
0
 48
0.1
100
AcDbCircle
 10
144.7951273956261
 20
-21.20035666029684
 30
0.0
 40
0.25
100
AcDbArc
 50
224.9999999999997
 51
270.0
  0
ARC
  5
69
330
2
100
AcDbEntity
  8
0
 48
0.1
100
AcDbCircle
 10
147.3380206144396
 20
-21.20035666029684
 30
0.0
 40
0.25
100
AcDbArc
 50
270.0
 51
315.0000000000003
  0
LINE
  5
6A
330
2
100
AcDbEntity
  8
0
 48
0.1
100
AcDbLine
 10
142.3964677785314
 20
-21.15958935982074
 30
0.0
 11
142.4547266926132
 21
-20.88731163094776
 31
0.0
  0
LINE
  5
6B
330
2
100
AcDbEntity
  8
0
 48
0.1
100
AcDbLine
 10
148.0194846325885
 20
-20.95035666029685
 30
0.0
 11
146.0665740050328
 21
-20.95035666029684
 31
0.0
  0
LINE
  5
6C
330
2
100
AcDbEntity
  8
CENTER
 48
0.05
100
AcDbLine
 10
155.0955554038873
 20
-6.198271341033634
 30
0.0
 11
148.7856479726702
 21
-6.198271341033634
 31
0.0
  0
LINE
  5
6E
330
2
100
AcDbEntity
  8
0
  6
HIDDEN
100
AcDbLine
 10
152.2556937832117
 20
-4.205263802445776
 30
0.0
 11
152.3650221076882
 21
-2.950165827077283
 31
0.0
  0
LINE
  5
6F
330
2
100
AcDbEntity
  8
0
 48
0.1
100
AcDbLine
 10
157.441597054356
 20
-2.950546292199003
 30
0.0
 11
157.4415740050328
 21
-4.205641146026414
 31
0.0
  0
LINE
  5
C9
330
2
100
AcDbEntity
  8
0
100
AcDbLine
 10
84.816587733043
 20
-2.950171638957653
 30
0.0
 11
84.9036286070987
 21
-2.700356660296847
 31
0.0
  0
LINE
  5
CB
330
2
100
AcDbEntity
  8
0
100
AcDbLine
 10
157.441597054356
 20
-2.950546292199003
 30
0.0
 11
157.3545561803003
 21
-2.700731313538196
 31
0.0
  0
LINE
  5
CC
330
2
100
AcDbEntity
  8
0
100
AcDbLine
 10
84.9036286070987
 20
-2.700356660296847
 30
0.0
 11
157.3545561803003
 21
-2.700731313538196
 31
0.0
  0
ENDSEC
  0
SECTION
  2
OBJECTS
  0
DICTIONARY
  5
7
330
0
100
AcDbDictionary
  3
ACAD_GROUP
350
29
  3
ACAD_LAYOUT
350
B
  3
ACAD_MLINESTYLE
350
2A
  3
ACAD_PLOTSETTINGS
350
2B
  3
ACAD_PLOTSTYLENAME
350
6
  3
ACDBHEADERROUNDTRIPXREC
350
10F
  3
ACDBVARIABLEDICTIONARY
350
71
  0
DICTIONARY
  5
11
330
10
100
AcDbDictionary
280
     1
  3
ACAD_LAYERFILTERS
360
12
  0
DICTIONARY
  5
83
330
2
100
AcDbDictionary
280
     1
  3
ACAD_LAYOUTSELFREF
360
130
  0
DICTIONARY
  5
85
330
78
100
AcDbDictionary
280
     1
  3
ACAD_LAYOUTSELFREF
360
131
  0
DICTIONARY
  5
29
102
{ACAD_REACTORS
330
7
102
}
330
7
100
AcDbDictionary
  0
DICTIONARY
  5
B
102
{ACAD_REACTORS
330
7
102
}
330
7
100
AcDbDictionary
  0
DICTIONARY
  5
2A
102
{ACAD_REACTORS
330
7
102
}
330
7
100
AcDbDictionary
  3
STANDARD
350
2D
  0
DICTIONARY
  5
2B
102
{ACAD_REACTORS
330
7
102
}
330
7
100
AcDbDictionary
  0
ACDBDICTIONARYWDFLT
  5
6
102
{ACAD_REACTORS
330
7
102
}
330
7
100
AcDbDictionary
281
     1
  3
Normal
350
5
100
AcDbDictionaryWithDefault
340
5
  0
DICTIONARY
  5
10F
102
{ACAD_REACTORS
330
7
102
}
330
7
100
AcDbDictionary
  3
CEPSNTYPE
350
119
  3
DIMSTYLEDATA
350
11D
  3
FINGERPRINTGUID
350
11A
  3
HYPERLINKBASE
350
112
  3
INSUNITS
350
118
  3
LAYOUTDICT
350
114
  3
LWETCUNION
350
117
  3
PLOTSETDICT
350
115
  3
PLOTSTYLNAMDICT
350
116
  3
PSVPSCALE
350
11C
  3
PUCSBASE
350
120
  3
PUCSORGBACK
350
126
  3
PUCSORGBOTTOM
350
122
  3
PUCSORGFRONT
350
125
  3
PUCSORGLEFT
350
123
  3
PUCSORGRIGHT
350
124
  3
PUCSORGTOP
350
121
  3
PUCSORTHOREF
350
11E
  3
PUCSORTHOVIEW
350
11F
  3
STYLESHEET
350
113
  3
TSTACKALIGN
350
110
  3
TSTACKSIZE
350
111
  3
UCSBASE
350
129
  3
UCSORGBACK
350
12F
  3
UCSORGBOTTOM
350
12B
  3
UCSORGFRONT
350
12E
  3
UCSORGLEFT
350
12C
  3
UCSORGRIGHT
350
12D
  3
UCSORGTOP
350
12A
  3
UCSORTHOREF
350
127
  3
UCSORTHOVIEW
350
128
  3
VERSIONGUID
350
11B
  0
DICTIONARY
  5
71
102
{ACAD_REACTORS
330
7
102
}
330
7
100
AcDbDictionary
  3
DIMASSOC
350
73
  3
HIDETEXT
350
72
  0
DICTIONARY
  5
12
102
{ACAD_REACTORS
330
11
102
}
330
11
100
AcDbDictionary
280
     1
  3
DIM-1_12
360
13
  3
DIM-1_16
360
14
  0
XRECORD
  5
130
102
{ACAD_REACTORS
330
83
102
}
330
83
100
AcDbXrecord
340
2
  0
XRECORD
  5
131
102
{ACAD_REACTORS
330
85
102
}
330
85
100
AcDbXrecord
340
78
  0
MLINESTYLE
  5
2D
102
{ACAD_REACTORS
330
2A
102
}
330
2A
100
AcDbMlineStyle
  2
STANDARD
 70
     0
  3

 62
   256
 51
90.0
 52
90.0
 71
     2
 49
0.5
 62
   256
  6
BYLAYER
 49
-0.5
 62
   256
  6
BYLAYER
  0
ACDBPLACEHOLDER
  5
5
102
{ACAD_REACTORS
330
6
102
}
330
6
100
AcDbPlaceHolder
280
     0
  0
XRECORD
  5
119
102
{ACAD_REACTORS
330
10F
102
}
330
10F
100
AcDbXrecord
 90
        0
  0
XRECORD
  5
11D
102
{ACAD_REACTORS
330
10F
102
}
330
10F
100
AcDbXrecord
1000
DSTYLE
1002
{
1070
    79
 70
     1
1070
   276
 70
     1
1070
   277
 70
     5
1002
}
  0
XRECORD
  5
11A
102
{ACAD_REACTORS
330
10F
102
}
330
10F
100
AcDbXrecord
  1
{6A4AC8E0-4F58-11D5-8420-0003476D26AB}
  0
XRECORD
  5
112
102
{ACAD_REACTORS
330
10F
102
}
330
10F
100
AcDbXrecord
  1

  0
XRECORD
  5
118
102
{ACAD_REACTORS
330
10F
102
}
330
10F
100
AcDbXrecord
 90
        1
  0
XRECORD
  5
114
102
{ACAD_REACTORS
330
10F
102
}
330
10F
100
AcDbXrecord
340
B
  0
XRECORD
  5
117
102
{ACAD_REACTORS
330
10F
102
}
330
10F
100
AcDbXrecord
 90
    10781
  0
XRECORD
  5
115
102
{ACAD_REACTORS
330
10F
102
}
330
10F
100
AcDbXrecord
340
2B
  0
XRECORD
  5
116
102
{ACAD_REACTORS
330
10F
102
}
330
10F
100
AcDbXrecord
340
6
  0
XRECORD
  5
11C
102
{ACAD_REACTORS
330
10F
102
}
330
10F
100
AcDbXrecord
 40
0.0
  0
XRECORD
  5
120
102
{ACAD_REACTORS
330
10F
102
}
330
10F
100
AcDbXrecord
340
0
  0
XRECORD
  5
126
102
{ACAD_REACTORS
330
10F
102
}
330
10F
100
AcDbXrecord
 10
0.0
 20
0.0
 30
0.0
  0
XRECORD
  5
122
102
{ACAD_REACTORS
330
10F
102
}
330
10F
100
AcDbXrecord
 10
0.0
 20
0.0
 30
0.0
  0
XRECORD
  5
125
102
{ACAD_REACTORS
330
10F
102
}
330
10F
100
AcDbXrecord
 10
0.0
 20
0.0
 30
0.0
  0
XRECORD
  5
123
102
{ACAD_REACTORS
330
10F
102
}
330
10F
100
AcDbXrecord
 10
0.0
 20
0.0
 30
0.0
  0
XRECORD
  5
124
102
{ACAD_REACTORS
330
10F
102
}
330
10F
100
AcDbXrecord
 10
0.0
 20
0.0
 30
0.0
  0
XRECORD
  5
121
102
{ACAD_REACTORS
330
10F
102
}
330
10F
100
AcDbXrecord
 10
0.0
 20
0.0
 30
0.0
  0
XRECORD
  5
11E
102
{ACAD_REACTORS
330
10F
102
}
330
10F
100
AcDbXrecord
340
0
  0
XRECORD
  5
11F
102
{ACAD_REACTORS
330
10F
102
}
330
10F
100
AcDbXrecord
 70
     0
  0
XRECORD
  5
113
102
{ACAD_REACTORS
330
10F
102
}
330
10F
100
AcDbXrecord
  1

  0
XRECORD
  5
110
102
{ACAD_REACTORS
330
10F
102
}
330
10F
100
AcDbXrecord
 90
        1
  0
XRECORD
  5
111
102
{ACAD_REACTORS
330
10F
102
}
330
10F
100
AcDbXrecord
 90
       70
  0
XRECORD
  5
129
102
{ACAD_REACTORS
330
10F
102
}
330
10F
100
AcDbXrecord
340
0
  0
XRECORD
  5
12F
102
{ACAD_REACTORS
330
10F
102
}
330
10F
100
AcDbXrecord
 10
0.0
 20
0.0
 30
0.0
  0
XRECORD
  5
12B
102
{ACAD_REACTORS
330
10F
102
}
330
10F
100
AcDbXrecord
 10
0.0
 20
0.0
 30
0.0
  0
XRECORD
  5
12E
102
{ACAD_REACTORS
330
10F
102
}
330
10F
100
AcDbXrecord
 10
0.0
 20
0.0
 30
0.0
  0
XRECORD
  5
12C
102
{ACAD_REACTORS
330
10F
102
}
330
10F
100
AcDbXrecord
 10
0.0
 20
0.0
 30
0.0
  0
XRECORD
  5
12D
102
{ACAD_REACTORS
330
10F
102
}
330
10F
100
AcDbXrecord
 10
0.0
 20
0.0
 30
0.0
  0
XRECORD
  5
12A
102
{ACAD_REACTORS
330
10F
102
}
330
10F
100
AcDbXrecord
 10
0.0
 20
0.0
 30
0.0
  0
XRECORD
  5
127
102
{ACAD_REACTORS
330
10F
102
}
330
10F
100
AcDbXrecord
340
0
  0
XRECORD
  5
128
102
{ACAD_REACTORS
330
10F
102
}
330
10F
100
AcDbXrecord
 70
     1
  0
XRECORD
  5
11B
102
{ACAD_REACTORS
330
10F
102
}
330
10F
100
AcDbXrecord
  1
{BE534A15-8C18-4C1C-9B70-09BA32EA2ABA}
  0
DICTIONARYVAR
  5
73
102
{ACAD_REACTORS
330
71
102
}
330
71
100
DictionaryVariables
280
     0
  1
1
  0
DICTIONARYVAR
  5
72
102
{ACAD_REACTORS
330
71
102
}
330
71
100
DictionaryVariables
280
     0
  1
1
  0
XRECORD
  5
13
102
{ACAD_REACTORS
330
12
102
}
330
0
100
AcDbXrecord
  1
DIM-1_12
  1
DIM-1_12
  1
*
  1
*
 70
     0
  1
*
  1
*
  0
XRECORD
  5
14
102
{ACAD_REACTORS
330
12
102
}
330
12
100
AcDbXrecord
  1
dim-1_16
  1
*
  1
*
  1
*
 70
     0
  1
*
  1
*
  0
ENDSEC
  0
EOF
