  0
SECTION
  2
HEADER
  9
$ACADVER
  1
AC1014
  9
$ACADMAINTVER
 70
     9
  9
$DWGCODEPAGE
  3
ANSI_1252
  9
$INSBASE
 10
146.0665740050328
 20
84.84388687145898
 30
0.0
  9
$EXTMIN
 10
84.75278527107974
 20
65.605715134913
 30
-0.0015258207003583
  9
$EXTMAX
 10
157.3927212004761
 20
104.0369556969649
 30
0.0000000349246037
  9
$LIMMIN
 10
0.0
 20
0.0
  9
$LIMMAX
 10
187.3118571637889
 20
134.3269220688476
  9
$ORTHOMODE
 70
     1
  9
$REGENMODE
 70
     1
  9
$FILLMODE
 70
     1
  9
$QTEXTMODE
 70
     0
  9
$MIRRTEXT
 70
     0
  9
$DRAGMODE
 70
     2
  9
$LTSCALE
 40
2.0
  9
$OSMODE
 70
    55
  9
$ATTMODE
 70
     1
  9
$TEXTSIZE
 40
0.15
  9
$TRACEWID
 40
1.0
  9
$TEXTSTYLE
  7
CARTOUCHE
  9
$CLAYER
  8
0
  9
$CELTYPE
  6
BYLAYER
  9
$CECOLOR
 62
   256
  9
$CELTSCALE
 40
1.0
  9
$DELOBJ
 70
     1
  9
$DISPSILH
 70
     0
  9
$DIMSCALE
 40
16.0
  9
$DIMASZ
 40
0.1
  9
$DIMEXO
 40
0.0625
  9
$DIMDLI
 40
0.25
  9
$DIMRND
 40
0.0
  9
$DIMDLE
 40
0.0
  9
$DIMEXE
 40
0.1
  9
$DIMTP
 40
0.0
  9
$DIMTM
 40
0.0
  9
$DIMTXT
 40
0.1
  9
$DIMCEN
 40
0.0625
  9
$DIMTSZ
 40
0.0
  9
$DIMTOL
 70
     0
  9
$DIMLIM
 70
     0
  9
$DIMTIH
 70
     1
  9
$DIMTOH
 70
     1
  9
$DIMSE1
 70
     0
  9
$DIMSE2
 70
     0
  9
$DIMTAD
 70
     0
  9
$DIMZIN
 70
    12
  9
$DIMBLK
  1

  9
$DIMASO
 70
     1
  9
$DIMSHO
 70
     1
  9
$DIMPOST
  1
\X
  9
$DIMAPOST
  1
cm
  9
$DIMALT
 70
     1
  9
$DIMALTD
 70
     1
  9
$DIMALTF
 40
2.54
  9
$DIMLFAC
 40
1.0
  9
$DIMTOFL
 70
     0
  9
$DIMTVP
 40
0.0
  9
$DIMTIX
 70
     0
  9
$DIMSOXD
 70
     0
  9
$DIMSAH
 70
     0
  9
$DIMBLK1
  1

  9
$DIMBLK2
  1

  9
$DIMSTYLE
  2
STANDARD
  9
$DIMCLRD
 70
     0
  9
$DIMCLRE
 70
     0
  9
$DIMCLRT
 70
     0
  9
$DIMTFAC
 40
1.0
  9
$DIMGAP
 40
0.08
  9
$DIMJUST
 70
     0
  9
$DIMSD1
 70
     0
  9
$DIMSD2
 70
     0
  9
$DIMTOLJ
 70
     1
  9
$DIMTZIN
 70
     4
  9
$DIMALTZ
 70
    12
  9
$DIMALTTZ
 70
     4
  9
$DIMFIT
 70
     3
  9
$DIMUPT
 70
     0
  9
$DIMUNIT
 70
     5
  9
$DIMDEC
 70
     4
  9
$DIMTDEC
 70
     4
  9
$DIMALTU
 70
     2
  9
$DIMALTTD
 70
     1
  9
$DIMTXSTY
  7
ROMANS
  9
$DIMAUNIT
 70
     0
  9
$LUNITS
 70
     2
  9
$LUPREC
 70
     2
  9
$SKETCHINC
 40
1.0
  9
$FILLETRAD
 40
0.5
  9
$AUNITS
 70
     0
  9
$AUPREC
 70
     0
  9
$MENU
  1
.
  9
$ELEVATION
 40
0.0
  9
$PELEVATION
 40
0.0
  9
$THICKNESS
 40
0.0
  9
$LIMCHECK
 70
     0
  9
$BLIPMODE
 70
     0
  9
$CHAMFERA
 40
0.0
  9
$CHAMFERB
 40
0.0
  9
$CHAMFERC
 40
20.0
  9
$CHAMFERD
 40
0.0
  9
$SKPOLY
 70
     0
  9
$TDCREATE
 40
2452072.673626736
  9
$TDUPDATE
 40
2453690.466434502
  9
$TDINDWG
 40
2.1340186458
  9
$TDUSRTIMER
 40
2.1340091551
  9
$USRTIMER
 70
     1
  9
$ANGBASE
 50
0.0
  9
$ANGDIR
 70
     0
  9
$PDMODE
 70
    33
  9
$PDSIZE
 40
0.25
  9
$PLINEWID
 40
0.0
  9
$COORDS
 70
     1
  9
$SPLFRAME
 70
     0
  9
$SPLINETYPE
 70
     6
  9
$SPLINESEGS
 70
     8
  9
$ATTDIA
 70
     0
  9
$ATTREQ
 70
     1
  9
$HANDLING
 70
 22529
  9
$HANDSEED
  5
20C
  9
$SURFTAB1
 70
     6
  9
$SURFTAB2
 70
     6
  9
$SURFTYPE
 70
     6
  9
$SURFU
 70
     6
  9
$SURFV
 70
     6
  9
$UCSNAME
  2

  9
$UCSORG
 10
0.0
 20
0.0
 30
0.0
  9
$UCSXDIR
 10
1.0
 20
0.0
 30
0.0
  9
$UCSYDIR
 10
0.0
 20
1.0
 30
0.0
  9
$PUCSNAME
  2

  9
$PUCSORG
 10
0.0
 20
0.0
 30
0.0
  9
$PUCSXDIR
 10
1.0
 20
0.0
 30
0.0
  9
$PUCSYDIR
 10
0.0
 20
1.0
 30
0.0
  9
$USERI1
 70
     0
  9
$USERI2
 70
     0
  9
$USERI3
 70
     0
  9
$USERI4
 70
     0
  9
$USERI5
 70
     0
  9
$USERR1
 40
0.0
  9
$USERR2
 40
0.0
  9
$USERR3
 40
0.0
  9
$USERR4
 40
0.0
  9
$USERR5
 40
0.0
  9
$WORLDVIEW
 70
     1
  9
$SHADEDGE
 70
     3
  9
$SHADEDIF
 70
    70
  9
$TILEMODE
 70
     1
  9
$MAXACTVP
 70
    48
  9
$PINSBASE
 10
0.0
 20
0.0
 30
0.0
  9
$PLIMCHECK
 70
     0
  9
$PEXTMIN
 10
0.0
 20
0.0
 30
0.0
  9
$PEXTMAX
 10
0.0
 20
0.0
 30
0.0
  9
$PLIMMIN
 10
0.0
 20
0.0
  9
$PLIMMAX
 10
12.0
 20
9.0
  9
$UNITMODE
 70
     0
  9
$VISRETAIN
 70
     1
  9
$PLINEGEN
 70
     0
  9
$PSLTSCALE
 70
     1
  9
$TREEDEPTH
 70
  3020
  9
$PICKSTYLE
 70
     1
  9
$CMLSTYLE
  2
STANDARD
  9
$CMLJUST
 70
     0
  9
$CMLSCALE
 40
20.0
  9
$PROXYGRAPHICS
 70
     1
  9
$MEASUREMENT
 70
     0
  0
ENDSEC
  0
SECTION
  2
CLASSES
  0
CLASS
  1
ACDBDICTIONARYWDFLT
  2
AcDbDictionaryWithDefault
  3
AutoCAD 2000
 90
        0
280
     0
281
     0
  0
CLASS
  1
ACDBPLACEHOLDER
  2
AcDbPlaceHolder
  3
AutoCAD 2000
 90
        0
280
     0
281
     0
  0
CLASS
  1
LAYOUT
  2
AcDbLayout
  3
AutoCAD 2000
 90
        0
280
     0
281
     0
  0
CLASS
  1
DICTIONARYVAR
  2
AcDbDictionaryVar
  3
AutoCAD 2000
 90
        0
280
     0
281
     0
  0
CLASS
  1
IMAGEDEF
  2
AcDbRasterImageDef
  3
ISM
 90
        0
280
     0
281
     0
  0
CLASS
  1
LONG_TRANSACTION
  2
AcDbLongTransaction
  3
AutoCAD 2000
 90
        0
280
     0
281
     0
  0
CLASS
  1
LWPOLYLINE
  2
AcDbPolyline
  3
AutoCAD 2000
 90
        0
280
     0
281
     1
  0
CLASS
  1
HATCH
  2
AcDbHatch
  3
AutoCAD 2000
 90
        0
280
     0
281
     1
  0
CLASS
  1
XRECORD
  2
AcDbXrecord
  3
AutoCAD 2000
 90
        0
280
     0
281
     0
  0
CLASS
  1
LONG_TRANSACTION
  2
AcDbLongTransaction
  3
AutoCAD 2000
 90
        0
280
     0
281
     0
  0
CLASS
  1
LWPOLYLINE
  2
AcDbPolyline
  3
AutoCAD 2000
 90
        0
280
     0
281
     1
  0
CLASS
  1
HATCH
  2
AcDbHatch
  3
AutoCAD 2000
 90
        0
280
     0
281
     1
  0
CLASS
  1
XRECORD
  2
AcDbXrecord
  3
AutoCAD 2000
 90
        0
280
     0
281
     0
  0
CLASS
  1
LONG_TRANSACTION
  2
AcDbLongTransaction
  3
AutoCAD 2000
 90
        0
280
     0
281
     0
  0
CLASS
  1
LWPOLYLINE
  2
AcDbPolyline
  3
AutoCAD 2000
 90
        0
280
     0
281
     1
  0
CLASS
  1
HATCH
  2
AcDbHatch
  3
AutoCAD 2000
 90
        0
280
     0
281
     1
  0
CLASS
  1
XRECORD
  2
AcDbXrecord
  3
AutoCAD 2000
 90
        0
280
     0
281
     0
  0
ENDSEC
  0
SECTION
  2
TABLES
  0
TABLE
  2
VPORT
  5
1D
330
0
100
AcDbSymbolTable
 70
     4
  0
VPORT
  5
1E8
330
1D
100
AcDbSymbolTableRecord
100
AcDbViewportTableRecord
  2
*ACTIVE
 70
     0
 10
0.0
 20
0.0
 11
1.0
 21
1.0
 12
121.0727530761816
 22
84.8213352851887
 13
0.0
 23
0.0
 14
10.0
 24
10.0
 15
10.0
 25
10.0
 16
0.0
 26
0.0
 36
1.0
 17
0.0
 27
0.0
 37
0.0
 40
50.72952577728168
 41
1.786792452830188
 42
50.0
 43
0.0
 44
0.0
 50
0.0
 51
0.0
 71
     0
 72
   100
 73
     1
 74
     3
 75
     0
 76
     0
 77
     0
 78
     2
  0
ENDTAB
  0
TABLE
  2
LTYPE
  5
18
330
0
100
AcDbSymbolTable
 70
     2
  0
LTYPE
  5
19
330
18
100
AcDbSymbolTableRecord
100
AcDbLinetypeTableRecord
  2
BYBLOCK
 70
     0
  3

 72
    65
 73
     0
 40
0.0
  0
LTYPE
  5
1A
330
18
100
AcDbSymbolTableRecord
100
AcDbLinetypeTableRecord
  2
BYLAYER
 70
     0
  3

 72
    65
 73
     0
 40
0.0
  0
LTYPE
  5
8
330
18
100
AcDbSymbolTableRecord
100
AcDbLinetypeTableRecord
  2
CONTINUOUS
 70
     0
  3
Solid line
 72
    65
 73
     0
 40
0.0
  0
LTYPE
  5
A4
330
18
100
AcDbSymbolTableRecord
100
AcDbLinetypeTableRecord
  2
CENTER
 70
     0
  3
Center ____ _ ____ _ ____ _ ____ _ ____ _ ____
 72
    65
 73
     4
 40
50.8
 49
31.75
 74
     0
 49
-6.349999999999999
 74
     0
 49
6.349999999999999
 74
     0
 49
-6.349999999999999
 74
     0
  0
ENDTAB
  0
TABLE
  2
LAYER
  5
10
102
{ACAD_XDICTIONARY
360
11
102
}
330
0
100
AcDbSymbolTable
 70
     3
  0
LAYER
  5
4
330
10
100
AcDbSymbolTableRecord
100
AcDbLayerTableRecord
  2
0
 70
     0
 62
     7
  6
CONTINUOUS
  0
LAYER
  5
A3
330
10
100
AcDbSymbolTableRecord
100
AcDbLayerTableRecord
  2
CENTER
 70
     0
 62
     1
  6
CENTER
  0
LAYER
  5
155
330
10
100
AcDbSymbolTableRecord
100
AcDbLayerTableRecord
  2
DEFPOINTS
 70
     0
 62
     7
  6
CONTINUOUS
  0
ENDTAB
  0
TABLE
  2
STYLE
  5
15
330
0
100
AcDbSymbolTable
 70
     3
  0
STYLE
  5
16
330
15
100
AcDbSymbolTableRecord
100
AcDbTextStyleTableRecord
  2
STANDARD
 70
     0
 40
0.0
 41
1.0
 50
0.0
 71
     0
 42
0.125
  3
txt
  4

  0
STYLE
  5
2C
330
15
100
AcDbSymbolTableRecord
100
AcDbTextStyleTableRecord
  2
CARTOUCHE
 70
     0
 40
0.0
 41
1.0
 50
0.0
 71
     0
 42
0.15
  3
romans.shx
  4

  0
STYLE
  5
23
330
15
100
AcDbSymbolTableRecord
100
AcDbTextStyleTableRecord
  2
ROMANS
 70
     0
 40
0.0
 41
1.0
 50
0.0
 71
     0
 42
1.0
  3
romans.shx
  4

  0
ENDTAB
  0
TABLE
  2
VIEW
  5
1B
330
0
100
AcDbSymbolTable
 70
     0
  0
ENDTAB
  0
TABLE
  2
UCS
  5
1C
330
0
100
AcDbSymbolTable
 70
     0
  0
ENDTAB
  0
TABLE
  2
APPID
  5
1F
330
0
100
AcDbSymbolTable
 70
     1
  0
APPID
  5
20
330
1F
100
AcDbSymbolTableRecord
100
AcDbRegAppTableRecord
  2
ACAD
 70
     0
  0
ENDTAB
  0
TABLE
  2
DIMSTYLE
  5
21
330
0
100
AcDbSymbolTable
 70
     1
  0
DIMSTYLE
105
22
330
21
100
AcDbSymbolTableRecord
100
AcDbDimStyleTableRecord
  2
STANDARD
 70
     0
  3
\X
  4
cm
  5

  6

  7

 40
16.0
 41
0.1
 42
0.0625
 43
0.25
 44
0.1
 45
0.0
 46
0.0
 47
0.0
 48
0.0
140
0.1
141
0.0625
142
0.0
143
2.54
144
1.0
145
0.0
146
1.0
147
0.08
 71
     0
 72
     0
 73
     1
 74
     1
 75
     0
 76
     0
 77
     0
 78
    12
170
     1
171
     1
172
     0
173
     0
174
     0
175
     0
176
     0
177
     0
178
     0
270
     5
271
     4
272
     4
273
     2
274
     1
340
23
275
     0
280
     0
281
     0
282
     0
283
     1
284
     4
285
    12
286
     4
287
     3
288
     0
  0
ENDTAB
  0
TABLE
  2
BLOCK_RECORD
  5
1
330
0
100
AcDbSymbolTable
 70
     1
  0
BLOCK_RECORD
  5
2
102
{ACAD_XDICTIONARY
360
BC
102
}
330
1
100
AcDbSymbolTableRecord
100
AcDbBlockTableRecord
  2
*MODEL_SPACE
  0
BLOCK_RECORD
  5
B1
102
{ACAD_XDICTIONARY
360
BE
102
}
330
1
100
AcDbSymbolTableRecord
100
AcDbBlockTableRecord
  2
*PAPER_SPACE
  0
ENDTAB
  0
ENDSEC
  0
SECTION
  2
BLOCKS
  0
BLOCK
  5
3
330
2
100
AcDbEntity
  8
0
100
AcDbBlockBegin
  2
*MODEL_SPACE
 70
     0
 10
0.0
 20
0.0
 30
0.0
  3
*MODEL_SPACE
  1

  0
ENDBLK
  5
9
330
2
100
AcDbEntity
  8
0
100
AcDbBlockEnd
  0
BLOCK
  5
B3
330
B1
100
AcDbEntity
 67
     1
  8
0
100
AcDbBlockBegin
  2
*PAPER_SPACE
 70
     0
 10
0.0
 20
0.0
 30
0.0
  3
*PAPER_SPACE
  1

  0
ENDBLK
  5
B4
330
B1
100
AcDbEntity
 67
     1
  8
0
100
AcDbBlockEnd
  0
ENDSEC
  0
SECTION
  2
ENTITIES
  0
SPLINE
  5
2E
330
2
100
AcDbEntity
  8
0
 48
0.1
100
AcDbSpline
210
0.0
220
0.0
230
1.0
 70
     8
 71
     3
 72
    62
 73
    58
 74
     0
 42
0.0000000001
 43
0.0000000001
 40
0.0
 40
0.0
 40
0.0
 40
0.0
 40
0.4445625754808277
 40
0.4445625754808277
 40
0.8891251509616553
 40
0.8891251509616553
 40
1.77825030192331
 40
1.77825030192331
 40
3.556500603846621
 40
3.556500603846621
 40
7.962155427722205
 40
7.962155427722205
 40
9.923608239534477
 40
9.923608239534477
 40
11.88506105134675
 40
11.88506105134675
 40
16.0074383144884
 40
16.0074383144884
 40
17.56245756450767
 40
17.56245756450767
 40
19.11747681452694
 40
19.11747681452694
 40
20.67249606454621
 40
20.67249606454621
 40
23.71716715054241
 40
23.71716715054241
 40
25.97268782782379
 40
25.97268782782379
 40
27.64046064967378
 40
27.64046064967378
 40
28.91529307812461
 40
28.91529307812461
 40
29.4959463549749
 40
29.4959463549749
 40
30.07659963182518
 40
30.07659963182518
 40
30.55974983057417
 40
30.55974983057417
 40
31.52605022807216
 40
31.52605022807216
 40
32.49235062557015
 40
32.49235062557015
 40
34.05710255307782
 40
34.05710255307782
 40
34.77994437958129
 40
34.77994437958129
 40
34.96728502683183
 40
34.96728502683183
 40
35.15462567408237
 40
35.15462567408237
 40
35.52930696858344
 40
35.52930696858344
 40
36.27866955758558
 40
36.27866955758558
 40
38.45388543343775
 40
38.45388543343775
 40
38.99330457821524
 40
38.99330457821524
 40
38.99330457821524
 40
38.99330457821524
 10
152.8915741360634
 20
84.84533479714368
 30
0.0
 10
152.8916099631723
 20
84.69687233972162
 30
0.0
 10
152.8914977019936
 20
84.55970255183064
 30
0.0
 10
152.8903748596175
 20
84.27942644636431
 30
0.0
 10
152.8894281493402
 20
84.14008724320433
 30
0.0
 10
152.8851952042971
 20
83.72457347172066
 30
0.0
 10
152.8805196869947
 20
83.45091366736715
 30
0.0
 10
152.8591470702911
 20
82.64090436412031
 30
0.0
 10
152.8351593822714
 20
82.115574995408
 30
0.0
 10
152.703568304998
 20
80.31818913396081
 30
0.0
 10
152.524322058722
 20
79.14052358059201
 30
0.0
 10
152.0929515411546
 20
77.66892508833568
 30
0.0
 10
151.9378190436484
 20
77.2430078814293
 30
0.0
 10
151.5603883098662
 20
76.39035375975083
 30
0.0
 10
151.3406878701296
 20
75.97076377773305
 30
0.0
 10
150.5783903664816
 20
74.72268085952139
 30
0.0
 10
149.9452150938373
 20
73.95367130980479
 30
0.0
 10
148.9999114297128
 20
73.10067842377293
 30
0.0
 10
148.7344396310463
 20
72.88841269462705
 30
0.0
 10
148.193418165833
 20
72.50765163831355
 30
0.0
 10
147.9120458914392
 20
72.33518675507546
 30
0.0
 10
147.3025390385382
 20
72.00857975177424
 30
0.0
 10
146.9776723135559
 20
71.85673015739168
 30
0.0
 10
145.9553127940432
 20
71.44169334788776
 30
0.0
 10
145.2022053078177
 20
71.21153030272292
 30
0.0
 10
143.7820840088725
 20
70.88355579037598
 30
0.0
 10
143.1437811295318
 20
70.7677011116614
 30
0.0
 10
141.9934046017417
 20
70.59953224093867
 30
0.0
 10
141.4919957912101
 20
70.53779027992671
 30
0.0
 10
140.5884582239445
 20
70.44661116759584
 30
0.0
 10
140.1920611456396
 20
70.4142677695524
 30
0.0
 10
139.6218690456511
 20
70.38690138999275
 30
0.0
 10
139.4476349104083
 20
70.38089435399371
 30
0.0
 10
139.0987136318273
 20
70.36943662694432
 30
0.0
 10
138.9268945520197
 20
70.36477816322054
 30
0.0
 10
138.6312354777288
 20
70.359466875144
 30
0.0
 10
138.5042306463426
 20
70.3582666638604
 30
0.0
 10
138.1564592795442
 20
70.35966581576305
 30
0.0
 10
138.0102412713178
 20
70.36914237729215
 30
0.0
 10
137.5316149993901
 20
70.376871789877
 30
0.0
 10
137.2342943132462
 20
70.37857634855019
 30
0.0
 10
136.4049086452729
 20
70.3822209841949
 30
0.0
 10
135.8416658484875
 20
70.38364571235191
 30
0.0
 10
135.1648891815342
 20
70.39687146168816
 30
0.0
 10
134.9727235678881
 20
70.4026147560412
 30
0.0
 10
134.7712789185108
 20
70.41348768551902
 30
0.0
 10
134.7375123424076
 20
70.41548742259867
 30
0.0
 10
134.652499774202
 20
70.41948282296684
 30
0.0
 10
134.6050843767719
 20
70.42145459231469
 30
0.0
 10
134.4493162681546
 20
70.42725102181124
 30
0.0
 10
134.3274634316944
 20
70.43095587806643
 30
0.0
 10
133.9144606151031
 20
70.44158325445964
 30
0.0
 10
133.638350349411
 20
70.44802449647169
 30
0.0
 10
132.1243718832274
 20
70.47162547839604
 30
0.0
 10
130.5827063566576
 20
70.48588601317169
 30
0.0
 10
128.4741937312326
 20
70.50860713635657
 30
0.0
 10
128.0615927275567
 20
70.51336546058005
 30
0.0
 10
127.647751532928
 20
70.51847890602404
 30
0.0
  0
SPLINE
  5
2F
330
2
100
AcDbEntity
  8
0
 48
0.1
100
AcDbSpline
210
0.0
220
0.0
230
1.0
 70
     8
 71
     3
 72
    44
 73
    40
 74
     0
 42
0.0000000001
 43
0.0000000001
 40
0.0
 40
0.0
 40
0.0
 40
0.0
 40
0.3988054279178983
 40
0.3988054279178983
 40
0.7976108558357966
 40
0.7976108558357966
 40
1.595221711671593
 40
1.595221711671593
 40
3.190443423343186
 40
3.190443423343186
 40
6.380886846686372
 40
6.380886846686372
 40
8.125180642446036
 40
8.125180642446036
 40
9.526313458519572
 40
9.526313458519572
 40
10.9274462745931
 40
10.9274462745931
 40
13.72971190674018
 40
13.72971190674018
 40
15.68938511115863
 40
15.68938511115863
 40
17.10598243821983
 40
17.10598243821983
 40
18.62676061675454
 40
18.62676061675454
 40
20.14753879528925
 40
20.14753879528925
 40
24.25850865662607
 40
24.25850865662607
 40
27.13762791613051
 40
27.13762791613051
 40
29.05974100225933
 40
29.05974100225933
 40
30.98185408838816
 40
30.98185408838816
 40
34.82608026064582
 40
34.82608026064582
 40
39.32319027078888
 40
39.32319027078888
 40
39.32319027078888
 40
39.32319027078888
 10
152.3915741506224
 20
84.8452141366465
 30
0.0
 10
152.39160622666
 20
84.71229558673213
 30
0.0
 10
152.3915308640823
 20
84.58963413888479
 30
0.0
 10
152.3906700065034
 20
84.33953090541939
 30
0.0
 10
152.3899382057086
 20
84.21520363218773
 30
0.0
 10
152.386672413271
 20
83.84447682404283
 30
0.0
 10
152.383065293254
 20
83.60033115763071
 30
0.0
 10
152.3667204352732
 20
82.87761594341432
 30
0.0
 10
152.348410975922
 20
82.40876732720604
 30
0.0
 10
152.2630218993161
 20
81.01588534563205
 30
0.0
 10
152.1647323344082
 20
80.16895229183495
 30
0.0
 10
151.9292143008624
 20
78.93926029685139
 30
0.0
 10
151.8301042715474
 20
78.53709963108656
 30
0.0
 10
151.6205419773692
 20
77.84867990387763
 30
0.0
 10
151.51724686633
 20
77.55805347346925
 30
0.0
 10
151.2777088560908
 20
76.97497411201766
 30
0.0
 10
151.1424543963556
 20
76.6853601788672
 30
0.0
 10
150.694753632744
 20
75.8339281024466
 30
0.0
 10
150.3399674947182
 20
75.28994031458385
 30
0.0
 10
149.6715739073865
 20
74.45191606640522
 30
0.0
 10
149.3778469720513
 20
74.13183067577718
 30
0.0
 10
148.8527789184579
 20
73.63495091868696
 30
0.0
 10
148.6267448244593
 20
73.44299034645955
 30
0.0
 10
148.1523345326815
 20
73.08261553597948
 30
0.0
 10
147.9067918620829
 20
72.91888881402368
 30
0.0
 10
147.3686125423947
 20
72.60456157527506
 30
0.0
 10
147.0801623008014
 20
72.45704739444566
 30
0.0
 10
145.9363059550475
 20
71.94609700341577
 30
0.0
 10
144.9476022780095
 20
71.64482419815556
 30
0.0
 10
143.0710969345579
 20
71.25610646340152
 30
0.0
 10
142.2438103636835
 20
71.13113317410377
 30
0.0
 10
140.8087244464657
 20
70.96678086791081
 30
0.0
 10
140.2181506893947
 20
70.91206491079065
 30
0.0
 10
139.0764898395314
 20
70.86634706287731
 30
0.0
 10
138.4702926429674
 20
70.84975228438122
 30
0.0
 10
137.4547760215916
 20
70.89195035175896
 30
0.0
 10
135.5839613309718
 20
70.86735390500257
 30
0.0
 10
133.9076398463917
 20
70.96445520411279
 30
0.0
 10
130.4022939498667
 20
70.98167960058055
 30
0.0
 10
127.6539320277742
 20
71.01867850696823
 30
0.0
  0
SPLINE
  5
30
330
2
100
AcDbEntity
  8
0
 48
0.1
100
AcDbSpline
210
0.0
220
0.0
230
1.0
 70
     8
 71
     3
 72
    13
 73
     9
 74
     7
 42
0.0000000001
 43
0.0000000001
 44
0.0000000001
 40
0.0
 40
0.0
 40
0.0
 40
0.0
 40
0.137801197213065
 40
8.980888580458527
 40
17.80619657048642
 40
28.10537708703222
 40
36.94147408012568
 40
39.43318966579806
 40
39.43318966579806
 40
39.43318966579806
 40
39.43318966579806
 10
157.3915740050328
 20
84.84400753167497
 30
0.0
 10
157.3915844082719
 20
84.79807958802563
 30
0.0
 10
157.3922624163969
 20
81.80482733052405
 30
0.0
 10
157.1307770560659
 20
75.72392814718222
 30
0.0
 10
151.120376182567
 20
67.56300568180565
 30
0.0
 10
141.4504921298187
 20
65.71156586445025
 30
0.0
 10
134.3229880495713
 20
65.65344851178796
 30
0.0
 10
130.5436731771915
 20
65.65585707358879
 30
0.0
 10
129.7123584193605
 20
65.65638687145898
 30
0.0
 11
157.3915740050328
 21
84.84400753167497
 31
0.0
 11
157.3915740050328
 21
84.70620633446191
 31
0.0
 11
156.2443393965557
 21
75.93785145906895
 31
0.0
 11
150.9038815925742
 21
68.91178772730967
 31
0.0
 11
141.0347152301456
 21
65.96684721464993
 31
0.0
 11
132.2040740050329
 21
65.65638687145898
 31
0.0
 11
129.7123584193605
 21
65.65638687145898
 31
0.0
  0
LINE
  5
31
330
2
100
AcDbEntity
  8
0
 48
0.1
100
AcDbLine
 10
142.7914320552819
 20
73.21888687145267
 30
0.0
 11
104.8843853691314
 21
73.21888687145267
 31
0.0
  0
SPLINE
  5
32
330
2
100
AcDbEntity
  8
0
 48
0.1
100
AcDbSpline
210
0.0
220
0.0
230
1.0
 70
     8
 71
     3
 72
    44
 73
    40
 74
     0
 42
0.0000000001
 43
0.0000000001
 40
0.0
 40
0.0
 40
0.0
 40
0.0
 40
0.3988054279178983
 40
0.3988054279178983
 40
0.7976108558357966
 40
0.7976108558357966
 40
1.595221711671593
 40
1.595221711671593
 40
3.190443423343186
 40
3.190443423343186
 40
6.380886846686372
 40
6.380886846686372
 40
8.125180642446036
 40
8.125180642446036
 40
9.526313458519572
 40
9.526313458519572
 40
10.9274462745931
 40
10.9274462745931
 40
13.72971190674018
 40
13.72971190674018
 40
15.68938511115863
 40
15.68938511115863
 40
17.10598243821983
 40
17.10598243821983
 40
18.62676061675454
 40
18.62676061675454
 40
20.14753879528925
 40
20.14753879528925
 40
24.25850865662607
 40
24.25850865662607
 40
27.13762791613051
 40
27.13762791613051
 40
29.05974100225933
 40
29.05974100225933
 40
30.98185408838816
 40
30.98185408838816
 40
34.82608026064582
 40
34.82608026064582
 40
39.32319027078888
 40
39.32319027078888
 40
39.32319027078888
 40
39.32319027078888
 10
152.3915741506224
 20
84.84280092670346
 30
0.0
 10
152.39160622666
 20
84.9757194766178
 30
0.0
 10
152.3915308640823
 20
85.09838092446516
 30
0.0
 10
152.3906700065034
 20
85.34848415793057
 30
0.0
 10
152.3899382057086
 20
85.47281143116221
 30
0.0
 10
152.386672413271
 20
85.8435382393071
 30
0.0
 10
152.383065293254
 20
86.08768390571922
 30
0.0
 10
152.3667204352732
 20
86.81039911993563
 30
0.0
 10
152.348410975922
 20
87.27924773614391
 30
0.0
 10
152.2630218993161
 20
88.64087971771789
 30
0.0
 10
152.1647323344082
 20
89.487812771515
 30
0.0
 10
151.9292143008624
 20
90.68613410627625
 30
0.0
 10
151.8301042715474
 20
91.08829477204109
 30
0.0
 10
151.6205419773692
 20
91.77671449925002
 30
0.0
 10
151.51724686633
 20
92.0673409296584
 30
0.0
 10
151.2777088560908
 20
92.65042029110999
 30
0.0
 10
151.1424543963556
 20
92.94003422426044
 30
0.0
 10
150.694753632744
 20
93.82259564047135
 30
0.0
 10
150.3399674947182
 20
94.39783342833411
 30
0.0
 10
149.6715739073865
 20
95.23585767651274
 30
0.0
 10
149.3778469720513
 20
95.55594306714077
 30
0.0
 10
148.8527789184579
 20
96.05282282423099
 30
0.0
 10
148.6267448244593
 20
96.2447833964584
 30
0.0
 10
148.1523345326815
 20
96.60515820693847
 30
0.0
 10
147.9067918620829
 20
96.76888492889428
 30
0.0
 10
147.3686125423947
 20
97.08321216764289
 30
0.0
 10
147.0801623008014
 20
97.23072634847229
 30
0.0
 10
145.9363059550475
 20
97.74167673950218
 30
0.0
 10
144.9476022780095
 20
98.0429495447624
 30
0.0
 10
143.0710969345579
 20
98.43166727951643
 30
0.0
 10
142.2438103636835
 20
98.55664056881419
 30
0.0
 10
140.8087244464657
 20
98.72099287500715
 30
0.0
 10
140.2181506893947
 20
98.77570883212731
 30
0.0
 10
139.0764898395314
 20
98.82142668004064
 30
0.0
 10
138.4702926429674
 20
98.83802145853673
 30
0.0
 10
137.4547760215916
 20
98.79582339115899
 30
0.0
 10
135.5839613309718
 20
98.82041983791538
 30
0.0
 10
133.9076398463917
 20
98.72331853880517
 30
0.0
 10
130.4022939498667
 20
98.7060941423374
 30
0.0
 10
127.6473862271488
 20
98.66903577772546
 30
0.0
  0
SPLINE
  5
33
330
2
100
AcDbEntity
  8
0
 48
0.1
100
AcDbSpline
210
0.0
220
0.0
230
1.0
 70
     8
 71
     3
 72
    62
 73
    58
 74
     0
 42
0.0000000001
 43
0.0000000001
 40
0.0
 40
0.0
 40
0.0
 40
0.0
 40
0.4445625754808277
 40
0.4445625754808277
 40
0.8891251509616553
 40
0.8891251509616553
 40
1.77825030192331
 40
1.77825030192331
 40
3.556500603846621
 40
3.556500603846621
 40
7.962155427722205
 40
7.962155427722205
 40
9.923608239534477
 40
9.923608239534477
 40
11.88506105134675
 40
11.88506105134675
 40
16.0074383144884
 40
16.0074383144884
 40
17.56245756450767
 40
17.56245756450767
 40
19.11747681452694
 40
19.11747681452694
 40
20.67249606454621
 40
20.67249606454621
 40
23.71716715054241
 40
23.71716715054241
 40
25.97268782782379
 40
25.97268782782379
 40
27.64046064967378
 40
27.64046064967378
 40
28.91529307812461
 40
28.91529307812461
 40
29.4959463549749
 40
29.4959463549749
 40
30.07659963182518
 40
30.07659963182518
 40
30.55974983057417
 40
30.55974983057417
 40
31.52605022807216
 40
31.52605022807216
 40
32.49235062557015
 40
32.49235062557015
 40
34.05710255307782
 40
34.05710255307782
 40
34.77994437958129
 40
34.77994437958129
 40
34.96728502683183
 40
34.96728502683183
 40
35.15462567408237
 40
35.15462567408237
 40
35.52930696858344
 40
35.52930696858344
 40
36.27866955758558
 40
36.27866955758558
 40
38.45388543343775
 40
38.45388543343775
 40
39.10317939955374
 40
39.10317939955374
 40
39.10317939955374
 40
39.10317939955374
 10
152.8915741360634
 20
84.84268026620627
 30
0.0
 10
152.8916099631723
 20
84.99114272362833
 30
0.0
 10
152.8914977019936
 20
85.12831251151931
 30
0.0
 10
152.8903748596175
 20
85.40858861698565
 30
0.0
 10
152.8894281493402
 20
85.54792782014562
 30
0.0
 10
152.8851952042971
 20
85.9634415916293
 30
0.0
 10
152.8805196869947
 20
86.23710139598278
 30
0.0
 10
152.8591470702911
 20
87.04711069922964
 30
0.0
 10
152.8351593822714
 20
87.57244006794195
 30
0.0
 10
152.703568304998
 20
89.33857592938913
 30
0.0
 10
152.524322058722
 20
90.48487082253563
 30
0.0
 10
152.0929515411546
 20
91.95646931479195
 30
0.0
 10
151.9378190436484
 20
92.38238652169833
 30
0.0
 10
151.5603883098662
 20
93.26616998316712
 30
0.0
 10
151.3406878701296
 20
93.6857599651849
 30
0.0
 10
150.5783903664816
 20
94.96509288339657
 30
0.0
 10
149.9452150938373
 20
95.73410243311316
 30
0.0
 10
148.9999114297128
 20
96.58709531914503
 30
0.0
 10
148.7344396310463
 20
96.7993610482909
 30
0.0
 10
148.193418165833
 20
97.18012210460441
 30
0.0
 10
147.9120458914392
 20
97.35258698784249
 30
0.0
 10
147.3025390385382
 20
97.67919399114372
 30
0.0
 10
146.9776723135559
 20
97.83104358552627
 30
0.0
 10
145.9553127940432
 20
98.24608039503019
 30
0.0
 10
145.2022053078177
 20
98.47624344019504
 30
0.0
 10
143.7820840088725
 20
98.80421795254198
 30
0.0
 10
143.1437811295318
 20
98.92007263125655
 30
0.0
 10
141.9934046017417
 20
99.08824150197929
 30
0.0
 10
141.4919957912101
 20
99.14998346299125
 30
0.0
 10
140.5884582239445
 20
99.24116257532212
 30
0.0
 10
140.1920611456396
 20
99.27350597336555
 30
0.0
 10
139.6218690456511
 20
99.30087235292521
 30
0.0
 10
139.4476349104083
 20
99.30687938892425
 30
0.0
 10
139.0987136318273
 20
99.31833711597363
 30
0.0
 10
138.9268945520197
 20
99.32299557969741
 30
0.0
 10
138.6312354777288
 20
99.32830686777396
 30
0.0
 10
138.5042306463426
 20
99.32950707905755
 30
0.0
 10
138.1564592795442
 20
99.32810792715491
 30
0.0
 10
138.0102412713178
 20
99.31863136562581
 30
0.0
 10
137.5316149993901
 20
99.31090195304095
 30
0.0
 10
137.2342943132462
 20
99.30919739436777
 30
0.0
 10
136.4049086452729
 20
99.30555275872306
 30
0.0
 10
135.8416658484875
 20
99.30412803056604
 30
0.0
 10
135.1648891815342
 20
99.2909022812298
 30
0.0
 10
134.9727235678881
 20
99.28515898687676
 30
0.0
 10
134.7712789185108
 20
99.27428605739894
 30
0.0
 10
134.7375123424076
 20
99.27228632031928
 30
0.0
 10
134.652499774202
 20
99.26829091995111
 30
0.0
 10
134.6050843767719
 20
99.26631915060326
 30
0.0
 10
134.4493162681546
 20
99.26052272110672
 30
0.0
 10
134.3274634316944
 20
99.25681786485153
 30
0.0
 10
133.9144606151031
 20
99.24619048845832
 30
0.0
 10
133.638350349411
 20
99.23974924644626
 30
0.0
 10
132.1243718832274
 20
99.21614826452191
 30
0.0
 10
130.5827063566576
 20
99.20188772974626
 30
0.0
 10
128.3913813936747
 20
99.17824696936097
 30
0.0
 10
127.8932558142079
 20
99.1724597256082
 30
0.0
 10
127.647751532928
 20
99.16929483689392
 30
0.0
  0
SPLINE
  5
34
330
2
100
AcDbEntity
  8
0
 48
0.1
100
AcDbSpline
210
0.0
220
0.0
230
1.0
 70
     8
 71
     3
 72
    13
 73
     9
 74
     7
 42
0.0000000001
 43
0.0000000001
 44
0.0000000001
 40
0.0
 40
0.0
 40
0.0
 40
0.0
 40
0.137801197213065
 40
8.949664338733859
 40
17.79987149250066
 40
28.09905200904645
 40
36.93514900213992
 40
39.4268645878123
 40
39.4268645878123
 40
39.4268645878123
 40
39.4268645878123
 10
157.3915740050328
 20
84.84400753167497
 30
0.0
 10
157.391585042089
 20
84.889935707047
 30
0.0
 10
157.3923018569652
 20
87.87279624514969
 30
0.0
 10
157.1159531702169
 20
93.94522516499701
 30
0.0
 10
151.1345245490709
 20
102.126511957695
 30
0.0
 10
141.4491102892108
 20
103.975361236781
 30
0.0
 10
134.3230616345444
 20
104.0343703160011
 30
0.0
 10
130.5436864448532
 20
104.0319247983097
 30
0.0
 10
129.7123584193605
 20
104.0313868714589
 30
0.0
 11
157.3915740050328
 21
84.84400753167497
 31
0.0
 11
157.3915740050328
 21
84.98180872888804
 31
0.0
 11
156.2443393965557
 21
93.718672283849
 31
0.0
 11
150.9038815925742
 21
100.7759860156082
 31
0.0
 11
141.0347152301456
 21
103.720926528268
 31
0.0
 11
132.2040740050329
 21
104.0313868714589
 31
0.0
 11
129.7123584193605
 21
104.0313868714589
 31
0.0
  0
LINE
  5
35
330
2
100
AcDbEntity
  8
0
 48
0.1
100
AcDbLine
 10
142.7914320552819
 20
96.46888687146528
 30
0.0
 11
104.8843853691314
 21
96.46888687146528
 31
0.0
  0
SPLINE
  5
36
330
2
100
AcDbEntity
  8
0
 48
0.1
100
AcDbSpline
210
0.0
220
0.0
230
1.0
 70
     8
 71
     3
 72
    13
 73
     9
 74
     7
 42
0.0000000001
 43
0.0000000001
 44
0.0000000001
 40
0.0
 40
0.0
 40
0.0
 40
0.0
 40
0.137801197213065
 40
8.949664338733859
 40
17.79987149250066
 40
28.09905200904645
 40
36.99761068303938
 40
39.55182626871175
 40
39.55182626871175
 40
39.55182626871175
 40
39.55182626871175
 10
84.76657400503288
 20
84.84400753167497
 30
0.0
 10
84.76656296887366
 20
84.88993570690055
 30
0.0
 10
84.76584621225137
 20
87.87279623549242
 30
0.0
 10
85.04217244054988
 20
93.94522882198165
 30
0.0
 10
91.02370793611454
 20
102.1264981660038
 30
0.0
 10
100.7303052933093
 20
103.9795448195439
 30
0.0
 10
107.8974757031586
 20
104.0342141226932
 30
0.0
 10
111.7185971282195
 20
104.0319024289946
 30
0.0
 10
112.5707895907052
 20
104.0313868714589
 30
0.0
 11
84.76657400503288
 21
84.84400753167497
 31
0.0
 11
84.76657400503288
 21
84.98180872888804
 31
0.0
 11
85.91380861350998
 21
93.718672283849
 31
0.0
 11
91.25426641749148
 21
100.7759860156082
 31
0.0
 11
101.12343277992
 21
103.720926528268
 31
0.0
 11
110.0165740050328
 21
104.0313868714589
 31
0.0
 11
112.5707895907052
 21
104.0313868714589
 31
0.0
  0
ARC
  5
37
330
2
100
AcDbEntity
  8
0
 48
0.1
100
AcDbCircle
 10
126.141573975915
 20
100.4469488994373
 30
0.0
 40
1.0
100
AcDbArc
 50
0.0000000000005229
 51
90.00000000000003
  0
SPLINE
  5
38
330
2
100
AcDbEntity
  8
0
 48
0.1
100
AcDbSpline
210
0.0
220
0.0
230
1.0
 70
     8
 71
     3
 72
    24
 73
    20
 74
     0
 42
0.0000000001
 43
0.0000000001
 40
1.162651737441946
 40
1.162651737441946
 40
1.162651737441946
 40
1.162651737441946
 40
2.754600276175005
 40
2.754600276175005
 40
4.436381004462034
 40
4.436381004462034
 40
6.487489514350544
 40
6.487489514350544
 40
7.907218633736498
 40
7.907218633736498
 40
9.326947753122452
 40
9.326947753122452
 40
12.16640599189436
 40
12.16640599189436
 40
15.00586423066626
 40
15.00586423066626
 40
17.84532246943817
 40
17.84532246943817
 40
19.05274285515726
 40
19.05274285515726
 40
19.05274285515726
 40
19.05274285515726
 10
90.41440821664805
 20
76.75974298278113
 30
0.0
 10
90.64227194656389
 20
76.24884640978971
 30
0.0
 10
90.915453114777
 20
75.75917975186647
 30
0.0
 10
91.54112075470562
 20
74.80519925415473
 30
0.0
 10
91.89706035950125
 20
74.34100280576753
 30
0.0
 10
92.73073717552957
 20
73.35756258758332
 30
0.0
 10
93.21798452638063
 20
72.85030011985823
 30
0.0
 10
94.03526824517053
 20
72.07530230296083
 30
0.0
 10
94.36622596102179
 20
71.78276993692332
 30
0.0
 10
95.00870186999199
 20
71.25192970880148
 30
0.0
 10
95.32348263738752
 20
71.01179183782358
 30
0.0
 10
96.27665266862418
 20
70.35189515295654
 30
0.0
 10
96.92128762373299
 20
69.99382234858284
 30
0.0
 10
98.3797953137453
 20
69.35409029573204
 30
0.0
 10
99.20162249196883
 20
69.07545792287319
 30
0.0
 10
101.2015127549492
 20
68.62686262342612
 30
0.0
 10
102.379714746228
 20
68.45611507511065
 30
0.0
 10
104.4487151532723
 20
68.30018835712412
 30
0.0
 10
105.1155552782901
 20
68.26476196942717
 30
0.0
 10
105.8394589734336
 20
68.24109191577287
 30
0.0
  0
SPLINE
  5
39
330
2
100
AcDbEntity
  8
0
 48
0.1
100
AcDbSpline
210
0.0
220
0.0
230
1.0
 70
     8
 71
     3
 72
    11
 73
     7
 74
     0
 42
0.0000000001
 43
0.0000000001
 40
1.500095352471647
 40
1.500095352471647
 40
1.500095352471647
 40
1.500095352471647
 40
4.127931195599432
 40
7.574740586668079
 40
11.82564764165058
 40
19.05274285515726
 40
19.05274285515726
 40
19.05274285515726
 40
19.05274285515726
 10
91.01412911890607
 20
76.65728406536645
 30
0.0
 10
91.39980425445934
 20
75.87069533762701
 30
0.0
 10
92.55256406559686
 20
74.18867593804069
 30
0.0
 10
95.04275255783943
 20
71.73354259388057
 30
0.0
 10
98.02867512593008
 20
69.76539302901445
 30
0.0
 10
101.5603218162981
 20
68.88127747460808
 30
0.0
 10
105.8557991375894
 20
68.74082484348062
 30
0.0
  0
SPLINE
  5
3A
330
2
100
AcDbEntity
  8
0
 48
0.1
100
AcDbSpline
210
0.0
220
0.0
230
1.0
 70
     8
 71
     3
 72
    13
 73
     9
 74
     7
 42
0.0000000001
 43
0.0000000001
 44
0.0000000001
 40
0.0
 40
0.0
 40
0.0
 40
0.0
 40
0.137801197213065
 40
8.980888580458527
 40
17.80619657048642
 40
28.10537708703222
 40
37.00393576102515
 40
39.55815134669751
 40
39.55815134669751
 40
39.55815134669751
 40
39.55815134669751
 10
84.76657400503288
 20
84.8034455037029
 30
0.0
 10
84.76656360267432
 20
84.75751756019056
 30
0.0
 10
84.76588565193688
 20
81.76426531161837
 30
0.0
 10
85.02734887990946
 20
75.68336268450649
 30
0.0
 10
91.03785461533314
 20
67.52245653552764
 30
0.0
 10
100.728913844763
 20
65.66681437944545
 30
0.0
 10
107.8975515870112
 20
65.61304408494923
 30
0.0
 10
111.7186109658621
 20
65.61531776403049
 30
0.0
 10
112.5707895907052
 20
65.6158248434869
 30
0.0
 11
84.76657400503288
 21
84.8034455037029
 31
0.0
 11
84.76657400503288
 21
84.66564430648984
 31
0.0
 11
85.91380861350998
 21
75.89728943109688
 31
0.0
 11
91.25426641749148
 21
68.8712256993376
 31
0.0
 11
101.12343277992
 21
65.92628518667786
 31
0.0
 11
110.0165740050328
 21
65.6158248434869
 31
0.0
 11
112.5707895907052
 21
65.6158248434869
 31
0.0
  0
LINE
  5
3B
330
2
100
AcDbEntity
  8
0
 48
0.1
100
AcDbLine
 10
92.15174509622693
 20
76.52915498703724
 30
0.0
 11
97.57530060358519
 21
72.80567823146274
 31
0.0
  0
LINE
  5
3C
330
2
100
AcDbEntity
  8
0
 48
0.1
100
AcDbLine
 10
91.98117313593684
 20
76.1913894654202
 30
0.0
 11
97.36305430044994
 21
72.49652372833295
 31
0.0
  0
SPLINE
  5
3D
330
2
100
AcDbEntity
  8
0
 48
0.1
100
AcDbSpline
210
0.0
220
0.0
230
1.0
 70
     8
 71
     3
 72
    24
 73
    20
 74
     0
 42
0.0000000001
 43
0.0000000001
 40
1.162651737441946
 40
1.162651737441946
 40
1.162651737441946
 40
1.162651737441946
 40
2.754600276175005
 40
2.754600276175005
 40
4.436381004462034
 40
4.436381004462034
 40
6.487489514350544
 40
6.487489514350544
 40
7.907218633736498
 40
7.907218633736498
 40
9.326947753122452
 40
9.326947753122452
 40
12.16640599189436
 40
12.16640599189436
 40
15.00586423066626
 40
15.00586423066626
 40
17.84532246943817
 40
17.84532246943817
 40
19.05274285515726
 40
19.05274285515726
 40
19.05274285515726
 40
19.05274285515726
 10
90.41440821664805
 20
92.86565142034651
 30
0.0
 10
90.64227194656389
 20
93.40767733312825
 30
0.0
 10
90.915453114777
 20
93.89734399105149
 30
0.0
 10
91.54112075470562
 20
94.88257448876323
 30
0.0
 10
91.89706035950125
 20
95.34677093715043
 30
0.0
 10
92.73073717552957
 20
96.33021115533464
 30
0.0
 10
93.21798452638063
 20
96.83747362305972
 30
0.0
 10
94.03526824517053
 20
97.61247143995712
 30
0.0
 10
94.36622596102179
 20
97.90500380599464
 30
0.0
 10
95.00870186999199
 20
98.43584403411647
 30
0.0
 10
95.32348263738752
 20
98.67598190509438
 30
0.0
 10
96.27665266862418
 20
99.33587858996141
 30
0.0
 10
96.92128762373299
 20
99.69395139433512
 30
0.0
 10
98.3797953137453
 20
100.3336834471859
 30
0.0
 10
99.20162249196883
 20
100.6123158200447
 30
0.0
 10
101.2015127549492
 20
101.0609111194918
 30
0.0
 10
102.379714746228
 20
101.2316586678073
 30
0.0
 10
104.4487151532723
 20
101.3875853857938
 30
0.0
 10
105.1155552782901
 20
101.4230117734907
 30
0.0
 10
105.8394589734336
 20
101.446681827145
 30
0.0
  0
SPLINE
  5
3E
330
2
100
AcDbEntity
  8
0
 48
0.1
100
AcDbSpline
210
0.0
220
0.0
230
1.0
 70
     8
 71
     3
 72
    11
 73
     7
 74
     0
 42
0.0000000001
 43
0.0000000001
 40
1.500095352471647
 40
1.500095352471647
 40
1.500095352471647
 40
1.500095352471647
 40
4.127931195599432
 40
7.574740586668079
 40
11.82564764165058
 40
19.05274285515726
 40
19.05274285515726
 40
19.05274285515726
 40
19.05274285515726
 10
91.01412911890607
 20
92.96811033776119
 30
0.0
 10
91.39980425445934
 20
93.78582840529094
 30
0.0
 10
92.55256406559686
 20
95.49909780487727
 30
0.0
 10
95.04275255783943
 20
97.95423114903739
 30
0.0
 10
98.02867512593008
 20
99.92238071390351
 30
0.0
 10
101.5603218162981
 20
100.8064962683098
 30
0.0
 10
105.8557991375894
 20
100.9469488994373
 30
0.0
  0
LINE
  5
3F
330
2
100
AcDbEntity
  8
0
 48
0.1
100
AcDbLine
 10
92.15174509622693
 20
93.09623941609039
 30
0.0
 11
97.57530060358519
 21
96.88209551145522
 31
0.0
  0
LINE
  5
40
330
2
100
AcDbEntity
  8
0
 48
0.1
100
AcDbLine
 10
91.98117313593684
 20
93.46513427749775
 30
0.0
 11
97.36305430044994
 21
97.191250014585
 31
0.0
  0
SPLINE
  5
41
330
2
100
AcDbEntity
  8
0
 48
0.1
100
AcDbSpline
210
0.0
220
0.0
230
1.0
 70
     8
 71
     3
 72
     9
 73
     5
 74
     0
 42
0.0000000001
 43
0.0000000001
 40
0.0
 40
0.0
 40
0.0
 40
0.0
 40
2.887919171353102
 40
7.050154376241129
 40
7.050154376241129
 40
7.050154376241129
 40
7.050154376241129
 10
86.20115759318174
 20
75.16683268694383
 30
0.0
 10
86.58145812614225
 20
76.19740723309799
 30
0.0
 10
87.17013570622089
 20
78.55025710511172
 30
0.0
 10
90.08980878410762
 20
77.56728163993149
 30
0.0
 10
92.15174509622693
 20
76.52915498703724
 30
0.0
  0
ARC
  5
42
330
2
100
AcDbEntity
  8
0
 48
0.1
100
AcDbCircle
 10
89.44529408806925
 20
73.14618959763563
 30
0.0
 40
3.755567411453776
100
AcDbArc
 50
77.99638009350438
 51
148.733284951296
  0
ARC
  5
43
330
2
100
AcDbEntity
  8
0
 48
0.1
100
AcDbCircle
 10
90.01837905699888
 20
75.84150504808906
 30
0.0
 40
1.0
100
AcDbArc
 50
60.73035146216216
 51
77.99638009350438
  0
SPLINE
  5
44
330
2
100
AcDbEntity
  8
0
 48
0.1
100
AcDbSpline
210
0.0
220
0.0
230
1.0
 70
     8
 71
     3
 72
     8
 73
     4
 74
     0
 42
0.0000000001
 43
0.0000000001
 40
6.349771084984631
 40
6.349771084984631
 40
6.349771084984631
 40
6.349771084984631
 40
7.050154376241129
 40
7.050154376241129
 40
7.050154376241129
 40
7.050154376241129
 10
91.01412911889386
 20
76.65728406536046
 30
0.0
 10
91.33081508106945
 20
76.53727998323166
 30
0.0
 10
91.64977107891475
 20
76.38619421039773
 30
0.0
 10
91.98117313593689
 20
76.19138946542017
 30
0.0
  0
ARC
  5
45
330
2
100
AcDbEntity
  8
0
 48
0.1
100
AcDbCircle
 10
90.83467324501993
 20
77.34842349758771
 30
0.0
 40
0.7140575085014302
100
AcDbArc
 50
242.7115926103354
 51
284.5555489285406
  0
SPLINE
  5
46
330
2
100
AcDbEntity
  8
0
 48
0.1
100
AcDbSpline
210
0.0
220
0.0
230
1.0
 70
     8
 71
     3
 72
     9
 73
     5
 74
     0
 42
0.0000000001
 43
0.0000000001
 40
0.0
 40
0.0
 40
0.0
 40
0.0
 40
2.887919171353102
 40
7.050154376241129
 40
7.050154376241129
 40
7.050154376241129
 40
7.050154376241129
 10
86.20115759318174
 20
94.52094105597412
 30
0.0
 10
86.58145812614225
 20
93.45911650981996
 30
0.0
 10
87.17013570622089
 20
91.07513729801592
 30
0.0
 10
90.08980878410762
 20
92.05811276319614
 30
0.0
 10
92.15174509622693
 20
93.09623941609039
 30
0.0
  0
ARC
  5
47
330
2
100
AcDbEntity
  8
0
 48
0.1
100
AcDbCircle
 10
89.49814321511606
 20
96.53029839864748
 30
0.0
 40
3.795064316032868
100
AcDbArc
 50
210.7069456195853
 51
281.0627098184281
  0
ARC
  5
48
330
2
100
AcDbEntity
  8
0
 48
0.1
100
AcDbCircle
 10
90.01837905699888
 20
93.78388935503858
 30
0.0
 40
1.0
100
AcDbArc
 50
282.0036199064956
 51
299.2696485378378
  0
SPLINE
  5
49
330
2
100
AcDbEntity
  8
0
 48
0.1
100
AcDbSpline
210
0.0
220
0.0
230
1.0
 70
     8
 71
     3
 72
     8
 73
     4
 74
     0
 42
0.0000000001
 43
0.0000000001
 40
6.349771084984631
 40
6.349771084984631
 40
6.349771084984631
 40
6.349771084984631
 40
7.050154376241129
 40
7.050154376241129
 40
7.050154376241129
 40
7.050154376241129
 10
91.01412911889386
 20
92.96811033776718
 30
0.0
 10
91.33081508106945
 20
93.08811441989599
 30
0.0
 10
91.64977107891475
 20
93.27032953252022
 30
0.0
 10
91.98117313593689
 20
93.46513427749778
 30
0.0
  0
ARC
  5
4A
330
2
100
AcDbEntity
  8
0
 48
0.1
100
AcDbCircle
 10
90.83467324501993
 20
92.27697090553993
 30
0.0
 40
0.7140575085014302
100
AcDbArc
 50
75.44445107145929
 51
117.2884073896645
  0
SPLINE
  5
4B
330
2
100
AcDbEntity
  8
0
 48
0.1
100
AcDbSpline
210
0.0
220
0.0
230
1.0
 70
     8
 71
     3
 72
    12
 73
     8
 74
     6
 42
0.0000000001
 43
0.0000000001
 44
0.0000000001
 40
0.0
 40
0.0
 40
0.0
 40
0.0
 40
0.2758253131553454
 40
4.750605583366085
 40
9.191627467633242
 40
13.90036437318376
 40
16.1345719049641
 40
16.1345719049641
 40
16.1345719049641
 40
16.1345719049641
 10
105.3273447347863
 20
73.22046024166247
 30
0.0
 10
105.2355064017128
 20
73.21899469930977
 30
0.0
 10
103.6537527443872
 20
73.19375331154972
 30
0.0
 10
100.4245529560771
 20
73.94933238496927
 30
0.0
 10
97.64515973170315
 20
77.9552238456533
 30
0.0
 10
97.24123304516048
 20
81.7888984449298
 30
0.0
 10
97.24561550747399
 20
84.10023127570896
 30
0.0
 10
97.24702576365521
 20
84.84400753167497
 30
0.0
 11
105.3273447347863
 21
73.22046024166247
 31
0.0
 11
105.0515356833028
 21
73.21746516286726
 31
0.0
 11
100.7435547368205
 21
74.42781991723186
 31
0.0
 11
98.06301854836036
 21
77.96863918950416
 31
0.0
 11
97.26875891592785
 21
82.60990570652101
 31
0.0
 11
97.24702576365521
 21
84.84400753167497
 31
0.0
  0
LINE
  5
4C
330
2
100
AcDbEntity
  8
0
 48
0.1
100
AcDbLine
 10
129.7123584193605
 20
65.65638687145898
 30
0.0
 11
112.5707895907052
 21
65.65638687145898
 31
0.0
  0
LINE
  5
4D
330
2
100
AcDbEntity
  8
0
 48
0.1
100
AcDbLine
 10
121.641573975915
 20
71.82341844878334
 30
0.0
 11
103.5036826731014
 21
71.82341844878334
 31
0.0
  0
LINE
  5
4E
330
2
100
AcDbEntity
  8
0
 48
0.1
100
AcDbLine
 10
119.3132041190195
 20
69.24451542252843
 30
0.0
 11
108.4342210660527
 21
69.45989709596867
 31
0.0
  0
LINE
  5
4F
330
2
100
AcDbEntity
  8
0
 48
0.1
100
AcDbLine
 10
105.8557991375895
 20
68.74082484348059
 30
0.0
 11
126.141573975915
 21
68.74106262624121
 31
0.0
  0
LINE
  5
50
330
2
100
AcDbEntity
  8
0
 48
0.1
100
AcDbLine
 10
105.8557991375895
 20
68.2408248434806
 30
0.0
 11
126.141573975915
 21
68.2408248434806
 31
0.0
  0
SPLINE
  5
51
330
2
100
AcDbEntity
  8
0
 48
0.1
100
AcDbSpline
210
0.0
220
0.0
230
1.0
 70
     8
 71
     3
 72
     9
 73
     5
 74
     0
 42
0.0000000001
 43
0.0000000001
 40
7.200070814405144
 40
7.200070814405144
 40
7.200070814405144
 40
7.200070814405144
 40
11.80111578878096
 40
15.02317906206835
 40
15.02317906206835
 40
15.02317906206835
 40
15.02317906206835
 10
97.36305430045005
 20
72.4965237283329
 30
0.0
 10
98.6993552450968
 20
71.65467271135537
 30
0.0
 10
101.4470210872916
 20
70.12720660418688
 30
0.0
 10
106.0014960668078
 20
69.54235558534697
 30
0.0
 10
108.4342210660527
 20
69.45989709596867
 30
0.0
  0
SPLINE
  5
52
330
2
100
AcDbEntity
  8
0
 48
0.1
100
AcDbSpline
210
0.0
220
0.0
230
1.0
 70
     8
 71
     3
 72
     9
 73
     5
 74
     0
 42
0.0000000001
 43
0.0000000001
 40
15.77471036417195
 40
15.77471036417195
 40
15.77471036417195
 40
15.77471036417195
 40
20.46675407414699
 40
24.170160606633
 40
24.170160606633
 40
24.170160606633
 40
24.170160606633
 10
97.57530060358519
 20
72.80567823146272
 30
0.0
 10
98.51131093096734
 20
72.13759614796834
 30
0.0
 10
100.3274879412811
 20
71.90829081624349
 30
0.0
 10
101.5608281621279
 20
71.8435962847143
 30
0.0
 10
103.503682673104
 20
71.82341844878334
 30
0.0
  0
ARC
  5
53
330
2
100
AcDbEntity
  8
0
 48
0.1
100
AcDbCircle
 10
125.9868040202207
 20
60.13056500654595
 30
0.0
 40
12.24999999999998
100
AcDbArc
 50
88.58265468067584
 51
112.3387238271808
  0
ARC
  5
54
330
2
100
AcDbEntity
  8
0
 48
0.1
100
AcDbCircle
 10
126.0314269921753
 20
61.7549560554216
 30
0.0
 40
9.49999999999995
100
AcDbArc
 50
88.58268424628894
 51
112.1072910833298
  0
LINE
  5
55
330
2
100
AcDbEntity
  8
0
 48
0.1
100
AcDbLine
 10
125.9349158354524
 20
68.78481723187746
 30
0.0
 11
121.641573975915
 21
69.19841844878334
 31
0.0
  0
ARC
  5
56
330
2
100
AcDbEntity
  8
0
 48
0.1
100
AcDbCircle
 10
122.6610919148712
 20
68.22390418097398
 30
0.0
 40
3.499999999999998
100
AcDbArc
 50
112.3387238271807
 51
171.5042350834642
  0
ARC
  5
57
330
2
100
AcDbEntity
  8
0
 48
0.1
100
AcDbCircle
 10
123.2088607620198
 20
68.70356166204404
 30
0.0
 40
2.000000000000006
100
AcDbArc
 50
112.1072910833298
 51
178.9272701309561
  0
LINE
  5
5E
330
2
100
AcDbEntity
  8
0
 48
0.1
100
AcDbLine
 10
121.641573975915
 20
69.19841844878334
 30
0.0
 11
121.641573975915
 21
69.94598354292882
 31
0.0
  0
LINE
  5
5F
330
2
100
AcDbEntity
  8
0
 48
0.1
100
AcDbLine
 10
121.641573975915
 20
69.19841844878334
 30
0.0
 11
121.2729268511989
 21
69.20571690988431
 31
0.0
  0
LINE
  5
60
330
2
100
AcDbEntity
  8
0
 48
0.1
100
AcDbLine
 10
122.1275971643381
 20
71.75678633780868
 30
0.0
 11
121.641573975915
 21
71.82341844878334
 31
0.0
  0
LINE
  5
61
330
2
100
AcDbEntity
  8
0
 48
0.1
100
AcDbLine
 10
121.641573975915
 20
71.58401321492682
 30
0.0
 11
121.641573975915
 21
71.82341844878334
 31
0.0
  0
ARC
  5
62
330
2
100
AcDbEntity
  8
0
 48
0.1
100
AcDbCircle
 10
128.4622213645364
 20
68.51738390867186
 30
0.0
 40
3.804523376427772
100
AcDbArc
 50
64.50337899285887
 51
88.67840121568297
  0
ARC
  5
63
330
2
100
AcDbEntity
  8
0
 48
0.1
100
AcDbCircle
 10
127.641573975915
 20
70.01851706969116
 30
0.0
 40
1.000237782760624
100
AcDbArc
 50
89.29208609975168
 51
180.0
  0
ARC
  5
65
330
2
100
AcDbEntity
  8
0
 48
0.1
100
AcDbCircle
 10
127.641573975915
 20
70.01851706969116
 30
0.0
 40
0.5
100
AcDbArc
 50
89.29208609975168
 51
180.0
  0
ARC
  5
66
330
2
100
AcDbEntity
  8
0
 48
0.1
100
AcDbCircle
 10
126.141573975915
 20
69.24082484348059
 30
0.0
 40
1.0
100
AcDbArc
 50
270.0
 51
359.9999999999994
  0
ARC
  5
67
330
2
100
AcDbEntity
  8
0
 48
0.1
100
AcDbCircle
 10
126.141573975915
 20
69.24082484348059
 30
0.0
 40
0.4997622172393754
100
AcDbArc
 50
270.0
 51
359.9999999999994
  0
LINE
  5
68
330
2
100
AcDbEntity
  8
0
 48
0.1
100
AcDbLine
 10
126.6414588955016
 20
70.0341838495629
 30
0.0
 11
126.6413361931544
 21
69.24082484348059
 31
0.0
  0
LINE
  5
69
330
2
100
AcDbEntity
  8
0
 48
0.1
100
AcDbLine
 10
127.141573975915
 20
70.01851706969117
 30
0.0
 11
127.141573975915
 21
69.24082484348058
 31
0.0
  0
LINE
  5
6A
330
2
100
AcDbEntity
  8
0
 48
0.1
100
AcDbLine
 10
127.8962643877737
 20
71.21172380146129
 30
0.0
 11
126.2664028776311
 21
71.25204962836555
 31
0.0
  0
LINE
  5
6B
330
2
100
AcDbEntity
  8
0
 48
0.1
100
AcDbLine
 10
126.2898055602178
 20
72.37681708898975
 30
0.0
 11
128.5499696709482
 21
72.32089522803285
 31
0.0
  0
LINE
  5
6C
330
2
100
AcDbEntity
  8
0
 48
0.1
100
AcDbLine
 10
127.4962837125442
 20
71.02075783877984
 30
0.0
 11
125.8072991200915
 21
71.25231182937017
 31
0.0
  0
ARC
  5
6F
330
2
100
AcDbEntity
  8
0
 48
0.1
100
AcDbCircle
 10
127.8916267058239
 20
71.02428116515317
 30
0.0
 40
0.1875000000000152
100
AcDbArc
 50
356.5718924685997
 51
88.58268424628787
  0
ARC
  5
73
330
2
100
AcDbEntity
  8
0
 48
0.1
100
AcDbCircle
 10
129.7092988023974
 20
71.16841275250256
 30
0.0
 40
0.8750000000000046
100
AcDbArc
 50
358.5826546806766
 51
63.48635392277678
  0
LINE
  5
74
330
2
100
AcDbEntity
  8
0
 48
0.1
100
AcDbLine
 10
130.5840310940006
 20
71.14676978535992
 30
0.0
 11
130.580055265465
 21
70.98608083808828
 31
0.0
  0
LINE
  5
75
330
2
100
AcDbEntity
  8
0
 48
0.1
100
AcDbLine
 10
119.3132041190195
 20
100.4432583203895
 30
0.0
 11
108.4342210660527
 21
100.2278766469492
 31
0.0
  0
LINE
  5
76
330
2
100
AcDbEntity
  8
0
 48
0.1
100
AcDbLine
 10
121.641573975915
 20
97.86435529413461
 30
0.0
 11
103.503682673104
 21
97.86435529413461
 31
0.0
  0
LINE
  5
77
330
2
100
AcDbEntity
  8
0
 48
0.1
100
AcDbLine
 10
105.8557991375895
 20
100.9469488994373
 30
0.0
 11
126.141573975915
 21
100.9467111166767
 31
0.0
  0
LINE
  5
78
330
2
100
AcDbEntity
  8
0
 48
0.1
100
AcDbLine
 10
105.8557991375895
 20
101.4469488994373
 30
0.0
 11
126.141573975915
 21
101.4469488994373
 31
0.0
  0
SPLINE
  5
79
330
2
100
AcDbEntity
  8
0
 48
0.1
100
AcDbSpline
210
0.0
220
0.0
230
1.0
 70
     8
 71
     3
 72
    12
 73
     8
 74
     6
 42
0.0000000001
 43
0.0000000001
 44
0.0000000001
 40
0.0
 40
0.0
 40
0.0
 40
0.0
 40
0.2758253131553454
 40
4.750605583366085
 40
9.241520244725705
 40
13.8885457714098
 40
16.12275330319014
 40
16.12275330319014
 40
16.12275330319014
 40
16.12275330319014
 10
105.3273447347863
 20
96.46731350125548
 30
0.0
 10
105.2355120608599
 20
96.46877558040262
 30
0.0
 10
103.6538558723834
 20
96.49395732054182
 30
0.0
 10
100.397520304179
 20
95.74015635421728
 30
0.0
 10
97.67543697078474
 20
91.69487571745866
 30
0.0
 10
97.23757492580892
 20
87.87997373749979
 30
0.0
 10
97.24470934977606
 20
85.5881271928292
 30
0.0
 10
97.24702576365521
 20
84.84400753167497
 30
0.0
 11
105.3273447347863
 21
96.46731350125548
 31
0.0
 11
105.0515356833028
 21
96.4703085800507
 31
0.0
 11
100.7435547368205
 21
95.25995382568609
 31
0.0
 11
98.06301854836036
 21
91.65675521362349
 31
0.0
 11
97.26875891592785
 21
87.07810935682894
 31
0.0
 11
97.24702576365521
 21
84.84400753167497
 31
0.0
  0
SPLINE
  5
7A
330
2
100
AcDbEntity
  8
0
 48
0.1
100
AcDbSpline
210
0.0
220
0.0
230
1.0
 70
     8
 71
     3
 72
     9
 73
     5
 74
     0
 42
0.0000000001
 43
0.0000000001
 40
7.200070814405144
 40
7.200070814405144
 40
7.200070814405144
 40
7.200070814405144
 40
11.80111578878096
 40
15.02317906206835
 40
15.02317906206835
 40
15.02317906206835
 40
15.02317906206835
 10
97.36305430045005
 20
97.19125001458506
 30
0.0
 10
98.6993552450968
 20
98.03310103156258
 30
0.0
 10
101.4470210872916
 20
99.56056713873108
 30
0.0
 10
106.0014960668078
 20
100.1454181575709
 30
0.0
 10
108.4342210660527
 20
100.2278766469492
 30
0.0
  0
SPLINE
  5
7B
330
2
100
AcDbEntity
  8
0
 48
0.1
100
AcDbSpline
210
0.0
220
0.0
230
1.0
 70
     8
 71
     3
 72
     9
 73
     5
 74
     0
 42
0.0000000001
 43
0.0000000001
 40
15.77471036417195
 40
15.77471036417195
 40
15.77471036417195
 40
15.77471036417195
 40
20.46675407414699
 40
24.170160606633
 40
24.170160606633
 40
24.170160606633
 40
24.170160606633
 10
97.57530060358519
 20
96.88209551145524
 30
0.0
 10
98.51131093096734
 20
97.55017759494961
 30
0.0
 10
100.3274879412811
 20
97.77948292667446
 30
0.0
 10
101.5608281621279
 20
97.84417745820366
 30
0.0
 10
103.503682673104
 20
97.86435529413461
 30
0.0
  0
LINE
  5
7C
330
2
100
AcDbEntity
  8
0
 48
0.1
100
AcDbLine
 10
125.9349158354524
 20
100.9029565110404
 30
0.0
 11
121.641573975915
 21
100.4893552941346
 31
0.0
  0
ARC
  5
7D
330
2
100
AcDbEntity
  8
0
 48
0.1
100
AcDbCircle
 10
125.9868040202207
 20
109.557208736372
 30
0.0
 40
12.24999999999998
100
AcDbArc
 50
247.6612761728191
 51
271.4173453193241
  0
ARC
  5
7E
330
2
100
AcDbEntity
  8
0
 48
0.1
100
AcDbCircle
 10
126.0314269921753
 20
107.9328176874963
 30
0.0
 40
9.49999999999995
100
AcDbArc
 50
247.8927089166702
 51
271.417315753711
  0
ARC
  5
7F
330
2
100
AcDbEntity
  8
0
 48
0.1
100
AcDbCircle
 10
122.6610919148712
 20
101.4638695619439
 30
0.0
 40
3.499999999999998
100
AcDbArc
 50
188.4957649165357
 51
247.6612761728193
  0
LINE
  5
80
330
2
100
AcDbEntity
  8
0
 48
0.1
100
AcDbLine
 10
122.1130787444287
 20
97.93581671614957
 30
0.0
 11
121.641573975915
 21
97.86435529413461
 31
0.0
  0
LINE
  5
81
330
2
100
AcDbEntity
  8
0
 48
0.1
100
AcDbLine
 10
121.641573975915
 20
98.10376052799114
 30
0.0
 11
121.641573975915
 21
97.86435529413461
 31
0.0
  0
LINE
  5
82
330
2
100
AcDbEntity
  8
0
 48
0.1
100
AcDbLine
 10
121.641573975915
 20
98.10376052799114
 30
0.0
 11
121.641573975915
 21
97.86435529413461
 31
0.0
  0
ARC
  5
83
330
2
100
AcDbEntity
  8
0
 48
0.1
100
AcDbCircle
 10
123.2088607620198
 20
100.9842120808739
 30
0.0
 40
2.000000000000006
100
AcDbArc
 50
181.0727298690437
 51
247.8927089166702
  0
LINE
  5
84
330
2
100
AcDbEntity
  8
0
 48
0.1
100
AcDbLine
 10
121.641573975915
 20
100.4893552941346
 30
0.0
 11
121.641573975915
 21
99.74179019998913
 31
0.0
  0
LINE
  5
8B
330
2
100
AcDbEntity
  8
0
 48
0.1
100
AcDbLine
 10
121.641573975915
 20
100.4893552941346
 30
0.0
 11
121.2729268511989
 21
100.4820568330336
 31
0.0
  0
LINE
  5
8C
330
2
100
AcDbEntity
  8
0
 48
0.1
100
AcDbLine
 10
121.641573975915
 20
100.4893552941346
 30
0.0
 11
121.641573975915
 21
99.74179019998913
 31
0.0
  0
ARC
  5
8D
330
2
100
AcDbEntity
  8
0
 48
0.1
100
AcDbCircle
 10
128.4622213645364
 20
101.170389834246
 30
0.0
 40
3.804523376427755
100
AcDbArc
 50
271.321598784317
 51
295.4966210071412
  0
LINE
  5
93
330
2
100
AcDbEntity
  8
0
 48
0.1
100
AcDbLine
 10
126.2898055602178
 20
97.31095665392821
 30
0.0
 11
128.5499696709482
 21
97.36687851488511
 31
0.0
  0
ARC
  5
95
330
2
100
AcDbEntity
  8
0
 48
0.1
100
AcDbCircle
 10
127.641573975915
 20
99.6692566732268
 30
0.0
 40
1.000237782760624
100
AcDbArc
 50
180.0
 51
270.7079139002483
  0
ARC
  5
96
330
2
100
AcDbEntity
  8
0
 48
0.1
100
AcDbCircle
 10
127.641573975915
 20
99.6692566732268
 30
0.0
 40
0.5
100
AcDbArc
 50
180.0
 51
270.7079139002483
  0
ARC
  5
97
330
2
100
AcDbEntity
  8
0
 48
0.1
100
AcDbCircle
 10
127.7054949222412
 20
88.66920461017295
 30
0.0
 40
10.0
100
AcDbArc
 50
90.33294017188604
 51
98.61817905250784
  0
LINE
  5
98
330
2
100
AcDbEntity
  8
0
 48
0.1
100
AcDbLine
 10
127.8962643877737
 20
98.47604994145667
 30
0.0
 11
126.2664028776311
 21
98.43572411455241
 31
0.0
  0
LINE
  5
99
330
2
100
AcDbEntity
  8
0
 48
0.1
100
AcDbLine
 10
126.2070043941534
 20
98.55629347076439
 30
0.0
 11
125.4930447488898
 21
98.44808550571528
 31
0.0
  0
LINE
  5
9A
330
2
100
AcDbEntity
  8
0
 48
0.1
100
AcDbLine
 10
126.6414588955016
 20
99.65358989335506
 30
0.0
 11
126.6413361931544
 21
100.4469488994373
 31
0.0
  0
LINE
  5
9B
330
2
100
AcDbEntity
  8
0
 48
0.1
100
AcDbLine
 10
127.141573975915
 20
99.66925667322678
 30
0.0
 11
127.141573975915
 21
100.4469488994373
 31
0.0
  0
ARC
  5
9C
330
2
100
AcDbEntity
  8
0
 48
0.1
100
AcDbCircle
 10
126.141573975915
 20
100.4469488994373
 30
0.0
 40
0.4997622172393754
100
AcDbArc
 50
0.0000000000005229
 51
90.00000000000003
  0
ARC
  5
9D
330
2
100
AcDbEntity
  8
0
 48
0.1
100
AcDbCircle
 10
127.8916267058239
 20
98.66349257776478
 30
0.0
 40
0.1875000000000152
100
AcDbArc
 50
271.4173157537121
 51
3.428107531400282
  0
ARC
  5
9E
330
2
100
AcDbEntity
  8
0
 48
0.1
100
AcDbCircle
 10
129.7092988023974
 20
98.51936099041539
 30
0.0
 40
0.8750000000000046
100
AcDbArc
 50
296.5136460772232
 51
1.417345319323351
  0
LINE
  5
9F
330
2
100
AcDbEntity
  8
0
 48
0.1
100
AcDbLine
 10
130.5840310940006
 20
98.54100395755803
 30
0.0
 11
130.580055265465
 21
98.70169290482968
 31
0.0
  0
LINE
  5
A0
330
2
100
AcDbEntity
  8
0
 48
0.1
100
AcDbLine
 10
129.7123584193605
 20
104.0313868714589
 30
0.0
 11
112.5707895907052
 21
104.0313868714589
 31
0.0
  0
SPLINE
  5
A1
330
2
100
AcDbEntity
  8
0
 48
0.1
100
AcDbSpline
210
0.0
220
0.0
230
1.0
 70
     8
 71
     3
 72
    12
 73
     8
 74
     6
 42
0.0000000001
 43
0.0000000001
 44
0.0000000001
 40
0.0
 40
0.0
 40
0.0
 40
0.0
 40
0.2758253131553454
 40
4.750605583366085
 40
9.191627467633242
 40
13.90036437318376
 40
16.1345719049641
 40
16.1345719049641
 40
16.1345719049641
 40
16.1345719049641
 10
142.7914320552819
 20
73.21888687145267
 30
0.0
 10
142.8832703883555
 20
73.21742132909998
 30
0.0
 10
144.465024045681
 20
73.19217994133994
 30
0.0
 10
147.6942238339912
 20
73.94775901475947
 30
0.0
 10
150.4736170583652
 20
77.95365047544351
 30
0.0
 10
150.8775437449078
 20
81.78732507471998
 30
0.0
 10
150.8731612825943
 20
84.09865790549917
 30
0.0
 10
150.8717510264131
 20
84.84243416146517
 30
0.0
 11
142.7914320552819
 21
73.21888687145267
 31
0.0
 11
143.0672411067655
 21
73.21589179265746
 31
0.0
 11
147.3752220532477
 21
74.42624654702206
 31
0.0
 11
150.055758241708
 21
77.96706581929436
 31
0.0
 11
150.8500178741405
 21
82.60833233631121
 31
0.0
 11
150.8717510264131
 21
84.84243416146517
 31
0.0
  0
LINE
  5
A2
330
2
100
AcDbEntity
  8
CENTER
 48
0.05
100
AcDbLine
 10
146.0665740050328
 20
80.85959942694538
 30
0.0
 11
146.0665740050328
 21
88.79692431597257
 31
0.0
  0
SPLINE
  5
A5
330
2
100
AcDbEntity
  8
0
 48
0.1
100
AcDbSpline
210
0.0
220
0.0
230
1.0
 70
     8
 71
     3
 72
    12
 73
     8
 74
     6
 42
0.0000000001
 43
0.0000000001
 44
0.0000000001
 40
0.0
 40
0.0
 40
0.0
 40
0.0
 40
0.2758253131553454
 40
4.750605583366085
 40
9.241520244725705
 40
13.8885457714098
 40
16.12275330319014
 40
16.12275330319014
 40
16.12275330319014
 40
16.12275330319014
 10
142.7914320552819
 20
96.46888687146528
 30
0.0
 10
142.8832647292084
 20
96.47034895061242
 30
0.0
 10
144.4649209176847
 20
96.49553069075157
 30
0.0
 10
147.7212564858892
 20
95.7417297244271
 30
0.0
 10
150.4433398192836
 20
91.69644908766846
 30
0.0
 10
150.8812018642594
 20
87.88154710770957
 30
0.0
 10
150.8740674402923
 20
85.58970056303898
 30
0.0
 10
150.8717510264131
 20
84.84558090188476
 30
0.0
 11
142.7914320552819
 21
96.46888687146528
 31
0.0
 11
143.0672411067655
 21
96.4718819502605
 31
0.0
 11
147.3752220532477
 21
95.26152719589589
 31
0.0
 11
150.055758241708
 21
91.65832858383328
 31
0.0
 11
150.8500178741405
 21
87.07968272703874
 31
0.0
 11
150.8717510264131
 21
84.84558090188476
 31
0.0
  0
CIRCLE
  5
A6
330
2
100
AcDbEntity
  8
0
 48
0.1
100
AcDbCircle
 10
146.0665740050328
 20
84.84388687145898
 30
0.0
 40
1.25
  0
CIRCLE
  5
A7
330
2
100
AcDbEntity
  8
0
 48
0.1
100
AcDbCircle
 10
146.0665740050328
 20
84.84412819189097
 30
0.0
 40
1.25
  0
CIRCLE
  5
A8
330
2
100
AcDbEntity
  8
0
 48
0.1
100
AcDbCircle
 10
146.0665740050328
 20
84.84388687145898
 30
0.0
 40
1.89014635623478
  0
LINE
  5
A9
330
2
100
AcDbEntity
  8
CENTER
 48
0.05
100
AcDbLine
 10
150.0196114495464
 20
84.84388687145898
 30
0.0
 11
142.1135365605193
 21
84.84388687145898
 31
0.0
  0
ENDSEC
  0
SECTION
  2
OBJECTS
  0
DICTIONARY
  5
7
330
0
100
AcDbDictionary
  3
ACAD_GROUP
350
29
  3
ACAD_LAYOUT
350
B
  3
ACAD_MLINESTYLE
350
2A
  3
ACAD_PLOTSETTINGS
350
2B
  3
ACAD_PLOTSTYLENAME
350
6
  3
ACDBHEADERROUNDTRIPXREC
350
1E9
  3
ACDBVARIABLEDICTIONARY
350
AA
  0
DICTIONARY
  5
11
330
10
100
AcDbDictionary
280
     1
  3
ACAD_LAYERFILTERS
360
12
  0
DICTIONARY
  5
BC
330
2
100
AcDbDictionary
280
     1
  3
ACAD_LAYOUTSELFREF
360
20A
  0
DICTIONARY
  5
BE
330
B1
100
AcDbDictionary
280
     1
  3
ACAD_LAYOUTSELFREF
360
20B
  0
DICTIONARY
  5
29
102
{ACAD_REACTORS
330
7
102
}
330
7
100
AcDbDictionary
  0
DICTIONARY
  5
B
102
{ACAD_REACTORS
330
7
102
}
330
7
100
AcDbDictionary
  0
DICTIONARY
  5
2A
102
{ACAD_REACTORS
330
7
102
}
330
7
100
AcDbDictionary
  3
STANDARD
350
2D
  0
DICTIONARY
  5
2B
102
{ACAD_REACTORS
330
7
102
}
330
7
100
AcDbDictionary
  0
ACDBDICTIONARYWDFLT
  5
6
102
{ACAD_REACTORS
330
7
102
}
330
7
100
AcDbDictionary
281
     1
  3
Normal
350
5
100
AcDbDictionaryWithDefault
340
5
  0
DICTIONARY
  5
1E9
102
{ACAD_REACTORS
330
7
102
}
330
7
100
AcDbDictionary
  3
CEPSNTYPE
350
1F3
  3
DIMSTYLEDATA
350
1F7
  3
FINGERPRINTGUID
350
1F4
  3
HYPERLINKBASE
350
1EC
  3
INSUNITS
350
1F2
  3
LAYOUTDICT
350
1EE
  3
LWETCUNION
350
1F1
  3
PLOTSETDICT
350
1EF
  3
PLOTSTYLNAMDICT
350
1F0
  3
PSVPSCALE
350
1F6
  3
PUCSBASE
350
1FA
  3
PUCSORGBACK
350
200
  3
PUCSORGBOTTOM
350
1FC
  3
PUCSORGFRONT
350
1FF
  3
PUCSORGLEFT
350
1FD
  3
PUCSORGRIGHT
350
1FE
  3
PUCSORGTOP
350
1FB
  3
PUCSORTHOREF
350
1F8
  3
PUCSORTHOVIEW
350
1F9
  3
STYLESHEET
350
1ED
  3
TSTACKALIGN
350
1EA
  3
TSTACKSIZE
350
1EB
  3
UCSBASE
350
203
  3
UCSORGBACK
350
209
  3
UCSORGBOTTOM
350
205
  3
UCSORGFRONT
350
208
  3
UCSORGLEFT
350
206
  3
UCSORGRIGHT
350
207
  3
UCSORGTOP
350
204
  3
UCSORTHOREF
350
201
  3
UCSORTHOVIEW
350
202
  3
VERSIONGUID
350
1F5
  0
DICTIONARY
  5
AA
102
{ACAD_REACTORS
330
7
102
}
330
7
100
AcDbDictionary
  3
DIMASSOC
350
AC
  3
HIDETEXT
350
AB
  0
DICTIONARY
  5
12
102
{ACAD_REACTORS
330
11
102
}
330
11
100
AcDbDictionary
280
     1
  3
DIM-1_12
360
13
  3
DIM-1_16
360
14
  0
XRECORD
  5
20A
102
{ACAD_REACTORS
330
BC
102
}
330
BC
100
AcDbXrecord
340
2
  0
XRECORD
  5
20B
102
{ACAD_REACTORS
330
BE
102
}
330
BE
100
AcDbXrecord
340
B1
  0
MLINESTYLE
  5
2D
102
{ACAD_REACTORS
330
2A
102
}
330
2A
100
AcDbMlineStyle
  2
STANDARD
 70
     0
  3

 62
   256
 51
90.0
 52
90.0
 71
     2
 49
0.5
 62
   256
  6
BYLAYER
 49
-0.5
 62
   256
  6
BYLAYER
  0
ACDBPLACEHOLDER
  5
5
102
{ACAD_REACTORS
330
6
102
}
330
6
100
AcDbPlaceHolder
280
     0
  0
XRECORD
  5
1F3
102
{ACAD_REACTORS
330
1E9
102
}
330
1E9
100
AcDbXrecord
 90
        0
  0
XRECORD
  5
1F7
102
{ACAD_REACTORS
330
1E9
102
}
330
1E9
100
AcDbXrecord
1000
DSTYLE
1002
{
1070
    79
 70
     1
1070
   276
 70
     1
1070
   277
 70
     5
1002
}
  0
XRECORD
  5
1F4
102
{ACAD_REACTORS
330
1E9
102
}
330
1E9
100
AcDbXrecord
  1
{6A4AC8E0-4F58-11D5-8420-0003476D26AB}
  0
XRECORD
  5
1EC
102
{ACAD_REACTORS
330
1E9
102
}
330
1E9
100
AcDbXrecord
  1

  0
XRECORD
  5
1F2
102
{ACAD_REACTORS
330
1E9
102
}
330
1E9
100
AcDbXrecord
 90
        1
  0
XRECORD
  5
1EE
102
{ACAD_REACTORS
330
1E9
102
}
330
1E9
100
AcDbXrecord
340
B
  0
XRECORD
  5
1F1
102
{ACAD_REACTORS
330
1E9
102
}
330
1E9
100
AcDbXrecord
 90
    10781
  0
XRECORD
  5
1EF
102
{ACAD_REACTORS
330
1E9
102
}
330
1E9
100
AcDbXrecord
340
2B
  0
XRECORD
  5
1F0
102
{ACAD_REACTORS
330
1E9
102
}
330
1E9
100
AcDbXrecord
340
6
  0
XRECORD
  5
1F6
102
{ACAD_REACTORS
330
1E9
102
}
330
1E9
100
AcDbXrecord
 40
0.0
  0
XRECORD
  5
1FA
102
{ACAD_REACTORS
330
1E9
102
}
330
1E9
100
AcDbXrecord
340
0
  0
XRECORD
  5
200
102
{ACAD_REACTORS
330
1E9
102
}
330
1E9
100
AcDbXrecord
 10
0.0
 20
0.0
 30
0.0
  0
XRECORD
  5
1FC
102
{ACAD_REACTORS
330
1E9
102
}
330
1E9
100
AcDbXrecord
 10
0.0
 20
0.0
 30
0.0
  0
XRECORD
  5
1FF
102
{ACAD_REACTORS
330
1E9
102
}
330
1E9
100
AcDbXrecord
 10
0.0
 20
0.0
 30
0.0
  0
XRECORD
  5
1FD
102
{ACAD_REACTORS
330
1E9
102
}
330
1E9
100
AcDbXrecord
 10
0.0
 20
0.0
 30
0.0
  0
XRECORD
  5
1FE
102
{ACAD_REACTORS
330
1E9
102
}
330
1E9
100
AcDbXrecord
 10
0.0
 20
0.0
 30
0.0
  0
XRECORD
  5
1FB
102
{ACAD_REACTORS
330
1E9
102
}
330
1E9
100
AcDbXrecord
 10
0.0
 20
0.0
 30
0.0
  0
XRECORD
  5
1F8
102
{ACAD_REACTORS
330
1E9
102
}
330
1E9
100
AcDbXrecord
340
0
  0
XRECORD
  5
1F9
102
{ACAD_REACTORS
330
1E9
102
}
330
1E9
100
AcDbXrecord
 70
     0
  0
XRECORD
  5
1ED
102
{ACAD_REACTORS
330
1E9
102
}
330
1E9
100
AcDbXrecord
  1

  0
XRECORD
  5
1EA
102
{ACAD_REACTORS
330
1E9
102
}
330
1E9
100
AcDbXrecord
 90
        1
  0
XRECORD
  5
1EB
102
{ACAD_REACTORS
330
1E9
102
}
330
1E9
100
AcDbXrecord
 90
       70
  0
XRECORD
  5
203
102
{ACAD_REACTORS
330
1E9
102
}
330
1E9
100
AcDbXrecord
340
0
  0
XRECORD
  5
209
102
{ACAD_REACTORS
330
1E9
102
}
330
1E9
100
AcDbXrecord
 10
0.0
 20
0.0
 30
0.0
  0
XRECORD
  5
205
102
{ACAD_REACTORS
330
1E9
102
}
330
1E9
100
AcDbXrecord
 10
0.0
 20
0.0
 30
0.0
  0
XRECORD
  5
208
102
{ACAD_REACTORS
330
1E9
102
}
330
1E9
100
AcDbXrecord
 10
0.0
 20
0.0
 30
0.0
  0
XRECORD
  5
206
102
{ACAD_REACTORS
330
1E9
102
}
330
1E9
100
AcDbXrecord
 10
0.0
 20
0.0
 30
0.0
  0
XRECORD
  5
207
102
{ACAD_REACTORS
330
1E9
102
}
330
1E9
100
AcDbXrecord
 10
0.0
 20
0.0
 30
0.0
  0
XRECORD
  5
204
102
{ACAD_REACTORS
330
1E9
102
}
330
1E9
100
AcDbXrecord
 10
0.0
 20
0.0
 30
0.0
  0
XRECORD
  5
201
102
{ACAD_REACTORS
330
1E9
102
}
330
1E9
100
AcDbXrecord
340
0
  0
XRECORD
  5
202
102
{ACAD_REACTORS
330
1E9
102
}
330
1E9
100
AcDbXrecord
 70
     1
  0
XRECORD
  5
1F5
102
{ACAD_REACTORS
330
1E9
102
}
330
1E9
100
AcDbXrecord
  1
{BD123860-9D96-4E6A-882B-723814A94DD3}
  0
DICTIONARYVAR
  5
AC
102
{ACAD_REACTORS
330
AA
102
}
330
AA
100
DictionaryVariables
280
     0
  1
1
  0
DICTIONARYVAR
  5
AB
102
{ACAD_REACTORS
330
AA
102
}
330
AA
100
DictionaryVariables
280
     0
  1
1
  0
XRECORD
  5
13
102
{ACAD_REACTORS
330
12
102
}
330
0
100
AcDbXrecord
  1
DIM-1_12
  1
DIM-1_12
  1
*
  1
*
 70
     0
  1
*
  1
*
  0
XRECORD
  5
14
102
{ACAD_REACTORS
330
12
102
}
330
12
100
AcDbXrecord
  1
dim-1_16
  1
*
  1
*
  1
*
 70
     0
  1
*
  1
*
  0
ENDSEC
  0
EOF
