  0
SECTION
  2
HEADER
  9
$ACADVER
  1
AC1014
  9
$ACADMAINTVER
 70
     9
  9
$DWGCODEPAGE
  3
ANSI_1252
  9
$INSBASE
 10
145.8790740050328
 20
84.84412819189097
 30
0.0
  9
$EXTMIN
 10
91.62664112135052
 20
65.9029167298022
 30
-0.0015258207003583
  9
$EXTMAX
 10
157.3927212004761
 20
103.7909957563669
 30
0.0000000349246037
  9
$LIMMIN
 10
0.0
 20
0.0
  9
$LIMMAX
 10
187.3118571637889
 20
134.3269220688476
  9
$ORTHOMODE
 70
     1
  9
$REGENMODE
 70
     1
  9
$FILLMODE
 70
     1
  9
$QTEXTMODE
 70
     0
  9
$MIRRTEXT
 70
     0
  9
$DRAGMODE
 70
     2
  9
$LTSCALE
 40
2.0
  9
$OSMODE
 70
    55
  9
$ATTMODE
 70
     1
  9
$TEXTSIZE
 40
0.15
  9
$TRACEWID
 40
1.0
  9
$TEXTSTYLE
  7
CARTOUCHE
  9
$CLAYER
  8
0
  9
$CELTYPE
  6
BYLAYER
  9
$CECOLOR
 62
   256
  9
$CELTSCALE
 40
1.0
  9
$DELOBJ
 70
     1
  9
$DISPSILH
 70
     0
  9
$DIMSCALE
 40
16.0
  9
$DIMASZ
 40
0.1
  9
$DIMEXO
 40
0.0625
  9
$DIMDLI
 40
0.25
  9
$DIMRND
 40
0.0
  9
$DIMDLE
 40
0.0
  9
$DIMEXE
 40
0.1
  9
$DIMTP
 40
0.0
  9
$DIMTM
 40
0.0
  9
$DIMTXT
 40
0.1
  9
$DIMCEN
 40
0.0625
  9
$DIMTSZ
 40
0.0
  9
$DIMTOL
 70
     0
  9
$DIMLIM
 70
     0
  9
$DIMTIH
 70
     1
  9
$DIMTOH
 70
     1
  9
$DIMSE1
 70
     0
  9
$DIMSE2
 70
     0
  9
$DIMTAD
 70
     0
  9
$DIMZIN
 70
    12
  9
$DIMBLK
  1

  9
$DIMASO
 70
     1
  9
$DIMSHO
 70
     1
  9
$DIMPOST
  1
\X
  9
$DIMAPOST
  1
cm
  9
$DIMALT
 70
     1
  9
$DIMALTD
 70
     1
  9
$DIMALTF
 40
2.54
  9
$DIMLFAC
 40
1.0
  9
$DIMTOFL
 70
     0
  9
$DIMTVP
 40
0.0
  9
$DIMTIX
 70
     0
  9
$DIMSOXD
 70
     0
  9
$DIMSAH
 70
     0
  9
$DIMBLK1
  1

  9
$DIMBLK2
  1

  9
$DIMSTYLE
  2
STANDARD
  9
$DIMCLRD
 70
     0
  9
$DIMCLRE
 70
     0
  9
$DIMCLRT
 70
     0
  9
$DIMTFAC
 40
1.0
  9
$DIMGAP
 40
0.08
  9
$DIMJUST
 70
     0
  9
$DIMSD1
 70
     0
  9
$DIMSD2
 70
     0
  9
$DIMTOLJ
 70
     1
  9
$DIMTZIN
 70
     4
  9
$DIMALTZ
 70
    12
  9
$DIMALTTZ
 70
     4
  9
$DIMFIT
 70
     3
  9
$DIMUPT
 70
     0
  9
$DIMUNIT
 70
     5
  9
$DIMDEC
 70
     3
  9
$DIMTDEC
 70
     3
  9
$DIMALTU
 70
     2
  9
$DIMALTTD
 70
     1
  9
$DIMTXSTY
  7
ROMANS
  9
$DIMAUNIT
 70
     0
  9
$LUNITS
 70
     2
  9
$LUPREC
 70
     2
  9
$SKETCHINC
 40
1.0
  9
$FILLETRAD
 40
3.0
  9
$AUNITS
 70
     0
  9
$AUPREC
 70
     0
  9
$MENU
  1
.
  9
$ELEVATION
 40
0.0
  9
$PELEVATION
 40
0.0
  9
$THICKNESS
 40
0.0
  9
$LIMCHECK
 70
     0
  9
$BLIPMODE
 70
     0
  9
$CHAMFERA
 40
0.0
  9
$CHAMFERB
 40
0.0
  9
$CHAMFERC
 40
20.0
  9
$CHAMFERD
 40
0.0
  9
$SKPOLY
 70
     0
  9
$TDCREATE
 40
2452072.673626736
  9
$TDUPDATE
 40
2453690.447040763
  9
$TDINDWG
 40
2.3852712269
  9
$TDUSRTIMER
 40
2.3852617361
  9
$USRTIMER
 70
     1
  9
$ANGBASE
 50
0.0
  9
$ANGDIR
 70
     0
  9
$PDMODE
 70
    33
  9
$PDSIZE
 40
0.25
  9
$PLINEWID
 40
0.0
  9
$COORDS
 70
     1
  9
$SPLFRAME
 70
     0
  9
$SPLINETYPE
 70
     6
  9
$SPLINESEGS
 70
     8
  9
$ATTDIA
 70
     0
  9
$ATTREQ
 70
     1
  9
$HANDLING
 70
 22529
  9
$HANDSEED
  5
150
  9
$SURFTAB1
 70
     6
  9
$SURFTAB2
 70
     6
  9
$SURFTYPE
 70
     6
  9
$SURFU
 70
     6
  9
$SURFV
 70
     6
  9
$UCSNAME
  2

  9
$UCSORG
 10
0.0
 20
0.0
 30
0.0
  9
$UCSXDIR
 10
1.0
 20
0.0
 30
0.0
  9
$UCSYDIR
 10
0.0
 20
1.0
 30
0.0
  9
$PUCSNAME
  2

  9
$PUCSORG
 10
0.0
 20
0.0
 30
0.0
  9
$PUCSXDIR
 10
1.0
 20
0.0
 30
0.0
  9
$PUCSYDIR
 10
0.0
 20
1.0
 30
0.0
  9
$USERI1
 70
     0
  9
$USERI2
 70
     0
  9
$USERI3
 70
     0
  9
$USERI4
 70
     0
  9
$USERI5
 70
     0
  9
$USERR1
 40
0.0
  9
$USERR2
 40
0.0
  9
$USERR3
 40
0.0
  9
$USERR4
 40
0.0
  9
$USERR5
 40
0.0
  9
$WORLDVIEW
 70
     1
  9
$SHADEDGE
 70
     3
  9
$SHADEDIF
 70
    70
  9
$TILEMODE
 70
     1
  9
$MAXACTVP
 70
    48
  9
$PINSBASE
 10
0.0
 20
0.0
 30
0.0
  9
$PLIMCHECK
 70
     0
  9
$PEXTMIN
 10
0.0
 20
0.0
 30
0.0
  9
$PEXTMAX
 10
0.0
 20
0.0
 30
0.0
  9
$PLIMMIN
 10
0.0
 20
0.0
  9
$PLIMMAX
 10
12.0
 20
9.0
  9
$UNITMODE
 70
     0
  9
$VISRETAIN
 70
     1
  9
$PLINEGEN
 70
     0
  9
$PSLTSCALE
 70
     1
  9
$TREEDEPTH
 70
  3020
  9
$PICKSTYLE
 70
     1
  9
$CMLSTYLE
  2
STANDARD
  9
$CMLJUST
 70
     0
  9
$CMLSCALE
 40
20.0
  9
$PROXYGRAPHICS
 70
     1
  9
$MEASUREMENT
 70
     0
  0
ENDSEC
  0
SECTION
  2
CLASSES
  0
CLASS
  1
ACDBDICTIONARYWDFLT
  2
AcDbDictionaryWithDefault
  3
AutoCAD 2000
 90
        0
280
     0
281
     0
  0
CLASS
  1
ACDBPLACEHOLDER
  2
AcDbPlaceHolder
  3
AutoCAD 2000
 90
        0
280
     0
281
     0
  0
CLASS
  1
LAYOUT
  2
AcDbLayout
  3
AutoCAD 2000
 90
        0
280
     0
281
     0
  0
CLASS
  1
DICTIONARYVAR
  2
AcDbDictionaryVar
  3
AutoCAD 2000
 90
        0
280
     0
281
     0
  0
CLASS
  1
IMAGEDEF
  2
AcDbRasterImageDef
  3
ISM
 90
        0
280
     0
281
     0
  0
CLASS
  1
LONG_TRANSACTION
  2
AcDbLongTransaction
  3
AutoCAD 2000
 90
        0
280
     0
281
     0
  0
CLASS
  1
LWPOLYLINE
  2
AcDbPolyline
  3
AutoCAD 2000
 90
        0
280
     0
281
     1
  0
CLASS
  1
HATCH
  2
AcDbHatch
  3
AutoCAD 2000
 90
        0
280
     0
281
     1
  0
CLASS
  1
XRECORD
  2
AcDbXrecord
  3
AutoCAD 2000
 90
        0
280
     0
281
     0
  0
CLASS
  1
LONG_TRANSACTION
  2
AcDbLongTransaction
  3
AutoCAD 2000
 90
        0
280
     0
281
     0
  0
CLASS
  1
LWPOLYLINE
  2
AcDbPolyline
  3
AutoCAD 2000
 90
        0
280
     0
281
     1
  0
CLASS
  1
HATCH
  2
AcDbHatch
  3
AutoCAD 2000
 90
        0
280
     0
281
     1
  0
CLASS
  1
XRECORD
  2
AcDbXrecord
  3
AutoCAD 2000
 90
        0
280
     0
281
     0
  0
ENDSEC
  0
SECTION
  2
TABLES
  0
TABLE
  2
VPORT
  5
1D
330
0
100
AcDbSymbolTable
 70
     3
  0
VPORT
  5
12C
330
1D
100
AcDbSymbolTableRecord
100
AcDbViewportTableRecord
  2
*ACTIVE
 70
     0
 10
0.0
 20
0.0
 11
1.0
 21
1.0
 12
124.5096811118543
 22
84.84695619661293
 13
0.0
 23
0.0
 14
10.0
 24
10.0
 15
10.0
 25
10.0
 16
0.0
 26
0.0
 36
1.0
 17
0.0
 27
0.0
 37
0.0
 40
49.42788882907731
 41
1.786792452830188
 42
50.0
 43
0.0
 44
0.0
 50
0.0
 51
0.0
 71
     0
 72
   100
 73
     1
 74
     3
 75
     0
 76
     0
 77
     0
 78
     1
  0
ENDTAB
  0
TABLE
  2
LTYPE
  5
18
330
0
100
AcDbSymbolTable
 70
     2
  0
LTYPE
  5
19
330
18
100
AcDbSymbolTableRecord
100
AcDbLinetypeTableRecord
  2
BYBLOCK
 70
     0
  3

 72
    65
 73
     0
 40
0.0
  0
LTYPE
  5
1A
330
18
100
AcDbSymbolTableRecord
100
AcDbLinetypeTableRecord
  2
BYLAYER
 70
     0
  3

 72
    65
 73
     0
 40
0.0
  0
LTYPE
  5
8
330
18
100
AcDbSymbolTableRecord
100
AcDbLinetypeTableRecord
  2
CONTINUOUS
 70
     0
  3
Solid line
 72
    65
 73
     0
 40
0.0
  0
LTYPE
  5
8B
330
18
100
AcDbSymbolTableRecord
100
AcDbLinetypeTableRecord
  2
CENTER
 70
     0
  3
Center ____ _ ____ _ ____ _ ____ _ ____ _ ____
 72
    65
 73
     4
 40
50.8
 49
31.75
 74
     0
 49
-6.349999999999999
 74
     0
 49
6.349999999999999
 74
     0
 49
-6.349999999999999
 74
     0
  0
ENDTAB
  0
TABLE
  2
LAYER
  5
10
102
{ACAD_XDICTIONARY
360
11
102
}
330
0
100
AcDbSymbolTable
 70
     2
  0
LAYER
  5
4
330
10
100
AcDbSymbolTableRecord
100
AcDbLayerTableRecord
  2
0
 70
     0
 62
     7
  6
CONTINUOUS
  0
LAYER
  5
8A
330
10
100
AcDbSymbolTableRecord
100
AcDbLayerTableRecord
  2
CENTER
 70
     0
 62
     1
  6
CENTER
  0
ENDTAB
  0
TABLE
  2
STYLE
  5
15
330
0
100
AcDbSymbolTable
 70
     3
  0
STYLE
  5
16
330
15
100
AcDbSymbolTableRecord
100
AcDbTextStyleTableRecord
  2
STANDARD
 70
     0
 40
0.0
 41
1.0
 50
0.0
 71
     0
 42
0.125
  3
txt
  4

  0
STYLE
  5
2B
330
15
100
AcDbSymbolTableRecord
100
AcDbTextStyleTableRecord
  2
CARTOUCHE
 70
     0
 40
0.0
 41
1.0
 50
0.0
 71
     0
 42
0.15
  3
romans.shx
  4

  0
STYLE
  5
23
330
15
100
AcDbSymbolTableRecord
100
AcDbTextStyleTableRecord
  2
ROMANS
 70
     0
 40
0.0
 41
1.0
 50
0.0
 71
     0
 42
1.0
  3
romans.shx
  4

  0
ENDTAB
  0
TABLE
  2
VIEW
  5
1B
330
0
100
AcDbSymbolTable
 70
     0
  0
ENDTAB
  0
TABLE
  2
UCS
  5
1C
330
0
100
AcDbSymbolTable
 70
     0
  0
ENDTAB
  0
TABLE
  2
APPID
  5
1F
330
0
100
AcDbSymbolTable
 70
     1
  0
APPID
  5
20
330
1F
100
AcDbSymbolTableRecord
100
AcDbRegAppTableRecord
  2
ACAD
 70
     0
  0
ENDTAB
  0
TABLE
  2
DIMSTYLE
  5
21
330
0
100
AcDbSymbolTable
 70
     1
  0
DIMSTYLE
105
22
330
21
100
AcDbSymbolTableRecord
100
AcDbDimStyleTableRecord
  2
STANDARD
 70
     0
  3
\X
  4
cm
  5

  6

  7

 40
16.0
 41
0.1
 42
0.0625
 43
0.25
 44
0.1
 45
0.0
 46
0.0
 47
0.0
 48
0.0
140
0.1
141
0.0625
142
0.0
143
2.54
144
1.0
145
0.0
146
1.0
147
0.08
 71
     0
 72
     0
 73
     1
 74
     1
 75
     0
 76
     0
 77
     0
 78
    12
170
     1
171
     1
172
     0
173
     0
174
     0
175
     0
176
     0
177
     0
178
     0
270
     5
271
     3
272
     3
273
     2
274
     1
340
23
275
     0
280
     0
281
     0
282
     0
283
     1
284
     4
285
    12
286
     4
287
     3
288
     0
  0
ENDTAB
  0
TABLE
  2
BLOCK_RECORD
  5
1
330
0
100
AcDbSymbolTable
 70
     0
  0
BLOCK_RECORD
  5
2
102
{ACAD_XDICTIONARY
360
A3
102
}
330
1
100
AcDbSymbolTableRecord
100
AcDbBlockTableRecord
  2
*MODEL_SPACE
  0
BLOCK_RECORD
  5
98
102
{ACAD_XDICTIONARY
360
A5
102
}
330
1
100
AcDbSymbolTableRecord
100
AcDbBlockTableRecord
  2
*PAPER_SPACE
  0
ENDTAB
  0
ENDSEC
  0
SECTION
  2
BLOCKS
  0
BLOCK
  5
3
330
2
100
AcDbEntity
  8
0
100
AcDbBlockBegin
  2
*MODEL_SPACE
 70
     0
 10
0.0
 20
0.0
 30
0.0
  3
*MODEL_SPACE
  1

  0
ENDBLK
  5
9
330
2
100
AcDbEntity
  8
0
100
AcDbBlockEnd
  0
BLOCK
  5
9A
330
98
100
AcDbEntity
 67
     1
  8
0
100
AcDbBlockBegin
  2
*PAPER_SPACE
 70
     0
 10
0.0
 20
0.0
 30
0.0
  3
*PAPER_SPACE
  1

  0
ENDBLK
  5
9B
330
98
100
AcDbEntity
 67
     1
  8
0
100
AcDbBlockEnd
  0
ENDSEC
  0
SECTION
  2
ENTITIES
  0
LINE
  5
2D
330
2
100
AcDbEntity
  8
0
 48
0.1
100
AcDbLine
 10
142.7789320552819
 20
73.46900753167497
 30
0.0
 11
111.74689906802
 21
73.46900753167497
 31
0.0
  0
LINE
  5
2E
330
2
100
AcDbEntity
  8
0
 48
0.1
100
AcDbLine
 10
142.7789320552819
 20
96.21900753167498
 30
0.0
 11
111.7468990680238
 21
96.21900753167498
 31
0.0
  0
SPLINE
  5
2F
330
2
100
AcDbEntity
  8
0
 48
0.1
100
AcDbSpline
210
0.0
220
0.0
230
1.0
 70
     8
 71
     3
 72
    44
 73
    40
 74
     0
 42
0.0000000001
 43
0.0000000001
 40
0.0
 40
0.0
 40
0.0
 40
0.0
 40
0.3988054279178983
 40
0.3988054279178983
 40
0.7976108558357966
 40
0.7976108558357966
 40
1.595221711671593
 40
1.595221711671593
 40
3.190443423343186
 40
3.190443423343186
 40
6.380886846686372
 40
6.380886846686372
 40
8.125180642446036
 40
8.125180642446036
 40
9.526313458519572
 40
9.526313458519572
 40
10.9274462745931
 40
10.9274462745931
 40
13.72971190674018
 40
13.72971190674018
 40
15.68938511115863
 40
15.68938511115863
 40
17.10598243821983
 40
17.10598243821983
 40
18.62676061675454
 40
18.62676061675454
 40
20.14753879528925
 40
20.14753879528925
 40
24.25850865662607
 40
24.25850865662607
 40
27.13762791613051
 40
27.13762791613051
 40
29.05974100225933
 40
29.05974100225933
 40
30.98185408838816
 40
30.98185408838816
 40
34.82608026064582
 40
34.82608026064582
 40
35.91992278804476
 40
35.91992278804476
 40
35.91992278804476
 40
35.91992278804476
 10
152.3790741506224
 20
84.8452141366465
 30
0.0
 10
152.37910622666
 20
84.71229558673213
 30
0.0
 10
152.3790308640823
 20
84.58963413888479
 30
0.0
 10
152.3781700065034
 20
84.33953090541939
 30
0.0
 10
152.3774382057086
 20
84.21520363218773
 30
0.0
 10
152.374172413271
 20
83.84447682404283
 30
0.0
 10
152.3705652932541
 20
83.60033115763071
 30
0.0
 10
152.3542204352732
 20
82.87761594341432
 30
0.0
 10
152.3359109759221
 20
82.40876732720604
 30
0.0
 10
152.2505218993161
 20
81.04713534563206
 30
0.0
 10
152.1522323344082
 20
80.20020229183495
 30
0.0
 10
151.9167143008624
 20
79.18938095707369
 30
0.0
 10
151.8176042715474
 20
78.78722029130887
 30
0.0
 10
151.6080419773692
 20
78.09880056409993
 30
0.0
 10
151.5047468663301
 20
77.80817413369155
 30
0.0
 10
151.2652088560908
 20
77.22509477223997
 30
0.0
 10
151.1299543963557
 20
76.9354808390895
 30
0.0
 10
150.682253632744
 20
76.08404876266892
 30
0.0
 10
150.3274674947182
 20
75.54006097480615
 30
0.0
 10
149.6590739073865
 20
74.70203672662752
 30
0.0
 10
149.3653469720513
 20
74.38195133599949
 30
0.0
 10
148.8402789184579
 20
73.88507157890927
 30
0.0
 10
148.6142448244593
 20
73.69311100668186
 30
0.0
 10
148.1398345326815
 20
73.33273619620179
 30
0.0
 10
147.8942918620829
 20
73.16900947424598
 30
0.0
 10
147.3561125423947
 20
72.85468223549736
 30
0.0
 10
147.0676623008014
 20
72.70716805466797
 30
0.0
 10
145.9238059550475
 20
72.19621766363808
 30
0.0
 10
144.9351022780095
 20
71.89494485837787
 30
0.0
 10
143.0585969345579
 20
71.50622712362383
 30
0.0
 10
142.2313103636836
 20
71.38125383432607
 30
0.0
 10
140.7962244464657
 20
71.21690152813312
 30
0.0
 10
140.2056506893947
 20
71.16218557101295
 30
0.0
 10
139.0639898395314
 20
71.11646772309962
 30
0.0
 10
138.4577926429674
 20
71.09987294460353
 30
0.0
 10
137.4425626321325
 20
71.11811956278843
 30
0.0
 10
136.2458420584774
 20
71.13454291235559
 30
0.0
 10
134.7617814528605
 20
71.13551612863478
 30
0.0
 10
132.8588418063801
 20
71.13551612863478
 30
0.0
 10
131.454119249946
 20
71.26879916719049
 30
0.0
  0
SPLINE
  5
30
330
2
100
AcDbEntity
  8
0
 48
0.1
100
AcDbSpline
210
0.0
220
0.0
230
1.0
 70
     8
 71
     3
 72
    13
 73
     9
 74
     7
 42
0.0000000001
 43
0.0000000001
 44
0.0000000001
 40
0.0
 40
0.0
 40
0.0
 40
0.0
 40
0.137801197213065
 40
8.732942929109729
 40
17.55825091913762
 40
27.85743143568341
 40
36.75599010967633
 40
39.06020569534871
 40
39.06020569534871
 40
39.06020569534871
 40
39.06020569534871
 10
157.3790740050329
 20
84.84400753167497
 30
0.0
 10
157.3790872249337
 20
84.79807935295893
 30
0.0
 10
157.379925016199
 20
81.88745033320484
 30
0.0
 10
157.0613622582672
 20
75.90087162012617
 30
0.0
 10
151.1090244895955
 20
67.81337385478607
 30
0.0
 10
141.4162158220622
 20
65.95757406832078
 30
0.0
 10
134.3309839056094
 20
65.90403182624473
 30
0.0
 10
130.5935777783962
 20
65.90608519042557
 30
0.0
 10
129.8248584193605
 20
65.90650753168128
 30
0.0
 11
157.3790740050329
 21
84.84400753167497
 31
0.0
 11
157.3790740050329
 21
84.70620633446191
 31
0.0
 11
156.2318393965557
 21
76.18797211929126
 31
0.0
 11
150.8913815925742
 21
69.16190838753198
 31
0.0
 11
141.0222152301456
 21
66.21696787487223
 31
0.0
 11
132.1290740050329
 21
65.90650753168128
 31
0.0
 11
129.8248584193605
 21
65.90650753168128
 31
0.0
  0
SPLINE
  5
31
330
2
100
AcDbEntity
  8
0
 48
0.1
100
AcDbSpline
210
0.0
220
0.0
230
1.0
 70
     8
 71
     3
 72
    13
 73
     9
 74
     7
 42
0.0000000001
 43
0.0000000001
 44
0.0000000001
 40
0.0
 40
0.0
 40
0.0
 40
0.0
 40
0.137801197213065
 40
8.732942929109729
 40
17.55825091913762
 40
27.85743143568341
 40
36.75599010967633
 40
39.06020569534871
 40
39.06020569534871
 40
39.06020569534871
 40
39.06020569534871
 10
157.3790740050329
 20
84.84400753167497
 30
0.0
 10
157.3790872249337
 20
84.88993571039101
 30
0.0
 10
157.379925016199
 20
87.80056473014523
 30
0.0
 10
157.0613622582672
 20
93.78714344322373
 30
0.0
 10
151.1090244895955
 20
101.8746412085639
 30
0.0
 10
141.4162158220622
 20
103.7304409950291
 30
0.0
 10
134.3309839056094
 20
103.7839832371051
 30
0.0
 10
130.5935777783962
 20
103.7819298729244
 30
0.0
 10
129.8248584193605
 20
103.7815075316686
 30
0.0
 11
157.3790740050329
 21
84.84400753167497
 31
0.0
 11
157.3790740050329
 21
84.98180872888804
 31
0.0
 11
156.2318393965557
 21
93.50004294405868
 31
0.0
 11
150.8913815925742
 21
100.5261066758179
 31
0.0
 11
141.0222152301456
 21
103.4710471884777
 31
0.0
 11
132.1290740050329
 21
103.7815075316686
 31
0.0
 11
129.8248584193605
 21
103.7815075316686
 31
0.0
  0
SPLINE
  5
32
330
2
100
AcDbEntity
  8
0
 48
0.1
100
AcDbSpline
210
0.0
220
0.0
230
1.0
 70
     8
 71
     3
 72
    44
 73
    40
 74
     0
 42
0.0000000001
 43
0.0000000001
 40
0.0
 40
0.0
 40
0.0
 40
0.0
 40
0.3988054279178983
 40
0.3988054279178983
 40
0.7976108558357966
 40
0.7976108558357966
 40
1.595221711671593
 40
1.595221711671593
 40
3.190443423343186
 40
3.190443423343186
 40
6.380886846686372
 40
6.380886846686372
 40
8.125180642446036
 40
8.125180642446036
 40
9.526313458519572
 40
9.526313458519572
 40
10.9274462745931
 40
10.9274462745931
 40
13.72971190674018
 40
13.72971190674018
 40
15.68938511115863
 40
15.68938511115863
 40
17.10598243821983
 40
17.10598243821983
 40
18.62676061675454
 40
18.62676061675454
 40
20.14753879528925
 40
20.14753879528925
 40
24.25850865662607
 40
24.25850865662607
 40
27.13762791613051
 40
27.13762791613051
 40
29.05974100225933
 40
29.05974100225933
 40
30.98185408838816
 40
30.98185408838816
 40
34.82608026064582
 40
34.82608026064582
 40
35.91992278804476
 40
35.91992278804476
 40
35.91992278804476
 40
35.91992278804476
 10
152.3790741506224
 20
84.83965418628386
 30
0.0
 10
152.37910622666
 20
84.97257273619821
 30
0.0
 10
152.3790308640823
 20
85.09523418404556
 30
0.0
 10
152.3781700065034
 20
85.34533741751097
 30
0.0
 10
152.3774382057086
 20
85.46966469074261
 30
0.0
 10
152.374172413271
 20
85.8403914988875
 30
0.0
 10
152.3705652932541
 20
86.08453716529963
 30
0.0
 10
152.3542204352732
 20
86.80725237951604
 30
0.0
 10
152.3359109759221
 20
87.27610099572432
 30
0.0
 10
152.2505218993161
 20
88.6377329772983
 30
0.0
 10
152.1522323344082
 20
89.2971660310954
 30
0.0
 10
151.9167143008624
 20
90.49548736585666
 30
0.0
 10
151.8176042715474
 20
90.89764803162148
 30
0.0
 10
151.6080419773692
 20
91.58606775883042
 30
0.0
 10
151.5047468663301
 20
91.8766941892388
 30
0.0
 10
151.2652088560908
 20
92.45977355069038
 30
0.0
 10
151.1299543963557
 20
92.74938748384085
 30
0.0
 10
150.682253632744
 20
93.60081956026144
 30
0.0
 10
150.3274674947182
 20
94.14480734812419
 30
0.0
 10
149.6590739073865
 20
94.98283159630283
 30
0.0
 10
149.3653469720513
 20
95.30291698693087
 30
0.0
 10
148.8402789184579
 20
95.79979674402109
 30
0.0
 10
148.6142448244593
 20
95.9917573162485
 30
0.0
 10
148.1398345326815
 20
96.35213212672857
 30
0.0
 10
147.8942918620829
 20
96.51585884868438
 30
0.0
 10
147.3561125423947
 20
96.83018608743299
 30
0.0
 10
147.0676623008014
 20
96.97770026826239
 30
0.0
 10
145.9238059550475
 20
97.48865065929228
 30
0.0
 10
144.9351022780095
 20
97.78992346455249
 30
0.0
 10
143.0585969345579
 20
98.17864119930653
 30
0.0
 10
142.2313103636836
 20
98.30361448860429
 30
0.0
 10
140.7962244464657
 20
98.46796679479723
 30
0.0
 10
140.2056506893947
 20
98.5226827519174
 30
0.0
 10
139.0639898395314
 20
98.56840059983074
 30
0.0
 10
138.4577926429674
 20
98.58499537832683
 30
0.0
 10
137.4425626321325
 20
98.56674876014192
 30
0.0
 10
136.2458420584774
 20
98.55032541057477
 30
0.0
 10
134.7617814528605
 20
98.54935219429558
 30
0.0
 10
132.8588418063801
 20
98.54935219429558
 30
0.0
 10
131.454119249946
 20
98.41606915573986
 30
0.0
  0
SPLINE
  5
33
330
2
100
AcDbEntity
  8
0
 48
0.1
100
AcDbSpline
210
0.0
220
0.0
230
1.0
 70
     8
 71
     3
 72
    66
 73
    62
 74
     0
 42
0.0000000001
 43
0.0000000001
 40
0.0
 40
0.0
 40
0.0
 40
0.0
 40
0.4926880956514307
 40
0.4926880956514307
 40
0.9853761913028613
 40
0.9853761913028613
 40
1.970752382605722
 40
1.970752382605722
 40
3.941504765211445
 40
3.941504765211445
 40
7.496573225491316
 40
7.496573225491316
 40
8.97774772073556
 40
8.97774772073556
 40
10.4589222159798
 40
10.4589222159798
 40
11.94009671122404
 40
11.94009671122404
 40
15.7532831728835
 40
15.7532831728835
 40
17.30780675282082
 40
17.30780675282082
 40
18.78271506492567
 40
18.78271506492567
 40
20.25762337703052
 40
20.25762337703052
 40
23.42930284945588
 40
23.42930284945588
 40
25.49940707452875
 40
25.49940707452875
 40
27.40807863236021
 40
27.40807863236021
 40
28.77350045719875
 40
28.77350045719875
 40
29.59502730752283
 40
29.59502730752283
 40
30.4165541578469
 40
30.4165541578469
 40
30.83153236652155
 40
30.83153236652155
 40
31.26514612459278
 40
31.26514612459278
 40
31.698759882664
 40
31.698759882664
 40
32.56598739880645
 40
32.56598739880645
 40
34.30044243109135
 40
34.30044243109135
 40
34.59941775286113
 40
34.59941775286113
 40
34.79778789389236
 40
34.79778789389236
 40
34.88184548805547
 40
34.88184548805547
 40
34.96590308221859
 40
34.96590308221859
 40
35.13401827054482
 40
35.13401827054482
 40
35.47024864719728
 40
35.47024864719728
 40
35.91992278804476
 40
35.91992278804476
 40
35.91992278804476
 40
35.91992278804476
 10
152.7540741397032
 20
84.83956369091098
 30
0.0
 10
152.7541138256083
 20
85.00401645243613
 30
0.0
 10
152.7539561115666
 20
85.15535649354799
 30
0.0
 10
152.7525271592824
 20
85.46506410029683
 30
0.0
 10
152.7513295646586
 20
85.618901332477
 30
0.0
 10
152.7459707165878
 20
86.07719974287052
 30
0.0
 10
152.7400427653411
 20
86.37846350607047
 30
0.0
 10
152.7128492761175
 20
87.26803567052773
 30
0.0
 10
152.682153907276
 20
87.84226734630273
 30
0.0
 10
152.5464833361536
 20
89.20061937865492
 30
0.0
 10
152.4019546382995
 20
90.1198318727542
 30
0.0
 10
152.0919922276255
 20
91.30131678869162
 30
0.0
 10
151.9888561748491
 20
91.63248839675839
 30
0.0
 10
151.7520189789175
 20
92.27671860656142
 30
0.0
 10
151.6160331015484
 20
92.59588196191211
 30
0.0
 10
151.3097851177388
 20
93.2255315071711
 30
0.0
 10
151.1397568354683
 20
93.53502314150452
 30
0.0
 10
150.4801957051732
 20
94.60604132397905
 30
0.0
 10
149.9074305632831
 20
95.31163906775534
 30
0.0
 10
149.0343441437339
 20
96.13003768111163
 30
0.0
 10
148.773624595035
 20
96.34686780682931
 30
0.0
 10
148.2592628934291
 20
96.72488045023483
 30
0.0
 10
148.0040029442192
 20
96.88972911608964
 30
0.0
 10
147.4501716453029
 20
97.20446945565591
 30
0.0
 10
147.1556043622674
 20
97.35161012031532
 30
0.0
 10
146.1668683202666
 20
97.78446779015466
 30
0.0
 10
145.40558272712
 20
98.03247125896596
 30
0.0
 10
144.0311689159449
 20
98.3682199868207
 30
0.0
 10
143.4579764082618
 20
98.48106887153726
 30
0.0
 10
142.3147427344556
 20
98.66525167686214
 30
0.0
 10
141.7482120088237
 20
98.73955174814987
 30
0.0
 10
140.7521050509613
 20
98.84679972097996
 30
0.0
 10
140.3294711165832
 20
98.88457831196781
 30
0.0
 10
139.6604536873439
 20
98.92161939508774
 30
0.0
 10
139.4122846386625
 20
98.9298462296935
 30
0.0
 10
138.92410062159
 20
98.94542719375857
 30
0.0
 10
138.6887106533319
 20
98.95124476937619
 30
0.0
 10
138.3811982096414
 20
98.95506616069994
 30
0.0
 10
138.2859348431924
 20
98.95551479611917
 30
0.0
 10
138.1121225157805
 20
98.9543042974337
 30
0.0
 10
138.0396119254479
 20
98.95253624228459
 30
0.0
 10
137.8707260541941
 20
98.94968157736018
 30
0.0
 10
137.7801885234245
 20
98.94821848006847
 30
0.0
 10
137.4927277650333
 20
98.94380802498231
 30
0.0
 10
137.2799567299417
 20
98.94083952697377
 30
0.0
 10
136.5976705091829
 20
98.93253644702008
 30
0.0
 10
136.0841689877071
 20
98.92780475301098
 30
0.0
 10
135.4741119678218
 20
98.92534098938128
 30
0.0
 10
135.3842119143336
 20
98.92505686903563
 30
0.0
 10
135.2347674066741
 20
98.92472969506435
 30
0.0
 10
135.1751878839899
 20
98.92463769374538
 30
0.0
 10
135.090512126131
 20
98.9245653801009
 30
0.0
 10
135.0652139271049
 20
98.92456032005174
 30
0.0
 10
134.9903815119551
 20
98.92447680114454
 30
0.0
 10
134.9441331123587
 20
98.9243958349588
 30
0.0
 10
134.7816466078162
 20
98.92385254949656
 30
0.0
 10
134.6416565815502
 20
98.92308990923147
 30
0.0
 10
134.1473813429111
 20
98.91813903614043
 30
0.0
 10
133.7187908035103
 20
98.91129174640839
 30
0.0
 10
132.6125834266819
 20
98.87782639461148
 30
0.0
 10
132.0875687837749
 20
98.84540600521951
 30
0.0
 10
131.4228378557702
 20
98.78976217732095
 30
0.0
  0
SPLINE
  5
34
330
2
100
AcDbEntity
  8
0
 48
0.1
100
AcDbSpline
210
0.0
220
0.0
230
1.0
 70
     8
 71
     3
 72
    66
 73
    62
 74
     0
 42
0.0000000001
 43
0.0000000001
 40
0.0
 40
0.0
 40
0.0
 40
0.0
 40
0.4926880956514307
 40
0.4926880956514307
 40
0.9853761913028613
 40
0.9853761913028613
 40
1.970752382605722
 40
1.970752382605722
 40
3.941504765211445
 40
3.941504765211445
 40
7.496573225491316
 40
7.496573225491316
 40
8.97774772073556
 40
8.97774772073556
 40
10.4589222159798
 40
10.4589222159798
 40
11.94009671122404
 40
11.94009671122404
 40
15.7532831728835
 40
15.7532831728835
 40
17.30780675282082
 40
17.30780675282082
 40
18.78271506492567
 40
18.78271506492567
 40
20.25762337703052
 40
20.25762337703052
 40
23.42930284945588
 40
23.42930284945588
 40
25.49940707452875
 40
25.49940707452875
 40
27.40807863236021
 40
27.40807863236021
 40
28.77350045719875
 40
28.77350045719875
 40
29.59502730752283
 40
29.59502730752283
 40
30.4165541578469
 40
30.4165541578469
 40
30.83153236652155
 40
30.83153236652155
 40
31.26514612459278
 40
31.26514612459278
 40
31.698759882664
 40
31.698759882664
 40
32.56598739880645
 40
32.56598739880645
 40
34.30044243109135
 40
34.30044243109135
 40
34.59941775286113
 40
34.59941775286113
 40
34.79778789389236
 40
34.79778789389236
 40
34.88184548805547
 40
34.88184548805547
 40
34.96590308221859
 40
34.96590308221859
 40
35.13401827054482
 40
35.13401827054482
 40
35.47024864719728
 40
35.47024864719728
 40
35.91992278804476
 40
35.91992278804476
 40
35.91992278804476
 40
35.91992278804476
 10
152.7540741397032
 20
84.84530463201938
 30
0.0
 10
152.7541138256083
 20
84.68085187049423
 30
0.0
 10
152.7539561115666
 20
84.52951182938237
 30
0.0
 10
152.7525271592824
 20
84.21980422263352
 30
0.0
 10
152.7513295646586
 20
84.06596699045335
 30
0.0
 10
152.7459707165878
 20
83.60766858005984
 30
0.0
 10
152.7400427653411
 20
83.30640481685989
 30
0.0
 10
152.7128492761175
 20
82.41683265240263
 30
0.0
 10
152.682153907276
 20
81.84260097662763
 30
0.0
 10
152.5464833361536
 20
80.29674894427543
 30
0.0
 10
152.4019546382995
 20
79.56503645017615
 30
0.0
 10
152.0919922276255
 20
78.38355153423873
 30
0.0
 10
151.9888561748491
 20
78.05237992617197
 30
0.0
 10
151.7520189789175
 20
77.40814971636893
 30
0.0
 10
151.6160331015484
 20
77.08898636101825
 30
0.0
 10
151.3097851177388
 20
76.45933681575924
 30
0.0
 10
151.1397568354683
 20
76.14984518142583
 30
0.0
 10
150.4801957051732
 20
75.0788269989513
 30
0.0
 10
149.9074305632831
 20
74.37322925517502
 30
0.0
 10
149.0343441437339
 20
73.55483064181872
 30
0.0
 10
148.773624595035
 20
73.33800051610104
 30
0.0
 10
148.2592628934291
 20
72.95998787269553
 30
0.0
 10
148.0040029442192
 20
72.79513920684071
 30
0.0
 10
147.4501716453029
 20
72.48039886727446
 30
0.0
 10
147.1556043622674
 20
72.33325820261502
 30
0.0
 10
146.1668683202666
 20
71.9004005327757
 30
0.0
 10
145.40558272712
 20
71.6523970639644
 30
0.0
 10
144.0311689159449
 20
71.31664833610965
 30
0.0
 10
143.4579764082618
 20
71.20379945139311
 30
0.0
 10
142.3147427344556
 20
71.01961664606822
 30
0.0
 10
141.7482120088237
 20
70.94531657478047
 30
0.0
 10
140.7521050509613
 20
70.83806860195039
 30
0.0
 10
140.3294711165832
 20
70.80029001096254
 30
0.0
 10
139.6604536873439
 20
70.76324892784263
 30
0.0
 10
139.4122846386625
 20
70.75502209323684
 30
0.0
 10
138.92410062159
 20
70.73944112917178
 30
0.0
 10
138.6887106533319
 20
70.73362355355417
 30
0.0
 10
138.3811982096414
 20
70.72980216223041
 30
0.0
 10
138.2859348431924
 20
70.72935352681118
 30
0.0
 10
138.1121225157805
 20
70.73056402549664
 30
0.0
 10
138.0396119254479
 20
70.73233208064576
 30
0.0
 10
137.8707260541941
 20
70.73518674557018
 30
0.0
 10
137.7801885234245
 20
70.73664984286189
 30
0.0
 10
137.4927277650333
 20
70.74106029794805
 30
0.0
 10
137.2799567299417
 20
70.74402879595659
 30
0.0
 10
136.5976705091829
 20
70.75233187591027
 30
0.0
 10
136.0841689877071
 20
70.75706356991938
 30
0.0
 10
135.4741119678218
 20
70.75952733354907
 30
0.0
 10
135.3842119143336
 20
70.75981145389473
 30
0.0
 10
135.2347674066741
 20
70.760138627866
 30
0.0
 10
135.1751878839899
 20
70.76023062918498
 30
0.0
 10
135.090512126131
 20
70.76030294282945
 30
0.0
 10
135.0652139271049
 20
70.76030800287862
 30
0.0
 10
134.9903815119551
 20
70.76039152178582
 30
0.0
 10
134.9441331123587
 20
70.76047248797156
 30
0.0
 10
134.7816466078162
 20
70.76101577343379
 30
0.0
 10
134.6416565815502
 20
70.76177841369889
 30
0.0
 10
134.1473813429111
 20
70.76672928678994
 30
0.0
 10
133.7187908035103
 20
70.77357657652196
 30
0.0
 10
132.6125834266819
 20
70.80704192831888
 30
0.0
 10
132.0875687837749
 20
70.83946231771084
 30
0.0
 10
131.4228378557702
 20
70.8951061456094
 30
0.0
  0
ARC
  5
35
330
2
100
AcDbEntity
  8
0
100
AcDbCircle
 10
133.0083552415461
 20
98.29803024219581
 30
0.0
 40
0.8750000000000046
100
AcDbArc
 50
296.5136460772232
 51
1.417345319323351
  0
ARC
  5
36
330
2
100
AcDbEntity
  8
0
100
AcDbCircle
 10
133.0083552415461
 20
71.38998482115415
 30
0.0
 40
0.8750000000000046
100
AcDbArc
 50
358.5826546806766
 51
63.48635392277678
  0
SPLINE
  5
37
330
2
100
AcDbEntity
  8
0
 48
0.1
100
AcDbSpline
210
0.0
220
0.0
230
1.0
 70
     8
 71
     3
 72
    13
 73
     9
 74
     7
 42
0.0000000001
 43
0.0000000001
 44
0.0000000001
 40
0.0
 40
0.0
 40
0.0
 40
0.0
 40
0.137801197213065
 40
8.732942929109729
 40
17.55825091913762
 40
27.85743143568341
 40
36.56860671603896
 40
39.06032230171132
 40
39.06032230171132
 40
39.06032230171132
 40
39.06032230171132
 10
91.62908770392517
 20
84.84400753167493
 30
0.0
 10
91.62907448217822
 20
84.88993571035182
 30
0.0
 10
91.6282365739166
 20
87.8005647276235
 30
0.0
 10
91.94684381855926
 20
93.78714438456118
 30
0.0
 10
97.89896562374549
 20
101.8746375678802
 30
0.0
 10
107.5278382905052
 20
103.718046683687
 30
0.0
 10
114.6143092749877
 20
103.7849179706793
 30
0.0
 10
118.3519808534837
 20
103.7821280565495
 30
0.0
 10
119.1833032895975
 20
103.7815075316686
 30
0.0
 11
91.62908770392517
 21
84.84400753167493
 31
0.0
 11
91.62908770392517
 21
84.981808728888
 31
0.0
 11
92.77632231240229
 21
93.50004294405865
 31
0.0
 11
98.11678011638379
 21
100.5261066758179
 31
0.0
 11
107.9859464788123
 21
103.4710471884776
 31
0.0
 11
116.6915877039251
 21
103.7815075316686
 31
0.0
 11
119.1833032895975
 21
103.7815075316686
 31
0.0
  0
SPLINE
  5
38
330
2
100
AcDbEntity
  8
0
 48
0.1
100
AcDbSpline
210
0.0
220
0.0
230
1.0
 70
     8
 71
     3
 72
    13
 73
     9
 74
     7
 42
0.0000000001
 43
0.0000000001
 44
0.0000000001
 40
0.0
 40
0.0
 40
0.0
 40
0.0
 40
0.178363225185123
 40
8.773504957081787
 40
17.59881294710967
 40
27.89799346365547
 40
36.61073099595613
 40
39.09953540070276
 40
39.09953540070276
 40
39.09953540070276
 40
39.09953540070276
 10
91.62908770392517
 20
84.84400753167491
 30
0.0
 10
91.62906567344968
 20
84.78456246593779
 30
0.0
 10
91.62798201685196
 20
81.86052036938248
 30
0.0
 10
91.94657627313597
 20
75.85914031254223
 30
0.0
 10
97.89920307582642
 20
67.77767220864632
 30
0.0
 10
107.5276837784532
 20
65.90920284138772
 30
0.0
 10
114.6158439394371
 20
65.90611113455956
 30
0.0
 10
118.3529727292611
 20
65.90643546959618
 30
0.0
 10
119.1833032895975
 20
65.90650753168124
 30
0.0
 11
91.62908770392517
 21
84.84400753167491
 31
0.0
 11
91.62908770392517
 21
84.66564430648979
 31
0.0
 11
92.77632231240229
 21
76.14741009131915
 31
0.0
 11
98.11678011638379
 21
69.12134635955986
 31
0.0
 11
107.9859464788123
 21
66.17640584690012
 31
0.0
 11
116.6944988877757
 21
65.90638687145897
 31
0.0
 11
119.1833032895975
 21
65.90650753168124
 31
0.0
  0
SPLINE
  5
39
330
2
100
AcDbEntity
  8
0
100
AcDbSpline
210
0.0
220
0.0
230
1.0
 70
     8
 71
     3
 72
    12
 73
     8
 74
     6
 42
0.0000000001
 43
0.0000000001
 44
0.0000000001
 40
0.0
 40
0.0
 40
0.0
 40
0.0
 40
0.2758253131553454
 40
4.750605583366085
 40
9.191627467633242
 40
13.65402707987727
 40
15.88823461165761
 40
15.88823461165761
 40
15.88823461165761
 40
15.88823461165761
 10
112.1898584336787
 20
73.47058090188473
 30
0.0
 10
112.0980210912073
 20
73.4691154295044
 30
0.0
 10
110.5162844952624
 20
73.44387524689516
 30
0.0
 10
107.2854120529516
 20
74.19933617042211
 30
0.0
 10
104.5637296629506
 20
78.13332628181114
 30
0.0
 10
104.0951017047902
 20
81.86960974635383
 30
0.0
 10
104.1059275919294
 20
84.09990722552045
 30
0.0
 10
104.1095394625475
 20
84.84400753167493
 30
0.0
 11
112.1898584336787
 21
73.47058090188473
 31
0.0
 11
111.9140493821951
 21
73.46758582308952
 31
0.0
 11
107.6060684357128
 21
74.67794057745412
 31
0.0
 11
104.9255322472526
 21
78.21875984972642
 31
0.0
 11
104.1312726148201
 21
82.60990570652095
 31
0.0
 11
104.1095394625475
 21
84.84400753167493
 31
0.0
  0
SPLINE
  5
3A
330
2
100
AcDbEntity
  8
0
100
AcDbSpline
210
0.0
220
0.0
230
1.0
 70
     8
 71
     3
 72
    12
 73
     8
 74
     0
 42
0.0000000001
 43
0.0000000001
 40
1.363906706382915
 40
1.363906706382915
 40
1.363906706382915
 40
1.363906706382915
 40
1.482542710208541
 40
4.127931195599432
 40
7.574740586668079
 40
11.82564764165058
 40
19.05274285515726
 40
19.05274285515726
 40
19.05274285515726
 40
19.05274285515726
 10
97.81740339568473
 20
77.03066910009123
 30
0.0
 10
97.83447387216426
 20
76.99438874892905
 30
0.0
 10
98.2331633447769
 20
76.16340109259043
 30
0.0
 10
99.41084463617333
 20
74.4429701355316
 30
0.0
 10
101.9052662567317
 20
71.98366325410283
 30
0.0
 10
104.8911888248223
 20
70.01551368923671
 30
0.0
 10
108.4228355151904
 20
69.13139813483034
 30
0.0
 10
112.5308128364817
 20
68.99094550370289
 30
0.0
  0
SPLINE
  5
3B
330
2
100
AcDbEntity
  8
0
100
AcDbSpline
210
0.0
220
0.0
230
1.0
 70
     8
 71
     3
 72
    24
 73
    20
 74
     0
 42
0.0000000001
 43
0.0000000001
 40
1.187787627697297
 40
1.187787627697297
 40
1.187787627697297
 40
1.187787627697297
 40
1.629126273499258
 40
1.629126273499258
 40
2.299018537233036
 40
2.299018537233036
 40
3.638803064700593
 40
3.638803064700593
 40
6.318372119635707
 40
6.318372119635707
 40
7.843798358749219
 40
7.843798358749219
 40
9.36922459786273
 40
9.36922459786273
 40
11.83125960223655
 40
11.83125960223655
 40
15.75229495411027
 40
15.75229495411027
 40
19.05274285515726
 40
19.05274285515726
 40
19.05274285515726
 40
19.05274285515726
 10
97.39840082325992
 20
77.04549493928325
 30
0.0
 10
97.466021441675
 20
76.89284001624061
 30
0.0
 10
97.53060486779512
 20
76.75859832201599
 30
0.0
 10
97.70515105341903
 20
76.41498355743404
 30
0.0
 10
97.81760784512329
 20
76.21222401054095
 30
0.0
 10
98.1736428530975
 20
75.61631526447062
 30
0.0
 10
98.43586225179269
 20
75.23554169089543
 30
0.0
 10
99.27369705598609
 20
74.13581575729089
 30
0.0
 10
99.90302969946334
 20
73.45174042238558
 30
0.0
 10
100.8880086876226
 20
72.50227980064895
 30
0.0
 10
101.2435174960891
 20
72.18483929184202
 30
0.0
 10
101.9301252469552
 20
71.61374925149473
 30
0.0
 10
102.2649016549091
 20
71.35797035346766
 30
0.0
 10
103.1486200644808
 20
70.74983242944573
 30
0.0
 10
103.7027886715079
 20
70.43501730191784
 30
0.0
 10
105.280271428962
 20
69.70219459069415
 30
0.0
 10
106.4029746965855
 20
69.32718783187425
 30
0.0
 10
109.1845896351635
 20
68.8327124555743
 30
0.0
 10
110.7315693281146
 20
68.68070722172922
 30
0.0
 10
112.5185577133649
 20
68.6161458079221
 30
0.0
  0
LINE
  5
3C
330
2
100
AcDbEntity
  8
0
100
AcDbLine
 10
99.01425879511924
 20
76.81983767526151
 30
0.0
 11
104.4567409126171
 21
73.08336708329658
 31
0.0
  0
LINE
  5
3D
330
2
100
AcDbEntity
  8
0
100
AcDbLine
 10
98.80201249198407
 20
76.51068317213168
 30
0.0
 11
104.244494609482
 21
72.77421258016675
 31
0.0
  0
SPLINE
  5
3E
330
2
100
AcDbEntity
  8
0
100
AcDbSpline
210
0.0
220
0.0
230
1.0
 70
     8
 71
     3
 72
     9
 73
     5
 74
     0
 42
0.0000000001
 43
0.0000000001
 40
7.200070814405144
 40
7.200070814405144
 40
7.200070814405144
 40
7.200070814405144
 40
11.80111578878096
 40
14.87044982499312
 40
14.87044982499312
 40
14.87044982499312
 40
14.87044982499312
 10
104.244494609482
 20
72.77421258016673
 30
0.0
 10
106.0132399708372
 20
71.6805460110392
 30
0.0
 10
108.2734585302967
 20
70.40276978656454
 30
0.0
 10
112.497973546671
 20
69.72793573879892
 30
0.0
 10
114.7658233929615
 20
69.6615140604283
 30
0.0
  0
LINE
  5
3F
330
2
100
AcDbEntity
  8
0
100
AcDbLine
 10
125.4417611980869
 20
72.07353910900561
 30
0.0
 11
110.3661963719964
 21
72.07353910900561
 31
0.0
  0
LINE
  5
40
330
2
100
AcDbEntity
  8
0
100
AcDbLine
 10
112.5308172321007
 20
68.61594550372863
 30
0.0
 11
129.9417611980869
 21
68.61618328646348
 31
0.0
  0
LINE
  5
41
330
2
100
AcDbEntity
  8
0
100
AcDbLine
 10
112.5308128364818
 20
68.99094550370286
 30
0.0
 11
129.9417611980869
 21
68.99118328646348
 31
0.0
  0
SPLINE
  5
42
330
2
100
AcDbEntity
  8
0
 48
0.1
100
AcDbSpline
210
0.0
220
0.0
230
1.0
 70
     8
 71
     3
 72
     9
 73
     5
 74
     0
 42
0.0000000001
 43
0.0000000001
 40
15.77471036417195
 40
15.77471036417195
 40
15.77471036417195
 40
15.77471036417195
 40
20.46675407414699
 40
24.170160606633
 40
24.170160606633
 40
24.170160606633
 40
24.170160606633
 10
104.4567409126171
 20
73.08336708329652
 30
0.0
 10
105.7234098217394
 20
72.38771680819063
 30
0.0
 10
107.1900016401734
 20
72.15841147646578
 30
0.0
 10
108.4233418610202
 20
72.09371694493658
 30
0.0
 10
110.3661963719963
 20
72.07353910900564
 30
0.0
  0
ARC
  5
43
330
2
100
AcDbEntity
  8
0
100
AcDbCircle
 10
126.2101483540198
 20
68.44547624962557
 30
0.0
 40
3.499999999999998
100
AcDbArc
 50
112.3387238271807
 51
171.0316848107876
  0
LINE
  5
44
330
2
100
AcDbEntity
  8
0
 48
0.1
100
AcDbLine
 10
129.8248584193605
 20
65.90650753168128
 30
0.0
 11
119.1833032895975
 21
65.90650753168124
 31
0.0
  0
LINE
  5
45
330
2
100
AcDbEntity
  8
0
100
AcDbLine
 10
122.8727205280702
 20
69.49978906211389
 30
0.0
 11
114.7658233929615
 21
69.6615140604283
 31
0.0
  0
ARC
  5
46
330
2
100
AcDbEntity
  8
0
100
AcDbCircle
 10
129.580483431324
 20
61.97652812407318
 30
0.0
 40
9.49999999999995
100
AcDbArc
 50
88.58268424628894
 51
112.1072910833298
  0
ARC
  5
47
330
2
100
AcDbEntity
  8
0
100
AcDbCircle
 10
129.5358604593694
 20
60.35213707519753
 30
0.0
 40
12.24999999999998
100
AcDbArc
 50
88.58265468067584
 51
112.3387238271808
  0
LINE
  5
48
330
2
100
AcDbEntity
  8
0
100
AcDbLine
 10
129.7351030576243
 20
69.03493789209973
 30
0.0
 11
125.4417611980869
 21
69.44853910900561
 31
0.0
  0
ARC
  5
49
330
2
100
AcDbEntity
  8
0
100
AcDbCircle
 10
126.7579172011685
 20
68.92513373069562
 30
0.0
 40
2.000000000000006
100
AcDbArc
 50
112.1072910833298
 51
178.1095043332165
  0
LINE
  5
4A
330
2
100
AcDbEntity
  8
0
100
AcDbLine
 10
125.4417611980869
 20
69.44853910900561
 30
0.0
 11
125.4417611980869
 21
70.43103325441963
 31
0.0
  0
LINE
  5
4B
330
2
100
AcDbEntity
  8
0
100
AcDbLine
 10
125.4417611980869
 20
69.44853910900561
 30
0.0
 11
124.8309654224468
 21
69.46072391216019
 31
0.0
  0
LINE
  5
4C
330
2
100
AcDbEntity
  8
0
100
AcDbLine
 10
125.8080885200041
 20
72.02116515675086
 30
0.0
 11
125.4417611980869
 21
72.07668584942521
 31
0.0
  0
LINE
  5
4D
330
2
100
AcDbEntity
  8
0
100
AcDbLine
 10
125.4417611980869
 20
71.8977358573641
 30
0.0
 11
125.4417611980869
 21
72.07353910900561
 31
0.0
  0
ARC
  5
4E
330
2
100
AcDbEntity
  8
0
100
AcDbCircle
 10
131.4417611980869
 20
70.26863772991342
 30
0.0
 40
0.6252377827606246
100
AcDbArc
 50
89.29208609975168
 51
180.0
  0
ARC
  5
4F
330
2
100
AcDbEntity
  8
0
100
AcDbCircle
 10
131.4417611980869
 20
70.26863772991342
 30
0.0
 40
1.000237782760624
100
AcDbArc
 50
89.29208609975168
 51
180.0
  0
ARC
  5
50
330
2
100
AcDbEntity
  8
0
100
AcDbCircle
 10
129.9417611980869
 20
69.49094550370286
 30
0.0
 40
0.4997622172393754
100
AcDbArc
 50
270.0
 51
359.9999999999994
  0
LINE
  5
51
330
2
100
AcDbEntity
  8
0
100
AcDbLine
 10
130.8166461131884
 20
70.28424651160365
 30
0.0
 11
130.8165234108412
 21
69.49088750552134
 31
0.0
  0
ARC
  5
52
330
2
100
AcDbEntity
  8
0
100
AcDbCircle
 10
129.9417611980869
 20
69.49094550370286
 30
0.0
 40
0.8747622172393752
100
AcDbArc
 50
270.0
 51
359.9999999999994
  0
LINE
  5
53
330
2
100
AcDbEntity
  8
0
100
AcDbLine
 10
130.4416461176734
 20
70.28430450978517
 30
0.0
 11
130.4415234153262
 21
69.49094550370286
 31
0.0
  0
LINE
  5
54
330
2
100
AcDbEntity
  8
0
100
AcDbLine
 10
131.4453208269223
 20
71.43329587011287
 30
0.0
 11
129.8154593167798
 21
71.47362169701714
 31
0.0
  0
LINE
  5
55
330
2
100
AcDbEntity
  8
0
100
AcDbLine
 10
129.8388619993665
 20
72.59838915764134
 30
0.0
 11
132.0990261100969
 21
72.54246729668444
 31
0.0
  0
ARC
  5
56
330
2
100
AcDbEntity
  8
0
100
AcDbCircle
 10
131.505682144413
 20
81.26868979296727
 30
0.0
 40
10.0
100
AcDbArc
 50
261.3818209474921
 51
269.6670598281139
  0
LINE
  5
57
330
2
100
AcDbEntity
  8
0
100
AcDbLine
 10
130.0071916163253
 20
71.38160093237583
 30
0.0
 11
129.3930588413268
 21
71.47467910324083
 31
0.0
  0
ARC
  5
58
330
2
100
AcDbEntity
  8
0
100
AcDbCircle
 10
132.0205102388253
 20
69.79488288639013
 30
0.0
 40
2.748706028976878
100
AcDbArc
 50
59.90122891941214
 51
88.36314251341546
  0
ARC
  5
59
330
2
100
AcDbEntity
  8
0
100
AcDbCircle
 10
131.4406831449725
 20
71.24585323380475
 30
0.0
 40
0.1875000000000152
100
AcDbArc
 50
2.752598848004389
 51
88.58268424628787
  0
SPLINE
  5
5A
330
2
100
AcDbEntity
  8
0
100
AcDbSpline
210
0.0
220
0.0
230
1.0
 70
     8
 71
     3
 72
     9
 73
     5
 74
     0
 42
0.0000000001
 43
0.0000000001
 40
7.200070814405144
 40
7.200070814405144
 40
7.200070814405144
 40
7.200070814405144
 40
11.80111578878096
 40
14.87044982499312
 40
14.87044982499312
 40
14.87044982499312
 40
14.87044982499312
 10
104.244494609482
 20
96.91380248318322
 30
0.0
 10
106.0132399708372
 20
98.00746905231076
 30
0.0
 10
108.2734585302967
 20
99.28524527678542
 30
0.0
 10
112.497973546671
 20
99.96007932455103
 30
0.0
 10
114.7658233929615
 20
100.0265010029216
 30
0.0
  0
LINE
  5
5B
330
2
100
AcDbEntity
  8
0
100
AcDbLine
 10
125.4417611980869
 20
97.61447595434423
 30
0.0
 11
110.3661963719875
 21
97.61447595434423
 31
0.0
  0
LINE
  5
5C
330
2
100
AcDbEntity
  8
0
100
AcDbLine
 10
112.5308179949749
 20
101.0720695596115
 30
0.0
 11
129.816589924993
 21
101.0718317768509
 31
0.0
  0
LINE
  5
5D
330
2
100
AcDbEntity
  8
0
100
AcDbLine
 10
112.5308128364818
 20
100.697069559647
 30
0.0
 11
129.8165847664998
 21
100.6968317768863
 31
0.0
  0
SPLINE
  5
5E
330
2
100
AcDbEntity
  8
0
100
AcDbSpline
210
0.0
220
0.0
230
1.0
 70
     8
 71
     3
 72
    12
 73
     8
 74
     6
 42
0.0000000001
 43
0.0000000001
 44
0.0000000001
 40
0.0
 40
0.0
 40
0.0
 40
0.0
 40
0.2758253131553454
 40
4.750605583366085
 40
9.191627467633242
 40
13.65402707987727
 40
15.88823461165761
 40
15.88823461165761
 40
15.88823461165761
 40
15.88823461165761
 10
112.1898584336787
 20
96.21743416146514
 30
0.0
 10
112.0980210912073
 20
96.21889963384546
 30
0.0
 10
110.5162844952624
 20
96.24413981645473
 30
0.0
 10
107.2854120529516
 20
95.48867889292777
 30
0.0
 10
104.5637296629506
 20
91.55468878153874
 30
0.0
 10
104.0951017047902
 20
87.81840531699605
 30
0.0
 10
104.1059275919294
 20
85.58810783782941
 30
0.0
 10
104.1095394625475
 20
84.84400753167493
 30
0.0
 11
112.1898584336787
 21
96.21743416146514
 31
0.0
 11
111.9140493821951
 21
96.22042924026034
 31
0.0
 11
107.6060684357128
 21
95.01007448589573
 31
0.0
 11
104.9255322472526
 21
91.46925521362344
 31
0.0
 11
104.1312726148201
 21
87.07810935682891
 31
0.0
 11
104.1095394625475
 21
84.84400753167493
 31
0.0
  0
SPLINE
  5
5F
330
2
100
AcDbEntity
  8
0
 48
0.1
100
AcDbSpline
210
0.0
220
0.0
230
1.0
 70
     8
 71
     3
 72
     9
 73
     5
 74
     0
 42
0.0000000001
 43
0.0000000001
 40
0.0
 40
0.0
 40
0.0
 40
0.0
 40
2.887919171353102
 40
7.050154376241129
 40
7.050154376241129
 40
7.050154376241129
 40
7.050154376241129
 10
93.06367129207405
 20
75.4575153751681
 30
0.0
 10
93.44397182503454
 20
76.48808992132225
 30
0.0
 10
94.03264940511318
 20
78.84093979333599
 30
0.0
 10
96.95232248299992
 20
77.85796432815576
 30
0.0
 10
99.01425879511924
 20
76.81983767526151
 30
0.0
  0
ARC
  5
60
330
2
100
AcDbEntity
  8
0
100
AcDbCircle
 10
96.88089275589119
 20
76.13218773631333
 30
0.0
 40
1.0
100
AcDbArc
 50
60.73035146216216
 51
77.99638009350442
  0
ARC
  5
61
330
2
100
AcDbEntity
  8
0
100
AcDbCircle
 10
96.30780778696156
 20
73.43687228585989
 30
0.0
 40
3.755567411453776
100
AcDbArc
 50
77.99638009350427
 51
148.7332849512961
  0
SPLINE
  5
62
330
2
100
AcDbEntity
  8
0
 48
0.1
100
AcDbSpline
210
0.0
220
0.0
230
1.0
 70
     8
 71
     3
 72
     8
 73
     4
 74
     0
 42
0.0000000001
 43
0.0000000001
 40
6.349771084984631
 40
6.349771084984631
 40
6.349771084984631
 40
6.349771084984631
 40
7.050154376241129
 40
7.050154376241129
 40
7.050154376241129
 40
7.050154376241129
 10
97.85142924522503
 20
76.95925052998507
 30
0.0
 10
98.1705286367751
 20
76.816728783158
 30
0.0
 10
98.50283983302549
 20
76.65747607921339
 30
0.0
 10
98.84562407297744
 20
76.48489390313227
 30
0.0
  0
ARC
  5
63
330
2
100
AcDbEntity
  8
0
100
AcDbCircle
 10
97.66169413643854
 20
77.525288097763
 30
0.0
 40
0.5969907366468683
100
AcDbArc
 50
240.7303514621613
 51
288.5310895317915
  0
SPLINE
  5
64
330
2
100
AcDbEntity
  8
0
100
AcDbSpline
210
0.0
220
0.0
230
1.0
 70
     8
 71
     3
 72
    12
 73
     8
 74
     0
 42
0.0000000001
 43
0.0000000001
 40
1.442475815695633
 40
1.442475815695633
 40
1.442475815695633
 40
1.442475815695633
 40
1.482542710208541
 40
4.127931195599432
 40
7.574740586668079
 40
11.82564764165058
 40
19.05274285515726
 40
19.05274285515726
 40
19.05274285515726
 40
19.05274285515726
 10
97.85142924522503
 20
92.72876453336488
 30
0.0
 10
97.857241202062
 20
92.74081619743459
 30
0.0
 10
98.24806140386248
 20
93.54637799319759
 30
0.0
 10
99.41084463617333
 20
95.24504492781826
 30
0.0
 10
101.9052662567317
 20
97.70435180924703
 30
0.0
 10
104.8911888248223
 20
99.67250137411316
 30
0.0
 10
108.4228355151904
 20
100.5566169285195
 30
0.0
 10
112.5308128364817
 20
100.6970695596469
 30
0.0
  0
SPLINE
  5
65
330
2
100
AcDbEntity
  8
0
100
AcDbSpline
210
0.0
220
0.0
230
1.0
 70
     8
 71
     3
 72
    24
 73
    20
 74
     0
 42
0.0000000001
 43
0.0000000001
 40
1.256840455292584
 40
1.256840455292584
 40
1.256840455292584
 40
1.256840455292584
 40
1.629126273499258
 40
1.629126273499258
 40
2.299018537233036
 40
2.299018537233036
 40
3.638803064700593
 40
3.638803064700593
 40
6.318372119635707
 40
6.318372119635707
 40
7.843798358749219
 40
7.843798358749219
 40
9.36922459786273
 40
9.36922459786273
 40
11.83125960223655
 40
11.83125960223655
 40
15.75229495411027
 40
15.75229495411027
 40
19.05274285515726
 40
19.05274285515726
 40
19.05274285515726
 40
19.05274285515726
 10
97.42994777315253
 20
92.712901085976
 30
0.0
 10
97.48634720446744
 20
92.83723712345013
 30
0.0
 10
97.54145131524349
 20
92.95076925312441
 30
0.0
 10
97.70515105341903
 20
93.27303150591582
 30
0.0
 10
97.81760784512329
 20
93.47579105280891
 30
0.0
 10
98.1736428530975
 20
94.07169979887925
 30
0.0
 10
98.43586225179269
 20
94.45247337245444
 30
0.0
 10
99.27369705598609
 20
95.55219930605899
 30
0.0
 10
99.90302969946334
 20
96.23627464096429
 30
0.0
 10
100.8880086876226
 20
97.18573526270091
 30
0.0
 10
101.2435174960891
 20
97.50317577150784
 30
0.0
 10
101.9301252469552
 20
98.07426581185513
 30
0.0
 10
102.2649016549091
 20
98.33004470988221
 30
0.0
 10
103.1486200644808
 20
98.93818263390414
 30
0.0
 10
103.7027886715079
 20
99.25299776143203
 30
0.0
 10
105.280271428962
 20
99.98582047265571
 30
0.0
 10
106.4029746965855
 20
100.3608272314756
 30
0.0
 10
109.1845896351635
 20
100.8553026077755
 30
0.0
 10
110.7315693281146
 20
101.0073078416206
 30
0.0
 10
112.5185577133649
 20
101.0718692554277
 30
0.0
  0
LINE
  5
66
330
2
100
AcDbEntity
  8
0
100
AcDbLine
 10
98.80201249198407
 20
93.17733189121828
 30
0.0
 11
104.244494609482
 21
96.91380248318321
 31
0.0
  0
LINE
  5
67
330
2
100
AcDbEntity
  8
0
100
AcDbLine
 10
99.01425879511924
 20
92.86817738808844
 30
0.0
 11
104.4567409126171
 21
96.60464798005337
 31
0.0
  0
SPLINE
  5
68
330
2
100
AcDbEntity
  8
0
 48
0.1
100
AcDbSpline
210
0.0
220
0.0
230
1.0
 70
     8
 71
     3
 72
     9
 73
     5
 74
     0
 42
0.0000000001
 43
0.0000000001
 40
0.0
 40
0.0
 40
0.0
 40
0.0
 40
2.887919171353102
 40
7.050154376241129
 40
7.050154376241129
 40
7.050154376241129
 40
7.050154376241129
 10
93.06367129207405
 20
94.23049968818185
 30
0.0
 10
93.44397182503454
 20
93.1999251420277
 30
0.0
 10
94.03264940511318
 20
90.84707527001397
 30
0.0
 10
96.95232248299992
 20
91.83005073519419
 30
0.0
 10
99.01425879511924
 20
92.86817738808844
 30
0.0
  0
ARC
  5
69
330
2
100
AcDbEntity
  8
0
100
AcDbCircle
 10
96.88089275589119
 20
93.55582732703663
 30
0.0
 40
1.0
100
AcDbArc
 50
282.0036199064956
 51
299.2696485378378
  0
ARC
  5
6A
330
2
100
AcDbEntity
  8
0
100
AcDbCircle
 10
96.30780778696156
 20
96.25114277749005
 30
0.0
 40
3.755567411453776
100
AcDbArc
 50
211.2667150487038
 51
282.0036199064957
  0
SPLINE
  5
6B
330
2
100
AcDbEntity
  8
0
 48
0.1
100
AcDbSpline
210
0.0
220
0.0
230
1.0
 70
     8
 71
     3
 72
     8
 73
     4
 74
     0
 42
0.0000000001
 43
0.0000000001
 40
6.349771084984631
 40
6.349771084984631
 40
6.349771084984631
 40
6.349771084984631
 40
7.050154376241129
 40
7.050154376241129
 40
7.050154376241129
 40
7.050154376241129
 10
97.85142924522503
 20
92.72876453336488
 30
0.0
 10
98.1705286367751
 20
92.87128628019194
 30
0.0
 10
98.50283983302549
 20
93.03053898413656
 30
0.0
 10
98.84562407297744
 20
93.20312116021767
 30
0.0
  0
ARC
  5
6C
330
2
100
AcDbEntity
  8
0
100
AcDbCircle
 10
97.66169413643854
 20
92.16272696558695
 30
0.0
 40
0.5969907366468683
100
AcDbArc
 50
71.46891046820842
 51
119.2696485378386
  0
SPLINE
  5
6D
330
2
100
AcDbEntity
  8
0
 48
0.1
100
AcDbSpline
210
0.0
220
0.0
230
1.0
 70
     8
 71
     3
 72
     9
 73
     5
 74
     0
 42
0.0000000001
 43
0.0000000001
 40
15.77471036417195
 40
15.77471036417195
 40
15.77471036417195
 40
15.77471036417195
 40
20.46675407414699
 40
24.170160606633
 40
24.170160606633
 40
24.170160606633
 40
24.170160606633
 10
104.4567409126171
 20
96.60464798005342
 30
0.0
 10
105.7234098217394
 20
97.30029825515932
 30
0.0
 10
107.1900016401734
 20
97.52960358688417
 30
0.0
 10
108.4233418610202
 20
97.59429811841336
 30
0.0
 10
110.3661963719963
 20
97.61447595434432
 30
0.0
  0
ARC
  5
6E
330
2
100
AcDbEntity
  8
0
100
AcDbCircle
 10
126.2101483540198
 20
101.2425388137243
 30
0.0
 40
3.499999999999998
100
AcDbArc
 50
188.9683151892123
 51
247.6612761728193
  0
LINE
  5
6F
330
2
100
AcDbEntity
  8
0
100
AcDbLine
 10
122.8731053411542
 20
100.1870086482223
 30
0.0
 11
114.7658233929614
 21
100.0265010029256
 31
0.0
  0
ARC
  5
70
330
2
100
AcDbEntity
  8
0
100
AcDbCircle
 10
129.5358604593694
 20
109.3358779881524
 30
0.0
 40
12.24999999999998
100
AcDbArc
 50
247.6612761728191
 51
271.4173453193241
  0
ARC
  5
71
330
2
100
AcDbEntity
  8
0
100
AcDbCircle
 10
129.580483431324
 20
107.7114869392767
 30
0.0
 40
9.49999999999995
100
AcDbArc
 50
247.8927089166702
 51
271.417315753711
  0
LINE
  5
72
330
2
100
AcDbEntity
  8
0
100
AcDbLine
 10
129.7351030576243
 20
100.6499304308306
 30
0.0
 11
125.4417611980869
 21
100.2363292139247
 31
0.0
  0
LINE
  5
73
330
2
100
AcDbEntity
  8
0
100
AcDbLine
 10
125.4417611980869
 20
97.79027920598586
 30
0.0
 11
125.4417611980869
 21
97.61447595434423
 31
0.0
  0
LINE
  5
74
330
2
100
AcDbEntity
  8
0
100
AcDbLine
 10
125.808088520004
 20
97.66684990659909
 30
0.0
 11
125.4417611980869
 21
97.61447595434423
 31
0.0
  0
ARC
  5
75
330
2
100
AcDbEntity
  8
0
100
AcDbCircle
 10
126.7579172011685
 20
100.7628813326543
 30
0.0
 40
2.000000000000006
100
AcDbArc
 50
181.8904956667834
 51
247.8927089166702
  0
LINE
  5
76
330
2
100
AcDbEntity
  8
0
100
AcDbLine
 10
125.4417611980869
 20
100.2363292139247
 30
0.0
 11
125.4417611980869
 21
99.2569818089303
 31
0.0
  0
LINE
  5
77
330
2
100
AcDbEntity
  8
0
100
AcDbLine
 10
125.5232423050749
 20
100.2394759543442
 30
0.0
 11
124.831386465357
 21
100.2257786199691
 31
0.0
  0
LINE
  5
78
330
2
100
AcDbEntity
  8
0
100
AcDbLine
 10
129.8388619993665
 20
97.08962590570862
 30
0.0
 11
132.0990261100969
 21
97.14554776666552
 31
0.0
  0
ARC
  5
79
330
2
100
AcDbEntity
  8
0
100
AcDbCircle
 10
132.0205102388253
 20
99.89313217695983
 30
0.0
 40
2.748706028976882
100
AcDbArc
 50
271.6368574865845
 51
300.0987710805878
  0
LINE
  5
7A
330
2
100
AcDbEntity
  8
0
100
AcDbLine
 10
131.4453208269223
 20
98.25471919323709
 30
0.0
 11
129.8154593167798
 21
98.21439336633282
 31
0.0
  0
ARC
  5
7B
330
2
100
AcDbEntity
  8
0
100
AcDbCircle
 10
131.505682144413
 20
88.41617852996309
 30
0.0
 40
10.0
100
AcDbArc
 50
90.33294017188604
 51
98.61817905250784
  0
ARC
  5
7C
330
2
100
AcDbEntity
  8
0
100
AcDbCircle
 10
131.4417611980869
 20
99.41623059301694
 30
0.0
 40
1.000237782760624
100
AcDbArc
 50
180.0
 51
270.7079139002483
  0
ARC
  5
7D
330
2
100
AcDbEntity
  8
0
100
AcDbCircle
 10
131.4417611980869
 20
99.41623059301694
 30
0.0
 40
0.6252377827606246
100
AcDbArc
 50
180.0
 51
270.7079139002483
  0
LINE
  5
7E
330
2
100
AcDbEntity
  8
0
100
AcDbLine
 10
130.0071916163253
 20
98.30326739055452
 30
0.0
 11
129.411534284461
 21
98.21298936409291
 31
0.0
  0
ARC
  5
7F
330
2
100
AcDbEntity
  8
0
100
AcDbCircle
 10
129.9417611980869
 20
100.1939228192274
 30
0.0
 40
0.4997622172393754
100
AcDbArc
 50
0.0000000000005229
 51
90.00000000000003
  0
LINE
  5
80
330
2
100
AcDbEntity
  8
0
100
AcDbLine
 10
130.4416461176734
 20
99.40056381314519
 30
0.0
 11
130.4415234153262
 21
100.1939228192274
 31
0.0
  0
LINE
  5
81
330
2
100
AcDbEntity
  8
0
100
AcDbLine
 10
130.8166461131884
 20
99.4006218113267
 30
0.0
 11
130.8165234108412
 21
100.193980817409
 31
0.0
  0
ARC
  5
82
330
2
100
AcDbEntity
  8
0
100
AcDbCircle
 10
129.9417611980869
 20
100.1939228192274
 30
0.0
 40
0.8747622172393752
100
AcDbArc
 50
0.0000000000005229
 51
90.00000000000003
  0
ARC
  5
83
330
2
100
AcDbEntity
  8
0
100
AcDbCircle
 10
131.4406831449725
 20
98.4421618295452
 30
0.0
 40
0.1875000000000152
100
AcDbArc
 50
271.4173157537121
 51
357.2474011519955
  0
LINE
  5
84
330
2
100
AcDbEntity
  8
0
 48
0.1
100
AcDbLine
 10
129.8248584193605
 20
103.7815075316686
 30
0.0
 11
119.1833032895975
 21
103.7815075316686
 31
0.0
  0
SPLINE
  5
85
330
2
100
AcDbEntity
  8
0
100
AcDbSpline
210
0.0
220
0.0
230
1.0
 70
     8
 71
     3
 72
    12
 73
     8
 74
     6
 42
0.0000000001
 43
0.0000000001
 44
0.0000000001
 40
0.0
 40
0.0
 40
0.0
 40
0.0
 40
0.2758253131553454
 40
4.750605583366085
 40
9.191627467633242
 40
13.65402707987727
 40
15.88823461165761
 40
15.88823461165761
 40
15.88823461165761
 40
15.88823461165761
 10
142.7789320552819
 20
73.46900753167497
 30
0.0
 10
142.8707693977533
 20
73.46754205929464
 30
0.0
 10
144.4525059936982
 20
73.4423018766854
 30
0.0
 10
147.6833784360089
 20
74.19776280021236
 30
0.0
 10
150.40506082601
 20
78.13175291160137
 30
0.0
 10
150.8736887841704
 20
81.86803637614408
 30
0.0
 10
150.8628628970312
 20
84.0983338553107
 30
0.0
 10
150.8592510264131
 20
84.84243416146517
 30
0.0
 11
142.7789320552819
 21
73.46900753167497
 31
0.0
 11
143.0547411067655
 21
73.46601245287977
 31
0.0
 11
147.3627220532478
 21
74.67636720724437
 31
0.0
 11
150.043258241708
 21
78.21718647951667
 31
0.0
 11
150.8375178741405
 21
82.60833233631121
 31
0.0
 11
150.8592510264131
 21
84.84243416146517
 31
0.0
  0
LINE
  5
86
330
2
100
AcDbEntity
  8
0
100
AcDbLine
 10
133.8830875331492
 20
71.3683418540115
 30
0.0
 11
133.8776189473764
 21
71.14732093144761
 31
0.0
  0
SPLINE
  5
87
330
2
100
AcDbEntity
  8
0
100
AcDbSpline
210
0.0
220
0.0
230
1.0
 70
     8
 71
     3
 72
    12
 73
     8
 74
     6
 42
0.0000000001
 43
0.0000000001
 44
0.0000000001
 40
0.0
 40
0.0
 40
0.0
 40
0.0
 40
0.2758253131553454
 40
4.750605583366085
 40
9.191627467633242
 40
13.65402707987727
 40
15.88823461165761
 40
15.88823461165761
 40
15.88823461165761
 40
15.88823461165761
 10
142.7789320552819
 20
96.21900753167498
 30
0.0
 10
142.8707693977533
 20
96.22047300405531
 30
0.0
 10
144.4525059936982
 20
96.24571318666454
 30
0.0
 10
147.6833784360089
 20
95.49025226313762
 30
0.0
 10
150.40506082601
 20
91.55626215174857
 30
0.0
 10
150.8736887841704
 20
87.81997868720592
 30
0.0
 10
150.8628628970312
 20
85.58968120803923
 30
0.0
 10
150.8592510264131
 20
84.84558090188476
 30
0.0
 11
142.7789320552819
 21
96.21900753167498
 31
0.0
 11
143.0547411067655
 21
96.22200261047019
 31
0.0
 11
147.3627220532478
 21
95.01164785610558
 31
0.0
 11
150.043258241708
 21
91.47082858383328
 31
0.0
 11
150.8375178741405
 21
87.07968272703874
 31
0.0
 11
150.8592510264131
 21
84.84558090188476
 31
0.0
  0
SPLINE
  5
88
330
2
100
AcDbEntity
  8
0
100
AcDbSpline
210
0.0
220
0.0
230
1.0
 70
     8
 71
     3
 72
    12
 73
     8
 74
     6
 42
0.0000000001
 43
0.0000000001
 44
0.0000000001
 40
0.0
 40
0.0
 40
0.0
 40
0.0
 40
0.2758253131553454
 40
4.750605583366085
 40
9.191627467633242
 40
13.65402707987727
 40
15.88823461165761
 40
15.88823461165761
 40
15.88823461165761
 40
15.88823461165761
 10
142.7789320552819
 20
96.21586079125538
 30
0.0
 10
142.8707693977533
 20
96.21732626363572
 30
0.0
 10
144.4525059936982
 20
96.242566446245
 30
0.0
 10
147.6833784360089
 20
95.48710552271801
 30
0.0
 10
150.40506082601
 20
91.55311541132897
 30
0.0
 10
150.8736887841704
 20
87.81683194678631
 30
0.0
 10
150.8628628970312
 20
85.58653446761965
 30
0.0
 10
150.8592510264131
 20
84.84243416146517
 30
0.0
 11
142.7789320552819
 21
96.21586079125538
 31
0.0
 11
143.0547411067655
 21
96.2188558700506
 31
0.0
 11
147.3627220532478
 21
95.00850111568599
 31
0.0
 11
150.043258241708
 21
91.46768184341368
 31
0.0
 11
150.8375178741405
 21
87.07653598661915
 31
0.0
 11
150.8592510264131
 21
84.84243416146517
 31
0.0
  0
LINE
  5
89
330
2
100
AcDbEntity
  8
CENTER
 48
0.05
100
AcDbLine
 10
145.8790740050328
 20
80.89084942694539
 30
0.0
 11
145.8790740050328
 21
88.79692431597257
 31
0.0
  0
CIRCLE
  5
8C
330
2
100
AcDbEntity
  8
0
 48
0.1
100
AcDbCircle
 10
145.8790740050328
 20
84.84388687145898
 30
0.0
 40
1.89014635623478
  0
LINE
  5
8D
330
2
100
AcDbEntity
  8
CENTER
 48
0.05
100
AcDbLine
 10
149.8321114495464
 20
84.84388687145898
 30
0.0
 11
141.9260365605192
 21
84.84388687145898
 31
0.0
  0
CIRCLE
  5
8E
330
2
100
AcDbEntity
  8
0
 48
0.1
100
AcDbCircle
 10
145.8790740050328
 20
84.84412819189097
 30
0.0
 40
1.25
  0
CIRCLE
  5
8F
330
2
100
AcDbEntity
  8
0
 48
0.1
100
AcDbCircle
 10
145.8790740050328
 20
84.84388687145898
 30
0.0
 40
1.25
  0
LINE
  5
90
330
2
100
AcDbEntity
  8
0
100
AcDbLine
 10
133.8830875331492
 20
98.31967320933845
 30
0.0
 11
133.8776189473764
 21
98.54069413190234
 31
0.0
  0
ENDSEC
  0
SECTION
  2
OBJECTS
  0
DICTIONARY
  5
7
330
0
100
AcDbDictionary
  3
ACAD_GROUP
350
27
  3
ACAD_LAYOUT
350
B
  3
ACAD_MLINESTYLE
350
28
  3
ACAD_PLOTSETTINGS
350
29
  3
ACAD_PLOTSTYLENAME
350
6
  3
ACDBHEADERROUNDTRIPXREC
350
12D
  3
ACDBVARIABLEDICTIONARY
350
91
  0
DICTIONARY
  5
11
330
10
100
AcDbDictionary
280
     1
  3
ACAD_LAYERFILTERS
360
12
  0
DICTIONARY
  5
A3
330
2
100
AcDbDictionary
280
     1
  3
ACAD_LAYOUTSELFREF
360
14E
  0
DICTIONARY
  5
A5
330
98
100
AcDbDictionary
280
     1
  3
ACAD_LAYOUTSELFREF
360
14F
  0
DICTIONARY
  5
27
102
{ACAD_REACTORS
330
7
102
}
330
7
100
AcDbDictionary
  0
DICTIONARY
  5
B
102
{ACAD_REACTORS
330
7
102
}
330
7
100
AcDbDictionary
  0
DICTIONARY
  5
28
102
{ACAD_REACTORS
330
7
102
}
330
7
100
AcDbDictionary
  3
STANDARD
350
2C
  0
DICTIONARY
  5
29
102
{ACAD_REACTORS
330
7
102
}
330
7
100
AcDbDictionary
  0
ACDBDICTIONARYWDFLT
  5
6
102
{ACAD_REACTORS
330
7
102
}
330
7
100
AcDbDictionary
281
     1
  3
Normal
350
5
100
AcDbDictionaryWithDefault
340
5
  0
DICTIONARY
  5
12D
102
{ACAD_REACTORS
330
7
102
}
330
7
100
AcDbDictionary
  3
CEPSNTYPE
350
137
  3
DIMSTYLEDATA
350
13B
  3
FINGERPRINTGUID
350
138
  3
HYPERLINKBASE
350
130
  3
INSUNITS
350
136
  3
LAYOUTDICT
350
132
  3
LWETCUNION
350
135
  3
PLOTSETDICT
350
133
  3
PLOTSTYLNAMDICT
350
134
  3
PSVPSCALE
350
13A
  3
PUCSBASE
350
13E
  3
PUCSORGBACK
350
144
  3
PUCSORGBOTTOM
350
140
  3
PUCSORGFRONT
350
143
  3
PUCSORGLEFT
350
141
  3
PUCSORGRIGHT
350
142
  3
PUCSORGTOP
350
13F
  3
PUCSORTHOREF
350
13C
  3
PUCSORTHOVIEW
350
13D
  3
STYLESHEET
350
131
  3
TSTACKALIGN
350
12E
  3
TSTACKSIZE
350
12F
  3
UCSBASE
350
147
  3
UCSORGBACK
350
14D
  3
UCSORGBOTTOM
350
149
  3
UCSORGFRONT
350
14C
  3
UCSORGLEFT
350
14A
  3
UCSORGRIGHT
350
14B
  3
UCSORGTOP
350
148
  3
UCSORTHOREF
350
145
  3
UCSORTHOVIEW
350
146
  3
VERSIONGUID
350
139
  0
DICTIONARY
  5
91
102
{ACAD_REACTORS
330
7
102
}
330
7
100
AcDbDictionary
  3
DIMASSOC
350
93
  3
HIDETEXT
350
92
  0
DICTIONARY
  5
12
102
{ACAD_REACTORS
330
11
102
}
330
11
100
AcDbDictionary
280
     1
  3
DIM-1_12
360
13
  3
DIM-1_16
360
14
  0
XRECORD
  5
14E
102
{ACAD_REACTORS
330
A3
102
}
330
A3
100
AcDbXrecord
340
2
  0
XRECORD
  5
14F
102
{ACAD_REACTORS
330
A5
102
}
330
A5
100
AcDbXrecord
340
98
  0
MLINESTYLE
  5
2C
102
{ACAD_REACTORS
330
28
102
}
330
28
100
AcDbMlineStyle
  2
STANDARD
 70
     0
  3

 62
   256
 51
90.0
 52
90.0
 71
     2
 49
0.5
 62
   256
  6
BYLAYER
 49
-0.5
 62
   256
  6
BYLAYER
  0
ACDBPLACEHOLDER
  5
5
102
{ACAD_REACTORS
330
6
102
}
330
6
100
AcDbPlaceHolder
280
     0
  0
XRECORD
  5
137
102
{ACAD_REACTORS
330
12D
102
}
330
12D
100
AcDbXrecord
 90
        0
  0
XRECORD
  5
13B
102
{ACAD_REACTORS
330
12D
102
}
330
12D
100
AcDbXrecord
1000
DSTYLE
1002
{
1070
    79
 70
     1
1070
   276
 70
     1
1070
   277
 70
     5
1002
}
  0
XRECORD
  5
138
102
{ACAD_REACTORS
330
12D
102
}
330
12D
100
AcDbXrecord
  1
{6A4AC8E0-4F58-11D5-8420-0003476D26AB}
  0
XRECORD
  5
130
102
{ACAD_REACTORS
330
12D
102
}
330
12D
100
AcDbXrecord
  1

  0
XRECORD
  5
136
102
{ACAD_REACTORS
330
12D
102
}
330
12D
100
AcDbXrecord
 90
        1
  0
XRECORD
  5
132
102
{ACAD_REACTORS
330
12D
102
}
330
12D
100
AcDbXrecord
340
B
  0
XRECORD
  5
135
102
{ACAD_REACTORS
330
12D
102
}
330
12D
100
AcDbXrecord
 90
    10781
  0
XRECORD
  5
133
102
{ACAD_REACTORS
330
12D
102
}
330
12D
100
AcDbXrecord
340
29
  0
XRECORD
  5
134
102
{ACAD_REACTORS
330
12D
102
}
330
12D
100
AcDbXrecord
340
6
  0
XRECORD
  5
13A
102
{ACAD_REACTORS
330
12D
102
}
330
12D
100
AcDbXrecord
 40
0.0
  0
XRECORD
  5
13E
102
{ACAD_REACTORS
330
12D
102
}
330
12D
100
AcDbXrecord
340
0
  0
XRECORD
  5
144
102
{ACAD_REACTORS
330
12D
102
}
330
12D
100
AcDbXrecord
 10
0.0
 20
0.0
 30
0.0
  0
XRECORD
  5
140
102
{ACAD_REACTORS
330
12D
102
}
330
12D
100
AcDbXrecord
 10
0.0
 20
0.0
 30
0.0
  0
XRECORD
  5
143
102
{ACAD_REACTORS
330
12D
102
}
330
12D
100
AcDbXrecord
 10
0.0
 20
0.0
 30
0.0
  0
XRECORD
  5
141
102
{ACAD_REACTORS
330
12D
102
}
330
12D
100
AcDbXrecord
 10
0.0
 20
0.0
 30
0.0
  0
XRECORD
  5
142
102
{ACAD_REACTORS
330
12D
102
}
330
12D
100
AcDbXrecord
 10
0.0
 20
0.0
 30
0.0
  0
XRECORD
  5
13F
102
{ACAD_REACTORS
330
12D
102
}
330
12D
100
AcDbXrecord
 10
0.0
 20
0.0
 30
0.0
  0
XRECORD
  5
13C
102
{ACAD_REACTORS
330
12D
102
}
330
12D
100
AcDbXrecord
340
0
  0
XRECORD
  5
13D
102
{ACAD_REACTORS
330
12D
102
}
330
12D
100
AcDbXrecord
 70
     0
  0
XRECORD
  5
131
102
{ACAD_REACTORS
330
12D
102
}
330
12D
100
AcDbXrecord
  1

  0
XRECORD
  5
12E
102
{ACAD_REACTORS
330
12D
102
}
330
12D
100
AcDbXrecord
 90
        1
  0
XRECORD
  5
12F
102
{ACAD_REACTORS
330
12D
102
}
330
12D
100
AcDbXrecord
 90
       70
  0
XRECORD
  5
147
102
{ACAD_REACTORS
330
12D
102
}
330
12D
100
AcDbXrecord
340
0
  0
XRECORD
  5
14D
102
{ACAD_REACTORS
330
12D
102
}
330
12D
100
AcDbXrecord
 10
0.0
 20
0.0
 30
0.0
  0
XRECORD
  5
149
102
{ACAD_REACTORS
330
12D
102
}
330
12D
100
AcDbXrecord
 10
0.0
 20
0.0
 30
0.0
  0
XRECORD
  5
14C
102
{ACAD_REACTORS
330
12D
102
}
330
12D
100
AcDbXrecord
 10
0.0
 20
0.0
 30
0.0
  0
XRECORD
  5
14A
102
{ACAD_REACTORS
330
12D
102
}
330
12D
100
AcDbXrecord
 10
0.0
 20
0.0
 30
0.0
  0
XRECORD
  5
14B
102
{ACAD_REACTORS
330
12D
102
}
330
12D
100
AcDbXrecord
 10
0.0
 20
0.0
 30
0.0
  0
XRECORD
  5
148
102
{ACAD_REACTORS
330
12D
102
}
330
12D
100
AcDbXrecord
 10
0.0
 20
0.0
 30
0.0
  0
XRECORD
  5
145
102
{ACAD_REACTORS
330
12D
102
}
330
12D
100
AcDbXrecord
340
0
  0
XRECORD
  5
146
102
{ACAD_REACTORS
330
12D
102
}
330
12D
100
AcDbXrecord
 70
     1
  0
XRECORD
  5
139
102
{ACAD_REACTORS
330
12D
102
}
330
12D
100
AcDbXrecord
  1
{7F6F1690-0A2B-4A4E-9E70-361A1A6FE986}
  0
DICTIONARYVAR
  5
93
102
{ACAD_REACTORS
330
91
102
}
330
91
100
DictionaryVariables
280
     0
  1
1
  0
DICTIONARYVAR
  5
92
102
{ACAD_REACTORS
330
91
102
}
330
91
100
DictionaryVariables
280
     0
  1
1
  0
XRECORD
  5
13
102
{ACAD_REACTORS
330
12
102
}
330
0
100
AcDbXrecord
  1
DIM-1_12
  1
DIM-1_12
  1
*
  1
*
 70
     0
  1
*
  1
*
  0
XRECORD
  5
14
102
{ACAD_REACTORS
330
12
102
}
330
12
100
AcDbXrecord
  1
dim-1_16
  1
*
  1
*
  1
*
 70
     0
  1
*
  1
*
  0
ENDSEC
  0
EOF
