  0
SECTION
  2
HEADER
  9
$ACADVER
  1
AC1014
  9
$ACADMAINTVER
 70
     9
  9
$DWGCODEPAGE
  3
ANSI_1252
  9
$INSBASE
 10
62.27523030663974
 20
-92.81792839295061
 30
0.0
  9
$EXTMIN
 10
44.23204344251256
 20
-95.69836896234303
 30
-2.75624191034378
  9
$EXTMAX
 10
80.32402879555128
 20
-72.57834237948729
 30
2.756241961678117
  9
$LIMMIN
 10
0.0
 20
0.0
  9
$LIMMAX
 10
100.5024158491978
 20
51.69854817198938
  9
$ORTHOMODE
 70
     1
  9
$REGENMODE
 70
     1
  9
$FILLMODE
 70
     1
  9
$QTEXTMODE
 70
     0
  9
$MIRRTEXT
 70
     1
  9
$DRAGMODE
 70
     2
  9
$LTSCALE
 40
2.0
  9
$OSMODE
 70
    55
  9
$ATTMODE
 70
     1
  9
$TEXTSIZE
 40
0.06
  9
$TRACEWID
 40
1.0
  9
$TEXTSTYLE
  7
CARTOUCHE
  9
$CLAYER
  8
0
  9
$CELTYPE
  6
BYLAYER
  9
$CECOLOR
 62
   256
  9
$CELTSCALE
 40
1.0
  9
$DELOBJ
 70
     1
  9
$DISPSILH
 70
     0
  9
$DIMSCALE
 40
16.0
  9
$DIMASZ
 40
0.1
  9
$DIMEXO
 40
0.0625
  9
$DIMDLI
 40
0.25
  9
$DIMRND
 40
0.0
  9
$DIMDLE
 40
0.0
  9
$DIMEXE
 40
0.1
  9
$DIMTP
 40
0.0
  9
$DIMTM
 40
0.0
  9
$DIMTXT
 40
0.1
  9
$DIMCEN
 40
0.09
  9
$DIMTSZ
 40
0.0
  9
$DIMTOL
 70
     0
  9
$DIMLIM
 70
     0
  9
$DIMTIH
 70
     1
  9
$DIMTOH
 70
     1
  9
$DIMSE1
 70
     0
  9
$DIMSE2
 70
     0
  9
$DIMTAD
 70
     0
  9
$DIMZIN
 70
     4
  9
$DIMBLK
  1

  9
$DIMASO
 70
     1
  9
$DIMSHO
 70
     1
  9
$DIMPOST
  1
\X
  9
$DIMAPOST
  1
cm
  9
$DIMALT
 70
     1
  9
$DIMALTD
 70
     0
  9
$DIMALTF
 40
2.54
  9
$DIMLFAC
 40
1.0
  9
$DIMTOFL
 70
     0
  9
$DIMTVP
 40
0.0
  9
$DIMTIX
 70
     0
  9
$DIMSOXD
 70
     0
  9
$DIMSAH
 70
     0
  9
$DIMBLK1
  1

  9
$DIMBLK2
  1

  9
$DIMSTYLE
  2
STANDARD
  9
$DIMCLRD
 70
     0
  9
$DIMCLRE
 70
     0
  9
$DIMCLRT
 70
     0
  9
$DIMTFAC
 40
1.0
  9
$DIMGAP
 40
0.08
  9
$DIMJUST
 70
     0
  9
$DIMSD1
 70
     0
  9
$DIMSD2
 70
     0
  9
$DIMTOLJ
 70
     1
  9
$DIMTZIN
 70
     4
  9
$DIMALTZ
 70
     4
  9
$DIMALTTZ
 70
     4
  9
$DIMFIT
 70
     1
  9
$DIMUPT
 70
     0
  9
$DIMUNIT
 70
     5
  9
$DIMDEC
 70
     3
  9
$DIMTDEC
 70
     3
  9
$DIMALTU
 70
     2
  9
$DIMALTTD
 70
     0
  9
$DIMTXSTY
  7
ROMANS
  9
$DIMAUNIT
 70
     0
  9
$LUNITS
 70
     2
  9
$LUPREC
 70
     2
  9
$SKETCHINC
 40
1.0
  9
$FILLETRAD
 40
3.0
  9
$AUNITS
 70
     0
  9
$AUPREC
 70
     0
  9
$MENU
  1
.
  9
$ELEVATION
 40
0.0
  9
$PELEVATION
 40
0.0
  9
$THICKNESS
 40
0.0
  9
$LIMCHECK
 70
     0
  9
$BLIPMODE
 70
     0
  9
$CHAMFERA
 40
10.0
  9
$CHAMFERB
 40
10.0
  9
$CHAMFERC
 40
20.0
  9
$CHAMFERD
 40
0.0
  9
$SKPOLY
 70
     0
  9
$TDCREATE
 40
2452062.343093518
  9
$TDUPDATE
 40
2453689.569790671
  9
$TDINDWG
 40
0.3743535764
  9
$TDUSRTIMER
 40
0.3743535764
  9
$USRTIMER
 70
     1
  9
$ANGBASE
 50
0.0
  9
$ANGDIR
 70
     0
  9
$PDMODE
 70
    33
  9
$PDSIZE
 40
0.25
  9
$PLINEWID
 40
0.0
  9
$COORDS
 70
     1
  9
$SPLFRAME
 70
     0
  9
$SPLINETYPE
 70
     6
  9
$SPLINESEGS
 70
     8
  9
$ATTDIA
 70
     0
  9
$ATTREQ
 70
     1
  9
$HANDLING
 70
 22529
  9
$HANDSEED
  5
35C
  9
$SURFTAB1
 70
     6
  9
$SURFTAB2
 70
     6
  9
$SURFTYPE
 70
     6
  9
$SURFU
 70
     6
  9
$SURFV
 70
     6
  9
$UCSNAME
  2

  9
$UCSORG
 10
0.0
 20
0.0
 30
0.0
  9
$UCSXDIR
 10
1.0
 20
0.0
 30
0.0
  9
$UCSYDIR
 10
0.0
 20
1.0
 30
0.0
  9
$PUCSNAME
  2

  9
$PUCSORG
 10
0.0
 20
0.0
 30
0.0
  9
$PUCSXDIR
 10
1.0
 20
0.0
 30
0.0
  9
$PUCSYDIR
 10
0.0
 20
1.0
 30
0.0
  9
$USERI1
 70
     0
  9
$USERI2
 70
     0
  9
$USERI3
 70
     0
  9
$USERI4
 70
     0
  9
$USERI5
 70
     0
  9
$USERR1
 40
0.0
  9
$USERR2
 40
0.0
  9
$USERR3
 40
0.0
  9
$USERR4
 40
0.0
  9
$USERR5
 40
0.0
  9
$WORLDVIEW
 70
     1
  9
$SHADEDGE
 70
     3
  9
$SHADEDIF
 70
    70
  9
$TILEMODE
 70
     1
  9
$MAXACTVP
 70
    48
  9
$PINSBASE
 10
0.0
 20
0.0
 30
0.0
  9
$PLIMCHECK
 70
     0
  9
$PEXTMIN
 10
0.0
 20
0.0
 30
0.0
  9
$PEXTMAX
 10
0.0
 20
0.0
 30
0.0
  9
$PLIMMIN
 10
0.0
 20
0.0
  9
$PLIMMAX
 10
12.0
 20
9.0
  9
$UNITMODE
 70
     0
  9
$VISRETAIN
 70
     1
  9
$PLINEGEN
 70
     0
  9
$PSLTSCALE
 70
     1
  9
$TREEDEPTH
 70
  3020
  9
$PICKSTYLE
 70
     1
  9
$CMLSTYLE
  2
STANDARD
  9
$CMLJUST
 70
     0
  9
$CMLSCALE
 40
20.0
  9
$PROXYGRAPHICS
 70
     1
  9
$MEASUREMENT
 70
     0
  0
ENDSEC
  0
SECTION
  2
CLASSES
  0
CLASS
  1
ACDBDICTIONARYWDFLT
  2
AcDbDictionaryWithDefault
  3
AutoCAD 2000
 90
        0
280
     0
281
     0
  0
CLASS
  1
ACDBPLACEHOLDER
  2
AcDbPlaceHolder
  3
AutoCAD 2000
 90
        0
280
     0
281
     0
  0
CLASS
  1
LAYOUT
  2
AcDbLayout
  3
AutoCAD 2000
 90
        0
280
     0
281
     0
  0
CLASS
  1
DICTIONARYVAR
  2
AcDbDictionaryVar
  3
AutoCAD 2000
 90
        0
280
     0
281
     0
  0
CLASS
  1
IMAGEDEF
  2
AcDbRasterImageDef
  3
ISM
 90
        0
280
     0
281
     0
  0
CLASS
  1
LONG_TRANSACTION
  2
AcDbLongTransaction
  3
AutoCAD 2000
 90
        0
280
     0
281
     0
  0
CLASS
  1
LWPOLYLINE
  2
AcDbPolyline
  3
AutoCAD 2000
 90
        0
280
     0
281
     1
  0
CLASS
  1
HATCH
  2
AcDbHatch
  3
AutoCAD 2000
 90
        0
280
     0
281
     1
  0
CLASS
  1
XRECORD
  2
AcDbXrecord
  3
AutoCAD 2000
 90
        0
280
     0
281
     0
  0
CLASS
  1
LONG_TRANSACTION
  2
AcDbLongTransaction
  3
AutoCAD 2000
 90
        0
280
     0
281
     0
  0
CLASS
  1
LWPOLYLINE
  2
AcDbPolyline
  3
AutoCAD 2000
 90
        0
280
     0
281
     1
  0
CLASS
  1
HATCH
  2
AcDbHatch
  3
AutoCAD 2000
 90
        0
280
     0
281
     1
  0
CLASS
  1
XRECORD
  2
AcDbXrecord
  3
AutoCAD 2000
 90
        0
280
     0
281
     0
  0
CLASS
  1
LONG_TRANSACTION
  2
AcDbLongTransaction
  3
AutoCAD 2000
 90
        0
280
     0
281
     0
  0
CLASS
  1
LWPOLYLINE
  2
AcDbPolyline
  3
AutoCAD 2000
 90
        0
280
     0
281
     1
  0
CLASS
  1
HATCH
  2
AcDbHatch
  3
AutoCAD 2000
 90
        0
280
     0
281
     1
  0
CLASS
  1
XRECORD
  2
AcDbXrecord
  3
AutoCAD 2000
 90
        0
280
     0
281
     0
  0
ENDSEC
  0
SECTION
  2
TABLES
  0
TABLE
  2
VPORT
  5
1D
330
0
100
AcDbSymbolTable
 70
     3
  0
VPORT
  5
338
330
1D
100
AcDbSymbolTableRecord
100
AcDbViewportTableRecord
  2
*ACTIVE
 70
     0
 10
0.0
 20
0.0
 11
1.0
 21
1.0
 12
62.27803609487121
 22
-84.1383557144819
 13
0.0
 23
0.0
 14
10.0
 24
10.0
 15
10.0
 25
10.0
 16
0.0
 26
0.0
 36
1.0
 17
0.0
 27
0.0
 37
0.0
 40
28.99277458103973
 41
1.786792452830188
 42
50.0
 43
0.0
 44
0.0
 50
0.0
 51
0.0
 71
     0
 72
   100
 73
     1
 74
     3
 75
     0
 76
     0
 77
     0
 78
     2
  0
ENDTAB
  0
TABLE
  2
LTYPE
  5
18
330
0
100
AcDbSymbolTable
 70
     2
  0
LTYPE
  5
19
330
18
100
AcDbSymbolTableRecord
100
AcDbLinetypeTableRecord
  2
BYBLOCK
 70
     0
  3

 72
    65
 73
     0
 40
0.0
  0
LTYPE
  5
1A
330
18
100
AcDbSymbolTableRecord
100
AcDbLinetypeTableRecord
  2
BYLAYER
 70
     0
  3

 72
    65
 73
     0
 40
0.0
  0
LTYPE
  5
8
330
18
100
AcDbSymbolTableRecord
100
AcDbLinetypeTableRecord
  2
CONTINUOUS
 70
     0
  3
Solid line
 72
    65
 73
     0
 40
0.0
  0
LTYPE
  5
2F
330
18
100
AcDbSymbolTableRecord
100
AcDbLinetypeTableRecord
  2
CENTER
 70
     0
  3
Center ____ _ ____ _ ____ _ ____ _ ____ _ ____
 72
    65
 73
     4
 40
50.8
 49
31.75
 74
     0
 49
-6.349999999999999
 74
     0
 49
6.349999999999999
 74
     0
 49
-6.349999999999999
 74
     0
  0
ENDTAB
  0
TABLE
  2
LAYER
  5
10
102
{ACAD_XDICTIONARY
360
11
102
}
330
0
100
AcDbSymbolTable
 70
     3
  0
LAYER
  5
4
330
10
100
AcDbSymbolTableRecord
100
AcDbLayerTableRecord
  2
0
 70
     0
 62
     7
  6
CONTINUOUS
  0
LAYER
  5
2E
330
10
100
AcDbSymbolTableRecord
100
AcDbLayerTableRecord
  2
CENTER
 70
     0
 62
     1
  6
CENTER
  0
LAYER
  5
2C9
330
10
100
AcDbSymbolTableRecord
100
AcDbLayerTableRecord
  2
DEFPOINTS
 70
     0
 62
     7
  6
CONTINUOUS
  0
ENDTAB
  0
TABLE
  2
STYLE
  5
15
330
0
100
AcDbSymbolTable
 70
     3
  0
STYLE
  5
16
330
15
100
AcDbSymbolTableRecord
100
AcDbTextStyleTableRecord
  2
STANDARD
 70
     0
 40
0.0
 41
1.0
 50
0.0
 71
     0
 42
0.125
  3
txt
  4

  0
STYLE
  5
2B
330
15
100
AcDbSymbolTableRecord
100
AcDbTextStyleTableRecord
  2
CARTOUCHE
 70
     0
 40
0.0
 41
1.0
 50
0.0
 71
     0
 42
0.06
  3
romans.shx
  4

  0
STYLE
  5
23
330
15
100
AcDbSymbolTableRecord
100
AcDbTextStyleTableRecord
  2
ROMANS
 70
     0
 40
0.0
 41
1.0
 50
0.0
 71
     0
 42
1.0
  3
romans.shx
  4

  0
ENDTAB
  0
TABLE
  2
VIEW
  5
1B
330
0
100
AcDbSymbolTable
 70
     0
  0
ENDTAB
  0
TABLE
  2
UCS
  5
1C
330
0
100
AcDbSymbolTable
 70
     0
  0
ENDTAB
  0
TABLE
  2
APPID
  5
1F
330
0
100
AcDbSymbolTable
 70
     1
  0
APPID
  5
20
330
1F
100
AcDbSymbolTableRecord
100
AcDbRegAppTableRecord
  2
ACAD
 70
     0
  0
ENDTAB
  0
TABLE
  2
DIMSTYLE
  5
21
330
0
100
AcDbSymbolTable
 70
     1
  0
DIMSTYLE
105
22
330
21
100
AcDbSymbolTableRecord
100
AcDbDimStyleTableRecord
  2
STANDARD
 70
     0
  3
\X
  4
cm
  5

  6

  7

 40
16.0
 41
0.1
 42
0.0625
 43
0.25
 44
0.1
 45
0.0
 46
0.0
 47
0.0
 48
0.0
140
0.1
141
0.09
142
0.0
143
2.54
144
1.0
145
0.0
146
1.0
147
0.08
 71
     0
 72
     0
 73
     1
 74
     1
 75
     0
 76
     0
 77
     0
 78
     4
170
     1
171
     0
172
     0
173
     0
174
     0
175
     0
176
     0
177
     0
178
     0
270
     5
271
     3
272
     3
273
     2
274
     0
340
23
275
     0
280
     0
281
     0
282
     0
283
     1
284
     4
285
     4
286
     4
287
     1
288
     0
  0
ENDTAB
  0
TABLE
  2
BLOCK_RECORD
  5
1
330
0
100
AcDbSymbolTable
 70
     1
  0
BLOCK_RECORD
  5
2
102
{ACAD_XDICTIONARY
360
22E
102
}
330
1
100
AcDbSymbolTableRecord
100
AcDbBlockTableRecord
  2
*MODEL_SPACE
  0
BLOCK_RECORD
  5
1E3
102
{ACAD_XDICTIONARY
360
230
102
}
330
1
100
AcDbSymbolTableRecord
100
AcDbBlockTableRecord
  2
*PAPER_SPACE
  0
ENDTAB
  0
ENDSEC
  0
SECTION
  2
BLOCKS
  0
BLOCK
  5
3
330
2
100
AcDbEntity
  8
0
100
AcDbBlockBegin
  2
*MODEL_SPACE
 70
     0
 10
0.0
 20
0.0
 30
0.0
  3
*MODEL_SPACE
  1

  0
ENDBLK
  5
9
330
2
100
AcDbEntity
  8
0
100
AcDbBlockEnd
  0
BLOCK
  5
1E5
330
1E3
100
AcDbEntity
 67
     1
  8
0
100
AcDbBlockBegin
  2
*PAPER_SPACE
 70
     0
 10
0.0
 20
0.0
 30
0.0
  3
*PAPER_SPACE
  1

  0
ENDBLK
  5
1E6
330
1E3
100
AcDbEntity
 67
     1
  8
0
100
AcDbBlockEnd
  0
ENDSEC
  0
SECTION
  2
ENTITIES
  0
LINE
  5
2D
330
2
100
AcDbEntity
  8
CENTER
 48
0.05
100
AcDbLine
 10
65.21265438875598
 20
-76.31792839295059
 30
0.0
 11
59.34378973037706
 21
-76.3179283929506
 31
0.0
  0
LINE
  5
30
330
2
100
AcDbEntity
  8
0
100
AcDbLine
 10
78.21572205956655
 20
-72.69292839295058
 30
-2.755905511496985
 11
78.21572205956655
 21
-72.69292839295058
 31
2.755905511497013
210
0.0
220
1.0
230
-0.0000000000000002
  0
LINE
  5
ED
330
2
100
AcDbEntity
  8
0
 48
0.1
100
AcDbLine
 10
44.34072205956652
 20
-74.06792839295059
 30
0.0
 11
62.27822205956653
 21
-74.06792839295059
 31
0.0
  0
LINE
  5
EE
330
2
100
AcDbEntity
  8
0
 48
0.1
100
AcDbLine
 10
53.32685366388449
 20
-91.83459684335394
 30
0.0
 11
62.30778549148991
 21
-91.83459684335394
 31
0.0
  0
LINE
  5
EF
330
2
100
AcDbEntity
  8
0
 48
0.1
100
AcDbLine
 10
44.84072205956652
 20
-72.69292839295058
 30
0.0
 11
62.2782220595665
 21
-72.69292839295058
 31
0.0
  0
LINE
  5
F0
330
2
100
AcDbEntity
  8
0
 48
0.1
100
AcDbLine
 10
50.33826956960924
 20
-89.09606407159692
 30
0.0
 11
49.0234780637982
 21
-74.06792839295059
 31
0.0
  0
ARC
  5
F1
330
2
100
AcDbEntity
  8
0
 48
0.1
100
AcDbCircle
 10
53.32685366388448
 20
-88.83459684335395
 30
0.0
 40
3.0
100
AcDbArc
 50
185.0
 51
270.0000000000001
  0
LINE
  5
F2
330
2
100
AcDbEntity
  8
0
 48
0.1
100
AcDbLine
 10
53.32956149785637
 20
-91.83459684335396
 30
0.0
 11
53.65648786022978
 21
-92.5305240459714
 31
0.0
  0
ARC
  5
F3
330
2
100
AcDbEntity
  8
0
 48
0.1
100
AcDbCircle
 10
54.10903961231642
 20
-92.31792839295058
 30
0.0
 40
0.5
100
AcDbArc
 50
205.1627730604341
 51
269.9999999999992
  0
LINE
  5
F4
330
2
100
AcDbEntity
  8
0
 48
0.1
100
AcDbLine
 10
55.82785634003837
 20
-91.83459684335396
 30
0.0
 11
55.50092997766496
 21
-92.5305240459714
 31
0.0
  0
ARC
  5
F5
330
2
100
AcDbEntity
  8
0
 48
0.1
100
AcDbCircle
 10
55.04837822557832
 20
-92.31792839295058
 30
0.0
 40
0.5
100
AcDbArc
 50
270.0000000000007
 51
334.8372269395658
  0
LINE
  5
F6
330
2
100
AcDbEntity
  8
0
 48
0.1
100
AcDbLine
 10
55.04837822557835
 20
-92.81792839295059
 30
0.0
 11
54.10903961231639
 21
-92.81792839295059
 31
0.0
  0
LINE
  5
F7
330
2
100
AcDbEntity
  8
0
 48
0.1
100
AcDbLine
 10
54.10903961231639
 20
-92.81792839295059
 30
0.0
 11
55.04837822557835
 21
-92.81792839295059
 31
0.0
  0
LINE
  5
F8
330
2
100
AcDbEntity
  8
0
 48
0.1
100
AcDbLine
 10
54.10903961231639
 20
-92.81792839295059
 30
0.0
 11
55.04837822557835
 21
-92.81792839295059
 31
0.0
  0
ARC
  5
F9
330
2
100
AcDbEntity
  8
0
 48
0.1
100
AcDbCircle
 10
44.84072205956652
 20
-73.19292839295058
 30
0.0
 40
0.5
100
AcDbArc
 50
90.0
 51
180.0
  0
LINE
  5
FA
330
2
100
AcDbEntity
  8
0
 48
0.1
100
AcDbLine
 10
44.34072205956652
 20
-74.06792839295057
 30
0.0
 11
44.34072205956652
 21
-73.19292839295058
 31
0.0
  0
LINE
  5
1B5
330
2
100
AcDbEntity
  8
0
100
AcDbLine
 10
77.13304489473855
 20
-72.69292839295058
 30
0.0000000000000139
 11
79.29839922439454
 21
-72.69292839295058
 31
0.0000000000000145
210
0.0
220
1.0
230
-0.0000000000000002
  0
LINE
  5
1B6
330
2
100
AcDbEntity
  8
0
 48
0.1
100
AcDbLine
 10
80.21572205956651
 20
-74.06792839295059
 30
0.0
 11
62.2782220595665
 21
-74.06792839295059
 31
0.0
  0
LINE
  5
1B7
330
2
100
AcDbEntity
  8
0
 48
0.1
100
AcDbLine
 10
79.71572205956651
 20
-72.69292839295058
 30
0.0
 11
62.2782220595665
 21
-72.69292839295058
 31
0.0
  0
LINE
  5
1B8
330
2
100
AcDbEntity
  8
0
 48
0.1
100
AcDbLine
 10
74.21817454952379
 20
-89.09606407159692
 30
0.0
 11
75.53296605533482
 21
-74.06792839295059
 31
0.0
  0
LINE
  5
1B9
330
2
100
AcDbEntity
  8
0
 48
0.1
100
AcDbLine
 10
71.23509625613353
 20
-91.83459684335394
 30
0.0
 11
62.27822205956651
 21
-91.83459684335394
 31
0.0
  0
LINE
  5
1BA
330
2
100
AcDbEntity
  8
CENTER
 48
0.05
100
AcDbLine
 10
62.27523030663974
 20
-95.68937366657751
 30
0.0
 11
62.27523030663974
 21
-89.94648311932371
 31
0.0
  0
LINE
  5
1BB
330
2
100
AcDbEntity
  8
0
 48
0.1
100
AcDbLine
 10
61.77898932101208
 20
-92.81792839295061
 30
0.0
 11
62.71832793427405
 21
-92.81792839295061
 31
0.0
  0
LINE
  5
1BC
330
2
100
AcDbEntity
  8
0
 48
0.1
100
AcDbLine
 10
61.00677545015979
 20
-92.26137353865057
 30
0.0
 11
63.54966866897323
 21
-92.26137353865057
 31
0.0
  0
LINE
  5
1BD
330
2
100
AcDbEntity
  8
0
 48
0.1
100
AcDbLine
 10
63.54966866897322
 20
-92.26137353865057
 30
0.0
 11
61.00677545015977
 21
-92.26137353865057
 31
0.0
  0
LINE
  5
1BE
330
2
100
AcDbEntity
  8
0
 48
0.1
100
AcDbLine
 10
62.71832793427405
 20
-92.81792839295061
 30
0.0
 11
61.77898932101208
 21
-92.81792839295061
 31
0.0
  0
ARC
  5
1BF
330
2
100
AcDbEntity
  8
0
 48
0.1
100
AcDbCircle
 10
61.00677545015979
 20
-92.01137353865057
 30
0.0
 40
0.25
100
AcDbArc
 50
225.0000000000005
 51
270.0
  0
ARC
  5
1C0
330
2
100
AcDbEntity
  8
0
 48
0.1
100
AcDbCircle
 10
60.2064069909998
 20
-92.27166525127044
 30
0.0
 40
0.5
100
AcDbArc
 50
45.00000000000115
 51
60.94298210333628
  0
LINE
  5
1C1
330
2
100
AcDbEntity
  8
0
 48
0.1
100
AcDbLine
 10
60.82999875486315
 20
-92.18815023394721
 30
0.0
 11
60.55996038159307
 21
-91.91811186067715
 31
0.0
  0
ARC
  5
1C2
330
2
100
AcDbEntity
  8
0
 48
0.1
100
AcDbCircle
 10
61.77898932101208
 20
-92.3179283929506
 30
0.0
 40
0.5
100
AcDbArc
 50
205.1627730604342
 51
270.0000000000021
  0
LINE
  5
1C3
330
2
100
AcDbEntity
  8
0
 48
0.1
100
AcDbLine
 10
61.19999848742614
 20
-92.26137353865057
 30
0.0
 11
61.32643756892548
 21
-92.5305240459714
 31
0.0
  0
ARC
  5
1C4
330
2
100
AcDbEntity
  8
0
 48
0.1
100
AcDbCircle
 10
61.00677545015979
 20
-92.01137353865057
 30
0.0
 40
0.25
100
AcDbArc
 50
225.0000000000005
 51
270.0
  0
LINE
  5
1C5
330
2
100
AcDbEntity
  8
0
 48
0.1
100
AcDbLine
 10
60.82999875486315
 20
-92.18815023394721
 30
0.0
 11
60.55996038159307
 21
-91.91811186067715
 31
0.0
  0
ARC
  5
1C6
330
2
100
AcDbEntity
  8
0
 48
0.1
100
AcDbCircle
 10
61.77898932101211
 20
-92.3179283929506
 30
0.0
 40
0.5
100
AcDbArc
 50
205.1627730604341
 51
269.9999999999992
  0
LINE
  5
1C7
330
2
100
AcDbEntity
  8
0
 48
0.1
100
AcDbLine
 10
61.19999848742615
 20
-92.26137353865057
 30
0.0
 11
61.32643756892552
 21
-92.5305240459714
 31
0.0
  0
ARC
  5
1C8
330
2
100
AcDbEntity
  8
0
 48
0.1
100
AcDbCircle
 10
62.71832793427405
 20
-92.3179283929506
 30
0.0
 40
0.5
100
AcDbArc
 50
270.0000000000007
 51
334.8372269395658
  0
ARC
  5
1C9
330
2
100
AcDbEntity
  8
0
 48
0.1
100
AcDbCircle
 10
63.54966866897322
 20
-92.01137353865057
 30
0.0
 40
0.25
100
AcDbArc
 50
270.0
 51
314.9999999999995
  0
LINE
  5
1CA
330
2
100
AcDbEntity
  8
0
 48
0.1
100
AcDbLine
 10
63.29731876786002
 20
-92.26137353865057
 30
0.0
 11
63.17087968636066
 21
-92.5305240459714
 31
0.0
  0
ARC
  5
1CB
330
2
100
AcDbEntity
  8
0
 48
0.1
100
AcDbCircle
 10
64.35003712813319
 20
-92.27166525127044
 30
0.0
 40
0.5
100
AcDbArc
 50
119.057017896663
 51
134.9999999999988
  0
ARC
  5
1CC
330
2
100
AcDbEntity
  8
0
 48
0.1
100
AcDbCircle
 10
63.54966866897322
 20
-92.01137353865057
 30
0.0
 40
0.25
100
AcDbArc
 50
270.0
 51
314.9999999999995
  0
LINE
  5
1CD
330
2
100
AcDbEntity
  8
0
 48
0.1
100
AcDbLine
 10
63.72644536426985
 20
-92.18815023394721
 30
0.0
 11
63.99648373753993
 21
-91.91811186067715
 31
0.0
  0
ARC
  5
1CE
330
2
100
AcDbEntity
  8
0
 48
0.1
100
AcDbCircle
 10
62.71832793427408
 20
-92.3179283929506
 30
0.0
 40
0.5
100
AcDbArc
 50
269.9999999999978
 51
334.8372269395657
  0
LINE
  5
1CF
330
2
100
AcDbEntity
  8
0
 48
0.1
100
AcDbLine
 10
63.29731876786003
 20
-92.26137353865057
 30
0.0
 11
63.17087968636069
 21
-92.5305240459714
 31
0.0
  0
ARC
  5
1D0
330
2
100
AcDbEntity
  8
0
 48
0.1
100
AcDbCircle
 10
71.22959045524855
 20
-88.83459684335395
 30
0.0
 40
3.0
100
AcDbArc
 50
269.9999999999998
 51
355.0
  0
ARC
  5
1D1
330
2
100
AcDbEntity
  8
0
 48
0.1
100
AcDbCircle
 10
70.50653137066344
 20
-92.31792839295058
 30
0.0
 40
0.5
100
AcDbArc
 50
270.0000000000007
 51
334.8372269395658
  0
LINE
  5
1D2
330
2
100
AcDbEntity
  8
0
 48
0.1
100
AcDbLine
 10
70.50653137066347
 20
-92.81792839295059
 30
0.0
 11
69.56719275740152
 21
-92.81792839295059
 31
0.0
  0
LINE
  5
1D3
330
2
100
AcDbEntity
  8
0
 48
0.1
100
AcDbLine
 10
69.56719275740152
 20
-92.81792839295059
 30
0.0
 11
70.50653137066347
 21
-92.81792839295059
 31
0.0
  0
LINE
  5
1D4
330
2
100
AcDbEntity
  8
0
 48
0.1
100
AcDbLine
 10
70.50653137066347
 20
-92.81792839295059
 30
0.0
 11
69.56719275740152
 21
-92.81792839295059
 31
0.0
  0
ARC
  5
1D5
330
2
100
AcDbEntity
  8
0
 48
0.1
100
AcDbCircle
 10
69.56719275740154
 20
-92.31792839295058
 30
0.0
 40
0.5
100
AcDbArc
 50
205.1627730604341
 51
269.9999999999992
  0
LINE
  5
1D6
330
2
100
AcDbEntity
  8
0
 48
0.1
100
AcDbLine
 10
68.7877146429415
 20
-91.83459684335396
 30
0.0
 11
69.11464100531491
 21
-92.5305240459714
 31
0.0
  0
LINE
  5
1D7
330
2
100
AcDbEntity
  8
0
 48
0.1
100
AcDbLine
 10
71.28600948512349
 20
-91.83459684335396
 30
0.0
 11
70.95908312275007
 21
-92.5305240459714
 31
0.0
  0
CIRCLE
  5
1D8
330
2
100
AcDbEntity
  8
0
 48
0.1
100
AcDbCircle
 10
62.27822205956652
 20
-76.3179283929506
 30
0.0
 40
1.3125
  0
LINE
  5
1D9
330
2
100
AcDbEntity
  8
CENTER
 48
0.05
100
AcDbLine
 10
62.27822205956652
 20
-79.11285929769843
 30
0.0
 11
62.27822205956652
 21
-73.52299748820275
 31
0.0
  0
ARC
  5
1DA
330
2
100
AcDbEntity
  8
0
 48
0.1
100
AcDbCircle
 10
79.71572205956651
 20
-73.19292839295058
 30
0.0
 40
0.5
100
AcDbArc
 50
0.0
 51
90.0
  0
LINE
  5
1DB
330
2
100
AcDbEntity
  8
0
 48
0.1
100
AcDbLine
 10
80.21572205956651
 20
-74.06792839295057
 30
0.0
 11
80.21572205956651
 21
-73.19292839295058
 31
0.0
  0
ENDSEC
  0
SECTION
  2
OBJECTS
  0
DICTIONARY
  5
7
330
0
100
AcDbDictionary
  3
ACAD_GROUP
350
28
  3
ACAD_LAYOUT
350
B
  3
ACAD_MLINESTYLE
350
29
  3
ACAD_PLOTSETTINGS
350
2A
  3
ACAD_PLOTSTYLENAME
350
6
  3
ACDBHEADERROUNDTRIPXREC
350
339
  3
ACDBVARIABLEDICTIONARY
350
1DC
  0
DICTIONARY
  5
11
330
10
100
AcDbDictionary
280
     1
  3
ACAD_LAYERFILTERS
360
12
  0
DICTIONARY
  5
22E
330
2
100
AcDbDictionary
280
     1
  3
ACAD_LAYOUTSELFREF
360
35A
  0
DICTIONARY
  5
230
330
1E3
100
AcDbDictionary
280
     1
  3
ACAD_LAYOUTSELFREF
360
35B
  0
DICTIONARY
  5
28
102
{ACAD_REACTORS
330
7
102
}
330
7
100
AcDbDictionary
  0
DICTIONARY
  5
B
102
{ACAD_REACTORS
330
7
102
}
330
7
100
AcDbDictionary
  0
DICTIONARY
  5
29
102
{ACAD_REACTORS
330
7
102
}
330
7
100
AcDbDictionary
  3
STANDARD
350
2C
  0
DICTIONARY
  5
2A
102
{ACAD_REACTORS
330
7
102
}
330
7
100
AcDbDictionary
  0
ACDBDICTIONARYWDFLT
  5
6
102
{ACAD_REACTORS
330
7
102
}
330
7
100
AcDbDictionary
281
     1
  3
Normal
350
5
100
AcDbDictionaryWithDefault
340
5
  0
DICTIONARY
  5
339
102
{ACAD_REACTORS
330
7
102
}
330
7
100
AcDbDictionary
  3
CEPSNTYPE
350
343
  3
DIMSTYLEDATA
350
347
  3
FINGERPRINTGUID
350
344
  3
HYPERLINKBASE
350
33C
  3
INSUNITS
350
342
  3
LAYOUTDICT
350
33E
  3
LWETCUNION
350
341
  3
PLOTSETDICT
350
33F
  3
PLOTSTYLNAMDICT
350
340
  3
PSVPSCALE
350
346
  3
PUCSBASE
350
34A
  3
PUCSORGBACK
350
350
  3
PUCSORGBOTTOM
350
34C
  3
PUCSORGFRONT
350
34F
  3
PUCSORGLEFT
350
34D
  3
PUCSORGRIGHT
350
34E
  3
PUCSORGTOP
350
34B
  3
PUCSORTHOREF
350
348
  3
PUCSORTHOVIEW
350
349
  3
STYLESHEET
350
33D
  3
TSTACKALIGN
350
33A
  3
TSTACKSIZE
350
33B
  3
UCSBASE
350
353
  3
UCSORGBACK
350
359
  3
UCSORGBOTTOM
350
355
  3
UCSORGFRONT
350
358
  3
UCSORGLEFT
350
356
  3
UCSORGRIGHT
350
357
  3
UCSORGTOP
350
354
  3
UCSORTHOREF
350
351
  3
UCSORTHOVIEW
350
352
  3
VERSIONGUID
350
345
  0
DICTIONARY
  5
1DC
102
{ACAD_REACTORS
330
7
102
}
330
7
100
AcDbDictionary
  3
DIMASSOC
350
1DE
  3
HIDETEXT
350
1DD
  0
DICTIONARY
  5
12
102
{ACAD_REACTORS
330
11
102
}
330
11
100
AcDbDictionary
280
     1
  3
DIM-1_12
360
13
  3
DIM-1_16
360
14
  0
XRECORD
  5
35A
102
{ACAD_REACTORS
330
22E
102
}
330
22E
100
AcDbXrecord
340
2
  0
XRECORD
  5
35B
102
{ACAD_REACTORS
330
230
102
}
330
230
100
AcDbXrecord
340
1E3
  0
MLINESTYLE
  5
2C
102
{ACAD_REACTORS
330
29
102
}
330
29
100
AcDbMlineStyle
  2
STANDARD
 70
     0
  3

 62
   256
 51
90.0
 52
90.0
 71
     2
 49
0.5
 62
   256
  6
BYLAYER
 49
-0.5
 62
   256
  6
BYLAYER
  0
ACDBPLACEHOLDER
  5
5
102
{ACAD_REACTORS
330
6
102
}
330
6
100
AcDbPlaceHolder
280
     0
  0
XRECORD
  5
343
102
{ACAD_REACTORS
330
339
102
}
330
339
100
AcDbXrecord
 90
        0
  0
XRECORD
  5
347
102
{ACAD_REACTORS
330
339
102
}
330
339
100
AcDbXrecord
1000
DSTYLE
1002
{
1070
    79
 70
     1
1070
   276
 70
     1
1070
   277
 70
     5
1070
   289
 70
     1
1002
}
  0
XRECORD
  5
344
102
{ACAD_REACTORS
330
339
102
}
330
339
100
AcDbXrecord
  1
{6A4AC8E0-4F58-11D5-8420-0003476D26AB}
  0
XRECORD
  5
33C
102
{ACAD_REACTORS
330
339
102
}
330
339
100
AcDbXrecord
  1

  0
XRECORD
  5
342
102
{ACAD_REACTORS
330
339
102
}
330
339
100
AcDbXrecord
 90
        1
  0
XRECORD
  5
33E
102
{ACAD_REACTORS
330
339
102
}
330
339
100
AcDbXrecord
340
B
  0
XRECORD
  5
341
102
{ACAD_REACTORS
330
339
102
}
330
339
100
AcDbXrecord
 90
    10781
  0
XRECORD
  5
33F
102
{ACAD_REACTORS
330
339
102
}
330
339
100
AcDbXrecord
340
2A
  0
XRECORD
  5
340
102
{ACAD_REACTORS
330
339
102
}
330
339
100
AcDbXrecord
340
6
  0
XRECORD
  5
346
102
{ACAD_REACTORS
330
339
102
}
330
339
100
AcDbXrecord
 40
0.0
  0
XRECORD
  5
34A
102
{ACAD_REACTORS
330
339
102
}
330
339
100
AcDbXrecord
340
0
  0
XRECORD
  5
350
102
{ACAD_REACTORS
330
339
102
}
330
339
100
AcDbXrecord
 10
0.0
 20
0.0
 30
0.0
  0
XRECORD
  5
34C
102
{ACAD_REACTORS
330
339
102
}
330
339
100
AcDbXrecord
 10
0.0
 20
0.0
 30
0.0
  0
XRECORD
  5
34F
102
{ACAD_REACTORS
330
339
102
}
330
339
100
AcDbXrecord
 10
0.0
 20
0.0
 30
0.0
  0
XRECORD
  5
34D
102
{ACAD_REACTORS
330
339
102
}
330
339
100
AcDbXrecord
 10
0.0
 20
0.0
 30
0.0
  0
XRECORD
  5
34E
102
{ACAD_REACTORS
330
339
102
}
330
339
100
AcDbXrecord
 10
0.0
 20
0.0
 30
0.0
  0
XRECORD
  5
34B
102
{ACAD_REACTORS
330
339
102
}
330
339
100
AcDbXrecord
 10
0.0
 20
0.0
 30
0.0
  0
XRECORD
  5
348
102
{ACAD_REACTORS
330
339
102
}
330
339
100
AcDbXrecord
340
0
  0
XRECORD
  5
349
102
{ACAD_REACTORS
330
339
102
}
330
339
100
AcDbXrecord
 70
     0
  0
XRECORD
  5
33D
102
{ACAD_REACTORS
330
339
102
}
330
339
100
AcDbXrecord
  1

  0
XRECORD
  5
33A
102
{ACAD_REACTORS
330
339
102
}
330
339
100
AcDbXrecord
 90
        1
  0
XRECORD
  5
33B
102
{ACAD_REACTORS
330
339
102
}
330
339
100
AcDbXrecord
 90
       70
  0
XRECORD
  5
353
102
{ACAD_REACTORS
330
339
102
}
330
339
100
AcDbXrecord
340
0
  0
XRECORD
  5
359
102
{ACAD_REACTORS
330
339
102
}
330
339
100
AcDbXrecord
 10
0.0
 20
0.0
 30
0.0
  0
XRECORD
  5
355
102
{ACAD_REACTORS
330
339
102
}
330
339
100
AcDbXrecord
 10
0.0
 20
0.0
 30
0.0
  0
XRECORD
  5
358
102
{ACAD_REACTORS
330
339
102
}
330
339
100
AcDbXrecord
 10
0.0
 20
0.0
 30
0.0
  0
XRECORD
  5
356
102
{ACAD_REACTORS
330
339
102
}
330
339
100
AcDbXrecord
 10
0.0
 20
0.0
 30
0.0
  0
XRECORD
  5
357
102
{ACAD_REACTORS
330
339
102
}
330
339
100
AcDbXrecord
 10
0.0
 20
0.0
 30
0.0
  0
XRECORD
  5
354
102
{ACAD_REACTORS
330
339
102
}
330
339
100
AcDbXrecord
 10
0.0
 20
0.0
 30
0.0
  0
XRECORD
  5
351
102
{ACAD_REACTORS
330
339
102
}
330
339
100
AcDbXrecord
340
0
  0
XRECORD
  5
352
102
{ACAD_REACTORS
330
339
102
}
330
339
100
AcDbXrecord
 70
     1
  0
XRECORD
  5
345
102
{ACAD_REACTORS
330
339
102
}
330
339
100
AcDbXrecord
  1
{3696805F-9A9C-4492-B691-FCA840B1D6DC}
  0
DICTIONARYVAR
  5
1DE
102
{ACAD_REACTORS
330
1DC
102
}
330
1DC
100
DictionaryVariables
280
     0
  1
1
  0
DICTIONARYVAR
  5
1DD
102
{ACAD_REACTORS
330
1DC
102
}
330
1DC
100
DictionaryVariables
280
     0
  1
1
  0
XRECORD
  5
13
102
{ACAD_REACTORS
330
12
102
}
330
12
100
AcDbXrecord
  1
DIM-1_12
  1
DIM-1_12
  1
*
  1
*
 70
     0
  1
*
  1
*
  0
XRECORD
  5
14
102
{ACAD_REACTORS
330
12
102
}
330
12
100
AcDbXrecord
  1
dim-1_16
  1
*
  1
*
  1
*
 70
     0
  1
*
  1
*
  0
ENDSEC
  0
EOF
