  0
SECTION
  2
HEADER
  9
$ACADVER
  1
AC1014
  9
$ACADMAINTVER
 70
     9
  9
$DWGCODEPAGE
  3
ANSI_1252
  9
$INSBASE
 10
-25.86536765085748
 20
16.7141161616504
 30
0.0
  9
$EXTMIN
 10
-87.9915691767381
 20
-1.224998764327663
 30
-0.0015258207003612
  9
$EXTMAX
 10
-16.22634884786255
 20
34.6533190750131
 30
0.0000000349246008
  9
$LIMMIN
 10
0.0
 20
0.0
  9
$LIMMAX
 10
100.5024158491978
 20
51.69854817198938
  9
$ORTHOMODE
 70
     1
  9
$REGENMODE
 70
     1
  9
$FILLMODE
 70
     1
  9
$QTEXTMODE
 70
     0
  9
$MIRRTEXT
 70
     1
  9
$DRAGMODE
 70
     2
  9
$LTSCALE
 40
2.0
  9
$OSMODE
 70
    55
  9
$ATTMODE
 70
     1
  9
$TEXTSIZE
 40
0.06
  9
$TRACEWID
 40
1.0
  9
$TEXTSTYLE
  7
CARTOUCHE
  9
$CLAYER
  8
0
  9
$CELTYPE
  6
BYLAYER
  9
$CECOLOR
 62
   256
  9
$CELTSCALE
 40
1.0
  9
$DELOBJ
 70
     1
  9
$DISPSILH
 70
     0
  9
$DIMSCALE
 40
16.0
  9
$DIMASZ
 40
0.1
  9
$DIMEXO
 40
0.0625
  9
$DIMDLI
 40
0.25
  9
$DIMRND
 40
0.0
  9
$DIMDLE
 40
0.0
  9
$DIMEXE
 40
0.1
  9
$DIMTP
 40
0.0
  9
$DIMTM
 40
0.0
  9
$DIMTXT
 40
0.1
  9
$DIMCEN
 40
0.09
  9
$DIMTSZ
 40
0.0
  9
$DIMTOL
 70
     0
  9
$DIMLIM
 70
     0
  9
$DIMTIH
 70
     1
  9
$DIMTOH
 70
     1
  9
$DIMSE1
 70
     0
  9
$DIMSE2
 70
     0
  9
$DIMTAD
 70
     0
  9
$DIMZIN
 70
     4
  9
$DIMBLK
  1

  9
$DIMASO
 70
     1
  9
$DIMSHO
 70
     1
  9
$DIMPOST
  1
\X
  9
$DIMAPOST
  1
cm
  9
$DIMALT
 70
     1
  9
$DIMALTD
 70
     0
  9
$DIMALTF
 40
2.54
  9
$DIMLFAC
 40
1.0
  9
$DIMTOFL
 70
     0
  9
$DIMTVP
 40
0.0
  9
$DIMTIX
 70
     0
  9
$DIMSOXD
 70
     0
  9
$DIMSAH
 70
     0
  9
$DIMBLK1
  1

  9
$DIMBLK2
  1

  9
$DIMSTYLE
  2
STANDARD
  9
$DIMCLRD
 70
     0
  9
$DIMCLRE
 70
     0
  9
$DIMCLRT
 70
     0
  9
$DIMTFAC
 40
1.0
  9
$DIMGAP
 40
0.08
  9
$DIMJUST
 70
     0
  9
$DIMSD1
 70
     0
  9
$DIMSD2
 70
     0
  9
$DIMTOLJ
 70
     1
  9
$DIMTZIN
 70
     4
  9
$DIMALTZ
 70
     4
  9
$DIMALTTZ
 70
     4
  9
$DIMFIT
 70
     1
  9
$DIMUPT
 70
     0
  9
$DIMUNIT
 70
     5
  9
$DIMDEC
 70
     3
  9
$DIMTDEC
 70
     3
  9
$DIMALTU
 70
     2
  9
$DIMALTTD
 70
     0
  9
$DIMTXSTY
  7
ROMANS
  9
$DIMAUNIT
 70
     0
  9
$LUNITS
 70
     2
  9
$LUPREC
 70
     2
  9
$SKETCHINC
 40
1.0
  9
$FILLETRAD
 40
3.0
  9
$AUNITS
 70
     0
  9
$AUPREC
 70
     0
  9
$MENU
  1
.
  9
$ELEVATION
 40
0.0
  9
$PELEVATION
 40
0.0
  9
$THICKNESS
 40
0.0
  9
$LIMCHECK
 70
     0
  9
$BLIPMODE
 70
     0
  9
$CHAMFERA
 40
10.0
  9
$CHAMFERB
 40
10.0
  9
$CHAMFERC
 40
20.0
  9
$CHAMFERD
 40
0.0
  9
$SKPOLY
 70
     0
  9
$TDCREATE
 40
2452062.343093518
  9
$TDUPDATE
 40
2453689.571698160
  9
$TDINDWG
 40
0.3713814931
  9
$TDUSRTIMER
 40
0.3713814931
  9
$USRTIMER
 70
     1
  9
$ANGBASE
 50
0.0
  9
$ANGDIR
 70
     0
  9
$PDMODE
 70
    33
  9
$PDSIZE
 40
0.25
  9
$PLINEWID
 40
0.0
  9
$COORDS
 70
     1
  9
$SPLFRAME
 70
     0
  9
$SPLINETYPE
 70
     6
  9
$SPLINESEGS
 70
     8
  9
$ATTDIA
 70
     0
  9
$ATTREQ
 70
     1
  9
$HANDLING
 70
 22529
  9
$HANDSEED
  5
2DB
  9
$SURFTAB1
 70
     6
  9
$SURFTAB2
 70
     6
  9
$SURFTYPE
 70
     6
  9
$SURFU
 70
     6
  9
$SURFV
 70
     6
  9
$UCSNAME
  2

  9
$UCSORG
 10
0.0
 20
0.0
 30
0.0
  9
$UCSXDIR
 10
1.0
 20
0.0
 30
0.0
  9
$UCSYDIR
 10
0.0
 20
1.0
 30
0.0
  9
$PUCSNAME
  2

  9
$PUCSORG
 10
0.0
 20
0.0
 30
0.0
  9
$PUCSXDIR
 10
1.0
 20
0.0
 30
0.0
  9
$PUCSYDIR
 10
0.0
 20
1.0
 30
0.0
  9
$USERI1
 70
     0
  9
$USERI2
 70
     0
  9
$USERI3
 70
     0
  9
$USERI4
 70
     0
  9
$USERI5
 70
     0
  9
$USERR1
 40
0.0
  9
$USERR2
 40
0.0
  9
$USERR3
 40
0.0
  9
$USERR4
 40
0.0
  9
$USERR5
 40
0.0
  9
$WORLDVIEW
 70
     1
  9
$SHADEDGE
 70
     3
  9
$SHADEDIF
 70
    70
  9
$TILEMODE
 70
     1
  9
$MAXACTVP
 70
    48
  9
$PINSBASE
 10
0.0
 20
0.0
 30
0.0
  9
$PLIMCHECK
 70
     0
  9
$PEXTMIN
 10
0.0
 20
0.0
 30
0.0
  9
$PEXTMAX
 10
0.0
 20
0.0
 30
0.0
  9
$PLIMMIN
 10
0.0
 20
0.0
  9
$PLIMMAX
 10
12.0
 20
9.0
  9
$UNITMODE
 70
     0
  9
$VISRETAIN
 70
     1
  9
$PLINEGEN
 70
     0
  9
$PSLTSCALE
 70
     1
  9
$TREEDEPTH
 70
  3020
  9
$PICKSTYLE
 70
     1
  9
$CMLSTYLE
  2
STANDARD
  9
$CMLJUST
 70
     0
  9
$CMLSCALE
 40
20.0
  9
$PROXYGRAPHICS
 70
     1
  9
$MEASUREMENT
 70
     0
  0
ENDSEC
  0
SECTION
  2
CLASSES
  0
CLASS
  1
ACDBDICTIONARYWDFLT
  2
AcDbDictionaryWithDefault
  3
AutoCAD 2000
 90
        0
280
     0
281
     0
  0
CLASS
  1
ACDBPLACEHOLDER
  2
AcDbPlaceHolder
  3
AutoCAD 2000
 90
        0
280
     0
281
     0
  0
CLASS
  1
LAYOUT
  2
AcDbLayout
  3
AutoCAD 2000
 90
        0
280
     0
281
     0
  0
CLASS
  1
DICTIONARYVAR
  2
AcDbDictionaryVar
  3
AutoCAD 2000
 90
        0
280
     0
281
     0
  0
CLASS
  1
IMAGEDEF
  2
AcDbRasterImageDef
  3
ISM
 90
        0
280
     0
281
     0
  0
CLASS
  1
LONG_TRANSACTION
  2
AcDbLongTransaction
  3
AutoCAD 2000
 90
        0
280
     0
281
     0
  0
CLASS
  1
LWPOLYLINE
  2
AcDbPolyline
  3
AutoCAD 2000
 90
        0
280
     0
281
     1
  0
CLASS
  1
HATCH
  2
AcDbHatch
  3
AutoCAD 2000
 90
        0
280
     0
281
     1
  0
CLASS
  1
XRECORD
  2
AcDbXrecord
  3
AutoCAD 2000
 90
        0
280
     0
281
     0
  0
CLASS
  1
LONG_TRANSACTION
  2
AcDbLongTransaction
  3
AutoCAD 2000
 90
        0
280
     0
281
     0
  0
CLASS
  1
LWPOLYLINE
  2
AcDbPolyline
  3
AutoCAD 2000
 90
        0
280
     0
281
     1
  0
CLASS
  1
HATCH
  2
AcDbHatch
  3
AutoCAD 2000
 90
        0
280
     0
281
     1
  0
CLASS
  1
XRECORD
  2
AcDbXrecord
  3
AutoCAD 2000
 90
        0
280
     0
281
     0
  0
CLASS
  1
LONG_TRANSACTION
  2
AcDbLongTransaction
  3
AutoCAD 2000
 90
        0
280
     0
281
     0
  0
CLASS
  1
LWPOLYLINE
  2
AcDbPolyline
  3
AutoCAD 2000
 90
        0
280
     0
281
     1
  0
CLASS
  1
HATCH
  2
AcDbHatch
  3
AutoCAD 2000
 90
        0
280
     0
281
     1
  0
CLASS
  1
XRECORD
  2
AcDbXrecord
  3
AutoCAD 2000
 90
        0
280
     0
281
     0
  0
ENDSEC
  0
SECTION
  2
TABLES
  0
TABLE
  2
VPORT
  5
1D
330
0
100
AcDbSymbolTable
 70
     3
  0
VPORT
  5
2B7
330
1D
100
AcDbSymbolTableRecord
100
AcDbViewportTableRecord
  2
*ACTIVE
 70
     0
 10
0.0
 20
0.0
 11
1.0
 21
1.0
 12
-52.1089591685511
 22
16.7141600394272
 13
0.0
 23
0.0
 14
10.0
 24
10.0
 15
10.0
 25
10.0
 16
0.0
 26
0.0
 36
1.0
 17
0.0
 27
0.0
 37
0.0
 40
49.31028534930483
 41
1.786792452830188
 42
50.0
 43
0.0
 44
0.0
 50
0.0
 51
0.0
 71
     0
 72
   100
 73
     1
 74
     3
 75
     0
 76
     0
 77
     0
 78
     2
  0
ENDTAB
  0
TABLE
  2
LTYPE
  5
18
330
0
100
AcDbSymbolTable
 70
     2
  0
LTYPE
  5
19
330
18
100
AcDbSymbolTableRecord
100
AcDbLinetypeTableRecord
  2
BYBLOCK
 70
     0
  3

 72
    65
 73
     0
 40
0.0
  0
LTYPE
  5
1A
330
18
100
AcDbSymbolTableRecord
100
AcDbLinetypeTableRecord
  2
BYLAYER
 70
     0
  3

 72
    65
 73
     0
 40
0.0
  0
LTYPE
  5
8
330
18
100
AcDbSymbolTableRecord
100
AcDbLinetypeTableRecord
  2
CONTINUOUS
 70
     0
  3
Solid line
 72
    65
 73
     0
 40
0.0
  0
LTYPE
  5
38
330
18
100
AcDbSymbolTableRecord
100
AcDbLinetypeTableRecord
  2
CENTER
 70
     0
  3
Center ____ _ ____ _ ____ _ ____ _ ____ _ ____
 72
    65
 73
     4
 40
50.8
 49
31.75
 74
     0
 49
-6.349999999999999
 74
     0
 49
6.349999999999999
 74
     0
 49
-6.349999999999999
 74
     0
  0
ENDTAB
  0
TABLE
  2
LAYER
  5
10
102
{ACAD_XDICTIONARY
360
11
102
}
330
0
100
AcDbSymbolTable
 70
     2
  0
LAYER
  5
4
330
10
100
AcDbSymbolTableRecord
100
AcDbLayerTableRecord
  2
0
 70
     0
 62
     7
  6
CONTINUOUS
  0
LAYER
  5
37
330
10
100
AcDbSymbolTableRecord
100
AcDbLayerTableRecord
  2
CENTER
 70
     0
 62
     1
  6
CENTER
  0
ENDTAB
  0
TABLE
  2
STYLE
  5
15
330
0
100
AcDbSymbolTable
 70
     3
  0
STYLE
  5
16
330
15
100
AcDbSymbolTableRecord
100
AcDbTextStyleTableRecord
  2
STANDARD
 70
     0
 40
0.0
 41
1.0
 50
0.0
 71
     0
 42
0.125
  3
txt
  4

  0
STYLE
  5
2B
330
15
100
AcDbSymbolTableRecord
100
AcDbTextStyleTableRecord
  2
CARTOUCHE
 70
     0
 40
0.0
 41
1.0
 50
0.0
 71
     0
 42
0.06
  3
romans.shx
  4

  0
STYLE
  5
23
330
15
100
AcDbSymbolTableRecord
100
AcDbTextStyleTableRecord
  2
ROMANS
 70
     0
 40
0.0
 41
1.0
 50
0.0
 71
     0
 42
1.0
  3
romans.shx
  4

  0
ENDTAB
  0
TABLE
  2
VIEW
  5
1B
330
0
100
AcDbSymbolTable
 70
     0
  0
ENDTAB
  0
TABLE
  2
UCS
  5
1C
330
0
100
AcDbSymbolTable
 70
     0
  0
ENDTAB
  0
TABLE
  2
APPID
  5
1F
330
0
100
AcDbSymbolTable
 70
     1
  0
APPID
  5
20
330
1F
100
AcDbSymbolTableRecord
100
AcDbRegAppTableRecord
  2
ACAD
 70
     0
  0
ENDTAB
  0
TABLE
  2
DIMSTYLE
  5
21
330
0
100
AcDbSymbolTable
 70
     1
  0
DIMSTYLE
105
22
330
21
100
AcDbSymbolTableRecord
100
AcDbDimStyleTableRecord
  2
STANDARD
 70
     0
  3
\X
  4
cm
  5

  6

  7

 40
16.0
 41
0.1
 42
0.0625
 43
0.25
 44
0.1
 45
0.0
 46
0.0
 47
0.0
 48
0.0
140
0.1
141
0.09
142
0.0
143
2.54
144
1.0
145
0.0
146
1.0
147
0.08
 71
     0
 72
     0
 73
     1
 74
     1
 75
     0
 76
     0
 77
     0
 78
     4
170
     1
171
     0
172
     0
173
     0
174
     0
175
     0
176
     0
177
     0
178
     0
270
     5
271
     3
272
     3
273
     2
274
     0
340
23
275
     0
280
     0
281
     0
282
     0
283
     1
284
     4
285
     4
286
     4
287
     1
288
     0
  0
ENDTAB
  0
TABLE
  2
BLOCK_RECORD
  5
1
330
0
100
AcDbSymbolTable
 70
     0
  0
BLOCK_RECORD
  5
2
102
{ACAD_XDICTIONARY
360
1DC
102
}
330
1
100
AcDbSymbolTableRecord
100
AcDbBlockTableRecord
  2
*MODEL_SPACE
  0
BLOCK_RECORD
  5
1D1
102
{ACAD_XDICTIONARY
360
1DE
102
}
330
1
100
AcDbSymbolTableRecord
100
AcDbBlockTableRecord
  2
*PAPER_SPACE
  0
ENDTAB
  0
ENDSEC
  0
SECTION
  2
BLOCKS
  0
BLOCK
  5
3
330
2
100
AcDbEntity
  8
0
100
AcDbBlockBegin
  2
*MODEL_SPACE
 70
     0
 10
0.0
 20
0.0
 30
0.0
  3
*MODEL_SPACE
  1

  0
ENDBLK
  5
9
330
2
100
AcDbEntity
  8
0
100
AcDbBlockEnd
  0
BLOCK
  5
1D3
330
1D1
100
AcDbEntity
 67
     1
  8
0
100
AcDbBlockBegin
  2
*PAPER_SPACE
 70
     0
 10
0.0
 20
0.0
 30
0.0
  3
*PAPER_SPACE
  1

  0
ENDBLK
  5
1D4
330
1D1
100
AcDbEntity
 67
     1
  8
0
100
AcDbBlockEnd
  0
ENDSEC
  0
SECTION
  2
ENTITIES
  0
LWPOLYLINE
  5
2D
330
2
100
AcDbEntity
  8
0
 48
0.1
100
AcDbPolyline
 90
        4
 70
     1
 43
0.0
 10
-87.99036765085748
 20
-1.223383838349604
 10
-16.24036765085747
 20
-1.223383838349604
 10
-16.24036765085747
 20
34.65161616165039
 10
-87.99036765085748
 20
34.65161616165039
  0
LINE
  5
2E
330
2
100
AcDbEntity
  8
0
 48
0.1
100
AcDbLine
 10
-26.30847975609347
 20
4.151616161650395
 30
0.0
 11
-73.11317731630797
 21
4.151616161650387
 31
0.0
  0
LINE
  5
2F
330
2
100
AcDbEntity
  8
0
 48
0.1
100
AcDbLine
 10
-25.53993137193955
 20
2.256906481232178
 30
0.0
 11
-78.32043989263052
 21
2.256906481232178
 31
0.0
  0
LINE
  5
30
330
2
100
AcDbEntity
  8
0
 48
0.1
100
AcDbLine
 10
-25.75679468549934
 20
2.756906481232178
 30
0.0
 11
-78.32024822142995
 21
2.756906481232174
 31
0.0
  0
LINE
  5
31
330
2
100
AcDbEntity
  8
0
 48
0.1
100
AcDbLine
 10
-26.30847975609347
 20
29.27661616165039
 30
0.0
 11
-73.11317731630797
 21
29.2766161616504
 31
0.0
  0
LINE
  5
32
330
2
100
AcDbEntity
  8
0
 48
0.1
100
AcDbLine
 10
-25.75679468549934
 20
30.67132584206861
 30
0.0
 11
-78.32024822142995
 21
30.67132584206861
 31
0.0
  0
LINE
  5
33
330
2
100
AcDbEntity
  8
0
 48
0.1
100
AcDbLine
 10
-25.53993137193955
 20
31.17132584206861
 30
0.0
 11
-78.32043989263052
 21
31.17132584206861
 31
0.0
  0
CIRCLE
  5
34
330
2
100
AcDbEntity
  8
0
 48
0.1
100
AcDbCircle
 10
-25.86536765085748
 20
16.71411616165039
 30
0.0
 40
1.89014635623478
  0
CIRCLE
  5
35
330
2
100
AcDbEntity
  8
0
 48
0.1
100
AcDbCircle
 10
-25.86536765085748
 20
16.71411616165039
 30
0.0
 40
1.25
  0
LINE
  5
36
330
2
100
AcDbEntity
  8
CENTER
 48
0.05
100
AcDbLine
 10
-22.93093532166801
 20
16.7141161616504
 30
0.0
 11
-28.79979998004694
 21
16.71411616165039
 31
0.0
  0
SPLINE
  5
1AE
330
2
100
AcDbEntity
  8
0
 48
0.1
100
AcDbSpline
210
0.0
220
0.0
230
1.0
 70
     8
 71
     3
 72
    16
 73
    12
 74
     0
 42
0.0000000001
 43
0.0000000001
 40
0.0
 40
0.0
 40
0.0
 40
0.0
 40
2.120347991451352
 40
2.120347991451352
 40
4.528411728673892
 40
4.528411728673892
 40
7.125837870546619
 40
7.125837870546619
 40
9.723264012419345
 40
9.723264012419345
 40
11.52209935537087
 40
11.52209935537087
 40
11.52209935537087
 40
11.52209935537087
 10
-77.56383484791976
 20
16.71421890072875
 30
0.0
 10
-77.56383484791976
 20
17.41568017436666
 30
0.0
 10
-77.55263600337702
 20
18.11737010091572
 30
0.0
 10
-77.5015506922844
 20
19.61408159946014
 30
0.0
 10
-77.4579774147064
 20
20.40884733451365
 30
0.0
 10
-77.32868902844531
 20
22.0238912954012
 30
0.0
 10
-77.24465629037101
 20
22.87040197459469
 30
0.0
 10
-76.95620975303135
 20
24.53283122942559
 30
0.0
 10
-76.74622137730216
 20
25.32600920379807
 30
0.0
 10
-76.26024013284338
 20
26.6673485852505
 30
0.0
 10
-76.02497225164758
 20
27.19969766606097
 30
0.0
 10
-75.75113753688139
 20
27.70530992683321
 30
0.0
  0
SPLINE
  5
1AF
330
2
100
AcDbEntity
  8
0
 48
0.1
100
AcDbSpline
210
0.0
220
0.0
230
1.0
 70
     8
 71
     3
 72
    20
 73
    16
 74
     0
 42
0.0000000001
 43
0.0000000001
 40
0.0
 40
0.0
 40
0.0
 40
0.0
 40
2.120347991451352
 40
2.120347991451352
 40
4.528411728673892
 40
4.528411728673892
 40
7.125837870546619
 40
7.125837870546619
 40
9.723264012419345
 40
9.723264012419345
 40
12.32069015429207
 40
12.32069015429207
 40
13.82014683756796
 40
13.82014683756796
 40
13.98326884564278
 40
13.98326884564278
 40
13.98326884564278
 40
13.98326884564278
 10
-83.74036765085747
 20
16.71411616165039
 30
0.0
 10
-83.74036765085747
 20
17.4155774352883
 30
0.0
 10
-83.72916880631473
 20
18.11726736183736
 30
0.0
 10
-83.67808349522212
 20
19.61397886038178
 30
0.0
 10
-83.63451021764412
 20
20.40874459543529
 30
0.0
 10
-83.50522183138302
 20
22.02378855632284
 30
0.0
 10
-83.42118909330872
 20
22.87029923551633
 30
0.0
 10
-83.13274255596907
 20
24.53272849034723
 30
0.0
 10
-82.92275418023988
 20
25.32590646471971
 30
0.0
 10
-82.34849334831507
 20
26.91090316545496
 30
0.0
 10
-81.98543380907866
 20
27.66901599495835
 30
0.0
 10
-81.28281486486383
 20
28.76189184658345
 30
0.0
 10
-80.9960616406388
 20
29.1380358515928
 30
0.0
 10
-80.64868744439346
 20
29.54496786494201
 30
0.0
 10
-80.61432094056113
 20
29.5847721720961
 30
0.0
 10
-80.57968822076105
 20
29.62446833467971
 30
0.0
  0
SPLINE
  5
1B0
330
2
100
AcDbEntity
  8
0
 48
0.1
100
AcDbSpline
210
0.0
220
0.0
230
1.0
 70
     8
 71
     3
 72
    11
 73
     7
 74
     0
 42
0.0000000001
 43
0.0000000001
 40
0.0
 40
0.0
 40
0.0
 40
0.0
 40
4.887914166676041
 40
7.560260092576704
 40
12.80811808063293
 40
13.98328839047047
 40
13.98328839047047
 40
13.98328839047047
 40
13.98328839047047
 10
-84.24036765085748
 20
16.71411616165039
 30
0.0
 10
-84.24036765085748
 20
18.34342088387574
 30
0.0
 10
-84.14762526415385
 20
20.8683386310056
 30
0.0
 10
-83.67003207346407
 20
25.04165375092625
 30
0.0
 10
-82.55868976406944
 20
27.99576061126986
 30
0.0
 10
-81.21407030843986
 20
29.65787675791926
 30
0.0
 10
-80.95645578712707
 20
29.95317732567364
 30
0.0
  0
SPLINE
  5
1B1
330
2
100
AcDbEntity
  8
0
 48
0.1
100
AcDbSpline
210
0.0
220
0.0
230
1.0
 70
     8
 71
     3
 72
    20
 73
    16
 74
     0
 42
0.0000000001
 43
0.0000000001
 40
0.0
 40
0.0
 40
0.0
 40
0.0
 40
2.120347991451352
 40
2.120347991451352
 40
4.528411728673892
 40
4.528411728673892
 40
7.125837870546619
 40
7.125837870546619
 40
9.723264012419345
 40
9.723264012419345
 40
12.32069015429207
 40
12.32069015429207
 40
13.82014683756796
 40
13.82014683756796
 40
13.98326884564278
 40
13.98326884564278
 40
13.98326884564278
 40
13.98326884564278
 10
-83.74036765085747
 20
16.71411616165039
 30
0.0
 10
-83.74036765085747
 20
16.01265488801248
 30
0.0
 10
-83.72916880631473
 20
15.31096496146342
 30
0.0
 10
-83.67808349522212
 20
13.81425346291901
 30
0.0
 10
-83.63451021764412
 20
13.01948772786549
 30
0.0
 10
-83.50522183138302
 20
11.40444376697794
 30
0.0
 10
-83.42118909330872
 20
10.58918308778445
 30
0.0
 10
-83.13274255596907
 20
8.926753832953561
 30
0.0
 10
-82.92275418023988
 20
8.102325858581075
 30
0.0
 10
-82.34849334831507
 20
6.517329157845832
 30
0.0
 10
-81.98543380907866
 20
5.759216328342432
 30
0.0
 10
-81.28281486486383
 20
4.666340476717341
 30
0.0
 10
-80.9960616406388
 20
4.290196471707982
 30
0.0
 10
-80.64868744439346
 20
3.88326445835878
 30
0.0
 10
-80.61432094056113
 20
3.843460151204684
 30
0.0
 10
-80.57968822076105
 20
3.803763988621071
 30
0.0
  0
ARC
  5
1B2
330
2
100
AcDbEntity
  8
0
 48
0.1
100
AcDbCircle
 10
-78.25219348042057
 20
5.86575967016315
 30
0.0
 40
3.609498429427109
100
AcDbArc
 50
221.4783094197495
 51
268.9166183391711
  0
SPLINE
  5
1B3
330
2
100
AcDbEntity
  8
0
 48
0.1
100
AcDbSpline
210
0.0
220
0.0
230
1.0
 70
     8
 71
     3
 72
    11
 73
     7
 74
     0
 42
0.0000000001
 43
0.0000000001
 40
0.0
 40
0.0
 40
0.0
 40
0.0
 40
4.887914166676041
 40
7.560260092576704
 40
12.80811808063293
 40
13.98328839047047
 40
13.98328839047047
 40
13.98328839047047
 40
13.98328839047047
 10
-84.24036765085748
 20
16.71411616165039
 30
0.0
 10
-84.24036765085748
 20
15.08481143942504
 30
0.0
 10
-84.14762526415385
 20
12.55989369229518
 30
0.0
 10
-83.67003207346407
 20
8.386578572374531
 30
0.0
 10
-82.55868976406944
 20
5.432471712030928
 30
0.0
 10
-81.21407030843986
 20
3.770355565381528
 30
0.0
 10
-80.95645578712707
 20
3.475054997627147
 30
0.0
  0
SPLINE
  5
1B4
330
2
100
AcDbEntity
  8
0
 48
0.1
100
AcDbSpline
210
0.0
220
0.0
230
1.0
 70
     8
 71
     3
 72
    16
 73
    12
 74
     0
 42
0.0000000001
 43
0.0000000001
 40
0.0
 40
0.0
 40
0.0
 40
0.0
 40
2.120347991451352
 40
2.120347991451352
 40
4.528411728673892
 40
4.528411728673892
 40
7.125837870546619
 40
7.125837870546619
 40
9.723264012419345
 40
9.723264012419345
 40
11.52209935537087
 40
11.52209935537087
 40
11.52209935537087
 40
11.52209935537087
 10
-77.56383484791976
 20
16.71401342257203
 30
0.0
 10
-77.56383484791976
 20
16.01255214893412
 30
0.0
 10
-77.55263600337702
 20
15.31086222238506
 30
0.0
 10
-77.5015506922844
 20
13.81415072384064
 30
0.0
 10
-77.4579774147064
 20
13.01938498878713
 30
0.0
 10
-77.32868902844531
 20
11.40434102789958
 30
0.0
 10
-77.24465629037101
 20
10.58908034870609
 30
0.0
 10
-76.95620975303135
 20
8.9266510938752
 30
0.0
 10
-76.74622137730216
 20
8.102223119502713
 30
0.0
 10
-76.26024013284338
 20
6.760883738050285
 30
0.0
 10
-76.02497225164758
 20
6.228534657239819
 30
0.0
 10
-75.75113753688139
 20
5.722922396467581
 30
0.0
  0
ARC
  5
1B5
330
2
100
AcDbEntity
  8
0
 48
0.1
100
AcDbCircle
 10
-73.11317731630795
 20
7.151616161650387
 30
0.0
 40
3.0
100
AcDbArc
 50
208.4395472334605
 51
269.9999999999997
  0
ARC
  5
1B6
330
2
100
AcDbEntity
  8
0
 48
0.1
100
AcDbCircle
 10
-78.25178390538384
 20
5.866384960303388
 30
0.0
 40
3.110232109405773
100
AcDbArc
 50
221.5422908392756
 51
268.7386686642649
  0
ARC
  5
1B7
330
2
100
AcDbEntity
  8
0
 48
0.1
100
AcDbCircle
 10
-78.25219348042057
 20
27.56247265313763
 30
0.0
 40
3.609498429427109
100
AcDbArc
 50
91.08338166082885
 51
138.5216905802504
  0
ARC
  5
1B8
330
2
100
AcDbEntity
  8
0
 48
0.1
100
AcDbCircle
 10
-73.11317731630795
 20
26.2766161616504
 30
0.0
 40
3.0
100
AcDbArc
 50
90.00000000000026
 51
151.5604527665394
  0
ARC
  5
1B9
330
2
100
AcDbEntity
  8
0
 48
0.1
100
AcDbCircle
 10
-78.25178390538384
 20
27.5618473629974
 30
0.0
 40
3.110232109405773
100
AcDbArc
 50
91.26133133573516
 51
138.4577091607243
  0
SPLINE
  5
1BD
330
2
100
AcDbEntity
  8
0
 48
0.1
100
AcDbSpline
210
0.0
220
0.0
230
1.0
 70
     8
 71
     3
 72
    10
 73
     6
 74
     0
 42
0.0000000001
 43
0.0000000001
 40
0.0
 40
0.0
 40
0.0
 40
0.0
 40
3.464105688015374
 40
8.354262102537994
 40
10.06292140152943
 40
10.06292140152943
 40
10.06292140152943
 40
10.06292140152943
 10
-21.49036765085747
 20
16.71413597404023
 30
0.0
 10
-21.49036765085747
 20
16.71413597404023
 30
0.0
 10
-21.56466702034685
 20
20.57542991047375
 30
0.0
 10
-21.88472987622329
 20
24.35245773781092
 30
0.0
 10
-22.54414006509375
 20
27.4951052193114
 30
0.0
 10
-23.0413938745301
 20
28.76568183197306
 30
0.0
  0
SPLINE
  5
1BE
330
2
100
AcDbEntity
  8
0
 48
0.1
100
AcDbSpline
210
0.0
220
0.0
230
1.0
 70
     8
 71
     3
 72
    10
 73
     6
 74
     0
 42
0.0000000001
 43
0.0000000001
 40
0.0
 40
0.0
 40
0.0
 40
0.0
 40
3.464105688015374
 40
8.354262102537994
 40
10.30865777368593
 40
10.30865777368593
 40
10.30865777368593
 40
10.30865777368593
 10
-20.99036765085747
 20
16.71413597404023
 30
0.0
 10
-20.99036765085747
 20
16.71413597404023
 30
0.0
 10
-21.06466702034686
 20
20.57542991047375
 30
0.0
 10
-21.39254580580544
 20
24.44545581859804
 30
0.0
 10
-22.09387562583921
 20
27.73243200457226
 30
0.0
 10
-22.77707827458216
 20
29.34292320109681
 30
0.0
  0
SPLINE
  5
1BF
330
2
100
AcDbEntity
  8
0
 48
0.1
100
AcDbSpline
210
0.0
220
0.0
230
1.0
 70
     8
 71
     3
 72
    10
 73
     6
 74
     0
 42
0.0000000001
 43
0.0000000001
 40
0.0
 40
0.0
 40
0.0
 40
0.0
 40
3.464105688015374
 40
8.354262102537994
 40
10.33981143180156
 40
10.33981143180156
 40
10.33981143180156
 40
10.33981143180156
 10
-22.31383484791976
 20
16.71413597404023
 30
0.0
 10
-22.31383484791976
 20
16.71413597404023
 30
0.0
 10
-22.3514555690219
 20
19.60004173267589
 30
0.0
 10
-22.52560734518816
 20
22.52674019852408
 30
0.0
 10
-23.08207495885889
 20
26.02613515533522
 30
0.0
 10
-23.44863962534561
 20
27.18288015550875
 30
0.0
  0
LINE
  5
1C0
330
2
100
AcDbEntity
  8
CENTER
 48
0.05
100
AcDbLine
 10
-25.86536765085748
 20
13.85197128328599
 30
0.0
 11
-25.86536765085748
 21
19.57626104001481
 31
0.0
  0
SPLINE
  5
1C1
330
2
100
AcDbEntity
  8
0
 48
0.1
100
AcDbSpline
210
0.0
220
0.0
230
1.0
 70
     8
 71
     3
 72
    10
 73
     6
 74
     0
 42
0.0000000001
 43
0.0000000001
 40
0.0
 40
0.0
 40
0.0
 40
0.0
 40
3.464105688015374
 40
8.354262102537994
 40
10.33981143180156
 40
10.33981143180156
 40
10.33981143180156
 40
10.33981143180156
 10
-22.31383484791976
 20
16.71409634926055
 30
0.0
 10
-22.31383484791976
 20
16.71409634926055
 30
0.0
 10
-22.3514555690219
 20
13.8281905906249
 30
0.0
 10
-22.52560734518816
 20
10.9014921247767
 30
0.0
 10
-23.08207495885889
 20
7.402097167965568
 30
0.0
 10
-23.44863962534561
 20
6.245352167792042
 30
0.0
  0
SPLINE
  5
1C2
330
2
100
AcDbEntity
  8
0
 48
0.1
100
AcDbSpline
210
0.0
220
0.0
230
1.0
 70
     8
 71
     3
 72
    10
 73
     6
 74
     0
 42
0.0000000001
 43
0.0000000001
 40
0.0
 40
0.0
 40
0.0
 40
0.0
 40
3.464105688015374
 40
8.354262102537994
 40
10.30865777368593
 40
10.30865777368593
 40
10.30865777368593
 40
10.30865777368593
 10
-20.99036765085747
 20
16.71409634926055
 30
0.0
 10
-20.99036765085747
 20
16.71409634926055
 30
0.0
 10
-21.06466702034686
 20
12.85280241282703
 30
0.0
 10
-21.39254580580544
 20
9.014026504702744
 30
0.0
 10
-22.09387562583921
 20
5.695800318728526
 30
0.0
 10
-22.77707827458216
 20
4.085309122203973
 30
0.0
  0
SPLINE
  5
1C3
330
2
100
AcDbEntity
  8
0
 48
0.1
100
AcDbSpline
210
0.0
220
0.0
230
1.0
 70
     8
 71
     3
 72
    10
 73
     6
 74
     0
 42
0.0000000001
 43
0.0000000001
 40
0.0
 40
0.0
 40
0.0
 40
0.0
 40
3.464105688015374
 40
8.354262102537994
 40
10.06292140152943
 40
10.06292140152943
 40
10.06292140152943
 40
10.06292140152943
 10
-21.49036765085747
 20
16.71409634926055
 30
0.0
 10
-21.49036765085747
 20
16.71409634926055
 30
0.0
 10
-21.56466702034685
 20
12.85280241282703
 30
0.0
 10
-21.88472987622329
 20
9.107024585489863
 30
0.0
 10
-22.54414006509375
 20
5.933127103989384
 30
0.0
 10
-23.0413938745301
 20
4.662550491327728
 30
0.0
  0
ARC
  5
1C4
330
2
100
AcDbEntity
  8
0
 48
0.1
100
AcDbCircle
 10
-25.5388458405647
 20
5.256906284835761
 30
0.0
 40
3.0
100
AcDbArc
 50
269.979267877445
 51
337.0123698378027
  0
ARC
  5
1C5
330
2
100
AcDbEntity
  8
0
 48
0.1
100
AcDbCircle
 10
-26.30847975609347
 20
7.151616161650387
 30
0.0
 40
3.0
100
AcDbArc
 50
270.0
 51
342.4169436303083
  0
ARC
  5
1C6
330
2
100
AcDbEntity
  8
0
 48
0.1
100
AcDbCircle
 10
-25.83506874500026
 20
5.755885169320716
 30
0.0
 40
3.0
100
AcDbArc
 50
269.9780360978128
 51
338.6265755518759
  0
ARC
  5
1C7
330
2
100
AcDbEntity
  8
0
 48
0.1
100
AcDbCircle
 10
-26.30847975609347
 20
26.2766161616504
 30
0.0
 40
3.0
100
AcDbArc
 50
17.58305636969166
 51
90.0
  0
ARC
  5
1C8
330
2
100
AcDbEntity
  8
0
 48
0.1
100
AcDbCircle
 10
-25.5388458405647
 20
28.17132603846502
 30
0.0
 40
3.0
100
AcDbArc
 50
22.98763016219722
 51
90.02073212255496
  0
ARC
  5
1C9
330
2
100
AcDbEntity
  8
0
 48
0.1
100
AcDbCircle
 10
-25.83506874500026
 20
27.67234715398007
 30
0.0
 40
3.0
100
AcDbArc
 50
21.37342444812406
 51
90.02196390218706
  0
ENDSEC
  0
SECTION
  2
OBJECTS
  0
DICTIONARY
  5
7
330
0
100
AcDbDictionary
  3
ACAD_GROUP
350
28
  3
ACAD_LAYOUT
350
B
  3
ACAD_MLINESTYLE
350
29
  3
ACAD_PLOTSETTINGS
350
2A
  3
ACAD_PLOTSTYLENAME
350
6
  3
ACDBHEADERROUNDTRIPXREC
350
2B8
  3
ACDBVARIABLEDICTIONARY
350
1CA
  0
DICTIONARY
  5
11
330
10
100
AcDbDictionary
280
     1
  3
ACAD_LAYERFILTERS
360
12
  0
DICTIONARY
  5
1DC
330
2
100
AcDbDictionary
280
     1
  3
ACAD_LAYOUTSELFREF
360
2D9
  0
DICTIONARY
  5
1DE
330
1D1
100
AcDbDictionary
280
     1
  3
ACAD_LAYOUTSELFREF
360
2DA
  0
DICTIONARY
  5
28
102
{ACAD_REACTORS
330
7
102
}
330
7
100
AcDbDictionary
  0
DICTIONARY
  5
B
102
{ACAD_REACTORS
330
7
102
}
330
7
100
AcDbDictionary
  0
DICTIONARY
  5
29
102
{ACAD_REACTORS
330
7
102
}
330
7
100
AcDbDictionary
  3
STANDARD
350
2C
  0
DICTIONARY
  5
2A
102
{ACAD_REACTORS
330
7
102
}
330
7
100
AcDbDictionary
  0
ACDBDICTIONARYWDFLT
  5
6
102
{ACAD_REACTORS
330
7
102
}
330
7
100
AcDbDictionary
281
     1
  3
Normal
350
5
100
AcDbDictionaryWithDefault
340
5
  0
DICTIONARY
  5
2B8
102
{ACAD_REACTORS
330
7
102
}
330
7
100
AcDbDictionary
  3
CEPSNTYPE
350
2C2
  3
DIMSTYLEDATA
350
2C6
  3
FINGERPRINTGUID
350
2C3
  3
HYPERLINKBASE
350
2BB
  3
INSUNITS
350
2C1
  3
LAYOUTDICT
350
2BD
  3
LWETCUNION
350
2C0
  3
PLOTSETDICT
350
2BE
  3
PLOTSTYLNAMDICT
350
2BF
  3
PSVPSCALE
350
2C5
  3
PUCSBASE
350
2C9
  3
PUCSORGBACK
350
2CF
  3
PUCSORGBOTTOM
350
2CB
  3
PUCSORGFRONT
350
2CE
  3
PUCSORGLEFT
350
2CC
  3
PUCSORGRIGHT
350
2CD
  3
PUCSORGTOP
350
2CA
  3
PUCSORTHOREF
350
2C7
  3
PUCSORTHOVIEW
350
2C8
  3
STYLESHEET
350
2BC
  3
TSTACKALIGN
350
2B9
  3
TSTACKSIZE
350
2BA
  3
UCSBASE
350
2D2
  3
UCSORGBACK
350
2D8
  3
UCSORGBOTTOM
350
2D4
  3
UCSORGFRONT
350
2D7
  3
UCSORGLEFT
350
2D5
  3
UCSORGRIGHT
350
2D6
  3
UCSORGTOP
350
2D3
  3
UCSORTHOREF
350
2D0
  3
UCSORTHOVIEW
350
2D1
  3
VERSIONGUID
350
2C4
  0
DICTIONARY
  5
1CA
102
{ACAD_REACTORS
330
7
102
}
330
7
100
AcDbDictionary
  3
DIMASSOC
350
1CC
  3
HIDETEXT
350
1CB
  0
DICTIONARY
  5
12
102
{ACAD_REACTORS
330
11
102
}
330
11
100
AcDbDictionary
280
     1
  3
DIM-1_12
360
13
  3
DIM-1_16
360
14
  0
XRECORD
  5
2D9
102
{ACAD_REACTORS
330
1DC
102
}
330
1DC
100
AcDbXrecord
340
2
  0
XRECORD
  5
2DA
102
{ACAD_REACTORS
330
1DE
102
}
330
1DE
100
AcDbXrecord
340
1D1
  0
MLINESTYLE
  5
2C
102
{ACAD_REACTORS
330
29
102
}
330
29
100
AcDbMlineStyle
  2
STANDARD
 70
     0
  3

 62
   256
 51
90.0
 52
90.0
 71
     2
 49
0.5
 62
   256
  6
BYLAYER
 49
-0.5
 62
   256
  6
BYLAYER
  0
ACDBPLACEHOLDER
  5
5
102
{ACAD_REACTORS
330
6
102
}
330
6
100
AcDbPlaceHolder
280
     0
  0
XRECORD
  5
2C2
102
{ACAD_REACTORS
330
2B8
102
}
330
2B8
100
AcDbXrecord
 90
        0
  0
XRECORD
  5
2C6
102
{ACAD_REACTORS
330
2B8
102
}
330
2B8
100
AcDbXrecord
1000
DSTYLE
1002
{
1070
    79
 70
     1
1070
   276
 70
     1
1070
   277
 70
     5
1070
   289
 70
     1
1002
}
  0
XRECORD
  5
2C3
102
{ACAD_REACTORS
330
2B8
102
}
330
2B8
100
AcDbXrecord
  1
{6A4AC8E0-4F58-11D5-8420-0003476D26AB}
  0
XRECORD
  5
2BB
102
{ACAD_REACTORS
330
2B8
102
}
330
2B8
100
AcDbXrecord
  1

  0
XRECORD
  5
2C1
102
{ACAD_REACTORS
330
2B8
102
}
330
2B8
100
AcDbXrecord
 90
        1
  0
XRECORD
  5
2BD
102
{ACAD_REACTORS
330
2B8
102
}
330
2B8
100
AcDbXrecord
340
B
  0
XRECORD
  5
2C0
102
{ACAD_REACTORS
330
2B8
102
}
330
2B8
100
AcDbXrecord
 90
    10781
  0
XRECORD
  5
2BE
102
{ACAD_REACTORS
330
2B8
102
}
330
2B8
100
AcDbXrecord
340
2A
  0
XRECORD
  5
2BF
102
{ACAD_REACTORS
330
2B8
102
}
330
2B8
100
AcDbXrecord
340
6
  0
XRECORD
  5
2C5
102
{ACAD_REACTORS
330
2B8
102
}
330
2B8
100
AcDbXrecord
 40
0.0
  0
XRECORD
  5
2C9
102
{ACAD_REACTORS
330
2B8
102
}
330
2B8
100
AcDbXrecord
340
0
  0
XRECORD
  5
2CF
102
{ACAD_REACTORS
330
2B8
102
}
330
2B8
100
AcDbXrecord
 10
0.0
 20
0.0
 30
0.0
  0
XRECORD
  5
2CB
102
{ACAD_REACTORS
330
2B8
102
}
330
2B8
100
AcDbXrecord
 10
0.0
 20
0.0
 30
0.0
  0
XRECORD
  5
2CE
102
{ACAD_REACTORS
330
2B8
102
}
330
2B8
100
AcDbXrecord
 10
0.0
 20
0.0
 30
0.0
  0
XRECORD
  5
2CC
102
{ACAD_REACTORS
330
2B8
102
}
330
2B8
100
AcDbXrecord
 10
0.0
 20
0.0
 30
0.0
  0
XRECORD
  5
2CD
102
{ACAD_REACTORS
330
2B8
102
}
330
2B8
100
AcDbXrecord
 10
0.0
 20
0.0
 30
0.0
  0
XRECORD
  5
2CA
102
{ACAD_REACTORS
330
2B8
102
}
330
2B8
100
AcDbXrecord
 10
0.0
 20
0.0
 30
0.0
  0
XRECORD
  5
2C7
102
{ACAD_REACTORS
330
2B8
102
}
330
2B8
100
AcDbXrecord
340
0
  0
XRECORD
  5
2C8
102
{ACAD_REACTORS
330
2B8
102
}
330
2B8
100
AcDbXrecord
 70
     0
  0
XRECORD
  5
2BC
102
{ACAD_REACTORS
330
2B8
102
}
330
2B8
100
AcDbXrecord
  1

  0
XRECORD
  5
2B9
102
{ACAD_REACTORS
330
2B8
102
}
330
2B8
100
AcDbXrecord
 90
        1
  0
XRECORD
  5
2BA
102
{ACAD_REACTORS
330
2B8
102
}
330
2B8
100
AcDbXrecord
 90
       70
  0
XRECORD
  5
2D2
102
{ACAD_REACTORS
330
2B8
102
}
330
2B8
100
AcDbXrecord
340
0
  0
XRECORD
  5
2D8
102
{ACAD_REACTORS
330
2B8
102
}
330
2B8
100
AcDbXrecord
 10
0.0
 20
0.0
 30
0.0
  0
XRECORD
  5
2D4
102
{ACAD_REACTORS
330
2B8
102
}
330
2B8
100
AcDbXrecord
 10
0.0
 20
0.0
 30
0.0
  0
XRECORD
  5
2D7
102
{ACAD_REACTORS
330
2B8
102
}
330
2B8
100
AcDbXrecord
 10
0.0
 20
0.0
 30
0.0
  0
XRECORD
  5
2D5
102
{ACAD_REACTORS
330
2B8
102
}
330
2B8
100
AcDbXrecord
 10
0.0
 20
0.0
 30
0.0
  0
XRECORD
  5
2D6
102
{ACAD_REACTORS
330
2B8
102
}
330
2B8
100
AcDbXrecord
 10
0.0
 20
0.0
 30
0.0
  0
XRECORD
  5
2D3
102
{ACAD_REACTORS
330
2B8
102
}
330
2B8
100
AcDbXrecord
 10
0.0
 20
0.0
 30
0.0
  0
XRECORD
  5
2D0
102
{ACAD_REACTORS
330
2B8
102
}
330
2B8
100
AcDbXrecord
340
0
  0
XRECORD
  5
2D1
102
{ACAD_REACTORS
330
2B8
102
}
330
2B8
100
AcDbXrecord
 70
     1
  0
XRECORD
  5
2C4
102
{ACAD_REACTORS
330
2B8
102
}
330
2B8
100
AcDbXrecord
  1
{B54A23B2-98BA-4E20-B85C-86F20A2C31FC}
  0
DICTIONARYVAR
  5
1CC
102
{ACAD_REACTORS
330
1CA
102
}
330
1CA
100
DictionaryVariables
280
     0
  1
1
  0
DICTIONARYVAR
  5
1CB
102
{ACAD_REACTORS
330
1CA
102
}
330
1CA
100
DictionaryVariables
280
     0
  1
1
  0
XRECORD
  5
13
102
{ACAD_REACTORS
330
12
102
}
330
12
100
AcDbXrecord
  1
DIM-1_12
  1
DIM-1_12
  1
*
  1
*
 70
     0
  1
*
  1
*
  0
XRECORD
  5
14
102
{ACAD_REACTORS
330
12
102
}
330
12
100
AcDbXrecord
  1
dim-1_16
  1
*
  1
*
  1
*
 70
     0
  1
*
  1
*
  0
ENDSEC
  0
EOF
