  0
SECTION
  2
HEADER
  9
$ACADVER
  1
AC1014
  9
$ACADMAINTVER
 70
     0
  9
$DWGCODEPAGE
  3
ANSI_1252
  9
$INSBASE
 10
0.936296
 20
-54.489444
 30
0.0
  9
$EXTMIN
 10
-51.063813
 20
-57.280576
 30
0.0
  9
$EXTMAX
 10
9.053899
 20
-34.943374
 30
0.0
  9
$LIMMIN
 10
0.0
 20
0.0
  9
$LIMMAX
 10
17.0
 20
11.0
  9
$ORTHOMODE
 70
     1
  9
$REGENMODE
 70
     1
  9
$FILLMODE
 70
     1
  9
$QTEXTMODE
 70
     0
  9
$MIRRTEXT
 70
     1
  9
$DRAGMODE
 70
     2
  9
$LTSCALE
 40
2.0
  9
$OSMODE
 70
    37
  9
$ATTMODE
 70
     1
  9
$TEXTSIZE
 40
1.0
  9
$TRACEWID
 40
0.05
  9
$TEXTSTYLE
  7
ROMANS
  9
$CLAYER
  8
0
  9
$CELTYPE
  6
BYLAYER
  9
$CECOLOR
 62
   256
  9
$CELTSCALE
 40
1.0
  9
$DELOBJ
 70
     1
  9
$DISPSILH
 70
     0
  9
$DIMSCALE
 40
16.0
  9
$DIMASZ
 40
0.1
  9
$DIMEXO
 40
0.0625
  9
$DIMDLI
 40
0.25
  9
$DIMRND
 40
0.0
  9
$DIMDLE
 40
0.0
  9
$DIMEXE
 40
0.1
  9
$DIMTP
 40
0.0
  9
$DIMTM
 40
0.0
  9
$DIMTXT
 40
0.1
  9
$DIMCEN
 40
0.09
  9
$DIMTSZ
 40
0.0
  9
$DIMTOL
 70
     0
  9
$DIMLIM
 70
     0
  9
$DIMTIH
 70
     1
  9
$DIMTOH
 70
     1
  9
$DIMSE1
 70
     0
  9
$DIMSE2
 70
     0
  9
$DIMTAD
 70
     0
  9
$DIMZIN
 70
     4
  9
$DIMBLK
  1

  9
$DIMASO
 70
     1
  9
$DIMSHO
 70
     1
  9
$DIMPOST
  1
\X
  9
$DIMAPOST
  1
cm
  9
$DIMALT
 70
     1
  9
$DIMALTD
 70
     1
  9
$DIMALTF
 40
2.54
  9
$DIMLFAC
 40
1.0
  9
$DIMTOFL
 70
     0
  9
$DIMTVP
 40
0.0
  9
$DIMTIX
 70
     0
  9
$DIMSOXD
 70
     0
  9
$DIMSAH
 70
     0
  9
$DIMBLK1
  1

  9
$DIMBLK2
  1

  9
$DIMSTYLE
  2
STANDART
  9
$DIMCLRD
 70
     0
  9
$DIMCLRE
 70
     0
  9
$DIMCLRT
 70
     0
  9
$DIMTFAC
 40
1.0
  9
$DIMGAP
 40
0.08
  9
$DIMJUST
 70
     0
  9
$DIMSD1
 70
     0
  9
$DIMSD2
 70
     0
  9
$DIMTOLJ
 70
     1
  9
$DIMTZIN
 70
     4
  9
$DIMALTZ
 70
     4
  9
$DIMALTTZ
 70
     4
  9
$DIMFIT
 70
     1
  9
$DIMUPT
 70
     0
  9
$DIMUNIT
 70
     5
  9
$DIMDEC
 70
     4
  9
$DIMTDEC
 70
     4
  9
$DIMALTU
 70
     2
  9
$DIMALTTD
 70
     1
  9
$DIMTXSTY
  7
ROMANS
  9
$DIMAUNIT
 70
     0
  9
$LUNITS
 70
     2
  9
$LUPREC
 70
     4
  9
$SKETCHINC
 40
0.1
  9
$FILLETRAD
 40
0.0
  9
$AUNITS
 70
     0
  9
$AUPREC
 70
     0
  9
$MENU
  1
acad
  9
$ELEVATION
 40
0.0
  9
$PELEVATION
 40
0.0
  9
$THICKNESS
 40
0.0
  9
$LIMCHECK
 70
     0
  9
$BLIPMODE
 70
     0
  9
$CHAMFERA
 40
0.0
  9
$CHAMFERB
 40
0.0
  9
$CHAMFERC
 40
0.0
  9
$CHAMFERD
 40
0.0
  9
$SKPOLY
 70
     0
  9
$TDCREATE
 40
2444971.833333333
  9
$TDUPDATE
 40
2453689.654957535
  9
$TDINDWG
 40
0.4084912616
  9
$TDUSRTIMER
 40
0.4084912616
  9
$USRTIMER
 70
     1
  9
$ANGBASE
 50
0.0
  9
$ANGDIR
 70
     0
  9
$PDMODE
 70
     0
  9
$PDSIZE
 40
0.0
  9
$PLINEWID
 40
0.0
  9
$COORDS
 70
     1
  9
$SPLFRAME
 70
     0
  9
$SPLINETYPE
 70
     6
  9
$SPLINESEGS
 70
     8
  9
$ATTDIA
 70
     0
  9
$ATTREQ
 70
     1
  9
$HANDLING
 70
     1
  9
$HANDSEED
  5
244
  9
$SURFTAB1
 70
     6
  9
$SURFTAB2
 70
     6
  9
$SURFTYPE
 70
     6
  9
$SURFU
 70
     6
  9
$SURFV
 70
     6
  9
$UCSNAME
  2

  9
$UCSORG
 10
0.0
 20
0.0
 30
0.0
  9
$UCSXDIR
 10
1.0
 20
0.0
 30
0.0
  9
$UCSYDIR
 10
0.0
 20
1.0
 30
0.0
  9
$PUCSNAME
  2

  9
$PUCSORG
 10
0.0
 20
0.0
 30
0.0
  9
$PUCSXDIR
 10
1.0
 20
0.0
 30
0.0
  9
$PUCSYDIR
 10
0.0
 20
1.0
 30
0.0
  9
$USERI1
 70
     0
  9
$USERI2
 70
     0
  9
$USERI3
 70
     0
  9
$USERI4
 70
     0
  9
$USERI5
 70
     0
  9
$USERR1
 40
0.0
  9
$USERR2
 40
0.0
  9
$USERR3
 40
0.0
  9
$USERR4
 40
0.0
  9
$USERR5
 40
0.0
  9
$WORLDVIEW
 70
     1
  9
$SHADEDGE
 70
     3
  9
$SHADEDIF
 70
    70
  9
$TILEMODE
 70
     1
  9
$MAXACTVP
 70
    16
  9
$PINSBASE
 10
0.0
 20
0.0
 30
0.0
  9
$PLIMCHECK
 70
     0
  9
$PEXTMIN
 10
1.100417
 20
0.79375
 30
0.0
  9
$PEXTMAX
 10
9.90375
 20
7.14375
 30
0.0
  9
$PLIMMIN
 10
-0.53125
 20
-0.164583
  9
$PLIMMAX
 10
11.15875
 20
8.102083
  9
$UNITMODE
 70
     0
  9
$VISRETAIN
 70
     0
  9
$PLINEGEN
 70
     1
  9
$PSLTSCALE
 70
     1
  9
$TREEDEPTH
 70
  3020
  9
$PICKSTYLE
 70
     1
  9
$CMLSTYLE
  2
STANDARD
  9
$CMLJUST
 70
     0
  9
$CMLSCALE
 40
1.0
  9
$PROXYGRAPHICS
 70
     1
  9
$MEASUREMENT
 70
     0
  0
ENDSEC
  0
SECTION
  2
CLASSES
  0
CLASS
  1
LWPOLYLINE
  2
AcDbPolyline
  3
"AutoCAD"
 90
        0
280
     0
281
     1
  0
CLASS
  1
IMAGE
  2
AcDbRasterImage
  3
ISM
 90
      127
280
     0
281
     1
  0
CLASS
  1
OLE2FRAME
  2
AcDbOle2Frame
  3
""
 90
        0
280
     0
281
     1
  0
CLASS
  1
HATCH
  2
AcDbHatch
  3
"ACAD_SEDONA"
 90
        0
280
     0
281
     1
  0
CLASS
  1
DICTIONARYVAR
  2
AcDbDictionaryVar
  3
"AutoCAD"
 90
        0
280
     0
281
     0
  0
CLASS
  1
RASTERVARIABLES
  2
AcDbRasterVariables
  3
ISM
 90
        0
280
     0
281
     0
  0
CLASS
  1
IMAGEDEF
  2
AcDbRasterImageDef
  3
ISM
 90
        0
280
     0
281
     0
  0
CLASS
  1
IMAGEDEF_REACTOR
  2
AcDbRasterImageDefReactor
  3
ISM
 90
        1
280
     0
281
     0
  0
CLASS
  1
IDBUFFER
  2
AcDbIdBuffer
  3
"Acad"
 90
        0
280
     0
281
     0
  0
CLASS
  1
SPATIAL_FILTER
  2
AcDbSpatialFilter
  3
"Acad"
 90
        0
280
     0
281
     0
  0
CLASS
  1
XRECORD
  2
AcDbXrecord
  3
"<Built In>"
 90
        0
280
     0
281
     0
  0
CLASS
  1
SORTENTSTABLE
  2
AcDbSortentsTable
  3
"AutoCAD"
 90
        0
280
     0
281
     0
  0
CLASS
  1
LAYER_INDEX
  2
AcDbLayerIndex
  3
"Acad"
 90
        0
280
     0
281
     0
  0
CLASS
  1
SPATIAL_INDEX
  2
AcDbSpatialIndex
  3
"Acad"
 90
        0
280
     0
281
     0
  0
CLASS
  1
OBJECT_PTR
  2
CAseDLPNTableRecord
  3
ASE-LPNTableRecord
 90
        1
280
     0
281
     0
  0
CLASS
  1
LAYOUT
  2
AcDbLayout
  3
AutoCAD 2000
 90
        0
280
     0
281
     0
  0
CLASS
  1
PLOTSETTINGS
  2
AcDbPlotSettings
  3
AutoCAD 2000
 90
        0
280
     0
281
     0
  0
CLASS
  1
ACDBDICTIONARYWDFLT
  2
AcDbDictionaryWithDefault
  3
AutoCAD 2000
 90
        0
280
     0
281
     0
  0
CLASS
  1
ACDBPLACEHOLDER
  2
AcDbPlaceHolder
  3
AutoCAD 2000
 90
        0
280
     0
281
     0
  0
CLASS
  1
VBA_PROJECT
  2
AcDbVbaProject
  3
acadvba
 90
        0
280
     0
281
     0
  0
CLASS
  1
WIPEOUT
  2
AcDbWipeout
  3
"WipeOut|Version(1.0.0.0) Product Desc: Object Enabler for WipeOut entity^I^I^I^I^I^I|Company: Autodesk, Inc.^I^I^I^I^I^I|WEB Address: www.autodesk.com"
 90
      127
280
     1
281
     1
  0
CLASS
  1
WIPEOUTVARIABLES
  2
AcDbWipeoutVariables
  3
WipeOut|AutoCAD Express Tool|expresstools@autodesk.com
 90
        0
280
     1
281
     0
  0
CLASS
  1
RTEXT
  2
RText
  3
RText|AutoCAD Express Tool|expresstools@autodesk.com
 90
        0
280
     1
281
     1
  0
CLASS
  1
ARCALIGNEDTEXT
  2
AcDbArcAlignedText
  3
ATEXT|AutoCAD Express Tool|expresstools@autodesk.com
 90
        0
280
     1
281
     1
  0
CLASS
  1
LONG_TRANSACTION
  2
AcDbLongTransaction
  3
AutoCAD 2000
 90
        0
280
     0
281
     0
  0
CLASS
  1
LWPOLYLINE
  2
AcDbPolyline
  3
"AutoCAD"
 90
        0
280
     0
281
     1
  0
CLASS
  1
HATCH
  2
AcDbHatch
  3
"ACAD_SEDONA"
 90
        0
280
     0
281
     1
  0
CLASS
  1
XRECORD
  2
AcDbXrecord
  3
"<Built In>"
 90
        0
280
     0
281
     0
  0
CLASS
  1
LONG_TRANSACTION
  2
AcDbLongTransaction
  3
AutoCAD 2000
 90
        0
280
     0
281
     0
  0
CLASS
  1
LWPOLYLINE
  2
AcDbPolyline
  3
"AutoCAD"
 90
        0
280
     0
281
     1
  0
CLASS
  1
HATCH
  2
AcDbHatch
  3
"ACAD_SEDONA"
 90
        0
280
     0
281
     1
  0
CLASS
  1
XRECORD
  2
AcDbXrecord
  3
"<Built In>"
 90
        0
280
     0
281
     0
  0
ENDSEC
  0
SECTION
  2
TABLES
  0
TABLE
  2
VPORT
  5
1D
100
AcDbSymbolTable
 70
     3
  0
VPORT
  5
243
100
AcDbSymbolTableRecord
100
AcDbViewportTableRecord
  2
*ACTIVE
 70
     0
 10
0.0
 20
0.0
 11
1.0
 21
1.0
 12
-21.004957
 22
-46.111975
 13
0.0
 23
0.0
 14
1.0
 24
1.0
 15
0.0
 25
0.0
 16
0.0
 26
0.0
 36
1.0
 17
0.0
 27
0.0
 37
0.0
 40
42.222408
 41
1.487748
 42
50.0
 43
0.0
 44
0.0
 50
0.0
 51
0.0
 71
     0
 72
   100
 73
     1
 74
     1
 75
     0
 76
     0
 77
     0
 78
     0
  0
ENDTAB
  0
TABLE
  2
LTYPE
  5
18
100
AcDbSymbolTable
 70
     3
  0
LTYPE
  5
19
100
AcDbSymbolTableRecord
100
AcDbLinetypeTableRecord
  2
BYBLOCK
 70
     0
  3

 72
    65
 73
     0
 40
0.0
  0
LTYPE
  5
1A
100
AcDbSymbolTableRecord
100
AcDbLinetypeTableRecord
  2
BYLAYER
 70
     0
  3

 72
    65
 73
     0
 40
0.0
  0
LTYPE
  5
8
100
AcDbSymbolTableRecord
100
AcDbLinetypeTableRecord
  2
CONTINUOUS
 70
     0
  3
Solid line
 72
    65
 73
     0
 40
0.0
  0
LTYPE
  5
88
100
AcDbSymbolTableRecord
100
AcDbLinetypeTableRecord
  2
CENTER
 70
     0
  3
____ _ ____ _ ____ _ ____ _ ____ _ ____ _ ____
 72
    65
 73
     4
 40
0.6
 49
0.375
 74
     0
 49
-0.075
 74
     0
 49
0.075
 74
     0
 49
-0.075
 74
     0
  0
LTYPE
  5
29
100
AcDbSymbolTableRecord
100
AcDbLinetypeTableRecord
  2
HIDDEN
 70
     0
  3
- - - - - - - - - - - - - - - - - - - -
 72
    65
 73
     2
 40
0.2
 49
0.1
 74
     0
 49
-0.1
 74
     0
  0
ENDTAB
  0
TABLE
  2
LAYER
  5
10
102
{ACAD_XDICTIONARY
360
11
102
}
100
AcDbSymbolTable
 70
     3
  0
LAYER
  5
4
100
AcDbSymbolTableRecord
100
AcDbLayerTableRecord
  2
0
 70
     0
 62
     7
  6
CONTINUOUS
  0
LAYER
  5
87
100
AcDbSymbolTableRecord
100
AcDbLayerTableRecord
  2
CENTER
 70
     0
 62
     1
  6
CENTER
  0
LAYER
  5
13F
102
{ACAD_XDICTIONARY
360
1EE
102
}
100
AcDbSymbolTableRecord
100
AcDbLayerTableRecord
  2
DEFPOINTS
 70
     0
 62
     7
  6
CONTINUOUS
  0
ENDTAB
  0
TABLE
  2
STYLE
  5
15
100
AcDbSymbolTable
 70
     2
  0
STYLE
  5
16
100
AcDbSymbolTableRecord
100
AcDbTextStyleTableRecord
  2
STANDARD
 70
     0
 40
0.0
 41
1.0
 50
0.0
 71
     0
 42
1.0
  3
txt
  4

  0
STYLE
  5
23
102
{ACAD_XDICTIONARY
360
1F0
102
}
100
AcDbSymbolTableRecord
100
AcDbTextStyleTableRecord
  2
ROMANS
 70
     0
 40
0.0
 41
1.0
 50
0.0
 71
     0
 42
1.0
  3
romans.shx
  4

  0
ENDTAB
  0
TABLE
  2
VIEW
  5
1B
100
AcDbSymbolTable
 70
     0
  0
ENDTAB
  0
TABLE
  2
UCS
  5
1C
100
AcDbSymbolTable
 70
     0
  0
ENDTAB
  0
TABLE
  2
APPID
  5
1F
100
AcDbSymbolTable
 70
     2
  0
APPID
  5
20
100
AcDbSymbolTableRecord
100
AcDbRegAppTableRecord
  2
ACAD
 70
     0
  0
APPID
  5
137
100
AcDbSymbolTableRecord
100
AcDbRegAppTableRecord
  2
DCO15
 70
     0
  0
ENDTAB
  0
TABLE
  2
DIMSTYLE
  5
21
100
AcDbSymbolTable
 70
     1
  0
DIMSTYLE
105
134
102
{ACAD_XDICTIONARY
360
21C
102
}
100
AcDbSymbolTableRecord
100
AcDbDimStyleTableRecord
  2
STANDART
 70
     0
  3
\X
  4
cm
  5

  6

  7

 40
16.0
 41
0.1
 42
0.0625
 43
0.25
 44
0.1
 45
0.0
 46
0.0
 47
0.0
 48
0.0
140
0.1
141
0.09
142
0.0
143
2.54
144
1.0
145
0.0
146
1.0
147
0.08
 71
     0
 72
     0
 73
     1
 74
     1
 75
     0
 76
     0
 77
     0
 78
     4
170
     1
171
     1
172
     0
173
     0
174
     0
175
     0
176
     0
177
     0
178
     0
270
     5
271
     4
272
     4
273
     2
274
     1
340
23
275
     0
280
     0
281
     0
282
     0
283
     1
284
     4
285
     4
286
     4
287
     1
288
     0
  0
ENDTAB
  0
TABLE
  2
BLOCK_RECORD
  5
1
100
AcDbSymbolTable
 70
     1
  0
BLOCK_RECORD
  5
2
102
{ACAD_XDICTIONARY
360
1D1
102
}
100
AcDbSymbolTableRecord
100
AcDbBlockTableRecord
  2
*MODEL_SPACE
  0
BLOCK_RECORD
  5
161
102
{ACAD_XDICTIONARY
360
1A8
102
}
100
AcDbSymbolTableRecord
100
AcDbBlockTableRecord
  2
*PAPER_SPACE
  0
ENDTAB
  0
ENDSEC
  0
SECTION
  2
BLOCKS
  0
BLOCK
  5
3
100
AcDbEntity
  8
0
100
AcDbBlockBegin
  2
*MODEL_SPACE
 70
     0
 10
0.0
 20
0.0
 30
0.0
  3
*MODEL_SPACE
  1

  0
ENDBLK
  5
9
100
AcDbEntity
  8
0
100
AcDbBlockEnd
  0
BLOCK
  5
163
100
AcDbEntity
 67
     1
  8
0
100
AcDbBlockBegin
  2
*PAPER_SPACE
 70
     0
 10
0.0
 20
0.0
 30
0.0
  3
*PAPER_SPACE
  1

  0
ENDBLK
  5
164
100
AcDbEntity
 67
     1
  8
0
100
AcDbBlockEnd
  0
ENDSEC
  0
SECTION
  2
ENTITIES
  0
LINE
  5
2B
100
AcDbEntity
  8
0
  6
CONTINUOUS
100
AcDbLine
 10
8.485179
 20
-34.989444
 30
0.0
 11
-50.612587
 21
-34.989444
 31
0.0
  0
LINE
  5
2F
100
AcDbEntity
  8
0
  6
CONTINUOUS
100
AcDbLine
 10
-35.06617
 20
-43.954199
 30
0.0
 11
-34.895021
 21
-43.950919
 31
0.0
  0
LINE
  5
30
100
AcDbEntity
  8
0
  6
CONTINUOUS
100
AcDbLine
 10
-35.767143
 20
-50.732884
 30
0.0
 11
-33.289014
 21
-50.732247
 31
0.0
  0
LINE
  5
31
100
AcDbEntity
  8
0
  6
CONTINUOUS
100
AcDbLine
 10
-36.990849
 20
-53.163516
 30
0.0
 11
2.395488
 21
-53.249444
 31
0.0
  0
SPLINE
  5
32
100
AcDbEntity
  8
0
  6
CONTINUOUS
100
AcDbSpline
210
-0.0174524011265307
220
0.9998476952490909
230
0.0
 70
    24
 71
     3
 72
     8
 73
     4
 74
     2
 42
0.0000001
 43
0.0000001
 44
0.0000000001
 40
0.0
 40
0.0
 40
0.0
 40
0.0
 40
0.0619631567498192
 40
0.0619631567498192
 40
0.0619631567498192
 40
0.0619631567498192
 10
-34.89715939393333
 20
-43.83357776541282
 30
0.0
 10
-34.91781063375555
 20
-43.83393823403504
 30
0.0
 10
-34.93846187357777
 20
-43.83429870265725
 30
0.0
 10
-34.95911311339999
 20
-43.83465917127948
 30
0.0
 11
-34.89715939393333
 21
-43.83357776541282
 31
0.0
 11
-34.95911311339999
 21
-43.83465917127948
 31
0.0
  0
LINE
  5
34
100
AcDbEntity
  8
0
  6
CONTINUOUS
100
AcDbLine
 10
-46.320943
 20
-36.491009
 30
0.0
 11
-39.499384
 21
-50.737355
 31
0.0
  0
SPLINE
  5
35
100
AcDbEntity
  8
0
  6
CONTINUOUS
100
AcDbSpline
210
0.0
220
0.0
230
-1.0
 70
     8
 71
     3
 72
    13
 73
     9
 74
     7
 42
0.0000001
 43
0.0000001
 44
0.0000000001
 40
0.0
 40
0.0
 40
0.0
 40
0.0
 40
0.1838988009821119
 40
0.5557748406602388
 40
1.101076610845296
 40
1.797914064683133
 40
2.617247452674622
 40
3.525780883574461
 40
3.525780883574461
 40
3.525780883574461
 40
3.525780883574461
 10
-39.29288516993333
 20
-50.73428703687948
 30
0.0
 10
-39.23159214008016
 20
-50.73332940386454
 30
0.0
 10
-39.04635371700017
 20
-50.73043526679867
 30
0.0
 10
-38.67931257815928
 20
-50.7318753316199
 30
0.0
 10
-38.14132094349425
 20
-50.73605123585702
 30
0.0
 10
-37.45417257279886
 20
-50.7294231869346
 30
0.0
 10
-36.64593465896094
 20
-50.72856534312624
 30
0.0
 10
-36.06998475303957
 20
-50.73139602573363
 30
0.0
 10
-35.76714327339999
 20
-50.73288443314615
 30
0.0
 11
-39.29288516993333
 21
-50.73428703687948
 31
0.0
 11
-39.10900304406666
 21
-50.73181058994615
 31
0.0
 11
-38.73712700566666
 21
-50.73184142194616
 31
0.0
 11
-38.19183064406666
 21
-50.73427012381282
 31
0.0
 11
-37.49500216513332
 21
-50.73073345607948
 31
0.0
 11
-36.67566991019999
 21
-50.72937084701282
 31
0.0
 11
-35.76714327339999
 21
-50.73288443314615
 31
0.0
  0
ARC
  5
36
100
AcDbEntity
  8
0
  6
CONTINUOUS
100
AcDbCircle
 10
-36.990849
 20
-50.653582
 30
0.0
 40
2.509934
100
AcDbArc
 50
181.912687
 51
270.0
  0
LINE
  5
37
100
AcDbEntity
  8
0
  6
CONTINUOUS
100
AcDbLine
 10
-39.47626
 20
-50.737346
 30
0.0
 11
-39.291381
 21
-50.737513
 31
0.0
  0
LINE
  5
38
100
AcDbEntity
  8
0
  6
CONTINUOUS
100
AcDbLine
 10
-39.499384
 20
-50.737355
 30
0.0
 11
-39.47626
 21
-50.737346
 31
0.0
  0
LINE
  5
39
100
AcDbEntity
  8
0
  6
CONTINUOUS
100
AcDbLine
 10
-51.063704
 20
-36.489444
 30
0.0
 11
-50.859509
 21
-35.200332
 31
0.0
  0
ARC
  5
41
100
AcDbEntity
  8
0
  6
CONTINUOUS
100
AcDbCircle
 10
-50.612587
 20
-35.239444
 30
0.0
 40
0.25
100
AcDbArc
 50
90.0
 51
170.99913
  0
SPLINE
  5
42
100
AcDbEntity
  8
0
  6
CONTINUOUS
100
AcDbSpline
210
0.0
220
0.0
230
1.0
 70
     8
 71
     3
 72
    15
 73
    11
 74
     9
 42
0.0000001
 43
0.0000001
 44
0.0000000001
 40
0.0
 40
0.0
 40
0.0
 40
0.0
 40
0.2493511657270643
 40
0.5278798330701579
 40
0.8380771428629641
 40
1.183477533826
 40
1.566844621812905
 40
1.991741090633678
 40
2.4625849339805
 40
2.661498536606907
 40
2.661498536606907
 40
2.661498536606907
 40
2.661498536606907
 10
-40.26222318699999
 20
-44.04131833287948
 30
0.0
 10
-40.17911737660153
 20
-44.03995116420678
 30
0.0
 10
-40.00318123773332
 20
-44.0370568494013
 30
0.0
 10
-39.72385999763705
 20
-44.03246094698651
 30
0.0
 10
-39.41252669433458
 20
-44.0273375814205
 30
0.0
 10
-39.06625199884762
 20
-44.0216381697587
 30
0.0
 10
-38.68174944943467
 20
-44.01530825974798
 30
0.0
 10
-38.2554381088733
 20
-44.00828837278405
 30
0.0
 10
-37.89060295523873
 20
-44.00227922015237
 30
0.0
 10
-37.66738076522269
 20
-43.99860163947375
 30
0.0
 10
-37.60108522753333
 20
-43.99750942194614
 30
0.0
 11
-40.26222318699999
 21
-44.04131833287948
 31
0.0
 11
-40.01290575766666
 21
-44.03721671367948
 31
0.0
 11
-39.73441478486666
 21
-44.03263450887948
 31
0.0
 11
-39.4242594686
 21
-44.02753051101282
 31
0.0
 11
-39.07890585366666
 21
-44.02184625821282
 31
0.0
 11
-38.69559070486666
 21
-44.01553588167948
 31
0.0
 11
-38.27075182913333
 21
-44.00854024861281
 31
0.0
 11
-37.79997184193332
 21
-44.00078599367948
 31
0.0
 11
-37.60108522753333
 21
-43.99750942194614
 31
0.0
  0
SPLINE
  5
43
100
AcDbEntity
  8
0
  6
CONTINUOUS
100
AcDbSpline
210
0.0
220
0.0
230
1.0
 70
     8
 71
     3
 72
    14
 73
    10
 74
     8
 42
0.0000001
 43
0.0000001
 44
0.0000000001
 40
0.0
 40
0.0
 40
0.0
 40
0.0
 40
0.4165996696299248
 40
0.8735698917283036
 40
1.289776518128552
 40
1.625941504959085
 40
1.92681365553273
 40
2.231839633441119
 40
2.510332773362297
 40
2.510332773362297
 40
2.510332773362297
 40
2.510332773362297
 10
-37.61282309633333
 20
-43.88509604061282
 30
0.0
 10
-37.75165464037311
 20
-43.88821423670674
 30
0.0
 10
-38.04277118639208
 20
-43.89475279739879
 30
0.0
 10
-38.47259137926725
 20
-43.90426838415876
 30
0.0
 10
-38.87560694839864
 20
-43.91317366278815
 30
0.0
 10
-39.22660400601273
 20
-43.92086224300324
 30
0.0
 10
-39.54055045950065
 20
-43.92770597530989
 30
0.0
 10
-39.83527773686103
 20
-43.93412133681398
 30
0.0
 10
-40.02973897738336
 20
-43.93831122199727
 30
0.0
 10
-40.12254848406666
 20
-43.94031090674615
 30
0.0
 11
-37.61282309633333
 21
-43.88509604061282
 31
0.0
 11
-38.02931820353332
 21
-43.89442933661281
 31
0.0
 11
-38.48617598913333
 21
-43.90456578674615
 31
0.0
 11
-38.90228130753333
 21
-43.91374837127948
 31
0.0
 11
-39.23836559979999
 21
-43.92111361821282
 31
0.0
 11
-39.53916621419999
 21
-43.92767421021281
 31
0.0
 11
-39.84412017579999
 21
-43.93430206834615
 31
0.0
 11
-40.12254848406666
 21
-43.94031090674615
 31
0.0
  0
SPLINE
  5
45
100
AcDbEntity
  8
0
  6
CONTINUOUS
100
AcDbSpline
210
0.0
220
0.0
230
-1.0
 70
     8
 71
     3
 72
    10
 73
     6
 74
     4
 42
0.0000001
 43
0.0000001
 44
0.0000000001
 40
0.0
 40
0.0
 40
0.0
 40
0.0
 40
0.1520342696528021
 40
0.3264028320170019
 40
0.5055807051748895
 40
0.5055807051748895
 40
0.5055807051748895
 40
0.5055807051748895
 10
-41.06014876353333
 20
-44.04183172594615
 30
0.0
 10
-41.00947111010724
 20
-44.04162031090238
 30
0.0
 10
-40.90067110313497
 20
-44.04116642330731
 30
0.0
 10
-40.73214450489307
 20
-44.04077232134549
 30
0.0
 10
-40.61429567531077
 20
-44.04074347140612
 30
0.0
 10
-40.55456970859999
 20
-44.04072885021281
 30
0.0
 11
-41.06014876353333
 21
-44.04183172594615
 31
0.0
 11
-40.90811564246666
 21
-44.04124075421282
 31
0.0
 11
-40.73374754966666
 21
-44.04083608861282
 31
0.0
 11
-40.55456970859999
 21
-44.04072885021281
 31
0.0
  0
SPLINE
  5
46
100
AcDbEntity
  8
0
  6
CONTINUOUS
100
AcDbSpline
210
0.0
220
0.0
230
1.0
 70
     8
 71
     3
 72
    11
 73
     7
 74
     5
 42
0.0000001
 43
0.0000001
 44
0.0000000001
 40
0.0
 40
0.0
 40
0.0
 40
0.0
 40
0.1538969036164093
 40
0.2827486325538504
 40
0.3921797940362098
 40
0.4852866204273684
 40
0.4852866204273684
 40
0.4852866204273684
 40
0.4852866204273684
 10
-40.53431751873333
 20
-43.94911680861282
 30
0.0
 10
-40.58560487968287
 20
-43.95020800717678
 30
0.0
 10
-40.67983309893232
 20
-43.95221282270298
 30
0.0
 10
-40.81053037004676
 20
-43.95498171884215
 30
0.0
 10
-40.92096900067652
 20
-43.95731325683247
 30
0.0
 10
-40.98846678917865
 20
-43.9587303553599
 30
0.0
 10
-41.01949556033332
 20
-43.95938179634614
 30
0.0
 11
-40.53431751873333
 21
-43.94911680861282
 31
0.0
 11
-40.68817965526666
 21
-43.95238787634615
 31
0.0
 11
-40.81700247659999
 21
-43.95511711687948
 31
0.0
 11
-40.92640928193333
 21
-43.95742580701281
 31
0.0
 11
-41.01949556033332
 21
-43.95938179634614
 31
0.0
  0
SPLINE
  5
48
100
AcDbEntity
  8
0
  6
CONTINUOUS
100
AcDbSpline
210
-0.0052298928913895
220
0.9999863240166561
230
0.0
 70
    24
 71
     3
 72
     8
 73
     4
 74
     2
 42
0.0000001
 43
0.0000001
 44
0.0000000001
 40
0.0
 40
0.0
 40
0.0
 40
0.0
 40
0.1283677022212266
 40
0.1283677022212266
 40
0.1283677022212266
 40
0.1283677022212266
 10
-41.1885147102
 20
-44.04250307527948
 30
0.0
 10
-41.14572606131111
 20
-44.04227929216837
 30
0.0
 10
-41.10293741242221
 20
-44.04205550905727
 30
0.0
 10
-41.06014876353333
 20
-44.04183172594615
 30
0.0
 11
-41.1885147102
 21
-44.04250307527948
 31
0.0
 11
-41.06014876353333
 21
-44.04183172594615
 31
0.0
  0
SPLINE
  5
49
100
AcDbEntity
  8
0
  6
CONTINUOUS
100
AcDbSpline
210
0.0
220
0.0
230
-1.0
 70
     8
 71
     3
 72
    12
 73
     8
 74
     6
 42
0.0000001
 43
0.0000001
 44
0.0000000001
 40
0.0
 40
0.0
 40
0.0
 40
0.0
 40
0.1238091376238297
 40
0.2417111261065731
 40
0.3529355178554296
 40
0.4619498362868216
 40
0.575456687511772
 40
0.575456687511772
 40
0.575456687511772
 40
0.575456687511772
 10
-41.76394470166665
 20
-44.04788826567949
 30
0.0
 10
-41.72267859564792
 20
-44.04734133500401
 30
0.0
 10
-41.64211526125066
 20
-44.04627356866616
 30
0.0
 10
-41.52447641702027
 20
-44.04504089315402
 30
0.0
 10
-41.41176727653408
 20
-44.04404016680356
 30
0.0
 10
-41.30052192551374
 20
-44.04319471605364
 30
0.0
 10
-41.22634960947832
 20
-44.04273670450556
 30
0.0
 10
-41.1885147102
 20
-44.04250307527948
 30
0.0
 11
-41.76394470166665
 21
-44.04788826567949
 31
0.0
 11
-41.64014567339999
 21
-44.04630612807948
 31
0.0
 11
-41.5222503774
 21
-44.04504991581282
 31
0.0
 11
-41.4110304126
 21
-44.04405757021282
 31
0.0
 11
-41.30201922433332
 21
-44.04323146141281
 31
0.0
 11
-41.1885147102
 21
-44.04250307527948
 31
0.0
  0
SPLINE
  5
4A
100
AcDbEntity
  8
0
  6
CONTINUOUS
100
AcDbSpline
210
0.0
220
0.0
230
-1.0
 70
     8
 71
     3
 72
    10
 73
     6
 74
     4
 42
0.0000001
 43
0.0000001
 44
0.0000000001
 40
0.0
 40
0.0
 40
0.0
 40
0.0
 40
0.0839131828318479
 40
0.1928690494200163
 40
0.3139869057144375
 40
0.3139869057144375
 40
0.3139869057144375
 40
0.3139869057144375
 10
-42.07785196779999
 20
-44.05467158194615
 30
0.0
 10
-42.04989659451676
 20
-44.05372380057004
 30
0.0
 10
-41.98564296845514
 20
-44.05154538608377
 30
0.0
 10
-41.880994345738
 20
-44.04966889885161
 30
0.0
 10
-41.80431241778093
 20
-44.04850236489326
 30
0.0
 10
-41.76394470166665
 20
-44.04788826567949
 30
0.0
 11
-42.07785196779999
 21
-44.05467158194615
 31
0.0
 11
-41.99398061313333
 21
-44.05202240861282
 31
0.0
 11
-41.88504765313332
 21
-44.04978833394615
 31
0.0
 11
-41.76394470166665
 21
-44.04788826567949
 31
0.0
  0
SPLINE
  5
4D
100
AcDbEntity
  8
0
  6
CONTINUOUS
100
AcDbSpline
210
0.0
220
0.0
230
-1.0
 70
     8
 71
     3
 72
    13
 73
     9
 74
     7
 42
0.0000001
 43
0.0000001
 44
0.0000000001
 40
0.0
 40
0.0
 40
0.0
 40
0.0
 40
0.0346576887925909
 40
0.0692455899414593
 40
0.1036239363119623
 40
0.1380245683186541
 40
0.172930790869222
 40
0.209144968456114
 40
0.209144968456114
 40
0.209144968456114
 40
0.209144968456114
 10
-41.89101806059999
 20
-43.97708881501282
 30
0.0
 10
-41.90256826740939
 20
-43.97759625577923
 30
0.0
 10
-41.92564542322465
 20
-43.97861011551584
 30
0.0
 10
-41.95979369097315
 20
-43.98434244819688
 30
0.0
 10
-41.99304170697194
 20
-43.99376515213699
 30
0.0
 10
-42.02463521927512
 20
-44.00798054604338
 30
0.0
 10
-42.0543732855134
 20
-44.02745701042856
 30
0.0
 10
-42.06992691769695
 20
-44.04548866006157
 30
0.0
 10
-42.077846755
 20
-44.05467029234615
 30
0.0
 11
-41.89101806059999
 21
-43.97708881501282
 31
0.0
 11
-41.92560406593332
 21
-43.97931673501282
 31
0.0
 11
-41.95972588779999
 21
-43.98497572594616
 31
0.0
 11
-41.99274337153332
 21
-43.99455259741282
 31
0.0
 11
-42.02409040726666
 21
-44.00872181874615
 31
0.0
 11
-42.05292317846665
 21
-44.02839707421281
 31
0.0
 11
-42.077846755
 21
-44.05467029234615
 31
0.0
  0
SPLINE
  5
4E
100
AcDbEntity
  8
0
  6
CONTINUOUS
100
AcDbSpline
210
0.0
220
0.0
230
1.0
 70
     8
 71
     3
 72
     9
 73
     5
 74
     3
 42
0.0000001
 43
0.0000001
 44
0.0000000001
 40
0.0
 40
0.0
 40
0.0
 40
0.0
 40
0.1025445239409149
 40
0.1830632630957745
 40
0.1830632630957745
 40
0.1830632630957745
 40
0.1830632630957745
 10
-41.70798950593332
 20
-43.97352240221282
 30
0.0
 10
-41.74216433386265
 20
-43.97419819167704
 30
0.0
 10
-41.80317349628353
 20
-43.97540461616206
 30
0.0
 10
-41.86418337411026
 20
-43.97657427965312
 30
0.0
 10
-41.89101802326666
 20
-43.97708874567949
 30
0.0
 11
-41.70798950593332
 21
-43.97352240221282
 31
0.0
 11
-41.8105142142
 21
-43.97553823581282
 31
0.0
 11
-41.89101802326666
 21
-43.97708874567949
 31
0.0
  0
SPLINE
  5
4F
100
AcDbEntity
  8
0
  6
CONTINUOUS
100
AcDbSpline
210
0.0
220
0.0
230
1.0
 70
     8
 71
     3
 72
    10
 73
     6
 74
     4
 42
0.0000001
 43
0.0000001
 44
0.0000000001
 40
0.0
 40
0.0
 40
0.0
 40
0.0
 40
0.2311603654689723
 40
0.4081582185091887
 40
0.5422166445933194
 40
0.5422166445933194
 40
0.5422166445933194
 40
0.5422166445933194
 10
-41.16588621526665
 20
-43.96243675207948
 30
0.0
 10
-41.24292304766867
 20
-43.96403719673826
 30
0.0
 10
-41.3789464364923
 20
-43.966863090526
 30
0.0
 10
-41.55964756359447
 20
-43.97055746771075
 30
0.0
 10
-41.66331228660197
 20
-43.97262943137151
 30
0.0
 10
-41.70798950593332
 20
-43.97352240221282
 30
0.0
 11
-41.16588621526665
 21
-43.96243675207948
 31
0.0
 11
-41.39699701099999
 21
-43.96722367794615
 31
0.0
 11
-41.57395802539999
 21
-43.97083468381281
 31
0.0
 11
-41.70798950593332
 21
-43.97352240221282
 31
0.0
  0
SPLINE
  5
50
100
AcDbEntity
  8
0
  6
CONTINUOUS
100
AcDbSpline
210
-0.0207893344574263
220
0.9997838784321427
230
0.0
 70
    24
 71
     3
 72
     8
 73
     4
 74
     2
 42
0.0000001
 43
0.0000001
 44
0.0000000001
 40
0.0
 40
0.0
 40
0.0
 40
0.0
 40
0.0522501254456993
 40
0.0522501254456993
 40
0.0522501254456993
 40
0.0522501254456993
 10
-41.11364758059999
 20
-43.96135063367949
 30
0.0
 10
-41.13106052495555
 20
-43.96171271545727
 30
0.0
 10
-41.1484734693111
 20
-43.96207479723504
 30
0.0
 10
-41.16588641366666
 20
-43.96243687901281
 30
0.0
 11
-41.11364758059999
 21
-43.96135063367949
 31
0.0
 11
-41.16588641366666
 21
-43.96243687901281
 31
0.0
  0
SPLINE
  5
51
100
AcDbEntity
  8
0
  6
CONTINUOUS
100
AcDbSpline
210
0.0
220
0.0
230
1.0
 70
     8
 71
     3
 72
     9
 73
     5
 74
     3
 42
0.0000001
 43
0.0000001
 44
0.0000000001
 40
0.0
 40
0.0
 40
0.0
 40
0.0
 40
0.0791027013486082
 40
0.0941726034832923
 40
0.0941726034832923
 40
0.0941726034832923
 40
0.0941726034832923
 10
-41.01949556033332
 20
-43.95938179634614
 30
0.0
 10
-41.0458573415056
 20
-43.95993414692976
 30
0.0
 10
-41.07724132110587
 20
-43.96059172614778
 30
0.0
 10
-41.10862537093387
 20
-43.96124594309072
 30
0.0
 10
-41.11364758059999
 20
-43.96135063367949
 30
0.0
 11
-41.01949556033332
 21
-43.95938179634614
 31
0.0
 11
-41.09858095339999
 21
-43.96103647581282
 31
0.0
 11
-41.11364758059999
 21
-43.96135063367949
 31
0.0
  0
SPLINE
  5
59
100
AcDbEntity
  8
0
  6
CONTINUOUS
100
AcDbSpline
210
0.0010690560658498
220
0.9999994285594009
230
0.0
 70
    24
 71
     3
 72
     8
 73
     4
 74
     2
 42
0.0000001
 43
0.0000001
 44
0.0000000001
 40
0.0
 40
0.0
 40
0.0
 40
0.0
 40
0.1621677342692343
 40
0.1621677342692343
 40
0.1621677342692343
 40
0.1621677342692343
 10
-40.55456970859999
 20
-44.04072885021281
 30
0.0
 10
-40.50051382806667
 20
-44.04078663901281
 30
0.0
 10
-40.44645794753333
 20
-44.04084442781281
 30
0.0
 10
-40.39240206699999
 20
-44.04090221661282
 30
0.0
 11
-40.55456970859999
 21
-44.04072885021281
 31
0.0
 11
-40.39240206699999
 21
-44.04090221661282
 31
0.0
  0
SPLINE
  5
5A
100
AcDbEntity
  8
0
  6
CONTINUOUS
100
AcDbSpline
210
0.002860901826572
220
0.9999959076119957
230
0.0
 70
    24
 71
     3
 72
     8
 73
     4
 74
     2
 42
0.0000001
 43
0.0000001
 44
0.0000000001
 40
0.0
 40
0.0
 40
0.0
 40
0.0
 40
0.0471053330399659
 40
0.0471053330399659
 40
0.0471053330399659
 40
0.0471053330399659
 10
-40.30943150699999
 20
-44.04108999047948
 30
0.0
 10
-40.29372979357776
 20
-44.04113491172393
 30
0.0
 10
-40.27802808015555
 20
-44.04117983296838
 30
0.0
 10
-40.26232636673332
 20
-44.04122475421281
 30
0.0
 11
-40.30943150699999
 21
-44.04108999047948
 31
0.0
 11
-40.26232636673332
 21
-44.04122475421281
 31
0.0
  0
SPLINE
  5
5B
100
AcDbEntity
  8
0
  6
CONTINUOUS
100
AcDbSpline
210
0.0024416714762983
220
0.9999970191157581
230
0.0
 70
    24
 71
     3
 72
     8
 73
     4
 74
     2
 42
0.0000001
 43
0.0000001
 44
0.0000000001
 40
0.0
 40
0.0
 40
0.0
 40
0.0
 40
0.0432944949225422
 40
0.0432944949225422
 40
0.0432944949225422
 40
0.0432944949225422
 10
-40.35272587286665
 20
-44.04098427954615
 30
0.0
 10
-40.33829441757776
 20
-44.04101951652393
 30
0.0
 10
-40.32386296228888
 20
-44.04105475350171
 30
0.0
 10
-40.30943150699999
 20
-44.04108999047948
 30
0.0
 11
-40.35272587286665
 21
-44.04098427954615
 31
0.0
 11
-40.30943150699999
 21
-44.04108999047948
 31
0.0
  0
SPLINE
  5
5C
100
AcDbEntity
  8
0
  6
CONTINUOUS
100
AcDbSpline
210
0.0020680691668046
220
0.9999978615426742
230
0.0
 70
    24
 71
     3
 72
     8
 73
     4
 74
     2
 42
0.0000001
 43
0.0000001
 44
0.0000000001
 40
0.0
 40
0.0
 40
0.0
 40
0.0
 40
0.0396763003127454
 40
0.0396763003127454
 40
0.0396763003127454
 40
0.0396763003127454
 10
-40.39240208833333
 20
-44.04090222621282
 30
0.0
 10
-40.37917668317777
 20
-44.04092957732394
 30
0.0
 10
-40.36595127802221
 20
-44.04095692843504
 30
0.0
 10
-40.35272587286665
 20
-44.04098427954615
 30
0.0
 11
-40.39240208833333
 21
-44.04090222621282
 31
0.0
 11
-40.35272587286665
 21
-44.04098427954615
 31
0.0
  0
SPLINE
  5
5D
100
AcDbEntity
  8
0
  6
CONTINUOUS
100
AcDbSpline
210
-0.021318716081459
220
0.9997727303465714
230
0.0
 70
    24
 71
     3
 72
     8
 73
     4
 74
     2
 42
0.0000001
 43
0.0000001
 44
0.0000000001
 40
0.0
 40
0.0
 40
0.0
 40
0.0
 40
0.1857865479110273
 40
0.1857865479110273
 40
0.1857865479110273
 40
0.1857865479110273
 10
-40.34857319446666
 20
-43.94515607794615
 30
0.0
 10
-40.41048796922221
 20
-43.9464763215017
 30
0.0
 10
-40.47240274397777
 20
-43.94779656505726
 30
0.0
 10
-40.53431751873333
 20
-43.94911680861282
 30
0.0
 11
-40.34857319446666
 21
-43.94515607794615
 31
0.0
 11
-40.53431751873333
 21
-43.94911680861282
 31
0.0
  0
SPLINE
  5
5E
100
AcDbEntity
  8
0
  6
CONTINUOUS
100
AcDbSpline
210
-0.0214315432295254
220
0.999770318100513
230
0.0
 70
    24
 71
     3
 72
     8
 73
     4
 74
     2
 42
0.0000001
 43
0.0000001
 44
0.0000000001
 40
0.0
 40
0.0
 40
0.0
 40
0.0
 40
0.2260766361112089
 40
0.2260766361112089
 40
0.2260766361112089
 40
0.2260766361112089
 10
-40.12254848406666
 20
-43.94031090674615
 30
0.0
 10
-40.19789005419999
 20
-43.94192596381282
 30
0.0
 10
-40.27323162433332
 20
-43.94354102087948
 30
0.0
 10
-40.34857319446666
 20
-43.94515607794615
 30
0.0
 11
-40.12254848406666
 21
-43.94031090674615
 31
0.0
 11
-40.34857319446666
 21
-43.94515607794615
 31
0.0
  0
SPLINE
  5
61
100
AcDbEntity
  8
0
  6
CONTINUOUS
100
AcDbSpline
210
0.0
220
0.0
230
1.0
 70
     8
 71
     3
 72
     9
 73
     5
 74
     3
 42
0.0000001
 43
0.0000001
 44
0.0000000001
 40
0.0
 40
0.0
 40
0.0
 40
0.0
 40
0.3226443569964677
 40
0.8606229206330869
 40
0.8606229206330869
 40
0.8606229206330869
 40
0.8606229206330869
 10
-37.60108522753333
 20
-43.99750942194614
 30
0.0
 10
-37.49355170382822
 20
-43.99573764887867
 30
0.0
 10
-37.20671632849858
 20
-43.99101161391492
 30
0.0
 10
-36.91988098671894
 20
-43.98628354311671
 30
0.0
 10
-36.74057915606665
 20
-43.98332800861282
 30
0.0
 11
-37.60108522753333
 21
-43.99750942194614
 31
0.0
 11
-37.27848466113332
 21
-43.99219381661281
 31
0.0
 11
-36.74057915606665
 21
-43.98332800861282
 31
0.0
  0
SPLINE
  5
62
100
AcDbEntity
  8
0
  6
CONTINUOUS
100
AcDbSpline
210
0.0
220
0.0
230
1.0
 70
     8
 71
     3
 72
    10
 73
     6
 74
     4
 42
0.0000001
 43
0.0000001
 44
0.0000000001
 40
0.0
 40
0.0
 40
0.0
 40
0.0
 40
0.3102933336370731
 40
0.6004301362178499
 40
0.8615257579721717
 40
0.8615257579721717
 40
0.8615257579721717
 40
0.8615257579721717
 10
-36.74193781419999
 20
-43.86544337501281
 30
0.0
 10
-36.84534239179807
 20
-43.86778604524475
 30
0.0
 10
-37.04543442692176
 20
-43.87231920678576
 30
0.0
 10
-37.33253658528961
 20
-43.87879815227951
 30
0.0
 10
-37.51623435917744
 20
-43.88292579184073
 30
0.0
 10
-37.60324427073332
 20
-43.88488088114615
 30
0.0
 11
-36.74193781419999
 21
-43.86544337501281
 31
0.0
 11
-37.05215165419999
 21
-43.87246664861282
 31
0.0
 11
-37.34221462593332
 21
-43.87901161927948
 31
0.0
 11
-37.60324427073332
 21
-43.88488088114615
 31
0.0
  0
SPLINE
  5
64
100
AcDbEntity
  8
0
  6
CONTINUOUS
100
AcDbSpline
210
-0.0224529592692206
220
0.9997479005329568
230
0.0
 70
    24
 71
     3
 72
     8
 73
     4
 74
     2
 42
0.0000001
 43
0.0000001
 44
0.0000000001
 40
0.0
 40
0.0
 40
0.0
 40
0.0
 40
0.0095812047499434
 40
0.0095812047499434
 40
0.0095812047499434
 40
0.0095812047499434
 10
-37.60324427073332
 20
-43.88488088114615
 30
0.0
 10
-37.6064372005111
 20
-43.88495258994615
 30
0.0
 10
-37.60963013028888
 20
-43.88502429874615
 30
0.0
 10
-37.61282306006666
 20
-43.88509600754615
 30
0.0
 11
-37.60324427073332
 21
-43.88488088114615
 31
0.0
 11
-37.61282306006666
 21
-43.88509600754615
 31
0.0
  0
LINE
  5
65
100
AcDbEntity
  8
0
  6
CONTINUOUS
100
AcDbLine
 10
-36.662878
 20
-43.864399
 30
0.0
 11
-36.741916
 21
-43.865778
 31
0.0
  0
LINE
  5
66
100
AcDbEntity
  8
0
  6
CONTINUOUS
100
AcDbLine
 10
-35.661562
 20
-43.965524
 30
0.0
 11
-35.06617
 21
-43.954199
 31
0.0
  0
SPLINE
  5
67
100
AcDbEntity
  8
0
  6
CONTINUOUS
100
AcDbSpline
210
-0.0165444348971255
220
0.9998631314704702
230
0.0
 70
    24
 71
     3
 72
     8
 73
     4
 74
     2
 42
0.0000001
 43
0.0000001
 44
0.0000000001
 40
0.0
 40
0.0
 40
0.0
 40
0.0
 40
0.0214388948433505
 40
0.0214388948433505
 40
0.0214388948433505
 40
0.0214388948433505
 10
-35.68299818539999
 20
-43.96587874567948
 30
0.0
 10
-35.67585286522221
 20
-43.96576051421282
 30
0.0
 10
-35.66870754504443
 20
-43.96564228274615
 30
0.0
 10
-35.66156222486665
 20
-43.96552405127948
 30
0.0
 11
-35.68299818539999
 21
-43.96587874567948
 31
0.0
 11
-35.66156222486665
 21
-43.96552405127948
 31
0.0
  0
SPLINE
  5
68
100
AcDbEntity
  8
0
  6
CONTINUOUS
100
AcDbSpline
210
-0.0165387722147472
220
0.9998632251531349
230
0.0
 70
    24
 71
     3
 72
     9
 73
     5
 74
     3
 42
0.0000001
 43
0.0000001
 44
0.0000000001
 40
0.0
 40
0.0
 40
0.0
 40
0.0
 40
0.0385141651094722
 40
0.0555894549726247
 40
0.0555894549726247
 40
0.0555894549726247
 40
0.0555894549726247
 10
-35.73858003713333
 20
-43.96679812701282
 30
0.0
 10
-35.72574373745746
 20
-43.9665858353447
 30
0.0
 10
-35.70721645273458
 20
-43.96627942397389
 30
0.0
 10
-35.68868916987472
 20
-43.9659728999772
 30
0.0
 10
-35.68299818539999
 20
-43.96587874567948
 30
0.0
 11
-35.73858003713333
 21
-43.96679812701282
 31
0.0
 11
-35.70007113899999
 21
-43.96616119794614
 31
0.0
 11
-35.68299818539999
 21
-43.96587874567948
 31
0.0
  0
SPLINE
  5
69
100
AcDbEntity
  8
0
  6
CONTINUOUS
100
AcDbSpline
210
-0.0165270617128847
220
0.9998634187883556
230
0.0
 70
    24
 71
     3
 72
     8
 73
     4
 74
     2
 42
0.0000001
 43
0.0000001
 44
0.0000000001
 40
0.0
 40
0.0
 40
0.0
 40
0.0
 40
0.1072272553617897
 40
0.1072272553617897
 40
0.1072272553617897
 40
0.1072272553617897
 10
-35.84579264726666
 20
-43.96857027847949
 30
0.0
 10
-35.81005511055555
 20
-43.96797956132393
 30
0.0
 10
-35.77431757384444
 20
-43.96738884416838
 30
0.0
 10
-35.73858003713333
 20
-43.96679812701282
 30
0.0
 11
-35.84579264726666
 21
-43.96857027847949
 31
0.0
 11
-35.73858003713333
 21
-43.96679812701282
 31
0.0
  0
SPLINE
  5
6A
100
AcDbEntity
  8
0
  6
CONTINUOUS
100
AcDbSpline
210
-0.0165112048304859
220
0.9998636807660561
230
0.0
 70
    24
 71
     3
 72
     8
 73
     4
 74
     2
 42
0.0000001
 43
0.0000001
 44
0.0000000001
 40
0.0
 40
0.0
 40
0.0
 40
0.0
 40
0.1076761802010648
 40
0.1076761802010648
 40
0.1076761802010648
 40
0.1076761802010648
 10
-35.95345414913333
 20
-43.97034814194615
 30
0.0
 10
-35.91756698184444
 20
-43.9697555207906
 30
0.0
 10
-35.88167981455555
 20
-43.96916289963503
 30
0.0
 10
-35.84579264726666
 20
-43.96857027847949
 30
0.0
 11
-35.95345414913333
 21
-43.97034814194615
 31
0.0
 11
-35.84579264726666
 21
-43.96857027847949
 31
0.0
  0
SPLINE
  5
6B
100
AcDbEntity
  8
0
  6
CONTINUOUS
100
AcDbSpline
210
-0.0164952531432071
220
0.9998639440562609
230
0.0
 70
    24
 71
     3
 72
     8
 73
     4
 74
     2
 42
0.0000001
 43
0.0000001
 44
0.0000000001
 40
0.0
 40
0.0
 40
0.0
 40
0.0
 40
0.1081260722614734
 40
0.1081260722614734
 40
0.1081260722614734
 40
0.1081260722614734
 10
-36.06156551019999
 20
-43.97213170887948
 30
0.0
 10
-36.02552838984443
 20
-43.97153718656837
 30
0.0
 10
-35.98949126948888
 20
-43.97094266425726
 30
0.0
 10
-35.95345414913333
 20
-43.97034814194615
 30
0.0
 11
-36.06156551019999
 21
-43.97213170887948
 31
0.0
 11
-35.95345414913333
 21
-43.97034814194615
 31
0.0
  0
SPLINE
  5
6C
100
AcDbEntity
  8
0
  6
CONTINUOUS
100
AcDbSpline
210
-0.0164905115369591
220
0.9998640222696531
230
0.0
 70
    24
 71
     3
 72
     8
 73
     4
 74
     2
 42
0.0000001
 43
0.0000001
 44
0.0000000001
 40
0.0
 40
0.0
 40
0.0
 40
0.0
 40
0.0444786849106178
 40
0.0444786849106178
 40
0.0444786849106178
 40
0.0444786849106178
 10
-36.10603814699999
 20
-43.97286518514615
 30
0.0
 10
-36.09121393473333
 20
-43.97262069305726
 30
0.0
 10
-36.07638972246666
 20
-43.97237620096837
 30
0.0
 10
-36.06156551019999
 20
-43.97213170887948
 30
0.0
 11
-36.10603814699999
 21
-43.97286518514615
 31
0.0
 11
-36.06156551019999
 21
-43.97213170887948
 31
0.0
  0
SPLINE
  5
6D
100
AcDbEntity
  8
0
  6
CONTINUOUS
100
AcDbSpline
210
-0.0164870969546824
220
0.9998640785796872
230
0.0
 70
    24
 71
     3
 72
     8
 73
     4
 74
     2
 42
0.0000001
 43
0.0000001
 44
0.0000000001
 40
0.0
 40
0.0
 40
0.0
 40
0.0
 40
0.5429567957255132
 40
0.5429567957255132
 40
0.5429567957255132
 40
0.5429567957255132
 10
-36.64892114326666
 20
-43.98181696647948
 30
0.0
 10
-36.46796014451111
 20
-43.97883303936837
 30
0.0
 10
-36.28699914575555
 20
-43.97584911225727
 30
0.0
 10
-36.10603814699999
 20
-43.97286518514615
 30
0.0
 11
-36.64892114326666
 21
-43.98181696647948
 31
0.0
 11
-36.10603814699999
 21
-43.97286518514615
 31
0.0
  0
SPLINE
  5
6E
100
AcDbEntity
  8
0
  6
CONTINUOUS
100
AcDbSpline
210
-0.0164836446375664
220
0.9998641355001501
230
0.0
 70
    24
 71
     3
 72
     8
 73
     4
 74
     2
 42
0.0000001
 43
0.0000001
 44
0.0000000001
 40
0.0
 40
0.0
 40
0.0
 40
0.0
 40
0.0521281479647493
 40
0.0521281479647493
 40
0.0521281479647493
 40
0.0521281479647493
 10
-36.70104220886666
 20
-43.98267622834615
 30
0.0
 10
-36.68366852033333
 20
-43.98238980772393
 30
0.0
 10
-36.66629483179999
 20
-43.9821033871017
 30
0.0
 10
-36.64892114326666
 20
-43.98181696647948
 30
0.0
 11
-36.70104220886666
 21
-43.98267622834615
 31
0.0
 11
-36.64892114326666
 21
-43.98181696647948
 31
0.0
  0
SPLINE
  5
6F
100
AcDbEntity
  8
0
  6
CONTINUOUS
100
AcDbSpline
210
-0.0164831066836999
220
0.9998641443686507
230
0.0
 70
    24
 71
     3
 72
     8
 73
     4
 74
     2
 42
0.0000001
 43
0.0000001
 44
0.0000000001
 40
0.0
 40
0.0
 40
0.0
 40
0.0
 40
0.0395423192467447
 40
0.0395423192467447
 40
0.0395423192467447
 40
0.0395423192467447
 10
-36.74057915606665
 20
-43.98332800861282
 30
0.0
 10
-36.72740017366665
 20
-43.98311074852393
 30
0.0
 10
-36.71422119126666
 20
-43.98289348843503
 30
0.0
 10
-36.70104220886666
 20
-43.98267622834615
 30
0.0
 11
-36.74057915606665
 21
-43.98332800861282
 31
0.0
 11
-36.70104220886666
 21
-43.98267622834615
 31
0.0
  0
SPLINE
  5
70
100
AcDbEntity
  8
0
  6
CONTINUOUS
100
AcDbSpline
210
-0.0174524071128326
220
0.9998476951445995
230
0.0
 70
    24
 71
     3
 72
     9
 73
     5
 74
     3
 42
0.0000001
 43
0.0000001
 44
0.0000000001
 40
0.0
 40
0.0
 40
0.0
 40
0.0
 40
0.4159398787280461
 40
0.9177388480825541
 40
0.9177388480825541
 40
0.9177388480825541
 40
0.9177388480825541
 10
-35.74527908779999
 20
-43.84838174941282
 30
0.0
 10
-35.88390459748912
 20
-43.85080146673261
 30
0.0
 10
-36.18977095482424
 20
-43.85614038396397
 30
0.0
 10
-36.49563731215589
 20
-43.86147930139311
 30
0.0
 10
-36.66287815979999
 20
-43.86439850141282
 30
0.0
 11
-35.74527908779999
 21
-43.84838174941282
 31
0.0
 11
-36.16115561686666
 21
-43.85564090141282
 31
0.0
 11
-36.66287815979999
 21
-43.86439850141282
 31
0.0
  0
SPLINE
  5
71
100
AcDbEntity
  8
0
  6
CONTINUOUS
100
AcDbSpline
210
-0.0174524001034548
220
0.9998476952669486
230
0.0
 70
    24
 71
     3
 72
     8
 73
     4
 74
     2
 42
0.0000001
 43
0.0000001
 44
0.0000000001
 40
0.0
 40
0.0
 40
0.0
 40
0.0
 40
0.0601407863930843
 40
0.0601407863930843
 40
0.0601407863930843
 40
0.0601407863930843
 10
-35.68514746113332
 20
-43.84733214834615
 30
0.0
 10
-35.70519133668888
 20
-43.84768201536838
 30
0.0
 10
-35.72523521224444
 20
-43.8480318823906
 30
0.0
 10
-35.74527908779999
 20
-43.84838174941282
 30
0.0
 11
-35.68514746113332
 21
-43.84733214834615
 31
0.0
 11
-35.74527908779999
 21
-43.84838174941282
 31
0.0
  0
SPLINE
  5
72
100
AcDbEntity
  8
0
  6
CONTINUOUS
100
AcDbSpline
210
-0.0174524069698936
220
0.9998476951470946
230
0.0
 70
    24
 71
     3
 72
     8
 73
     4
 74
     2
 42
0.0000001
 43
0.0000001
 44
0.0000000001
 40
0.0
 40
0.0
 40
0.0
 40
0.0
 40
0.7261449431320841
 40
0.7261449431320841
 40
0.7261449431320841
 40
0.7261449431320841
 10
-34.95911311339999
 20
-43.83465917127948
 30
0.0
 10
-35.20112456264444
 20
-43.83888349696838
 30
0.0
 10
-35.44313601188888
 20
-43.84310782265727
 30
0.0
 10
-35.68514746113332
 20
-43.84733214834615
 30
0.0
 11
-34.95911311339999
 21
-43.83465917127948
 31
0.0
 11
-35.68514746113332
 21
-43.84733214834615
 31
0.0
  0
LINE
  5
7F
100
AcDbEntity
  8
0
  6
CONTINUOUS
100
AcDbLine
 10
6.495398
 20
-39.801944
 30
0.0
 11
4.905431
 21
-50.73261
 31
0.0
  0
SPLINE
  5
80
100
AcDbEntity
  8
0
  6
CONTINUOUS
100
AcDbSpline
210
0.0
220
0.0
230
-1.0
 70
     8
 71
     3
 72
    10
 73
     6
 74
     4
 42
0.0000001
 43
0.0000001
 44
0.0000000001
 40
0.0
 40
0.0
 40
0.0
 40
0.0
 40
0.9547337400228199
 40
1.913684291380127
 40
2.874630754343177
 40
2.874630754343177
 40
2.874630754343177
 40
2.874630754343177
 10
-30.04377400833332
 20
-50.73216768967949
 30
0.0
 10
-29.72552942834428
 20
-50.73213589317136
 30
0.0
 10
-29.08763466458811
 20
-50.73207215971817
 30
0.0
 10
-28.12942442104478
 20
-50.73224499928666
 30
0.0
 10
-27.48945876647638
 20
-50.73238784418169
 30
0.0
 10
-27.16914328726665
 20
-50.73245934087949
 30
0.0
 11
-30.04377400833332
 21
-50.73216768967949
 31
0.0
 11
-29.08904026966666
 21
-50.73211680221282
 31
0.0
 11
-28.13008972779999
 21
-50.73225171741282
 31
0.0
 11
-27.16914328726665
 21
-50.73245934087949
 31
0.0
  0
SPLINE
  5
81
100
AcDbEntity
  8
0
  6
CONTINUOUS
100
AcDbSpline
210
0.0
220
0.0
230
-1.0
 70
     8
 71
     3
 72
    10
 73
     6
 74
     4
 42
0.0000001
 43
0.0000001
 44
0.0000000001
 40
0.0
 40
0.0
 40
0.0
 40
0.0
 40
0.6677888391137356
 40
1.340184033258255
 40
2.016396898044459
 40
2.016396898044459
 40
2.016396898044459
 40
2.016396898044459
 10
-32.06017084353332
 20
-50.73199298567948
 30
0.0
 10
-31.83757457126348
 20
-50.73191714198945
 30
0.0
 10
-31.39084657509815
 20
-50.73176493144557
 30
0.0
 10
-30.7187142772495
 20
-50.73195329331452
 30
0.0
 10
-30.2691782835744
 20
-50.73209608948094
 30
0.0
 10
-30.04377400833332
 20
-50.73216768967949
 30
0.0
 11
-32.06017084353332
 21
-50.73199298567948
 31
0.0
 11
-31.39238202326665
 21
-50.73183432967948
 31
0.0
 11
-30.71998684033332
 21
-50.73195711687948
 31
0.0
 11
-30.04377400833332
 21
-50.73216768967949
 31
0.0
  0
SPLINE
  5
82
100
AcDbEntity
  8
0
  6
CONTINUOUS
100
AcDbSpline
210
0.0
220
0.0
230
-1.0
 70
     8
 71
     3
 72
    10
 73
     6
 74
     4
 42
0.0000001
 43
0.0000001
 44
0.0000000001
 40
0.0
 40
0.0
 40
0.0
 40
0.0
 40
0.3292906160489946
 40
0.6600642858929799
 40
0.9922238779705978
 40
0.9922238779705978
 40
0.9922238779705978
 40
0.9922238779705978
 10
-33.05239470273332
 20
-50.73216322887948
 30
0.0
 10
-32.94263116918436
 20
-50.73212936953179
 30
0.0
 10
-32.72260975084455
 20
-50.73206149834123
 30
0.0
 10
-32.3918684614583
 20
-50.7320059722296
 30
0.0
 10
-32.17089070753424
 20
-50.73199732055855
 30
0.0
 10
-32.06017084353332
 20
-50.73199298567948
 30
0.0
 11
-33.05239470273332
 21
-50.73216322887948
 31
0.0
 11
-32.72310410006666
 21
-50.73206934941282
 31
0.0
 11
-32.39233043499999
 21
-50.73201313181282
 31
0.0
 11
-32.06017084353332
 21
-50.73199298567948
 31
0.0
  0
SPLINE
  5
83
100
AcDbEntity
  8
0
  6
CONTINUOUS
100
AcDbSpline
210
0.0
220
0.0
230
-1.0
 70
     8
 71
     3
 72
    10
 73
     6
 74
     4
 42
0.0000001
 43
0.0000001
 44
0.0000000001
 40
0.0
 40
0.0
 40
0.0
 40
0.0
 40
0.078780054254016
 40
0.1576535632562384
 40
0.2366193291388105
 40
0.2366193291388105
 40
0.2366193291388105
 40
0.2366193291388105
 10
-33.28901401686666
 20
-50.73224748701282
 30
0.0
 10
-33.26275400052383
 20
-50.73223792226897
 30
0.0
 10
-33.21020281625747
 20
-50.73221878143488
 30
0.0
 10
-33.1313297115469
 20
-50.73219068702165
 30
0.0
 10
-33.0787166231017
 20
-50.73217238515935
 30
0.0
 10
-33.05239470273332
 20
-50.73216322887948
 30
0.0
 11
-33.28901401686666
 21
-50.73224748701282
 31
0.0
 11
-33.21023396779999
 21
-50.73221889821282
 31
0.0
 11
-33.13136046379999
 21
-50.73219080754615
 31
0.0
 11
-33.05239470273332
 21
-50.73216322887948
 31
0.0
  0
SPLINE
  5
84
100
AcDbEntity
  8
0
  6
CONTINUOUS
100
AcDbSpline
210
0.0
220
0.0
230
-1.0
 70
     8
 71
     3
 72
    10
 73
     6
 74
     4
 42
0.0000001
 43
0.0000001
 44
0.0000000001
 40
0.0
 40
0.0
 40
0.0
 40
0.0
 40
1.603271750530798
 40
3.191105116978766
 40
4.75773674044994
 40
4.75773674044994
 40
4.75773674044994
 40
4.75773674044994
 10
-27.16914328726665
 20
-50.73245934087949
 30
0.0
 10
-26.63471937047303
 20
-50.73245199177506
 30
0.0
 10
-25.57101766491291
 20
-50.7324373643329
 30
0.0
 10
-23.98510541813164
 20
-50.73242481301068
 30
0.0
 10
-22.93361708815756
 20
-50.73242344309852
 30
0.0
 10
-22.41140654699999
 20
-50.73242276274616
 30
0.0
 11
-27.16914328726665
 21
-50.73245934087949
 31
0.0
 11
-25.56587153686666
 21
-50.73243886087948
 31
0.0
 11
-23.97803817046666
 21
-50.73242651847948
 31
0.0
 11
-22.41140654699999
 21
-50.73242276274616
 31
0.0
  0
LINE
  5
85
100
AcDbEntity
  8
0
  6
CONTINUOUS
100
AcDbLine
 10
-22.411407
 20
-50.732423
 30
0.0
 11
-20.740259
 21
-50.732423
 31
0.0
  0
LINE
  5
86
100
AcDbEntity
  8
CENTER
  6
CENTER
 48
3.0
100
AcDbLine
 10
0.936296
 20
-57.276409
 30
0.0
 11
0.936296
 21
-51.702479
 31
0.0
  0
ARC
  5
89
100
AcDbEntity
  8
0
  6
CONTINUOUS
100
AcDbCircle
 10
2.395497
 20
-50.73191
 30
0.0
 40
2.509934
100
AcDbArc
 50
270.0
 51
359.984023
  0
LINE
  5
8A
100
AcDbEntity
  8
0
  6
CONTINUOUS
100
AcDbLine
 10
-0.443965
 20
-54.489444
 30
0.0
 11
-0.787715
 21
-53.24191
 31
0.0
  0
LINE
  5
8B
100
AcDbEntity
  8
0
  6
CONTINUOUS
100
AcDbLine
 10
2.316556
 20
-54.489444
 30
0.0
 11
-0.443965
 21
-54.489444
 31
0.0
  0
LINE
  5
8C
100
AcDbEntity
  8
0
  6
CONTINUOUS
100
AcDbLine
 10
2.316556
 20
-54.489444
 30
0.0
 11
2.660306
 21
-53.24191
 31
0.0
  0
LWPOLYLINE
  5
8D
100
AcDbEntity
  8
0
  6
HIDDEN
 62
     8
100
AcDbPolyline
 90
       15
 70
     0
 43
0.0
 10
-14.732928
 20
-36.921537
 10
-15.198495
 20
-37.039863
 10
-15.693518
 20
-37.170075
 10
-16.21239
 20
-37.310698
 10
-16.749235
 20
-37.460139
 10
-17.297976
 20
-37.616706
 10
-17.852397
 20
-37.778627
 10
-18.40622
 20
-37.944067
 10
-18.953175
 20
-38.111154
 10
-19.487067
 20
-38.277994
 10
-20.001851
 20
-38.4427
 10
-20.491697
 20
-38.603405
 10
-20.951059
 20
-38.758291
 10
-21.374735
 20
-38.905602
 10
-21.757926
 20
-39.043672
  0
LWPOLYLINE
  5
8E
100
AcDbEntity
  8
0
  6
HIDDEN
 62
     8
100
AcDbPolyline
 90
       15
 70
     0
 43
0.0
 10
-15.259045
 20
-36.428365
 10
-15.683151
 20
-36.537604
 10
-16.130369
 20
-36.656396
 10
-16.596187
 20
-36.783542
 10
-17.075913
 20
-36.917761
 10
-17.564719
 20
-37.057701
 10
-18.057682
 20
-37.201954
 10
-18.549843
 20
-37.349068
 10
-19.036246
 20
-37.497562
 10
-19.511995
 20
-37.645941
 10
-19.972302
 20
-37.792712
 10
-20.412532
 20
-37.936396
 10
-20.828253
 20
-38.075549
 10
-21.215277
 20
-38.208767
 10
-21.569699
 20
-38.334708
  0
LWPOLYLINE
  5
8F
100
AcDbEntity
  8
0
  6
HIDDEN
 62
     8
100
AcDbPolyline
 90
        8
 70
     0
 43
0.0
 10
-19.566619
 20
-38.722873
 10
-19.815052
 20
-38.804213
 10
-20.041445
 20
-38.88128
 10
-20.240764
 20
-38.952358
 10
-20.408576
 20
-39.015868
 10
-20.54115
 20
-39.070396
 10
-20.635538
 20
-39.114732
 10
-20.662477
 20
-39.129609
  0
LWPOLYLINE
  5
90
100
AcDbEntity
  8
0
  6
HIDDEN
 62
     8
100
AcDbPolyline
 90
       15
 70
     0
 43
0.0
 10
-21.286502
 20
-39.29204
 10
-20.93208
 20
-39.1661
 10
-20.545055
 20
-39.032881
 10
-20.129334
 20
-38.893729
 10
-19.689105
 20
-38.750044
 10
-19.228798
 20
-38.603273
 10
-18.753048
 20
-38.454894
 10
-18.266645
 20
-38.306401
 10
-17.774485
 20
-38.159287
 10
-17.281521
 20
-38.015033
 10
-16.792716
 20
-37.875093
 10
-16.312989
 20
-37.740874
 10
-15.847172
 20
-37.613729
 10
-15.399954
 20
-37.494937
 10
-14.975848
 20
-37.385697
  0
LWPOLYLINE
  5
91
100
AcDbEntity
  8
0
  6
HIDDEN
 62
     8
100
AcDbPolyline
 90
       15
 70
     0
 43
0.0
 10
-21.831696
 20
-38.794296
 10
-21.448505
 20
-38.656227
 10
-21.024829
 20
-38.508915
 10
-20.565468
 20
-38.35403
 10
-20.075621
 20
-38.193324
 10
-19.560837
 20
-38.028619
 10
-19.026945
 20
-37.861778
 10
-18.47999
 20
-37.694691
 10
-17.926167
 20
-37.529251
 10
-17.371746
 20
-37.367331
 10
-16.823005
 20
-37.210763
 10
-16.28616
 20
-37.061322
 10
-15.767288
 20
-36.9207
 10
-15.272265
 20
-36.790488
 10
-14.806698
 20
-36.672161
  0
LWPOLYLINE
  5
92
100
AcDbEntity
  8
0
  6
HIDDEN
 62
     8
100
AcDbPolyline
 90
        7
 70
     0
 43
0.0
 10
-17.16211
 20
-36.953629
 10
-17.615758
 20
-37.083779
 10
-18.072783
 20
-37.217679
 10
-18.528926
 20
-37.354081
 10
-18.979935
 20
-37.491714
 10
-19.421604
 20
-37.629295
 10
-19.849816
 20
-37.76554
  0
SPLINE
  5
93
100
AcDbEntity
  8
0
  6
HIDDEN
 62
     8
100
AcDbSpline
210
0.0
220
0.0
230
1.0
 70
     8
 71
     3
 72
    11
 73
     7
 74
     5
 42
0.0000001
 43
0.0000001
 44
0.0000000001
 40
0.0
 40
0.0
 40
0.0
 40
0.0
 40
0.3257096271526016
 40
0.6774375646041331
 40
1.058157825858019
 40
1.47101557618821
 40
1.47101557618821
 40
1.47101557618821
 40
1.47101557618821
 10
-19.67280000086666
 20
-37.14036311893113
 30
0.0
 10
-19.77925906461238
 20
-37.1618296841904
 30
0.0
 10
-20.00068134649092
 20
-37.20647760515236
 30
0.0
 10
-20.35085799941633
 20
-37.25078291807923
 30
0.0
 10
-20.73194139480701
 20
-37.27895377159162
 30
0.0
 10
-20.99656570932219
 20
-37.27577213038406
 30
0.0
 10
-21.13423610539998
 20
-37.27411688639779
 30
0.0
 11
-19.67280000086666
 21
-37.14036311893113
 31
0.0
 11
-19.99281577259999
 21
-37.20099864533113
 31
0.0
 11
-20.34156835179998
 21
-37.24665147093113
 31
0.0
 11
-20.72138003713333
 21
-37.27293836906447
 31
0.0
 11
-21.13423610539998
 21
-37.27411688639779
 31
0.0
  0
SPLINE
  5
94
100
AcDbEntity
  8
0
  6
HIDDEN
 62
     8
100
AcDbSpline
210
0.0
220
0.0
230
1.0
 70
     8
 71
     3
 72
    10
 73
     6
 74
     4
 42
0.0000001
 43
0.0000001
 44
0.0000000001
 40
0.0
 40
0.0
 40
0.0
 40
0.0
 40
0.5357357937523463
 40
1.028518019773778
 40
1.482154100728691
 40
1.482154100728691
 40
1.482154100728691
 40
1.482154100728691
 10
-21.13166962753332
 20
-37.3586022655978
 30
0.0
 10
-20.95350161318739
 20
-37.34582715567375
 30
0.0
 10
-20.61145052113956
 20
-37.32130120292858
 30
0.0
 10
-20.12230655329621
 20
-37.24746596606213
 30
0.0
 10
-19.8144379014588
 20
-37.17839071215474
 30
0.0
 10
-19.66687067073332
 20
-37.1452816447978
 30
0.0
 11
-21.13166962753332
 21
-37.3586022655978
 31
0.0
 11
-20.59787566699999
 21
-37.31302981333113
 31
0.0
 11
-20.11059945259999
 21
-37.23957089173113
 31
0.0
 11
-19.66687067073332
 21
-37.1452816447978
 31
0.0
  0
SPLINE
  5
95
100
AcDbEntity
  8
0
  6
HIDDEN
 62
     8
100
AcDbSpline
210
0.0
220
0.0
230
1.0
 70
     8
 71
     3
 72
    19
 73
    15
 74
    13
 42
0.0000001
 43
0.0000001
 44
0.0000000001
 40
0.0
 40
0.0
 40
0.0
 40
0.0
 40
0.3267210060848004
 40
0.6517157740688818
 40
0.9761967224099679
 40
1.300955812560143
 40
1.620152789253496
 40
1.922086468162228
 40
2.204885642829842
 40
2.474974136167956
 40
2.743958074402946
 40
3.036289001896393
 40
3.348323575344817
 40
3.665309953615558
 40
3.665309953615558
 40
3.665309953615558
 40
3.665309953615558
 10
-21.12034120726666
 20
-37.72481286293113
 30
0.0
 10
-21.01161447573481
 20
-37.70988874923878
 30
0.0
 10
-20.79473547290795
 20
-37.6801193737589
 30
0.0
 10
-20.47181253539797
 20
-37.76069634609783
 30
0.0
 10
-20.18732940330225
 20
-37.9248124199462
 30
0.0
 10
-19.96318686444659
 20
-38.16370808862011
 30
0.0
 10
-19.8170841713314
 20
-38.44742990493019
 30
0.0
 10
-19.75256472230839
 20
-38.74506287817936
 30
0.0
 10
-19.76119325369445
 20
-39.03252673683016
 30
0.0
 10
-19.83250333056168
 20
-39.29940758280979
 30
0.0
 10
-19.96405152901878
 20
-39.54640845639924
 30
0.0
 10
-20.16173694268747
 20
-39.76344711613064
 30
0.0
 10
-20.42476815512732
 20
-39.9344152922554
 30
0.0
 10
-20.63161852462341
 20
-39.97723081182519
 30
0.0
 10
-20.73585789739998
 20
-39.99880709866446
 30
0.0
 11
-21.12034120726666
 21
-37.72481286293113
 31
0.0
 11
-20.79448607446666
 21
-37.70104211946446
 31
0.0
 11
-20.47795086593332
 21
-37.77471070826446
 31
0.0
 11
-20.19723153793332
 21
-37.9374514367978
 31
0.0
 11
-19.97450863766665
 21
-38.17380493546446
 31
0.0
 11
-19.82804629206665
 21
-38.45741645013113
 31
0.0
 11
-19.76390079873332
 21
-38.75245763733113
 31
0.0
 11
-19.77241211286666
 21
-39.03512870186446
 31
0.0
 11
-19.84226904193332
 21
-39.29602677333113
 31
0.0
 11
-19.96913914539998
 21
-39.53321095466447
 31
0.0
 11
-20.16563806699998
 21
-39.74964927146446
 31
0.0
 11
-20.43006629846665
 21
-39.91530942186446
 31
0.0
 11
-20.73585789739998
 21
-39.99880709866446
 31
0.0
  0
LINE
  5
96
100
AcDbEntity
  8
0
  6
CONTINUOUS
100
AcDbLine
 10
-30.836319
 20
-43.876847
 30
0.0
 11
-26.216661
 21
-43.794037
 31
0.0
  0
SPLINE
  5
97
100
AcDbEntity
  8
0
  6
CONTINUOUS
100
AcDbSpline
210
0.0
220
0.0
230
-1.0
 70
     8
 71
     3
 72
    20
 73
    16
 74
    14
 42
0.0000001
 43
0.0000001
 44
0.0000000001
 40
0.0
 40
0.0
 40
0.0
 40
0.0
 40
0.0444539530026828
 40
0.0968389306990877
 40
0.1543386420318681
 40
0.2199149042476411
 40
0.2942921307155355
 40
0.3781329868079157
 40
0.4720944716082165
 40
0.5766660629926789
 40
0.6925198501133468
 40
0.8206620364126495
 40
0.9623801053414007
 40
1.11935210508567
 40
1.293262693989563
 40
1.293262693989563
 40
1.293262693989563
 40
1.293262693989563
 10
-26.21725915926665
 20
-43.79517412274615
 30
0.0
 10
-26.22471955776183
 20
-43.78018325502921
 30
0.0
 10
-26.24097136359829
 20
-43.74752700059281
 30
0.0
 10
-26.3002174951135
 20
-43.76731530328163
 30
0.0
 10
-26.35474928455412
 20
-43.74603501880726
 30
0.0
 10
-26.42114768789236
 20
-43.74200967212288
 30
0.0
 10
-26.49513299684587
 20
-43.73427454299931
 30
0.0
 10
-26.57904788070879
 20
-43.72814521834235
 30
0.0
 10
-26.67297407204145
 20
-43.72238390478741
 30
0.0
 10
-26.77765656095545
 20
-43.71730209342792
 30
0.0
 10
-26.89376131964582
 20
-43.71288810429271
 30
0.0
 10
-27.02228477297968
 20
-43.70927361957306
 30
0.0
 10
-27.16453912190909
 20
-43.7066379488276
 30
0.0
 10
-27.32206884661006
 20
-43.70509449889538
 30
0.0
 10
-27.43236359806651
 20
-43.7053852763335
 30
0.0
 10
-27.49033408619999
 20
-43.70553810781282
 30
0.0
 11
-26.21725915926665
 21
-43.79517412274615
 31
0.0
 11
-26.24404916033332
 21
-43.75969948701282
 31
0.0
 11
-26.29642906113333
 21
-43.76042878834615
 31
0.0
 11
-26.35292370326665
 21
-43.74972494727948
 31
0.0
 11
-26.41801365526665
 21
-43.74175347847948
 31
0.0
 11
-26.49208000833332
 21
-43.73496030834615
 31
0.0
 11
-26.57567509846665
 21
-43.72854547741282
 31
0.0
 11
-26.66946007766666
 21
-43.72278888967948
 31
0.0
 11
-26.77390572459999
 21
-43.71765814301282
 31
0.0
 11
-26.88967465686666
 21
-43.71322482461282
 31
0.0
 11
-27.01776543126666
 21
-43.70959530354615
 31
0.0
 11
-27.15945839233333
 21
-43.70692774941281
 31
0.0
 11
-27.31642351553332
 21
-43.70545846301282
 31
0.0
 11
-27.49033408619999
 21
-43.70553810781282
 31
0.0
  0
SPLINE
  5
9A
100
AcDbEntity
  8
0
  6
CONTINUOUS
100
AcDbSpline
210
0.0
220
0.0
230
1.0
 70
     8
 71
     3
 72
    10
 73
     6
 74
     4
 42
0.0000001
 43
0.0000001
 44
0.0000000001
 40
0.0
 40
0.0
 40
0.0
 40
0.0
 40
0.0054474793278302
 40
0.4371699980528595
 40
0.8055589596213456
 40
0.8055589596213456
 40
0.8055589596213456
 40
0.8055589596213456
 10
-31.70092040939999
 20
-43.89250397127948
 30
0.0
 10
-31.69910487872977
 20
-43.89247119849866
 30
0.0
 10
-31.55340528231112
 20
-43.8898411239873
 30
0.0
 10
-31.28492949354704
 20
-43.88498775928621
 30
0.0
 10
-31.01826956108508
 20
-43.88014920015494
 30
0.0
 10
-30.89549345046666
 20
-43.87792142087948
 30
0.0
 11
-31.70092040939999
 21
-43.89250397127948
 31
0.0
 11
-31.69547381739999
 21
-43.89240565234615
 31
0.0
 11
-31.26382185153333
 21
-43.88460093981282
 31
0.0
 11
-30.89549345046666
 21
-43.87792142087948
 31
0.0
  0
SPLINE
  5
9B
100
AcDbEntity
  8
0
  6
CONTINUOUS
100
AcDbSpline
210
-0.0174524064001146
220
0.9998476951570401
230
0.0
 70
    24
 71
     3
 72
     8
 73
     4
 74
     2
 42
0.0000001
 43
0.0000001
 44
0.0000000001
 40
0.0
 40
0.0
 40
0.0
 40
0.0
 40
0.8056905207015626
 40
0.8056905207015626
 40
0.8056905207015626
 40
0.8056905207015626
 10
-30.89752663873332
 20
-43.76376391581281
 30
0.0
 10
-31.1660492421111
 20
-43.76845099527948
 30
0.0
 10
-31.43457184548888
 20
-43.77313807474616
 30
0.0
 10
-31.70309444886665
 20
-43.77782515421282
 30
0.0
 11
-30.89752663873332
 21
-43.76376391581281
 31
0.0
 11
-31.70309444886665
 21
-43.77782515421282
 31
0.0
  0
SPLINE
  5
9D
100
AcDbEntity
  8
0
  6
CONTINUOUS
100
AcDbSpline
210
0.0
220
0.0
230
1.0
 70
     8
 71
     3
 72
    11
 73
     7
 74
     5
 42
0.0000001
 43
0.0000001
 44
0.0000000001
 40
0.0
 40
0.0
 40
0.0
 40
0.0
 40
0.6932650665226983
 40
1.305338456806335
 40
1.849050884223608
 40
2.328455420915958
 40
2.328455420915958
 40
2.328455420915958
 40
2.328455420915958
 10
-34.02900330433332
 20
-43.93415294194615
 30
0.0
 10
-33.7979513584996
 20
-43.9300509335013
 30
0.0
 10
-33.36290709479614
 20
-43.92232732296363
 30
0.0
 10
-32.74665523187112
 20
-43.91131239495698
 30
0.0
 10
-32.20167950116325
 20
-43.90153386265196
 30
0.0
 10
-31.86069594689021
 20
-43.89538510867918
 30
0.0
 10
-31.70092040939999
 20
-43.89250397127948
 30
0.0
 11
-34.02900330433332
 21
-43.93415294194615
 31
0.0
 11
-33.33584772993333
 21
-43.92183214087949
 31
0.0
 11
-32.72387201686666
 21
-43.91089771314615
 31
0.0
 11
-32.18024714219999
 21
-43.90114069661282
 31
0.0
 11
-31.70092040939999
 21
-43.89250397127948
 31
0.0
  0
SPLINE
  5
9E
100
AcDbEntity
  8
0
  6
CONTINUOUS
100
AcDbSpline
210
-0.0174524065058363
220
0.9998476951551948
230
0.0
 70
    24
 71
     3
 72
    13
 73
     9
 74
     7
 42
0.0000001
 43
0.0000001
 44
0.0000000001
 40
0.0
 40
0.0
 40
0.0
 40
0.0
 40
0.3145782104590506
 40
0.6731499063837832
 40
1.079394052404787
 40
1.536884901686758
 40
2.049102728274423
 40
2.389992768010948
 40
2.389992768010948
 40
2.389992768010948
 40
2.389992768010948
 10
-31.70309444886665
 20
-43.77782515421282
 30
0.0
 10
-31.80793788175358
 20
-43.77965520339227
 30
0.0
 10
-32.03228700920838
 20
-43.78357123251594
 30
0.0
 10
-32.3920302277242
 20
-43.7898505721291
 30
0.0
 10
-32.79940373704627
 20
-43.79696130379705
 30
0.0
 10
-33.25798482290389
 20
-43.80496586715906
 30
0.0
 10
-33.69478452460063
 20
-43.81259023399867
 30
0.0
 10
-33.9791105025557
 20
-43.81755316238097
 30
0.0
 10
-34.09272320939999
 20
-43.81953627954615
 30
0.0
 11
-31.70309444886665
 21
-43.77782515421282
 31
0.0
 11
-32.01762474753332
 21
-43.78331530141282
 31
0.0
 11
-32.37614183126666
 21
-43.78957323954614
 31
0.0
 11
-32.78232410433332
 21
-43.79666317767948
 31
0.0
 11
-33.23974527553332
 21
-43.80464749447948
 31
0.0
 11
-33.75188508886665
 21
-43.81358692807949
 31
0.0
 11
-34.09272320939999
 21
-43.81953627954615
 31
0.0
  0
LINE
  5
A1
100
AcDbEntity
  8
0
  6
CONTINUOUS
100
AcDbLine
 10
-34.895021
 20
-43.950919
 30
0.0
 11
-34.029003
 21
-43.934153
 31
0.0
  0
SPLINE
  5
A2
100
AcDbEntity
  8
0
  6
CONTINUOUS
100
AcDbSpline
210
-0.0174524064808048
220
0.9998476951556318
230
0.0
 70
    24
 71
     3
 72
     9
 73
     5
 74
     3
 42
0.0000001
 43
0.0000001
 44
0.0000000001
 40
0.0
 40
0.0
 40
0.0
 40
0.0
 40
0.2291218680949155
 40
0.8045587227243867
 40
0.8045587227243867
 40
0.8045587227243867
 40
0.8045587227243867
 10
-34.09272320939999
 20
-43.81953627954615
 30
0.0
 10
-34.16908553331169
 20
-43.82086918866793
 30
0.0
 10
-34.43723092816862
 20
-43.82554968324249
 30
0.0
 10
-34.70537632300371
 20
-43.83023017906643
 30
0.0
 10
-34.89715939393333
 20
-43.83357776541282
 30
0.0
 11
-34.09272320939999
 21
-43.81953627954615
 31
0.0
 11
-34.32181018113332
 21
-43.82353500701282
 31
0.0
 11
-34.89715939393333
 21
-43.83357776541282
 31
0.0
  0
SPLINE
  5
AB
100
AcDbEntity
  8
0
  6
CONTINUOUS
100
AcDbSpline
210
-0.0174524083031956
220
0.9998476951238217
230
0.0
 70
    24
 71
     3
 72
     9
 73
     5
 74
     3
 42
0.0000001
 43
0.0000001
 44
0.0000000001
 40
0.0
 40
0.0
 40
0.0
 40
0.0
 40
1.896492181565302
 40
3.159508508818892
 40
3.159508508818892
 40
3.159508508818892
 40
3.159508508818892
 10
-27.69456641899999
 20
-43.70785603207949
 30
0.0
 10
-28.32663419783815
 20
-43.71888881821684
 30
0.0
 10
-29.37964329790267
 20
-43.73726916379157
 30
0.0
 10
-30.43265239801943
 20
-43.7556495063723
 30
0.0
 10
-30.85359371926666
 20
-43.76299706461281
 30
0.0
 11
-27.69456641899999
 21
-43.70785603207949
 31
0.0
 11
-29.59076975553332
 21
-43.74095438941282
 31
0.0
 11
-30.85359371926666
 21
-43.76299706461281
 31
0.0
  0
SPLINE
  5
AF
100
AcDbEntity
  8
0
  6
CONTINUOUS
100
AcDbSpline
210
-0.0181629426178908
220
0.9998350401518539
230
0.0
 70
    24
 71
     3
 72
     8
 73
     4
 74
     2
 42
0.0000001
 43
0.0000001
 44
0.0000000001
 40
0.0
 40
0.0
 40
0.0
 40
0.0
 40
0.0152426989666363
 40
0.0152426989666363
 40
0.0152426989666363
 40
0.0152426989666363
 10
-30.85155940353332
 20
-43.87712348807949
 30
0.0
 10
-30.84647934202221
 20
-43.87703120399059
 30
0.0
 10
-30.8413992805111
 20
-43.8769389199017
 30
0.0
 10
-30.83631921899999
 20
-43.87684663581281
 30
0.0
 11
-30.85155940353332
 21
-43.87712348807949
 31
0.0
 11
-30.83631921899999
 21
-43.87684663581281
 31
0.0
  0
SPLINE
  5
B0
100
AcDbEntity
  8
0
  6
CONTINUOUS
100
AcDbSpline
210
-0.0181600916992076
220
0.9998350919374038
230
0.0
 70
    24
 71
     3
 72
     9
 73
     5
 74
     3
 42
0.0000001
 43
0.0000001
 44
0.0000000001
 40
0.0
 40
0.0
 40
0.0
 40
0.0
 40
0.0219694030050984
 40
0.0286961252891021
 40
0.0286961252891021
 40
0.0286961252891021
 40
0.0286961252891021
 10
-30.88025079659999
 20
-43.87764461234615
 30
0.0
 10
-30.87292886973924
 20
-43.87751163289329
 30
0.0
 10
-30.8633650718288
 20
-43.87733793700181
 30
0.0
 10
-30.8538012744568
 20
-43.87716421146691
 30
0.0
 10
-30.85155940353332
 20
-43.87712348807949
 30
0.0
 11
-30.88025079659999
 21
-43.87764461234615
 31
0.0
 11
-30.85828501633332
 21
-43.87724565661282
 31
0.0
 11
-30.85155940353332
 21
-43.87712348807949
 31
0.0
  0
SPLINE
  5
B3
100
AcDbEntity
  8
0
  6
CONTINUOUS
100
AcDbSpline
210
-0.0181571334407851
220
0.9998351456641307
230
0.0
 70
    24
 71
     3
 72
     8
 73
     4
 74
     2
 42
0.0000001
 43
0.0000001
 44
0.0000000001
 40
0.0
 40
0.0
 40
0.0
 40
0.0
 40
0.0152451670985689
 40
0.0152451670985689
 40
0.0152451670985689
 40
0.0152451670985689
 10
-30.89549345046666
 20
-43.87792142087948
 30
0.0
 10
-30.89041256584443
 20
-43.87782915136837
 30
0.0
 10
-30.88533168122221
 20
-43.87773688185726
 30
0.0
 10
-30.88025079659999
 20
-43.87764461234615
 30
0.0
 11
-30.89549345046666
 21
-43.87792142087948
 31
0.0
 11
-30.88025079659999
 21
-43.87764461234615
 31
0.0
  0
SPLINE
  5
B4
100
AcDbEntity
  8
0
  6
CONTINUOUS
100
AcDbSpline
210
-0.0174523891056184
220
0.9998476954589165
230
0.0
 70
    24
 71
     3
 72
     8
 73
     4
 74
     2
 42
0.0000001
 43
0.0000001
 44
0.0000000001
 40
0.0
 40
0.0
 40
0.0
 40
0.0
 40
0.0439396116690569
 40
0.0439396116690569
 40
0.0439396116690569
 40
0.0439396116690569
 10
-30.85359371926666
 20
-43.76299706461281
 30
0.0
 10
-30.86823802575555
 20
-43.76325268167948
 30
0.0
 10
-30.88288233224443
 20
-43.76350829874614
 30
0.0
 10
-30.89752663873332
 20
-43.76376391581281
 30
0.0
 11
-30.85359371926666
 21
-43.76299706461281
 31
0.0
 11
-30.89752663873332
 21
-43.76376391581281
 31
0.0
  0
SPLINE
  5
BA
100
AcDbEntity
  8
0
  6
CONTINUOUS
100
AcDbSpline
210
-0.0162858240400496
220
0.9998673771732613
230
0.0
 70
    24
 71
     3
 72
     8
 73
     4
 74
     2
 42
0.0000001
 43
0.0000001
 44
0.0000000001
 40
0.0
 40
0.0
 40
0.0
 40
0.0
 40
0.0357783226222792
 40
0.0357783226222792
 40
0.0357783226222792
 40
0.0357783226222792
 10
-27.65879284139999
 20
-43.70727335261281
 30
0.0
 10
-27.67071736726666
 20
-43.7074675791017
 30
0.0
 10
-27.68264189313332
 20
-43.70766180559059
 30
0.0
 10
-27.69456641899999
 20
-43.70785603207949
 30
0.0
 11
-27.65879284139999
 21
-43.70727335261281
 31
0.0
 11
-27.69456641899999
 21
-43.70785603207949
 31
0.0
  0
SPLINE
  5
BB
100
AcDbEntity
  8
0
  6
CONTINUOUS
100
AcDbSpline
210
0.0
220
0.0
230
-1.0
 70
     8
 71
     3
 72
     9
 73
     5
 74
     3
 42
0.0000001
 43
0.0000001
 44
0.0000000001
 40
0.0
 40
0.0
 40
0.0
 40
0.0
 40
0.0337476676405311
 40
0.0685105529743778
 40
0.0685105529743778
 40
0.0685105529743778
 40
0.0685105529743778
 10
-27.59028818646665
 20
-43.70637703261282
 30
0.0
 10
-27.60153666309258
 20
-43.70650717935743
 30
0.0
 10
-27.62437199980293
 20
-43.7067713879995
 30
0.0
 10
-27.64720643748883
 20
-43.70710438623985
 30
0.0
 10
-27.65879284139999
 20
-43.70727335261281
 30
0.0
 11
-27.59028818646665
 21
-43.70637703261282
 31
0.0
 11
-27.62403339819999
 21
-43.70678416434615
 31
0.0
 11
-27.65879284139999
 21
-43.70727335261281
 31
0.0
  0
SPLINE
  5
BC
100
AcDbEntity
  8
0
  6
CONTINUOUS
100
AcDbSpline
210
0.0
220
0.0
230
-1.0
 70
     8
 71
     3
 72
    10
 73
     6
 74
     4
 42
0.0000001
 43
0.0000001
 44
0.0000000001
 40
0.0
 40
0.0
 40
0.0
 40
0.0
 40
0.0332702021893532
 40
0.066605224448837
 40
0.0999577427408847
 40
0.0999577427408847
 40
0.0999577427408847
 40
0.0999577427408847
 10
-27.49033408406665
 20
-43.70553860061281
 30
0.0
 10
-27.5014239490309
 20
-43.70560596561664
 30
0.0
 10
-27.52362528525504
 20
-43.705740826871
 30
0.0
 10
-27.55694340361379
 20
-43.70602011765179
 30
0.0
 10
-27.57917131495637
 20
-43.70625804086321
 30
0.0
 10
-27.59028818646665
 20
-43.70637703367949
 30
0.0
 11
-27.49033408406665
 21
-43.70553860061281
 31
0.0
 11
-27.52360359233332
 21
-43.70575348061282
 31
0.0
 11
-27.55693744299999
 21
-43.70603296007948
 31
0.0
 11
-27.59028818646665
 21
-43.70637703367949
 31
0.0
  0
LWPOLYLINE
  5
C0
100
AcDbEntity
  8
0
  6
HIDDEN
 62
     8
100
AcDbPolyline
 90
       12
 70
     0
 43
0.0
 10
-21.188314
 20
-37.871417
 10
-20.916415
 20
-37.873837
 10
-20.658704
 20
-37.96033
 10
-20.440236
 20
-38.122467
 10
-20.282198
 20
-38.344473
 10
-20.199859
 20
-38.604978
 10
-20.20131
 20
-38.878492
 10
-20.286414
 20
-39.138611
 10
-20.446949
 20
-39.360012
 10
-20.66715
 20
-39.521056
 10
-20.925891
 20
-39.606297
 10
-21.197681
 20
-39.607373
  0
LWPOLYLINE
  5
C1
100
AcDbEntity
  8
0
  6
HIDDEN
 62
     8
100
AcDbPolyline
 90
        6
 70
     0
 43
0.0
 10
-21.683184
 20
-39.056939
 10
-21.650596
 20
-39.134118
 10
-21.601731
 20
-39.202017
 10
-21.539039
 20
-39.25723
 10
-21.465662
 20
-39.296988
 10
-21.413325
 20
-39.313699
  0
LINE
  5
C2
100
AcDbEntity
  8
0
  6
HIDDEN
 62
     8
100
AcDbLine
 10
-20.689637
 20
-39.147885
 30
0.0
 11
-20.660786
 21
-39.127862
 31
0.0
  0
SPLINE
  5
C3
100
AcDbEntity
  8
0
  6
HIDDEN
 62
     8
100
AcDbSpline
210
0.0
220
0.0
230
-1.0
 70
     8
 71
     3
 72
    11
 73
     7
 74
     5
 42
0.0000001
 43
0.0000001
 44
0.0000000001
 40
0.0
 40
0.0
 40
0.0
 40
0.0
 40
0.3912018704644991
 40
0.7834173932794249
 40
1.171485839957263
 40
1.552202942066273
 40
1.552202942066273
 40
1.552202942066273
 40
1.552202942066273
 10
-21.05610174273332
 20
-39.98817612586447
 30
0.0
 10
-21.18262457909308
 20
-39.95133831813267
 30
0.0
 10
-21.43599808810417
 20
-39.87756725136065
 30
0.0
 10
-21.73878807164444
 20
-39.61569030709823
 30
0.0
 10
-21.95015524308919
 20
-39.28044786115424
 30
0.0
 10
-21.98712620493416
 20
-39.02429446431648
 30
0.0
 10
-22.00543492246665
 20
-38.89744247146446
 30
0.0
 11
-21.05610174273332
 21
-39.98817612586447
 31
0.0
 11
-21.42298158486666
 21
-39.8523892159978
 31
0.0
 11
-21.72479558913332
 21
-39.60190703466446
 31
0.0
 11
-21.92525107179999
 21
-39.26961993173113
 31
0.0
 11
-22.00543492246665
 21
-38.89744247146446
 31
0.0
  0
SPLINE
  5
C4
100
AcDbEntity
  8
0
  6
HIDDEN
 62
     8
100
AcDbSpline
210
0.0
220
0.0
230
-1.0
 70
     8
 71
     3
 72
    23
 73
    19
 74
    17
 42
0.0000001
 43
0.0000001
 44
0.0000000001
 40
0.0
 40
0.0
 40
0.0
 40
0.0
 40
0.0351508150642287
 40
0.0677790705364959
 40
0.0980458809884856
 40
0.1261198584305489
 40
0.1521677339705219
 40
0.1763535180962595
 40
0.1988013054162938
 40
0.2196060034914529
 40
0.2388909840411629
 40
0.2567572123877699
 40
0.2733549756958827
 40
0.2887467542291706
 40
0.3026423616470057
 40
0.3156847801564113
 40
0.329706100473922
 40
0.3458998909213804
 40
0.3458998909213804
 40
0.3458998909213804
 40
0.3458998909213804
 10
-21.83790989206666
 20
-39.14496408426446
 30
0.0
 10
-21.84320005808945
 20
-39.13450891797332
 30
0.0
 10
-21.85340074718736
 20
-39.11434888890362
 30
0.0
 10
-21.86742647704096
 20
-39.08482642522063
 30
0.0
 10
-21.88003422858009
 20
-39.05724802289885
 30
0.0
 10
-21.89139770607456
 20
-39.03151517753659
 30
0.0
 10
-21.90173546748387
 20
-39.00754680751414
 30
0.0
 10
-21.91123341341885
 20
-38.98525916884263
 30
0.0
 10
-21.92006575181803
 20
-38.96458717092711
 30
0.0
 10
-21.92840390864227
 20
-38.94548239251411
 30
0.0
 10
-21.93642788406995
 20
-38.92790301184838
 30
0.0
 10
-21.94437176386162
 20
-38.91185300615221
 30
0.0
 10
-21.95251401529311
 20
-38.89730535996209
 30
0.0
 10
-21.9613646571938
 20
-38.88492308736978
 30
0.0
 10
-21.97162915944973
 20
-38.87455380302097
 30
0.0
 10
-21.98688512419136
 20
-38.87324203971914
 30
0.0
 10
-21.99792831329304
 20
-38.88405882380907
 30
0.0
 10
-22.00281546183985
 20
-38.89277246938789
 30
0.0
 10
-22.00543472939999
 20
-38.89744254826446
 30
0.0
 11
-21.83790989206666
 21
-39.14496408426446
 31
0.0
 11
-21.85364464619998
 21
-39.11353165973114
 31
0.0
 11
-21.86768881473331
 21
-39.08408060906446
 31
0.0
 11
-21.88027631553332
 21
-39.05655544533113
 31
0.0
 11
-21.89163206379999
 21
-39.03088064853113
 31
0.0
 11
-21.90196325099999
 21
-39.00696917866446
 31
0.0
 11
-21.91146417259999
 21
-38.98472767146447
 31
0.0
 11
-21.92030845633332
 21
-38.96409561386446
 31
0.0
 11
-21.92866180246665
 21
-38.94504155733113
 31
0.0
 11
-21.93671787286665
 21
-38.92751985066446
 31
0.0
 11
-21.94470298433332
 21
-38.9115373567978
 31
0.0
 11
-21.95296562753332
 21
-38.89714241066446
 31
0.0
 11
-21.96205448086665
 21
-38.8847206719978
 31
0.0
 11
-21.97276770646665
 21
-38.87587111253113
 31
0.0
 11
-21.98578402219998
 21
-38.87504636693113
 31
0.0
 11
-21.99676505046665
 21
-38.88376499306446
 31
0.0
 11
-22.00543472939999
 21
-38.89744254826446
 31
0.0
  0
SPLINE
  5
C5
100
AcDbEntity
  8
0
  6
HIDDEN
 62
     8
100
AcDbSpline
210
0.0
220
0.0
230
1.0
 70
     8
 71
     3
 72
    19
 73
    15
 74
    13
 42
0.0000001
 43
0.0000001
 44
0.0000000001
 40
0.0
 40
0.0
 40
0.0
 40
0.0
 40
0.2930907540913252
 40
0.5868593371738083
 40
0.8821503512574279
 40
1.179683521089597
 40
1.47375630747493
 40
1.752859646537569
 40
2.01477052802601
 40
2.265028346649156
 40
2.514002275093412
 40
2.784145358908743
 40
3.071864743580422
 40
3.363408350656592
 40
3.363408350656592
 40
3.363408350656592
 40
3.363408350656592
 10
-21.08815556246665
 20
-37.8407797919978
 30
0.0
 10
-20.99093224947948
 20
-37.82521620148773
 30
0.0
 10
-20.79626077581124
 20
-37.79405302665781
 30
0.0
 10
-20.50299225077854
 20
-37.86152740080784
 30
0.0
 10
-20.24189397011106
 20
-38.00716221314976
 30
0.0
 10
-20.03407739352027
 20
-38.22363351420035
 30
0.0
 10
-19.89706253883208
 20
-38.48352715291178
 30
0.0
 10
-19.8350249649974
 20
-38.75796762041216
 30
0.0
 10
-19.84078655318515
 20
-39.02413127130117
 30
0.0
 10
-19.90495807239705
 20
-39.27180436287294
 30
0.0
 10
-20.02534067713477
 20
-39.50115027123839
 30
0.0
 10
-20.20738325462716
 20
-39.70226102076735
 30
0.0
 10
-20.45037180105182
 20
-39.85966098341462
 30
0.0
 10
-20.64136395139032
 20
-39.89697504553384
 30
0.0
 10
-20.73749047979999
 20
-39.9157552479978
 30
0.0
 11
-21.08815556246665
 21
-37.8407797919978
 31
0.0
 11
-20.79637878486666
 21
-37.8130579199978
 31
0.0
 11
-20.50905838273333
 21
-37.87427039359779
 31
0.0
 11
-20.25140561793332
 21
-38.01853347199779
 31
0.0
 11
-20.04478240833332
 21
-38.23261952106446
 31
0.0
 11
-19.90724045099999
 21
-38.49254453653113
 31
0.0
 11
-19.84549275286666
 21
-38.76473178026447
 31
0.0
 11
-19.85118815233333
 21
-39.02658072959779
 31
0.0
 11
-19.91411866753332
 21
-39.26879700906447
 31
0.0
 11
-20.03028645846665
 21
-39.48900841066446
 31
0.0
 11
-20.21132458646666
 21
-39.68951397653113
 31
0.0
 11
-20.45551540353331
 21
-39.8416760255978
 31
0.0
 11
-20.73749047979999
 21
-39.9157552479978
 31
0.0
  0
SPLINE
  5
C6
100
AcDbEntity
  8
0
  6
HIDDEN
 62
     8
100
AcDbSpline
210
0.0
220
0.0
230
1.0
 70
     8
 71
     3
 72
    14
 73
    10
 74
     8
 42
0.0000001
 43
0.0000001
 44
0.0000000001
 40
0.0
 40
0.0
 40
0.0
 40
0.0
 40
0.0460290548125674
 40
0.0952078955273217
 40
0.1459439845483834
 40
0.2035104965000125
 40
0.2655805424057665
 40
0.3294841053028287
 40
0.391928032455358
 40
0.391928032455358
 40
0.391928032455358
 40
0.391928032455358
 10
-21.48168973953333
 20
-39.2973328415978
 30
0.0
 10
-21.49649832081639
 20
-39.29325464125458
 30
0.0
 10
-21.52712884028822
 20
-39.28481916775208
 30
0.0
 10
-21.57172394353119
 20
-39.26491142278502
 30
0.0
 10
-21.61686284910079
 20
-39.23789585662105
 30
0.0
 10
-21.66117149265472
 20
-39.20197124585193
 30
0.0
 10
-21.70205883799671
 20
-39.15618074738109
 30
0.0
 10
-21.73625286659564
 20
-39.10291818025557
 30
0.0
 10
-21.75075738505864
 20
-39.06326789009212
 30
0.0
 10
-21.75792586219999
 20
-39.0436717759978
 30
0.0
 11
-21.48168973953333
 21
-39.2973328415978
 31
0.0
 11
-21.52575588779999
 21
-39.2840344031978
 31
0.0
 11
-21.57078980673332
 21
-39.2642732159978
 31
0.0
 11
-21.61427373953332
 21
-39.23813324053113
 31
0.0
 11
-21.65896710699998
 21
-39.20185092799779
 31
0.0
 11
-21.70038758273332
 21
-39.15562285439779
 31
0.0
 11
-21.73436255659999
 21
-39.1014992319978
 31
0.0
 11
-21.75792586219999
 21
-39.0436717759978
 31
0.0
  0
SPLINE
  5
C7
100
AcDbEntity
  8
0
  6
HIDDEN
 62
     8
100
AcDbSpline
210
0.0
220
0.0
230
1.0
 70
     8
 71
     3
 72
    10
 73
     6
 74
     4
 42
0.0000001
 43
0.0000001
 44
0.0000000001
 40
0.0
 40
0.0
 40
0.0
 40
0.0
 40
0.0051516948582322
 40
0.0063301685054823
 40
0.0063923207292639
 40
0.0063923207292639
 40
0.0063923207292639
 40
0.0063923207292639
 10
-20.66078108886666
 20
-39.12786744533113
 30
0.0
 10
-20.66212070836481
 20
-39.12894361106372
 30
0.0
 10
-20.66376677192056
 20
-39.13026595460589
 30
0.0
 10
-20.66555629821036
 20
-39.13143005562938
 30
0.0
 10
-20.66587786453883
 20
-39.13169011615537
 30
0.0
 10
-20.66589397419999
 20
-39.13170314453113
 30
0.0
 11
-20.66078108886666
 21
-39.12786744533113
 31
0.0
 11
-20.66488344193332
 21
-39.1309836383978
 31
0.0
 11
-20.66584558059999
 21
-39.13166414506446
 31
0.0
 11
-20.66589397419999
 21
-39.13170314453113
 31
0.0
  0
LWPOLYLINE
  5
C8
100
AcDbEntity
  8
0
  6
HIDDEN
 62
     8
100
AcDbPolyline
 90
        4
 70
     0
 43
0.0
 10
-21.197681
 20
-39.607373
 10
-21.456481
 20
-39.524229
 10
-21.677004
 20
-39.364952
 10
-21.83791
 20
-39.144964
  0
SPLINE
  5
C9
100
AcDbEntity
  8
0
  6
HIDDEN
 62
     8
100
AcDbSpline
210
0.0
220
0.0
230
1.0
 70
     8
 71
     3
 72
    11
 73
     7
 74
     5
 42
0.0000001
 43
0.0000001
 44
0.0000000001
 40
0.0
 40
0.0
 40
0.0
 40
0.0
 40
0.2937864156866187
 40
0.5865311530165696
 40
0.8756420166903819
 40
1.158752632359269
 40
1.158752632359269
 40
1.158752632359269
 40
1.158752632359269
 10
-21.03132159553332
 20
-39.90076866346447
 30
0.0
 10
-21.12596472097725
 20
-39.8729981831912
 30
0.0
 10
-21.31491539577948
 20
-39.81755568842356
 30
0.0
 10
-21.5530099741449
 20
-39.64031367694443
 30
0.0
 10
-21.73971073000913
 20
-39.41462950823138
 30
0.0
 10
-21.8054064639942
 20
-39.23422198145919
 30
0.0
 10
-21.83790989206666
 20
-39.14496408426446
 30
0.0
 11
-21.03132159553332
 21
-39.90076866346447
 31
0.0
 11
-21.30785782593331
 21
-39.80158110719779
 31
0.0
 11
-21.54574100779999
 21
-39.6309614335978
 31
0.0
 11
-21.72624694486665
 21
-39.40512366399779
 31
0.0
 11
-21.83790989206666
 21
-39.14496408426446
 31
0.0
  0
LINE
  5
CA
100
AcDbEntity
  8
0
  6
HIDDEN
 62
     8
100
AcDbLine
 10
-21.481724
 20
-39.297325
 30
0.0
 11
-21.413378
 21
-39.313705
 31
0.0
  0
LWPOLYLINE
  5
CB
100
AcDbEntity
  8
0
  6
HIDDEN
 62
     8
100
AcDbPolyline
 90
        4
 70
     0
 43
0.0
 10
-21.413325
 20
-39.313699
 10
-21.385281
 20
-39.319299
 10
-21.301927
 20
-39.323043
 10
-21.219778
 20
-39.308032
  0
LINE
  5
CC
100
AcDbEntity
  8
0
  6
HIDDEN
 62
     8
100
AcDbLine
 10
-20.73749
 20
-39.915755
 30
0.0
 11
-21.031322
 21
-39.900769
 31
0.0
  0
LINE
  5
CD
100
AcDbEntity
  8
0
  6
HIDDEN
 62
     8
100
AcDbLine
 10
-20.735858
 20
-39.998807
 30
0.0
 11
-21.0561
 21
-39.988175
 31
0.0
  0
LINE
  5
CE
100
AcDbEntity
  8
0
  6
HIDDEN
 62
     8
100
AcDbLine
 10
-21.219778
 20
-39.308032
 30
0.0
 11
-20.689637
 21
-39.147885
 31
0.0
  0
LINE
  5
CF
100
AcDbEntity
  8
0
  6
HIDDEN
 62
     8
100
AcDbLine
 10
-20.662477
 20
-39.129609
 30
0.0
 11
-20.689637
 21
-39.147885
 31
0.0
  0
SPLINE
  5
D0
100
AcDbEntity
  8
0
  6
HIDDEN
 62
     8
100
AcDbSpline
210
-0.523385963888134
220
0.8520957298360842
230
0.0
 70
    24
 71
     3
 72
     8
 73
     4
 74
     2
 42
0.0000001
 43
0.0000001
 44
0.0000000001
 40
0.0
 40
0.0
 40
0.0
 40
0.0
 40
0.0039924565760405
 40
0.0039924565760405
 40
0.0039924565760405
 40
0.0039924565760405
 10
-20.66589397419999
 20
-39.13170314453113
 30
0.0
 10
-20.66475998913332
 20
-39.13100661262001
 30
0.0
 10
-20.66362600406665
 20
-39.13031008070891
 30
0.0
 10
-20.66249201899999
 20
-39.12961354879779
 30
0.0
 11
-20.66589397419999
 21
-39.13170314453113
 31
0.0
 11
-20.66249201899999
 21
-39.12961354879779
 31
0.0
  0
SPLINE
  5
D1
100
AcDbEntity
  8
0
  6
HIDDEN
 62
     8
100
AcDbSpline
210
0.0
220
0.0
230
1.0
 70
     8
 71
     3
 72
    13
 73
     9
 74
     7
 42
0.0000001
 43
0.0000001
 44
0.0000000001
 40
0.0
 40
0.0
 40
0.0
 40
0.0
 40
0.0277209647503315
 40
0.0639067660839275
 40
0.1047000882677455
 40
0.1487274042385206
 40
0.1954273299180485
 40
0.1977003737155607
 40
0.1977003737155607
 40
0.1977003737155607
 40
0.1977003737155607
 10
-21.28650195286665
 20
-39.29204045013113
 30
0.0
 10
-21.29531631874956
 20
-39.29484567235276
 30
0.0
 10
-21.31563659344888
 20
-39.30131271568786
 30
0.0
 10
-21.35024439881822
 20
-39.30674491132405
 30
0.0
 10
-21.3905683105732
 20
-39.30903472179773
 30
0.0
 10
-21.43443582499275
 20
-39.30653690076384
 30
0.0
 10
-21.46507055922785
 20
-39.30128145990886
 30
0.0
 10
-21.48095258707405
 20
-39.29750798463404
 30
0.0
 10
-21.48168973953333
 20
-39.2973328415978
 30
0.0
 11
-21.28650195286665
 21
-39.29204045013113
 31
0.0
 11
-21.31309625686666
 21
-39.29986316586446
 31
0.0
 11
-21.34876726806666
 21
-39.3059452031978
 31
0.0
 11
-21.38949657366665
 21
-39.30822967253113
 31
0.0
 11
-21.43345602539999
 21
-39.30578607786447
 31
0.0
 11
-21.47947774379999
 21
-39.29785610346447
 31
0.0
 11
-21.48168973953333
 21
-39.2973328415978
 31
0.0
  0
SPLINE
  5
D2
100
AcDbEntity
  8
0
  6
HIDDEN
 62
     8
100
AcDbSpline
210
0.0
220
0.0
230
-1.0
 70
     8
 71
     3
 72
    10
 73
     6
 74
     4
 42
0.0000001
 43
0.0000001
 44
0.0000000001
 40
0.0
 40
0.0
 40
0.0
 40
0.0
 40
0.4126724727386295
 40
0.8235364521433545
 40
1.147543001092285
 40
1.147543001092285
 40
1.147543001092285
 40
1.147543001092285
 10
-23.05849182059998
 20
-36.89349438613113
 30
0.0
 10
-23.18730066534431
 20
-36.84522073770409
 30
0.0
 10
-23.44435386373543
 20
-36.7488849949932
 30
0.0
 10
-23.80258778794402
 20
-36.61477431566171
 30
0.0
 10
-24.03199104970292
 20
-36.52887904153999
 30
0.0
 10
-24.13313561366666
 20
-36.49100756586447
 30
0.0
 11
-23.05849182059998
 21
-36.89349438613113
 31
0.0
 11
-23.44492690966665
 21
-36.74869627946447
 31
0.0
 11
-23.82970099926665
 21
-36.60461953066447
 31
0.0
 11
-24.13313561366666
 21
-36.49100756586447
 31
0.0
  0
SPLINE
  5
D3
100
AcDbEntity
  8
0
  6
HIDDEN
 62
     8
100
AcDbSpline
210
0.0
220
0.0
230
1.0
 70
     8
 71
     3
 72
     9
 73
     5
 74
     3
 42
0.0000001
 43
0.0000001
 44
0.0000000001
 40
0.0
 40
0.0
 40
0.0
 40
0.0
 40
0.846971153660468
 40
1.6890316980488
 40
1.6890316980488
 40
1.6890316980488
 40
1.6890316980488
 10
-24.73611968833332
 20
-36.7115389343978
 30
0.0
 10
-24.47344290984277
 20
-36.81630375310708
 30
0.0
 10
-23.94961231266786
 20
-37.02522598012221
 30
0.0
 10
-23.39978464398783
 20
-37.15064174181758
 30
0.0
 10
-23.12567008086666
 20
-37.2131673087978
 30
0.0
 11
-24.73611968833332
 21
-36.7115389343978
 31
0.0
 11
-23.94155223873333
 21
-37.0048352063978
 31
0.0
 11
-23.12567008086666
 21
-37.2131673087978
 31
0.0
  0
SPLINE
  5
D4
100
AcDbEntity
  8
0
  6
HIDDEN
 62
     8
100
AcDbSpline
210
0.0
220
0.0
230
1.0
 70
     8
 71
     3
 72
     9
 73
     5
 74
     3
 42
0.0000001
 43
0.0000001
 44
0.0000000001
 40
0.0
 40
0.0
 40
0.0
 40
0.0
 40
0.1291473635093224
 40
0.5161884081673323
 40
0.5161884081673323
 40
0.5161884081673323
 40
0.5161884081673323
 10
-25.20327673259999
 20
-36.4920345247978
 30
0.0
 10
-25.16482383698326
 20
-36.51139621724325
 30
0.0
 10
-25.0111316636514
 20
-36.58878286247756
 30
0.0
 10
-24.85383290121809
 20
-36.65863060911269
 30
0.0
 10
-24.73588938219999
 20
-36.71100285226447
 30
0.0
 11
-25.20327673259999
 21
-36.4920345247978
 31
0.0
 11
-25.08769228353332
 21
-36.54964768853113
 31
0.0
 11
-24.73588938219999
 21
-36.71100285226447
 31
0.0
  0
LINE
  5
D5
100
AcDbEntity
  8
0
  6
HIDDEN
 62
     8
100
AcDbLine
 10
-21.486451
 20
-37.879775
 30
0.0
 11
-22.005435
 21
-38.897443
 31
0.0
  0
LWPOLYLINE
  5
D6
100
AcDbEntity
  8
0
  6
HIDDEN
 62
     8
100
AcDbPolyline
 90
        8
 70
     0
 43
0.0
 10
-21.502975
 20
-38.3507
 10
-21.579799
 20
-38.383712
 10
-21.647445
 20
-38.433071
 10
-21.702521
 20
-38.496301
 10
-21.742266
 20
-38.570231
 10
-21.764687
 20
-38.651156
 10
-21.768659
 20
-38.735015
 10
-21.753983
 20
-38.817606
  0
SPLINE
  5
D7
100
AcDbEntity
  8
0
  6
HIDDEN
 62
     8
100
AcDbSpline
210
0.0
220
0.0
230
1.0
 70
     8
 71
     3
 72
    10
 73
     6
 74
     4
 42
0.0000001
 43
0.0000001
 44
0.0000000001
 40
0.0
 40
0.0
 40
0.0
 40
0.0
 40
0.2835458628696533
 40
0.5674645426313863
 40
0.8512647889569169
 40
0.8512647889569169
 40
0.8512647889569169
 40
0.8512647889569169
 10
-21.13423610539998
 20
-37.27411688639779
 30
0.0
 10
-21.22866253254938
 20
-37.26976780592639
 30
0.0
 10
-21.41763954230837
 20
-37.26106392664704
 30
0.0
 10
-21.70011026131362
 20
-37.23196789118725
 30
0.0
 10
-21.88697949314259
 20
-37.20196788648815
 30
0.0
 10
-21.98039461739999
 20
-37.18697101333114
 30
0.0
 11
-21.13423610539998
 21
-37.27411688639779
 31
0.0
 11
-21.41734605099999
 21
-37.25840017386446
 31
0.0
 11
-21.69977091393332
 21
-37.2293138623978
 31
0.0
 11
-21.98039461739999
 21
-37.18697101333114
 31
0.0
  0
SPLINE
  5
D8
100
AcDbEntity
  8
0
  6
HIDDEN
 62
     8
100
AcDbSpline
210
0.0
220
0.0
230
1.0
 70
     8
 71
     3
 72
    10
 73
     6
 74
     4
 42
0.0000001
 43
0.0000001
 44
0.0000000001
 40
0.0
 40
0.0
 40
0.0
 40
0.0
 40
0.2878012520996056
 40
0.5755081770010607
 40
0.8625798489173261
 40
0.8625798489173261
 40
0.8625798489173261
 40
0.8625798489173261
 10
-21.99388002753333
 20
-37.3567339103978
 30
0.0
 10
-21.89803708116172
 20
-37.36105513393532
 30
0.0
 10
-21.70638260105667
 20
-37.36969616472428
 30
0.0
 10
-21.41873404235472
 20
-37.37030663878065
 30
0.0
 10
-21.22728723595096
 20
-37.36250084763719
 30
0.0
 10
-21.13166962753332
 20
-37.3586022655978
 30
0.0
 11
-21.99388002753333
 21
-37.3567339103978
 31
0.0
 11
-21.70628543233332
 21
-37.36763847466447
 31
0.0
 11
-21.41857915606665
 21
-37.36824940266446
 31
0.0
 11
-21.13166962753332
 21
-37.3586022655978
 31
0.0
  0
SPLINE
  5
D9
100
AcDbEntity
  8
0
  6
HIDDEN
 62
     8
100
AcDbSpline
210
0.0
220
0.0
230
-1.0
 70
     8
 71
     3
 72
    19
 73
    15
 74
    13
 42
0.0000001
 43
0.0000001
 44
0.0000000001
 40
0.0
 40
0.0
 40
0.0
 40
0.0
 40
0.0697409556120149
 40
0.1402195603500049
 40
0.2076283941260995
 40
0.2688226543099934
 40
0.32289798688136
 40
0.3710517922559039
 40
0.4143570374806064
 40
0.4540953519861807
 40
0.4903218686371279
 40
0.523447511863775
 40
0.5554978262205736
 40
0.5844023527294488
 40
0.5844023527294488
 40
0.5844023527294488
 40
0.5844023527294488
 10
-21.83169602646665
 20
-38.7942960927978
 30
0.0
 10
-21.8367587360596
 20
-38.77153189108851
 30
0.0
 10
-21.84693770345508
 20
-38.72576271102233
 30
0.0
 10
-21.84492793020606
 20
-38.65590173700653
 30
0.0
 10
-21.83117914408753
 20
-38.59067683933956
 30
0.0
 10
-21.80803104933489
 20
-38.53401846261629
 30
0.0
 10
-21.77979606093277
 20
-38.4872197002861
 30
0.0
 10
-21.74927131925449
 20
-38.44934786449146
 30
0.0
 10
-21.71792907344858
 20
-38.41872070551445
 30
0.0
 10
-21.68667944862764
 20
-38.39403813260173
 30
0.0
 10
-21.65612718566883
 20
-38.37423023547021
 30
0.0
 10
-21.62632117658993
 20
-38.3582296465791
 30
0.0
 10
-21.59773464094969
 20
-38.34526892779479
 30
0.0
 10
-21.57871733902479
 20
-38.33810517626429
 30
0.0
 10
-21.56969941526666
 20
-38.33470815573113
 30
0.0
 11
-21.83169602646665
 21
-38.7942960927978
 31
0.0
 11
-21.84403035819999
 21
-38.72565452266447
 31
0.0
 11
-21.84275907179999
 21
-38.65518738453113
 31
0.0
 11
-21.82871286379999
 21
-38.58925821866447
 31
0.0
 11
-21.80563273046665
 21
-38.53258331306446
 31
0.0
 11
-21.77771549099999
 21
-38.48627165866446
 31
0.0
 11
-21.74751528619999
 21
-38.4487651711978
 31
0.0
 11
-21.71655499393332
 21
-38.4184863903978
 31
0.0
 11
-21.68538398379998
 21
-38.39383883946446
 31
0.0
 11
-21.65499620139998
 21
-38.3741171967978
 31
0.0
 11
-21.62583818006666
 21
-38.35839720853113
 31
0.0
 11
-21.59664164246665
 21
-38.34517658666446
 31
0.0
 11
-21.56969941526666
 21
-38.33470815573113
 31
0.0
  0
LINE
  5
DA
100
AcDbEntity
  8
0
  6
HIDDEN
 62
     8
100
AcDbLine
 10
-21.683184
 20
-39.056939
 30
0.0
 11
-21.753983
 21
-38.817606
 31
0.0
  0
LINE
  5
DB
100
AcDbEntity
  8
0
  6
HIDDEN
 62
     8
100
AcDbLine
 10
-21.759442
 20
-39.038662
 30
0.0
 11
-21.830242
 21
-38.799329
 31
0.0
  0
SPLINE
  5
DC
100
AcDbEntity
  8
0
  6
HIDDEN
 62
     8
100
AcDbSpline
210
0.0
220
0.0
230
1.0
 70
     8
 71
     3
 72
     9
 73
     5
 74
     3
 42
0.0000001
 43
0.0000001
 44
0.0000000001
 40
0.0
 40
0.0
 40
0.0
 40
0.0
 40
0.229787550673412
 40
0.9186807047098451
 40
0.9186807047098451
 40
0.9186807047098451
 40
0.9186807047098451
 10
-22.17657554113332
 20
-37.14892743999779
 30
0.0
 10
-22.25144440907417
 20
-37.13260474372079
 30
0.0
 10
-22.55076691005024
 20
-37.06734730886598
 30
0.0
 10
-22.8409467738664
 20
-36.96807602220863
 30
0.0
 10
-23.05854459713332
 20
-36.89363524053113
 30
0.0
 11
-22.17657554113332
 21
-37.14892743999779
 31
0.0
 11
-22.40061014593333
 21
-37.0978313119978
 31
0.0
 11
-23.05854459713332
 21
-36.89363524053113
 31
0.0
  0
SPLINE
  5
DD
100
AcDbEntity
  8
0
  6
HIDDEN
 62
     8
100
AcDbSpline
210
0.1871440722515399
220
0.9823324774337406
230
0.0
 70
    24
 71
     3
 72
     8
 73
     4
 74
     2
 42
0.0000001
 43
0.0000001
 44
0.0000000001
 40
0.0
 40
0.0
 40
0.0
 40
0.0
 40
0.1998398863687275
 40
0.1998398863687275
 40
0.1998398863687275
 40
0.1998398863687275
 10
-21.98036578966665
 20
-37.18680451733113
 30
0.0
 10
-22.04580219322221
 20
-37.17433823395335
 30
0.0
 10
-22.11123859677776
 20
-37.16187195057558
 30
0.0
 10
-22.17667500033332
 20
-37.1494056671978
 30
0.0
 11
-21.98036578966665
 21
-37.18680451733113
 31
0.0
 11
-22.17667500033332
 21
-37.1494056671978
 31
0.0
  0
SPLINE
  5
DE
100
AcDbEntity
  8
0
  6
HIDDEN
 62
     8
100
AcDbSpline
210
0.0
220
0.0
230
1.0
 70
     8
 71
     3
 72
    10
 73
     6
 74
     4
 42
0.0000001
 43
0.0000001
 44
0.0000000001
 40
0.0
 40
0.0
 40
0.0
 40
0.0
 40
0.3789577353155551
 40
0.7600639682787412
 40
1.141681283465716
 40
1.141681283465716
 40
1.141681283465716
 40
1.141681283465716
 10
-23.12560941313332
 20
-37.21286544533114
 30
0.0
 10
-23.00138574356215
 20
-37.23586057640673
 30
0.0
 10
-22.7522341193849
 20
-37.2819812092574
 30
0.0
 10
-22.374438687042
 20
-37.33005968705404
 30
0.0
 10
-22.1207895687074
 20
-37.34783853156158
 30
0.0
 10
-21.99388002753333
 20
-37.3567339103978
 30
0.0
 11
-23.12560941313332
 21
-37.21286544533114
 31
0.0
 11
-22.75235117313332
 21
-37.27834255146447
 31
0.0
 11
-22.37429444353332
 21
-37.32645772586446
 31
0.0
 11
-21.99388002753333
 21
-37.3567339103978
 31
0.0
  0
SPLINE
  5
DF
100
AcDbEntity
  8
0
  6
HIDDEN
 62
     8
100
AcDbSpline
210
-0.96069754848106
220
-0.2775972268277931
230
0.0
 70
    24
 71
     3
 72
     9
 73
     5
 74
     3
 42
0.0000001
 43
0.0000001
 44
0.0000000001
 40
0.0
 40
0.0
 40
0.0
 40
0.0
 40
0.0026185546824108
 40
0.0052385953171255
 40
0.0052385953171255
 40
0.0052385953171255
 40
0.0052385953171255
 10
-21.83024179499999
 20
-38.79932885333113
 30
0.0
 10
-21.83048807146705
 20
-38.79849146019634
 30
0.0
 10
-21.83098076415578
 20
-38.79681619873095
 30
0.0
 10
-21.83145754781572
 20
-38.79513634027544
 30
0.0
 10
-21.83169600726666
 20
-38.7942961727978
 30
0.0
 11
-21.83024179499999
 21
-38.79932885333113
 31
0.0
 11
-21.83097664939999
 21
-38.79681552533113
 31
0.0
 11
-21.83169600726666
 21
-38.7942961727978
 31
0.0
  0
SPLINE
  5
E0
100
AcDbEntity
  8
0
  6
HIDDEN
 62
     8
100
AcDbSpline
210
-0.9571077265443163
220
-0.2897322898628498
230
0.0
 70
    24
 71
     3
 72
     9
 73
     5
 74
     3
 42
0.0000001
 43
0.0000001
 44
0.0000000001
 40
0.0
 40
0.0
 40
0.0
 40
0.0
 40
0.0026171700393397
 40
0.0052342981940285
 40
0.0052342981940285
 40
0.0052342981940285
 40
0.0052342981940285
 10
-21.75792589206666
 20
-39.04367168853113
 30
0.0
 10
-21.75818261587654
 20
-39.04283792192264
 30
0.0
 10
-21.75869605938775
 20
-39.04117040204909
 30
0.0
 10
-21.7591936409009
 20
-39.03949808048761
 30
0.0
 10
-21.75944242966666
 20
-39.0386619263978
 30
0.0
 11
-21.75792589206666
 21
-39.04367168853113
 31
0.0
 11
-21.75869209793332
 21
-39.04116918826446
 31
0.0
 11
-21.75944242966666
 21
-39.0386619263978
 31
0.0
  0
LWPOLYLINE
  5
E1
100
AcDbEntity
  8
0
  6
HIDDEN
 62
     8
100
AcDbPolyline
 90
        6
 70
     0
 43
0.0
 10
-21.009053
 20
-38.511401
 10
-20.963591
 20
-38.527461
 10
-20.922026
 20
-38.552899
 10
-20.886654
 20
-38.58649
 10
-20.85902
 20
-38.626766
 10
-20.840331
 20
-38.671967
  0
LWPOLYLINE
  5
E2
100
AcDbEntity
  8
0
  6
HIDDEN
 62
     8
100
AcDbPolyline
 90
        6
 70
     0
 43
0.0
 10
-21.118356
 20
-38.967487
 10
-21.163818
 20
-38.951427
 10
-21.205382
 20
-38.925989
 10
-21.240755
 20
-38.892398
 10
-21.268389
 20
-38.852122
 10
-21.287078
 20
-38.806921
  0
LWPOLYLINE
  5
E3
100
AcDbEntity
  8
0
  6
HIDDEN
 62
     8
100
AcDbPolyline
 90
        6
 70
     0
 43
0.0
 10
-21.06486
 20
-38.498038
 10
-21.032132
 20
-38.508488
 10
-20.986248
 20
-38.53335
 10
-20.947044
 20
-38.567876
 10
-20.916487
 20
-38.610336
 10
-20.896109
 20
-38.658599
  0
LWPOLYLINE
  5
E4
100
AcDbEntity
  8
0
  6
HIDDEN
 62
     8
100
AcDbPolyline
 90
        6
 70
     0
 43
0.0
 10
-21.174104
 20
-38.954114
 10
-21.206832
 20
-38.943664
 10
-21.252717
 20
-38.918802
 10
-21.29192
 20
-38.884275
 10
-21.322478
 20
-38.841816
 10
-21.342856
 20
-38.793553
  0
LINE
  5
E5
100
AcDbEntity
  8
0
  6
HIDDEN
 62
     8
100
AcDbLine
 10
-21.00905
 20
-38.511402
 30
0.0
 11
-21.064828
 21
-38.498034
 31
0.0
  0
LINE
  5
E6
100
AcDbEntity
  8
0
  6
HIDDEN
 62
     8
100
AcDbLine
 10
-21.118359
 20
-38.967486
 30
0.0
 11
-21.174137
 21
-38.954118
 31
0.0
  0
LWPOLYLINE
  5
E7
100
AcDbEntity
  8
0
  6
HIDDEN
 62
     8
100
AcDbPolyline
 90
       11
 70
     0
 43
0.0
 10
-20.896109
 20
-38.658599
 10
-20.886932
 20
-38.710245
 10
-20.889416
 20
-38.762685
 10
-20.903436
 20
-38.81329
 10
-20.92829
 20
-38.859521
 10
-20.962731
 20
-38.899061
 10
-21.005032
 20
-38.929927
 10
-21.053072
 20
-38.95057
 10
-21.104443
 20
-38.959957
 10
-21.156567
 20
-38.957616
 10
-21.174104
 20
-38.954114
  0
LWPOLYLINE
  5
E8
100
AcDbEntity
  8
0
  6
HIDDEN
 62
     8
100
AcDbPolyline
 90
       11
 70
     0
 43
0.0
 10
-21.342856
 20
-38.793553
 10
-21.352033
 20
-38.741907
 10
-21.349549
 20
-38.689466
 10
-21.335528
 20
-38.638862
 10
-21.310674
 20
-38.592631
 10
-21.276233
 20
-38.553091
 10
-21.233932
 20
-38.522225
 10
-21.185892
 20
-38.501581
 10
-21.134522
 20
-38.492195
 10
-21.082397
 20
-38.494536
 10
-21.06486
 20
-38.498038
  0
LWPOLYLINE
  5
E9
100
AcDbEntity
  8
0
  6
HIDDEN
 62
     8
100
AcDbPolyline
 90
       11
 70
     0
 43
0.0
 10
-20.840331
 20
-38.671967
 10
-20.831405
 20
-38.720116
 10
-20.832631
 20
-38.769111
 10
-20.843957
 20
-38.816808
 10
-20.864886
 20
-38.861125
 10
-20.894505
 20
-38.900123
 10
-20.931519
 20
-38.932099
 10
-20.974309
 20
-38.955655
 10
-21.021007
 20
-38.969762
 10
-21.069571
 20
-38.973803
 10
-21.118356
 20
-38.967487
  0
LWPOLYLINE
  5
EA
100
AcDbEntity
  8
0
  6
HIDDEN
 62
     8
100
AcDbPolyline
 90
       11
 70
     0
 43
0.0
 10
-21.287078
 20
-38.806921
 10
-21.296004
 20
-38.758772
 10
-21.294777
 20
-38.709778
 10
-21.283452
 20
-38.66208
 10
-21.262522
 20
-38.617763
 10
-21.232904
 20
-38.578765
 10
-21.19589
 20
-38.546789
 10
-21.153099
 20
-38.523233
 10
-21.106401
 20
-38.509126
 10
-21.057838
 20
-38.505086
 10
-21.009053
 20
-38.511401
  0
LINE
  5
EB
100
AcDbEntity
  8
0
  6
HIDDEN
 62
     8
100
AcDbLine
 10
-20.573915
 20
-38.860486
 30
0.0
 11
-20.720011
 21
-38.366621
 31
0.0
  0
LWPOLYLINE
  5
EC
100
AcDbEntity
  8
0
  6
HIDDEN
 62
     8
100
AcDbPolyline
 90
        8
 70
     0
 43
0.0
 10
-20.972835
 20
-38.190553
 10
-20.918735
 20
-38.157399
 10
-20.824348
 20
-38.113064
 10
-20.691774
 20
-38.058535
 10
-20.523961
 20
-37.995026
 10
-20.324642
 20
-37.923948
 10
-20.098249
 20
-37.846881
 10
-19.849816
 20
-37.76554
  0
LINE
  5
ED
100
AcDbEntity
  8
0
  6
HIDDEN
 62
     8
100
AcDbLine
 10
-21.502975
 20
-38.3507
 30
0.0
 11
-20.972835
 21
-38.190553
 31
0.0
  0
SPLINE
  5
EE
100
AcDbEntity
  8
0
  6
HIDDEN
 62
     8
100
AcDbSpline
210
0.0
220
0.0
230
-1.0
 70
     8
 71
     3
 72
    10
 73
     6
 74
     4
 42
0.0000001
 43
0.0000001
 44
0.0000000001
 40
0.0
 40
0.0
 40
0.0
 40
0.0
 40
0.0346425116068016
 40
0.0695629755593943
 40
0.1047763668363064
 40
0.1047763668363064
 40
0.1047763668363064
 40
0.1047763668363064
 10
-21.18831379393332
 20
-37.87141581653113
 30
0.0
 10
-21.17741051501856
 20
-37.86761111013552
 30
0.0
 10
-21.15551647531169
 20
-37.8599711704853
 30
0.0
 10
-21.12211907942118
 20
-37.84971085013703
 30
0.0
 10
-21.09950821430447
 20
-37.84376508924288
 30
0.0
 10
-21.08815556246665
 20
-37.8407797919978
 30
0.0
 11
-21.18831379393332
 21
-37.87141581653113
 31
0.0
 11
-21.15553473579999
 21
-37.8602070271978
 31
0.0
 11
-21.12214904619999
 21
-37.8499681535978
 31
0.0
 11
-21.08815556246665
 21
-37.8407797919978
 31
0.0
  0
SPLINE
  5
EF
100
AcDbEntity
  8
0
  6
HIDDEN
 62
     8
100
AcDbSpline
210
0.0
220
0.0
230
-1.0
 70
     8
 71
     3
 72
    22
 73
    18
 74
    16
 42
0.0000001
 43
0.0000001
 44
0.0000000001
 40
0.0
 40
0.0
 40
0.0
 40
0.0
 40
0.0175252014623705
 40
0.0325927084747732
 40
0.0467185054393653
 40
0.061952205204965
 40
0.0788473623638108
 40
0.0970663402068626
 40
0.1167851633428744
 40
0.1381474071494866
 40
0.161287465643674
 40
0.1863105091061526
 40
0.2133349447816805
 40
0.2425408925217074
 40
0.2741169275743445
 40
0.3082541326019957
 40
0.3451349825019725
 40
0.3451349825019725
 40
0.3451349825019725
 40
0.3451349825019725
 10
-21.48645086699998
 20
-37.87977499519779
 30
0.0
 10
-21.48890011328471
 20
-37.88500729325556
 30
0.0
 10
-21.4934551291179
 20
-37.89473812377502
 30
0.0
 10
-21.49479192902409
 20
-37.91194169252591
 30
0.0
 10
-21.48145397973555
 20
-37.92201505854569
 30
0.0
 10
-21.46593628639794
 20
-37.92317435646234
 30
0.0
 10
-21.44916717863752
 20
-37.92240113306979
 30
0.0
 10
-21.43104877748084
 20
-37.91982671942079
 30
0.0
 10
-21.41160864940585
 20
-37.91625601206789
 30
0.0
 10
-21.39065535029995
 20
-37.91185992110654
 30
0.0
 10
-21.36803071734689
 20
-37.9068402616884
 30
0.0
 10
-21.34358136292561
 20
-37.90132983467529
 30
0.0
 10
-21.31714061168797
 20
-37.89545970510488
 30
0.0
 10
-21.28851560016807
 20
-37.88935128741143
 30
0.0
 10
-21.25748748929603
 20
-37.8831569788695
 30
0.0
 10
-21.22385008674234
 20
-37.87697135851382
 30
0.0
 10
-21.20046043868351
 20
-37.87331528816647
 30
0.0
 10
-21.18831380779999
 20
-37.8714166303978
 30
0.0
 11
-21.48645086699998
 21
-37.87977499519779
 31
0.0
 11
-21.49275127766666
 21
-37.8961285119978
 31
0.0
 11
-21.49226159446665
 21
-37.91118805973113
 31
0.0
 11
-21.48154694059999
 21
-37.92039318506446
 31
0.0
 11
-21.46651114966665
 21
-37.92284075519779
 31
0.0
 11
-21.44962952619999
 21
-37.92216464533114
 31
0.0
 11
-21.43156714006666
 21
-37.9197810847978
 31
0.0
 11
-21.41216215766665
 21
-37.91627699519779
 31
0.0
 11
-21.39124413526666
 21
-37.91194319786447
 31
0.0
 11
-21.36864610859999
 21
-37.90696409173113
 31
0.0
 11
-21.34422937366665
 21
-37.90148907946447
 31
0.0
 11
-21.31784283073332
 21
-37.89565208746447
 31
0.0
 11
-21.28927578433332
 21
-37.88957662506446
 31
0.0
 11
-21.25830985473332
 21
-37.88339947413113
 31
0.0
 11
-21.22472537153332
 21
-37.87728136533113
 31
0.0
 11
-21.18831380779999
 21
-37.8714166303978
 31
0.0
  0
SPLINE
  5
F0
100
AcDbEntity
  8
0
  6
HIDDEN
 62
     8
100
AcDbSpline
210
0.0
220
0.0
230
-1.0
 70
     8
 71
     3
 72
    10
 73
     6
 74
     4
 42
0.0000001
 43
0.0000001
 44
0.0000000001
 40
0.0
 40
0.0
 40
0.0
 40
0.0
 40
0.1321295226732781
 40
0.2649676143193993
 40
0.3993665011009468
 40
0.3993665011009468
 40
0.3993665011009468
 40
0.3993665011009468
 10
-21.48645086699998
 20
-37.87977499519779
 30
0.0
 10
-21.4486644912879
 20
-37.85708686954265
 30
0.0
 10
-21.37288910344391
 20
-37.81158894896748
 30
0.0
 10
-21.24980481199196
 20
-37.75931539029106
 30
0.0
 10
-21.16366496574834
 20
-37.73635651158057
 30
0.0
 10
-21.12034349313332
 20
-37.72481002666446
 30
0.0
 11
-21.48645086699998
 21
-37.87977499519779
 31
0.0
 11
-21.37162777046665
 21
-37.81440017386447
 31
0.0
 11
-21.24935241686666
 21
-37.76248970773113
 31
0.0
 11
-21.12034349313332
 21
-37.72481002666446
 31
0.0
  0
SPLINE
  5
F1
100
AcDbEntity
  8
0
  6
HIDDEN
 62
     8
100
AcDbSpline
210
0.0
220
0.0
230
1.0
 70
     8
 71
     3
 72
    15
 73
    11
 74
     9
 42
0.0000001
 43
0.0000001
 44
0.0000000001
 40
0.0
 40
0.0
 40
0.0
 40
0.0
 40
0.0068972720901134
 40
0.0487861054600286
 40
0.0905345615067226
 40
0.132158273056679
 40
0.1736908998673876
 40
0.2151624286786871
 40
0.2566050077322754
 40
0.2979387052039511
 40
0.2979387052039511
 40
0.2979387052039511
 40
0.2979387052039511
 10
-20.66078516886665
 20
-39.12786239573113
 30
0.0
 10
-20.65900034466356
 20
-39.12641324899101
 30
0.0
 10
-20.64637584317055
 20
-39.1161630769278
 30
0.0
 10
-20.62486519748217
 20
-39.09477289544073
 30
0.0
 10
-20.60014476234161
 20
-39.06091483971243
 30
0.0
 10
-20.58130033698593
 20
-39.02358157007269
 30
0.0
 10
-20.56879637231164
 20
-38.98375139435999
 30
0.0
 10
-20.56320424846132
 20
-38.94249572288288
 30
0.0
 10
-20.56413393835695
 20
-38.90078689127062
 30
0.0
 10
-20.57065783959316
 20
-38.87390812469799
 30
0.0
 10
-20.57391549953333
 20
-38.8604864191978
 30
0.0
 11
-20.66078516886665
 21
-39.12786239573113
 31
0.0
 11
-20.65545134593332
 21
-39.12348944533113
 31
0.0
 11
-20.62567615766666
 21
-39.0940256959978
 31
0.0
 11
-20.60109185259999
 21
-39.06028335573113
 31
0.0
 11
-20.58233957633332
 21
-39.0231230879978
 31
0.0
 11
-20.56994142913332
 21
-38.98348415466447
 31
0.0
 11
-20.56429026326666
 21
-38.94239946133113
 31
0.0
 11
-20.56561476993332
 21
-38.90097805333113
 31
0.0
 11
-20.57391549953333
 21
-38.8604864191978
 31
0.0
  0
SPLINE
  5
F2
100
AcDbEntity
  8
0
  6
HIDDEN
 62
     8
100
AcDbSpline
210
0.0
220
0.0
230
-1.0
 70
     8
 71
     3
 72
    15
 73
    11
 74
     9
 42
0.0000001
 43
0.0000001
 44
0.0000000001
 40
0.0
 40
0.0
 40
0.0
 40
0.0
 40
0.0414189264333884
 40
0.0829319505128884
 40
0.1244020349737876
 40
0.1657920361967785
 40
0.2071117375845543
 40
0.248460662616441
 40
0.2899623166423198
 40
0.3316682306618963
 40
0.3316682306618963
 40
0.3316682306618963
 40
0.3316682306618963
 10
-20.72001058006666
 20
-38.36662062826447
 30
0.0
 10
-20.72458989353171
 20
-38.35355989098085
 30
0.0
 10
-20.73375892398154
 20
-38.32740874435931
 30
0.0
 10
-20.75575348426221
 20
-38.29189173538092
 30
0.0
 10
-20.78298745474707
 20
-38.26042678427276
 30
0.0
 10
-20.81518616943842
 20
-38.23408907530123
 30
0.0
 10
-20.85122426275391
 20
-38.21341044647187
 30
0.0
 10
-20.89017878109395
 20
-38.19899820175896
 30
0.0
 10
-20.93110691403764
 20
-38.19055283723034
 30
0.0
 10
-20.95890269524463
 20
-38.19055305116692
 30
0.0
 10
-20.97283470273332
 20
-38.19055315839779
 30
0.0
 11
-20.72001058006666
 21
-38.36662062826447
 31
0.0
 11
-20.73511878699999
 21
-38.3280554943978
 31
0.0
 11
-20.75663678273333
 21
-38.2925546911978
 31
0.0
 11
-20.78384186006665
 21
-38.26125530346446
 31
0.0
 11
-20.81585065793332
 21
-38.23501470399779
 31
0.0
 11
-20.85169545153332
 21
-38.21446066559779
 31
0.0
 11
-20.89043777899998
 21
-38.20001194026446
 31
0.0
 11
-20.93115287126666
 21
-38.19197026453113
 31
0.0
 11
-20.97283470273332
 21
-38.19055315839779
 31
0.0
  0
LWPOLYLINE
  5
F3
100
AcDbEntity
  8
0
  6
HIDDEN
 62
     8
100
AcDbPolyline
 90
        8
 70
     0
 43
0.0
 10
-15.439264
 20
-37.561835
 10
-15.555427
 20
-37.580115
 10
-15.708226
 20
-37.61045
 10
-15.894257
 20
-37.652167
 10
-16.109383
 20
-37.704337
 10
-16.348822
 20
-37.7658
 10
-16.607247
 20
-37.835189
 10
-16.878913
 20
-37.910962
  0
LWPOLYLINE
  5
F4
100
AcDbEntity
  8
0
  6
HIDDEN
 62
     8
100
AcDbPolyline
 90
        8
 70
     0
 43
0.0
 10
-17.16211
 20
-36.953629
 10
-16.890444
 20
-36.877857
 10
-16.632019
 20
-36.808468
 10
-16.392581
 20
-36.747005
 10
-16.177454
 20
-36.694835
 10
-15.991423
 20
-36.653118
 10
-15.838624
 20
-36.622782
 10
-15.722462
 20
-36.604503
  0
SPLINE
  5
F5
100
AcDbEntity
  8
0
  6
HIDDEN
 62
     8
100
AcDbSpline
210
0.0
220
0.0
230
-1.0
 70
     8
 71
     3
 72
    16
 73
    12
 74
    10
 42
0.0000001
 43
0.0000001
 44
0.0000000001
 40
0.0
 40
0.0
 40
0.0
 40
0.0
 40
0.3039728088003617
 40
0.6146432899865335
 40
0.9242032386644895
 40
1.237494837260691
 40
1.549159947161549
 40
1.841838924146857
 40
2.118913905411266
 40
2.389582290379728
 40
2.545044287285266
 40
2.545044287285266
 40
2.545044287285266
 40
2.545044287285266
 10
-14.99172293953332
 20
-38.11923594986446
 30
0.0
 10
-15.0924032662404
 20
-38.13560901028927
 30
0.0
 10
-15.29598228861538
 20
-38.16871589167898
 30
0.0
 10
-15.60438284404082
 20
-38.10555976255444
 30
0.0
 10
-15.88305423908503
 20
-37.95872454491961
 30
0.0
 10
-16.10597881563078
 20
-37.73401660235013
 30
0.0
 10
-16.2513461635603
 20
-37.46019513864814
 30
0.0
 10
-16.31448531981532
 20
-37.16961893356327
 30
0.0
 10
-16.30290653059928
 20
-36.88735802147736
 30
0.0
 10
-16.23990940323557
 20
-36.65853177691642
 30
0.0
 10
-16.17280249315919
 20
-36.53312949707383
 30
0.0
 10
-16.14832037526665
 20
-36.4873799103978
 30
0.0
 11
-14.99172293953332
 21
-38.11923594986446
 31
0.0
 11
-15.29413651713332
 21
-38.14998487786446
 31
0.0
 11
-15.59927936406665
 21
-38.09164114773113
 31
0.0
 11
-15.87271361153332
 21
-37.94651680746446
 31
0.0
 11
-16.09378207659999
 21
-37.72452500693113
 31
0.0
 11
-16.24040560726666
 21
-37.4495037695978
 31
0.0
 11
-16.30276179286666
 21
-37.1635445247978
 31
0.0
 11
-16.29219313046665
 21
-36.88667118079779
 31
0.0
 11
-16.21791604459998
 21
-36.6263938495978
 31
0.0
 11
-16.14832037526665
 21
-36.4873799103978
 31
0.0
  0
SPLINE
  5
F6
100
AcDbEntity
  8
0
  6
HIDDEN
 62
     8
100
AcDbSpline
210
0.0
220
0.0
230
-1.0
 70
     8
 71
     3
 72
    16
 73
    12
 74
    10
 42
0.0000001
 43
0.0000001
 44
0.0000000001
 40
0.0
 40
0.0
 40
0.0
 40
0.0
 40
0.2725065935907055
 40
0.5516749357710338
 40
0.8298060569684022
 40
1.111251683968124
 40
1.393455171310279
 40
1.660813848995549
 40
1.911502005738121
 40
2.156196425772995
 40
2.392998730240827
 40
2.392998730240827
 40
2.392998730240827
 40
2.392998730240827
 10
-15.01406002006666
 20
-38.03319640959779
 30
0.0
 10
-15.10405041357434
 20
-38.04944959805442
 30
0.0
 10
-15.28623112305445
 20
-38.08235330353814
 30
0.0
 10
-15.56407310564025
 20
-38.03016109304791
 30
0.0
 10
-15.81643211790234
 20
-37.90203748723421
 30
0.0
 10
-16.02032539061838
 20
-37.70279243516654
 30
0.0
 10
-16.15605102287718
 20
-37.4570829041569
 30
0.0
 10
-16.21798326368974
 20
-37.19425356378939
 30
0.0
 10
-16.21220951451218
 20
-36.93813663135181
 30
0.0
 10
-16.15262679480534
 20
-36.69803389114282
 30
0.0
 10
-16.07071163049698
 20
-36.55921628580173
 30
0.0
 10
-16.03042537579999
 20
-36.49094514879779
 30
0.0
 11
-15.01406002006666
 21
-38.03319640959779
 31
0.0
 11
-15.28464980886666
 21
-38.06546109226447
 31
0.0
 11
-15.55967259179999
 21
-38.01752955626446
 31
0.0
 11
-15.80732557419999
 21
-37.89093997973113
 31
0.0
 11
-16.00905509953332
 21
-37.69468290453113
 31
0.0
 11
-16.14602239233333
 21
-37.44794667093113
 31
0.0
 11
-16.20755042753333
 21
-37.18776411306446
 31
0.0
 11
-16.20280095659999
 21
-36.93712095146447
 31
0.0
 11
-16.14094833153332
 21
-36.70037295893113
 31
0.0
 11
-16.03042537579999
 21
-36.49094514879779
 31
0.0
  0
LWPOLYLINE
  5
F7
100
AcDbEntity
  8
0
  6
HIDDEN
 62
     8
100
AcDbPolyline
 90
        7
 70
     0
 43
0.0
 10
-16.878913
 20
-37.910962
 10
-17.33256
 20
-38.041111
 10
-17.789586
 20
-38.175011
 10
-18.245729
 20
-38.311414
 10
-18.696737
 20
-38.449047
 10
-19.138406
 20
-38.586627
 10
-19.566619
 20
-38.722873
  0
SPLINE
  5
F8
100
AcDbEntity
  8
0
  6
HIDDEN
 62
     8
100
AcDbSpline
210
-0.3072871209469028
220
0.9516168479488808
230
0.0
 70
    24
 71
     3
 72
    10
 73
     6
 74
     4
 42
0.0000001
 43
0.0000001
 44
0.0000000001
 40
0.0
 40
0.0
 40
0.0
 40
0.0
 40
0.0030561946866978
 40
0.0061168107413254
 40
0.0091817340453135
 40
0.0091817340453135
 40
0.0091817340453135
 40
0.0091817340453135
 10
-19.13697873686666
 20
-36.9905826783978
 30
0.0
 10
-19.13794917862719
 20
-36.99089261119108
 30
0.0
 10
-19.13989146607717
 20
-36.99151292515448
 30
0.0
 10
-19.14280346848399
 20
-36.99245495428513
 30
0.0
 10
-19.14474484250531
 20
-36.99308757070509
 30
0.0
 10
-19.14571621206666
 20
-36.99340410133113
 30
0.0
 11
-19.13697873686666
 21
-36.9905826783978
 31
0.0
 11
-19.13988948033333
 21
-36.99151428906446
 31
0.0
 11
-19.14280176513332
 21
-36.99245554773113
 31
0.0
 11
-19.14571621206666
 21
-36.99340410133113
 31
0.0
  0
SPLINE
  5
F9
100
AcDbEntity
  8
0
  6
HIDDEN
 62
     8
100
AcDbSpline
210
0.0
220
0.0
230
-1.0
 70
     8
 71
     3
 72
    10
 73
     6
 74
     4
 42
0.0000001
 43
0.0000001
 44
0.0000000001
 40
0.0
 40
0.0
 40
0.0
 40
0.0
 40
0.0084380965320823
 40
0.0169087550531292
 40
0.025411680105775
 40
0.025411680105775
 40
0.025411680105775
 40
0.025411680105775
 10
-19.14571621206666
 20
-36.99340410133113
 30
0.0
 10
-19.14838844998325
 20
-36.99428185187182
 30
0.0
 10
-19.15374323778445
 20
-36.99604074012745
 30
0.0
 10
-19.16177282724818
 20
-36.99873844199025
 30
0.0
 10
-19.16712380828187
 20
-37.00057651256916
 30
0.0
 10
-19.16980438486666
 20
-37.00149729493113
 30
0.0
 11
-19.14571621206666
 21
-36.99340410133113
 31
0.0
 11
-19.15372994859999
 21
-36.99604635413113
 31
0.0
 11
-19.16175955926665
 21
-36.99874402133113
 31
0.0
 11
-19.16980438486666
 21
-37.00149729493113
 31
0.0
  0
SPLINE
  5
FA
100
AcDbEntity
  8
0
  6
HIDDEN
 62
     8
100
AcDbSpline
210
0.0
220
0.0
230
-1.0
 70
     8
 71
     3
 72
    10
 73
     6
 74
     4
 42
0.0000001
 43
0.0000001
 44
0.0000000001
 40
0.0
 40
0.0
 40
0.0
 40
0.0
 40
0.0279852712351409
 40
0.0562977209465346
 40
0.0849233191447681
 40
0.0849233191447681
 40
0.0849233191447681
 40
0.0849233191447681
 10
-19.16980438486666
 20
-37.00149729493113
 30
0.0
 10
-19.17860481390238
 20
-37.00459165779043
 30
0.0
 10
-19.19630855862937
 20
-37.01081656000046
 30
0.0
 10
-19.22280216301754
 20
-37.02079659335751
 30
0.0
 10
-19.24041084579834
 20
-37.02787918929422
 30
0.0
 10
-19.24926360939998
 20
-37.03143996373114
 30
0.0
 11
-19.16980438486666
 21
-37.00149729493113
 31
0.0
 11
-19.19617095553332
 21
-37.01087702613113
 31
0.0
 11
-19.22266631019999
 21
-37.02085655466447
 31
0.0
 11
-19.24926360939998
 21
-37.03143996373114
 31
0.0
  0
SPLINE
  5
FB
100
AcDbEntity
  8
0
  6
HIDDEN
 62
     8
100
AcDbSpline
210
0.0
220
0.0
230
1.0
 70
     8
 71
     3
 72
     9
 73
     5
 74
     3
 42
0.0000001
 43
0.0000001
 44
0.0000000001
 40
0.0
 40
0.0
 40
0.0
 40
0.0
 40
0.110253137814569
 40
0.4373726256258485
 40
0.4373726256258485
 40
0.4373726256258485
 40
0.4373726256258485
 10
-19.24929951126666
 20
-37.03131925333113
 30
0.0
 10
-19.2845773261623
 20
-37.04163313507084
 30
0.0
 10
-19.42452391483175
 20
-37.08254815686802
 30
0.0
 10
-19.56655539859515
 20
-37.11566773727451
 30
0.0
 10
-19.67278350593333
 20
-37.1404385151978
 30
0.0
 11
-19.24929951126666
 21
-37.03131925333113
 31
0.0
 11
-19.35526543979999
 21
-37.06176554026447
 31
0.0
 11
-19.67278350593333
 21
-37.1404385151978
 31
0.0
  0
SPLINE
  5
FC
100
AcDbEntity
  8
0
  6
HIDDEN
 62
     8
100
AcDbSpline
210
0.0
220
0.0
230
1.0
 70
     8
 71
     3
 72
     9
 73
     5
 74
     3
 42
0.0000001
 43
0.0000001
 44
0.0000000001
 40
0.0
 40
0.0
 40
0.0
 40
0.0
 40
0.3284183217277843
 40
1.316691370937404
 40
1.316691370937404
 40
1.316691370937404
 40
1.316691370937404
 10
-19.13697298859999
 20
-36.9906005375978
 30
0.0
 10
-19.03294581126844
 20
-36.95633695166293
 30
0.0
 10
-18.61588111763372
 20
-36.81896773395159
 30
0.0
 10
-18.21836237460691
 20
-36.63113445865048
 30
0.0
 10
-17.91999552193332
 20
-36.4901518655978
 30
0.0
 11
-19.13697298859999
 21
-36.9906005375978
 31
0.0
 11
-18.82610748459999
 21
-36.88467021866447
 31
0.0
 11
-17.91999552193332
 21
-36.4901518655978
 31
0.0
  0
SPLINE
  5
FD
100
AcDbEntity
  8
0
  6
HIDDEN
 62
     8
100
AcDbSpline
210
0.6384528006659282
220
0.7696609781727491
230
0.0
 70
    24
 71
     3
 72
    10
 73
     6
 74
     4
 42
0.0000001
 43
0.0000001
 44
0.0000000001
 40
0.0
 40
0.0
 40
0.0
 40
0.0
 40
0.0025762519677504
 40
0.0051441895429574
 40
0.0077038567323873
 40
0.0077038567323873
 40
0.0077038567323873
 40
0.0077038567323873
 10
-19.66687067073332
 20
-37.1452816447978
 30
0.0
 10
-19.66752914908642
 20
-37.14473040977416
 30
0.0
 10
-19.6688439806715
 20
-37.14362971873937
 30
0.0
 10
-19.67082045015043
 20
-37.14199020390028
 30
0.0
 10
-19.67214086053074
 20
-37.14090489708531
 30
0.0
 10
-19.67280000086666
 20
-37.14036311893113
 30
0.0
 11
-19.66687067073332
 21
-37.1452816447978
 31
0.0
 11
-19.66884734486665
 21
-37.1436294239978
 31
0.0
 11
-19.67082379926666
 21
-37.1419899327978
 31
0.0
 11
-19.67280000086666
 21
-37.14036311893113
 31
0.0
  0
SPLINE
  5
FE
100
AcDbEntity
  8
0
  6
HIDDEN
 62
     8
100
AcDbSpline
210
0.0
220
0.0
230
1.0
 70
     8
 71
     3
 72
    14
 73
    10
 74
     8
 42
0.0000001
 43
0.0000001
 44
0.0000000001
 40
0.0
 40
0.0
 40
0.0
 40
0.0
 40
0.076118638716787
 40
0.1470509068244617
 40
0.2131224652534713
 40
0.2746549498872597
 40
0.3318397447717052
 40
0.3846472296940726
 40
0.4328980143204896
 40
0.4328980143204896
 40
0.4328980143204896
 40
0.4328980143204896
 10
-19.66687067073332
 20
-37.1452816447978
 30
0.0
 10
-19.64223524882148
 20
-37.13920802553845
 30
0.0
 10
-19.59464294825999
 20
-37.12747461523517
 30
0.0
 10
-19.52587111697055
 20
-37.10965768694882
 30
0.0
 10
-19.46194069849637
 20
-37.09255205564678
 30
0.0
 10
-19.40256845445242
 20
-37.07614696997227
 30
0.0
 10
-19.34757445929474
 20
-37.06050487401074
 30
0.0
 10
-19.29693269243095
 20
-37.04574713485708
 30
0.0
 10
-19.26466837283762
 20
-37.03606347592486
 30
0.0
 10
-19.24926360939998
 20
-37.03143996373114
 30
0.0
 11
-19.66687067073332
 21
-37.1452816447978
 31
0.0
 11
-19.59300215766665
 21
-37.1269107455978
 31
0.0
 11
-19.52432753686665
 21
-37.10915734826446
 31
0.0
 11
-19.46050339819999
 21
-37.09207138453113
 31
0.0
 11
-19.40119321899998
 21
-37.0756839103978
 31
0.0
 11
-19.34618864939999
 21
-37.0600442783978
 31
0.0
 11
-19.2954954238
 21
-37.04525146453113
 31
0.0
 11
-19.24926360939998
 21
-37.03143996373114
 31
0.0
  0
LWPOLYLINE
  5
FF
100
AcDbEntity
  8
0
  6
HIDDEN
 62
     8
100
AcDbPolyline
 90
        6
 70
     0
 43
0.0
 10
-14.728915
 20
-36.69545
 10
-14.761503
 20
-36.61827
 10
-14.810368
 20
-36.550372
 10
-14.873061
 20
-36.495159
 10
-14.946437
 20
-36.4554
 10
-14.998774
 20
-36.438689
  0
LINE
  5
100
100
AcDbEntity
  8
0
  6
HIDDEN
 62
     8
100
AcDbLine
 10
-14.113006
 20
-36.94677
 30
0.0
 11
-14.450383
 21
-36.491009
 31
0.0
  0
LINE
  5
101
100
AcDbEntity
  8
0
  6
HIDDEN
 62
     8
100
AcDbLine
 10
-15.067067
 20
-36.422303
 30
0.0
 11
-14.998721
 21
-36.438683
 31
0.0
  0
LINE
  5
102
100
AcDbEntity
  8
0
  6
HIDDEN
 62
     8
100
AcDbLine
 10
-15.349518
 20
-36.771534
 30
0.0
 11
-15.29374
 21
-36.784902
 31
0.0
  0
LWPOLYLINE
  5
103
100
AcDbEntity
  8
0
  6
HIDDEN
 62
     8
100
AcDbPolyline
 90
        4
 70
     0
 43
0.0
 10
-14.998774
 20
-36.438689
 10
-15.026818
 20
-36.43309
 10
-15.110173
 20
-36.429346
 10
-15.192321
 20
-36.444356
  0
LWPOLYLINE
  5
104
100
AcDbEntity
  8
0
  6
HIDDEN
 62
     8
100
AcDbPolyline
 90
       11
 70
     0
 43
0.0
 10
-15.349551
 20
-36.771538
 10
-15.367088
 20
-36.768036
 10
-15.419212
 20
-36.765695
 10
-15.470582
 20
-36.775082
 10
-15.518623
 20
-36.795725
 10
-15.560924
 20
-36.826591
 10
-15.595365
 20
-36.866131
 10
-15.620219
 20
-36.912362
 10
-15.634239
 20
-36.962967
 10
-15.636723
 20
-37.015407
 10
-15.627546
 20
-37.067053
  0
LINE
  5
105
100
AcDbEntity
  8
0
  6
HIDDEN
 62
     8
100
AcDbLine
 10
-14.658116
 20
-36.934783
 30
0.0
 11
-14.728915
 21
-36.69545
 31
0.0
  0
LINE
  5
106
100
AcDbEntity
  8
0
  6
HIDDEN
 62
     8
100
AcDbLine
 10
-14.734374
 20
-36.916506
 30
0.0
 11
-14.805174
 21
-36.677173
 31
0.0
  0
LINE
  5
107
100
AcDbEntity
  8
0
  6
HIDDEN
 62
     8
100
AcDbLine
 10
-15.692089
 20
-37.385768
 30
0.0
 11
-15.838184
 21
-36.891902
 31
0.0
  0
LWPOLYLINE
  5
108
100
AcDbEntity
  8
0
  6
HIDDEN
 62
     8
100
AcDbPolyline
 90
        6
 70
     0
 43
0.0
 10
-15.125021
 20
-36.945467
 10
-15.14371
 20
-36.900267
 10
-15.171344
 20
-36.859991
 10
-15.206717
 20
-36.8264
 10
-15.248281
 20
-36.800961
 10
-15.293744
 20
-36.784902
  0
LWPOLYLINE
  5
109
100
AcDbEntity
  8
0
  6
HIDDEN
 62
     8
100
AcDbPolyline
 90
        6
 70
     0
 43
0.0
 10
-15.571768
 20
-37.080422
 10
-15.55308
 20
-37.125622
 10
-15.525445
 20
-37.165898
 10
-15.490073
 20
-37.199489
 10
-15.448509
 20
-37.224927
 10
-15.403046
 20
-37.240987
  0
LWPOLYLINE
  5
10A
100
AcDbEntity
  8
0
  6
HIDDEN
 62
     8
100
AcDbPolyline
 90
        6
 70
     0
 43
0.0
 10
-15.180799
 20
-36.932099
 10
-15.201177
 20
-36.883836
 10
-15.231734
 20
-36.841377
 10
-15.270938
 20
-36.80685
 10
-15.316823
 20
-36.781988
 10
-15.349551
 20
-36.771538
  0
LWPOLYLINE
  5
10B
100
AcDbEntity
  8
0
  6
HIDDEN
 62
     8
100
AcDbPolyline
 90
        6
 70
     0
 43
0.0
 10
-15.627546
 20
-37.067053
 10
-15.607168
 20
-37.115316
 10
-15.576611
 20
-37.157776
 10
-15.537407
 20
-37.192302
 10
-15.491522
 20
-37.217164
 10
-15.458794
 20
-37.227614
  0
LINE
  5
10C
100
AcDbEntity
  8
0
  6
HIDDEN
 62
     8
100
AcDbLine
 10
-15.458827
 20
-37.227618
 30
0.0
 11
-15.403049
 21
-37.240986
 31
0.0
  0
LWPOLYLINE
  5
10D
100
AcDbEntity
  8
0
  6
HIDDEN
 62
     8
100
AcDbPolyline
 90
       11
 70
     0
 43
0.0
 10
-15.458794
 20
-37.227614
 10
-15.441258
 20
-37.231116
 10
-15.389133
 20
-37.233457
 10
-15.337763
 20
-37.224071
 10
-15.289723
 20
-37.203427
 10
-15.247421
 20
-37.172561
 10
-15.21298
 20
-37.133021
 10
-15.188126
 20
-37.08679
 10
-15.174106
 20
-37.036186
 10
-15.171622
 20
-36.983745
 10
-15.180799
 20
-36.932099
  0
LWPOLYLINE
  5
10E
100
AcDbEntity
  8
0
  6
HIDDEN
 62
     8
100
AcDbPolyline
 90
       11
 70
     0
 43
0.0
 10
-15.293744
 20
-36.784902
 10
-15.342528
 20
-36.778586
 10
-15.391092
 20
-36.782626
 10
-15.43779
 20
-36.796733
 10
-15.48058
 20
-36.820289
 10
-15.517594
 20
-36.852265
 10
-15.547213
 20
-36.891264
 10
-15.568142
 20
-36.93558
 10
-15.579468
 20
-36.983278
 10
-15.580694
 20
-37.032272
 10
-15.571768
 20
-37.080422
  0
LWPOLYLINE
  5
10F
100
AcDbEntity
  8
0
  6
HIDDEN
 62
     8
100
AcDbPolyline
 90
       11
 70
     0
 43
0.0
 10
-15.403046
 20
-37.240987
 10
-15.354261
 20
-37.247303
 10
-15.305698
 20
-37.243262
 10
-15.259
 20
-37.229156
 10
-15.216209
 20
-37.2056
 10
-15.179196
 20
-37.173624
 10
-15.149577
 20
-37.134625
 10
-15.128647
 20
-37.090309
 10
-15.117322
 20
-37.042611
 10
-15.116095
 20
-36.993617
 10
-15.125021
 20
-36.945467
  0
LWPOLYLINE
  5
110
100
AcDbEntity
  8
0
  6
HIDDEN
 62
     8
100
AcDbPolyline
 90
       12
 70
     0
 43
0.0
 10
-14.253066
 20
-37.252612
 10
-14.386948
 20
-37.480767
 10
-14.582193
 20
-37.658615
 10
-14.821107
 20
-37.770039
 10
-15.08185
 20
-37.804891
 10
-15.341045
 20
-37.76
 10
-15.574802
 20
-37.639475
 10
-15.762133
 20
-37.454133
 10
-15.88584
 20
-37.220918
 10
-15.934708
 20
-36.961079
 10
-15.904326
 20
-36.698098
 10
-15.812929
 20
-36.491009
  0
LINE
  5
111
100
AcDbEntity
  8
0
  6
HIDDEN
 62
     8
100
AcDbLine
 10
-14.909124
 20
-37.401689
 30
0.0
 11
-15.439264
 21
-37.561835
 31
0.0
  0
LWPOLYLINE
  5
112
100
AcDbEntity
  8
0
  6
HIDDEN
 62
     8
100
AcDbPolyline
 90
        8
 70
     0
 43
0.0
 10
-14.909124
 20
-37.401689
 10
-14.8323
 20
-37.368676
 10
-14.764654
 20
-37.319318
 10
-14.709578
 20
-37.256088
 10
-14.669833
 20
-37.182157
 10
-14.647412
 20
-37.101233
 10
-14.64344
 20
-37.017373
 10
-14.658116
 20
-36.934783
  0
LINE
  5
113
100
AcDbEntity
  8
0
  6
HIDDEN
 62
     8
100
AcDbLine
 10
-15.192321
 20
-36.444356
 30
0.0
 11
-15.722462
 21
-36.604503
 31
0.0
  0
SPLINE
  5
114
100
AcDbEntity
  8
0
  6
HIDDEN
 62
     8
100
AcDbSpline
210
0.0
220
0.0
230
1.0
 70
     8
 71
     3
 72
    11
 73
     7
 74
     5
 42
0.0000001
 43
0.0000001
 44
0.0000000001
 40
0.0
 40
0.0
 40
0.0
 40
0.0
 40
0.2789664836369679
 40
0.5637384208369216
 40
0.8524837001290091
 40
1.14185311896734
 40
1.14185311896734
 40
1.14185311896734
 40
1.14185311896734
 10
-14.25306484353332
 20
-37.25261277333113
 30
0.0
 10
-14.28109209323036
 20
-37.3419442865989
 30
0.0
 10
-14.33772985586986
 20
-37.52246635349378
 30
0.0
 10
-14.51284788031446
 20
-37.75208298295115
 30
0.0
 10
-14.73937358905283
 20
-37.93668400605251
 30
0.0
 10
-14.92243199904537
 20
-38.00100246209109
 30
0.0
 10
-15.01406002006666
 20
-38.03319640959779
 30
0.0
 11
-14.25306484353332
 21
-37.25261277333113
 31
0.0
 11
-14.35163499393332
 21
-37.51358446613113
 31
0.0
 11
-14.52010556459999
 21
-37.74317698133113
 31
0.0
 11
-14.74701567339999
 21
-37.92174248426447
 31
0.0
 11
-15.01406002006666
 21
-38.03319640959779
 31
0.0
  0
SPLINE
  5
115
100
AcDbEntity
  8
0
  6
HIDDEN
 62
     8
100
AcDbSpline
210
0.0
220
0.0
230
1.0
 70
     8
 71
     3
 72
    23
 73
    19
 74
    17
 42
0.0000001
 43
0.0000001
 44
0.0000000001
 40
0.0
 40
0.0
 40
0.0
 40
0.0
 40
0.0149596223372067
 40
0.0281386800616043
 40
0.0419227129328541
 40
0.0571707247155886
 40
0.073839414647661
 40
0.0918149267159123
 40
0.1112608884754267
 40
0.1322707339055008
 40
0.154963479006462
 40
0.1794387012356817
 40
0.2058292691172503
 40
0.2342839151059989
 40
0.2649881006204263
 40
0.2981516975024579
 40
0.3339939537729312
 40
0.3727218286915792
 40
0.3727218286915792
 40
0.3727218286915792
 40
0.3727218286915792
 10
-14.11300584086665
 20
-36.94676992639779
 30
0.0
 10
-14.11605448624356
 20
-36.94283100896877
 30
0.0
 10
-14.12178891288538
 20
-36.93542200258971
 30
0.0
 10
-14.13663611226208
 20
-36.92969500787072
 30
0.0
 10
-14.14871060735029
 20
-36.93989925868936
 30
0.0
 10
-14.15603093485402
 20
-36.95298319659798
 30
0.0
 10
-14.16258454945979
 20
-36.96838501028629
 30
0.0
 10
-14.16843482881724
 20
-36.98541995684337
 30
0.0
 10
-14.17415287725264
 20
-37.00404827855397
 30
0.0
 10
-14.17994490741047
 20
-37.02428356754931
 30
0.0
 10
-14.18602941755208
 20
-37.04618051119489
 30
0.0
 10
-14.19258342942595
 20
-37.06980766437858
 30
0.0
 10
-14.19978825608493
 20
-37.09524758141931
 30
0.0
 10
-14.20783838597027
 20
-37.12260484405087
 30
0.0
 10
-14.21694569009977
 20
-37.15200218622296
 30
0.0
 10
-14.22737467685957
 20
-37.18356179334293
 30
0.0
 10
-14.23932749619384
 20
-37.21743135904474
 30
0.0
 10
-14.24837007823233
 20
-37.24058658419005
 30
0.0
 10
-14.25306632833332
 20
-37.25261221226446
 30
0.0
 11
-14.11300584086665
 21
-36.94676992639779
 31
0.0
 11
-14.12334764673332
 21
-36.9359607935978
 31
0.0
 11
-14.13598313793333
 21
-36.93221487253113
 31
0.0
 11
-14.14746807873332
 21
-36.93983692586447
 31
0.0
 11
-14.15559339713332
 21
-36.9527396799978
 31
0.0
 11
-14.16222684779999
 21
-36.96803159146446
 31
0.0
 11
-14.16818686379999
 21
-36.98499028373113
 31
0.0
 11
-14.17394245846666
 21
-37.00356495893113
 31
0.0
 11
-14.17976554219999
 21
-37.02375171946447
 31
0.0
 11
-14.18586875286666
 21
-37.04560833173113
 31
0.0
 11
-14.19243317846666
 21
-37.06918681386447
 31
0.0
 11
-14.19964226219999
 21
-37.0945736447978
 31
0.0
 11
-14.20768894486666
 21
-37.12186682666446
 31
0.0
 11
-14.21679085206665
 21
-37.15119091733113
 31
0.0
 11
-14.22719578859999
 21
-37.18267998613113
 31
0.0
 11
-14.23918504619998
 21
-37.2164575679978
 31
0.0
 11
-14.25306632833332
 21
-37.25261221226446
 31
0.0
  0
SPLINE
  5
116
100
AcDbEntity
  8
0
  6
HIDDEN
 62
     8
100
AcDbSpline
210
0.0
220
0.0
230
1.0
 70
     8
 71
     3
 72
    12
 73
     8
 74
     6
 42
0.0000001
 43
0.0000001
 44
0.0000000001
 40
0.0
 40
0.0
 40
0.0
 40
0.0
 40
0.3084223342816048
 40
0.6227317277611726
 40
0.9419932337422876
 40
1.263619219185624
 40
1.583465280664822
 40
1.583465280664822
 40
1.583465280664822
 40
1.583465280664822
 10
-14.11300584086665
 20
-36.94676992639779
 30
0.0
 10
-14.11537975844739
 20
-37.05020411196378
 30
0.0
 10
-14.12017290612932
 20
-37.25904679917418
 30
0.0
 10
-14.2381481930073
 20
-37.55706668249731
 30
0.0
 10
-14.42975313555602
 20
-37.81426485371371
 30
0.0
 10
-14.6860613516815
 20
-38.01679442565043
 30
0.0
 10
-14.89002425709882
 20
-38.08515264645182
 30
0.0
 10
-14.99172273686666
 20
-38.1192369183978
 30
0.0
 11
-14.11300584086665
 21
-36.94676992639779
 31
0.0
 11
-14.13808268993332
 21
-37.2541711103978
 31
0.0
 11
-14.24927735766665
 21
-37.5481543423978
 31
0.0
 11
-14.43980610006666
 21
-37.80433144426446
 31
0.0
 11
-14.69478894273332
 21
-38.00035956586446
 31
0.0
 11
-14.99172273686666
 21
-38.1192369183978
 31
0.0
  0
SPLINE
  5
117
100
AcDbEntity
  8
0
  6
HIDDEN
 62
     8
100
AcDbSpline
210
0.0
220
0.0
230
-1.0
 70
     8
 71
     3
 72
    15
 73
    11
 74
     9
 42
0.0000001
 43
0.0000001
 44
0.0000000001
 40
0.0
 40
0.0
 40
0.0
 40
0.0
 40
0.0419978385799556
 40
0.0838861979434247
 40
0.1256341849995342
 40
0.1672576802979224
 40
0.2087904692995738
 40
0.2502624429740393
 40
0.2917055194479498
 40
0.3330395347630466
 40
0.3330395347630466
 40
0.3330395347630466
 40
0.3330395347630466
 10
-15.72246193473332
 20
-36.60450305066447
 30
0.0
 10
-15.73415064875622
 20
-36.61226156403953
 30
0.0
 10
-15.7574976068708
 20
-36.62775836603538
 30
0.0
 10
-15.78720297737326
 20
-36.65766139838926
 30
0.0
 10
-15.8119619394428
 20
-36.69146035098136
 30
0.0
 10
-15.83079617317181
 20
-36.72880902155042
 30
0.0
 10
-15.84330314239586
 20
-36.76863507621414
 30
0.0
 10
-15.84889475323893
 20
-36.80989220993225
 30
0.0
 10
-15.84796534929929
 20
-36.85160118048209
 30
0.0
 10
-15.84144136827883
 20
-36.87848025431692
 30
0.0
 10
-15.83818367553333
 20
-36.89190208426446
 30
0.0
 11
-15.72246193473332
 21
-36.60450305066447
 31
0.0
 11
-15.75664762753332
 21
-36.62889888746446
 31
0.0
 11
-15.78642253526666
 21
-36.6583622463978
 31
0.0
 11
-15.81100669099999
 21
-36.6921041151978
 31
0.0
 11
-15.82975906219999
 21
-36.7292640927978
 31
0.0
 11
-15.84215746966665
 21
-36.76890311466447
 31
0.0
 11
-15.84780886806666
 21
-36.80998822506446
 31
0.0
 11
-15.84648444246666
 21
-36.85141013333113
 31
0.0
 11
-15.83818367553333
 21
-36.89190208426446
 31
0.0
  0
SPLINE
  5
118
100
AcDbEntity
  8
0
  6
HIDDEN
 62
     8
100
AcDbSpline
210
0.0
220
0.0
230
1.0
 70
     8
 71
     3
 72
    15
 73
    11
 74
     9
 42
0.0000001
 43
0.0000001
 44
0.0000000001
 40
0.0
 40
0.0
 40
0.0
 40
0.0
 40
0.0414189274265644
 40
0.0829319515060597
 40
0.1244020359669594
 40
0.1657920363650522
 40
0.2071117386781567
 40
0.2484606633373177
 40
0.2899623175698698
 40
0.331668231589457
 40
0.331668231589457
 40
0.331668231589457
 40
0.331668231589457
 10
-15.69208859499999
 20
-37.38576787413113
 30
0.0
 10
-15.68750928157975
 20
-37.39882861178596
 30
0.0
 10
-15.6783402513297
 20
-37.42497975883689
 30
0.0
 10
-15.65634569082587
 20
-37.46049676812411
 30
0.0
 10
-15.62911172034584
 20
-37.49196171879268
 30
0.0
 10
-15.59691300642698
 20
-37.51829942873199
 30
0.0
 10
-15.56087491271314
 20
-37.53897805703049
 30
0.0
 10
-15.52192039362593
 20
-37.55339030004246
 30
0.0
 10
-15.4809922611886
 20
-37.56183566664771
 30
0.0
 10
-15.45319647985225
 20
-37.56183545243416
 30
0.0
 10
-15.43926447233332
 20
-37.56183534506447
 30
0.0
 11
-15.69208859499999
 21
-37.38576787413113
 31
0.0
 11
-15.67698038806665
 21
-37.42433300906446
 31
0.0
 11
-15.65546239233333
 21
-37.45983381226447
 31
0.0
 11
-15.62825731499999
 21
-37.49113319999779
 31
0.0
 11
-15.59624851819999
 21
-37.51737379946447
 31
0.0
 11
-15.56040372353332
 21
-37.53792783786446
 31
0.0
 11
-15.52166139606665
 21
-37.55237656213113
 31
0.0
 11
-15.48094630379999
 21
-37.56041823893113
 31
0.0
 11
-15.43926447233332
 21
-37.56183534506447
 31
0.0
  0
SPLINE
  5
119
100
AcDbEntity
  8
0
  6
HIDDEN
 62
     8
100
AcDbSpline
210
0.0
220
0.0
230
-1.0
 70
     8
 71
     3
 72
    13
 73
     9
 74
     7
 42
0.0000001
 43
0.0000001
 44
0.0000000001
 40
0.0
 40
0.0
 40
0.0
 40
0.0
 40
0.0305434638625093
 40
0.0669974818805098
 40
0.1059747062793514
 40
0.1470684468990848
 40
0.1903831459030403
 40
0.1939664513020671
 40
0.1939664513020671
 40
0.1939664513020671
 40
0.1939664513020671
 10
-15.25904512406665
 20
-36.4283646719978
 30
0.0
 10
-15.24914550371404
 20
-36.42597967270405
 30
0.0
 10
-15.22743055880197
 20
-36.42074814599551
 30
0.0
 10
-15.19254020111507
 20
-36.41494950422289
 30
0.0
 10
-15.15373419662014
 20
-36.41209563236769
 30
0.0
 10
-15.11254835485408
 20
-36.41373099181267
 30
0.0
 10
-15.0835012373423
 20
-36.41842574262358
 30
0.0
 10
-15.06828651408956
 20
-36.42201512244865
 30
0.0
 10
-15.06712401259999
 20
-36.42228937386446
 30
0.0
 11
-15.25904512406665
 21
-36.4283646719978
 31
0.0
 11
-15.22927501099999
 21
-36.42153506346446
 31
0.0
 11
-15.19330407553332
 21
-36.41562006293113
 31
0.0
 11
-15.15442443926666
 21
-36.41286363306447
 31
0.0
 11
-15.11336344406666
 21
-36.41450381333113
 31
0.0
 11
-15.07061307499999
 21
-36.4214729663978
 31
0.0
 11
-15.06712401259999
 21
-36.42228937386446
 31
0.0
  0
SPLINE
  5
11A
100
AcDbEntity
  8
0
  6
HIDDEN
 62
     8
100
AcDbSpline
210
0.0
220
0.0
230
1.0
 70
     8
 71
     3
 72
    19
 73
    15
 74
    13
 42
0.0000001
 43
0.0000001
 44
0.0000000001
 40
0.0
 40
0.0
 40
0.0
 40
0.0
 40
0.0695734112757252
 40
0.140226846675743
 40
0.207662704521983
 40
0.2684430890815519
 40
0.3216131511580372
 40
0.368481352730838
 40
0.4102772894904357
 40
0.4484460022752041
 40
0.4833141291278299
 40
0.5156775627969372
 40
0.5484122567524318
 40
0.5807634687610653
 40
0.5807634687610653
 40
0.5807634687610653
 40
0.5807634687610653
 10
-14.73292776513332
 20
-36.92153692373113
 30
0.0
 10
-14.72782969579162
 20
-36.94422186540305
 30
0.0
 10
-14.71755441713542
 20
-36.98994389885446
 30
0.0
 10
-14.71774970296576
 20
-37.05972108955053
 30
0.0
 10
-14.72864975861581
 20
-37.12536001583014
 30
0.0
 10
-14.74837853116742
 20
-37.18279857558263
 30
0.0
 10
-14.77311409148097
 20
-37.23054555843665
 30
0.0
 10
-14.80030586559708
 20
-37.26937581194433
 30
0.0
 10
-14.82860981170522
 20
-37.30090733992943
 30
0.0
 10
-14.85725812541837
 20
-37.32640339490566
 30
0.0
 10
-14.88586511866658
 20
-37.34691636236021
 30
0.0
 10
-14.91484439057323
 20
-37.36344786402412
 30
0.0
 10
-14.94458843916917
 20
-37.37675436837133
 30
0.0
 10
-14.96546892895467
 20
-37.382727832143
 30
0.0
 10
-14.97584766059999
 20
-37.3856969663978
 30
0.0
 11
-14.73292776513332
 21
-36.92153692373113
 31
0.0
 11
-14.72019542059999
 21
-36.9899353663978
 31
0.0
 11
-14.71970010859999
 21
-37.0605870655978
 31
0.0
 11
-14.73092828566666
 21
-37.12708159893113
 31
0.0
 11
-14.75066658859998
 21
-37.18456772373113
 31
0.0
 11
-14.77515456619999
 21
-37.23176300373113
 31
0.0
 11
-14.80205731713332
 21
-37.27014099626446
 31
0.0
 11
-14.82999422593332
 21
-37.3012284447978
 31
0.0
 11
-14.85851907073332
 21
-37.32658951466447
 31
0.0
 11
-14.88687906646665
 21
-37.34687490133113
 31
0.0
 11
-14.91498350059999
 21
-37.36292272426447
 31
0.0
 11
-14.94496213419998
 21
-37.37606965226447
 31
0.0
 11
-14.97584766059999
 21
-37.3856969663978
 31
0.0
  0
SPLINE
  5
11B
100
AcDbEntity
  8
0
  6
HIDDEN
 62
     8
100
AcDbSpline
210
0.0
220
0.0
230
-1.0
 70
     8
 71
     3
 72
    14
 73
    10
 74
     8
 42
0.0000001
 43
0.0000001
 44
0.0000000001
 40
0.0
 40
0.0
 40
0.0
 40
0.0
 40
0.0413392256212645
 40
0.087446807709297
 40
0.1355060292668881
 40
0.1906709645298925
 40
0.2511489070161266
 40
0.3144232681194501
 40
0.3771293081502165
 40
0.3771293081502165
 40
0.3771293081502165
 40
0.3771293081502165
 10
-15.06712401259999
 20
-36.42228937386446
 30
0.0
 10
-15.05382852802407
 20
-36.4259714990397
 30
0.0
 10
-15.02570396435267
 20
-36.43376047155484
 30
0.0
 10
-14.98445078262097
 20
-36.45263708293397
 30
0.0
 10
-14.94204832851728
 20
-36.47893104624343
 30
0.0
 10
-14.90017937420013
 20
-36.51430929333136
 30
0.0
 10
-14.86122484867254
 20
-36.55973726483769
 30
0.0
 10
-14.82825078634666
 20
-36.61292974099905
 30
0.0
 10
-14.81386057607524
 20
-36.65247687623112
 30
0.0
 10
-14.80669792939998
 20
-36.6721612415978
 30
0.0
 11
-15.06712401259999
 21
-36.42228937386446
 31
0.0
 11
-15.02757332139998
 21
-36.43431744106447
 31
0.0
 11
-14.98550751659999
 21
-36.45319539626447
 31
0.0
 11
-14.94469663339999
 21
-36.4785757151978
 31
0.0
 11
-14.90253926059999
 21
-36.51415556906447
 31
0.0
 11
-14.86304191873332
 21
-36.55995449386447
 31
0.0
 11
-14.83014028673333
 21
-36.6140019487978
 31
0.0
 11
-14.80669792939998
 21
-36.6721612415978
 31
0.0
  0
SPLINE
  5
11C
100
AcDbEntity
  8
0
  6
HIDDEN
 62
     8
100
AcDbSpline
210
-0.9567361950516408
220
-0.2909567890221993
230
0.0
 70
    24
 71
     3
 72
     9
 73
     5
 74
     3
 42
0.0000001
 43
0.0000001
 44
0.0000000001
 40
0.0
 40
0.0
 40
0.0
 40
0.0
 40
0.0026201614529012
 40
0.00523823335146
 40
0.00523823335146
 40
0.00523823335146
 40
0.00523823335146
 10
-14.80669789953332
 20
-36.6721613279978
 30
0.0
 10
-14.8064390171072
 20
-36.67299547355079
 30
0.0
 10
-14.80592145871125
 20
-36.67466309943345
 30
0.0
 10
-14.80542296061938
 20
-36.67633652178821
 30
0.0
 10
-14.80517381099999
 20
-36.6771728991978
 30
0.0
 11
-14.80669789953332
 21
-36.6721613279978
 31
0.0
 11
-14.80592602113332
 21
-36.67466521493113
 31
0.0
 11
-14.80517381099999
 21
-36.6771728991978
 31
0.0
  0
SPLINE
  5
11D
100
AcDbEntity
  8
0
  6
HIDDEN
 62
     8
100
AcDbSpline
210
-0.9610548436291786
220
-0.2763577166226683
230
0.0
 70
    24
 71
     3
 72
     9
 73
     5
 74
     3
 42
0.0000001
 43
0.0000001
 44
0.0000000001
 40
0.0
 40
0.0
 40
0.0
 40
0.0
 40
0.002617621034999
 40
0.0052347760520498
 40
0.0052347760520498
 40
0.0052347760520498
 40
0.0052347760520498
 10
-14.73437444459999
 20
-36.91650597333113
 30
0.0
 10
-14.73412852313682
 20
-36.91734314899392
 30
0.0
 10
-14.73363672399214
 20
-36.91901735127618
 30
0.0
 10
-14.73316408352756
 20
-36.92069706275741
 30
0.0
 10
-14.73292778433332
 20
-36.92153684373113
 30
0.0
 11
-14.73437444459999
 21
-36.91650597333113
 31
0.0
 11
-14.73364147073332
 21
-36.91901887786446
 31
0.0
 11
-14.73292778433332
 21
-36.92153684373113
 31
0.0
  0
SPLINE
  5
11E
100
AcDbEntity
  8
0
  6
CONTINUOUS
100
AcDbSpline
210
0.0
220
0.0
230
-1.0
 70
     8
 71
     3
 72
    13
 73
     9
 74
     7
 42
0.0000001
 43
0.0000001
 44
0.0000000001
 40
0.0
 40
0.0
 40
0.0
 40
0.0
 40
0.1085031562961906
 40
0.2448521325313421
 40
0.4136819621109148
 40
0.6191331286060242
 40
0.8722266170192387
 40
1.177574494096851
 40
1.177574494096851
 40
1.177574494096851
 40
1.177574494096851
 10
6.512711159666672
 20
-39.6570783167978
 30
0.0
 10
6.517065655260424
 20
-39.62117367972623
 30
0.0
 10
6.526892166936432
 20
-39.54014998184652
 30
0.0
 10
6.54383881136448
 20
-39.40330113901601
 30
0.0
 10
6.565156537973846
 20
-39.23443115088625
 30
0.0
 10
6.59201574821591
 20
-39.02703806633081
 30
0.0
 10
6.625590799810057
 20
-38.77462926892533
 30
0.0
 10
6.651234496599781
 20
-38.59025654247565
 30
0.0
 10
6.665256109000004
 20
-38.48944413119779
 30
0.0
 11
6.512711159666672
 21
-39.6570783167978
 31
0.0
 11
6.525814696733336
 21
-39.54936930026446
 31
0.0
 11
6.542555889266672
 21
-39.41405198506446
 31
0.0
 11
6.563708718066675
 21
-39.2465525247978
 31
0.0
 11
6.590081066866675
 21
-39.04280100693112
 31
0.0
 11
6.623519771933342
 21
-38.79192620373114
 31
0.0
 11
6.665256109000004
 21
-38.48944413119779
 31
0.0
  0
SPLINE
  5
11F
100
AcDbEntity
  8
0
  6
CONTINUOUS
100
AcDbSpline
210
-0.9928690274014952
220
0.1192102949698923
230
0.0
 70
    24
 71
     3
 72
     8
 73
     4
 74
     2
 42
0.0000001
 43
0.0000001
 44
0.0000000001
 40
0.0
 40
0.0
 40
0.0
 40
0.0
 40
0.0803258231102164
 40
0.0803258231102164
 40
0.0803258231102164
 40
0.0803258231102164
 10
6.503135494600003
 20
-39.73683133866446
 30
0.0
 10
6.50632738295556
 20
-39.71024699804225
 30
0.0
 10
6.509519271311116
 20
-39.68366265742003
 30
0.0
 10
6.512711159666672
 20
-39.6570783167978
 30
0.0
 11
6.503135494600003
 21
-39.73683133866446
 31
0.0
 11
6.512711159666672
 21
-39.6570783167978
 31
0.0
  0
SPLINE
  5
120
100
AcDbEntity
  8
0
  6
CONTINUOUS
100
AcDbSpline
210
0.0
220
0.0
230
-1.0
 70
     8
 71
     3
 72
     9
 73
     5
 74
     3
 42
0.0000001
 43
0.0000001
 44
0.0000000001
 40
0.0
 40
0.0
 40
0.0
 40
0.0
 40
0.0164275897661125
 40
0.0655709492372499
 40
0.0655709492372499
 40
0.0655709492372499
 40
0.0655709492372499
 10
6.495397704733337
 20
-39.8019441311978
 30
0.0
 10
6.496041296081288
 20
-39.79650622076945
 30
0.0
 10
6.498610199749257
 20
-39.77480072691851
 30
0.0
 10
6.501196868163012
 20
-39.75309734171916
 30
0.0
 10
6.503135494600003
 20
-39.73683133866446
 30
0.0
 11
6.495397704733337
 21
-39.8019441311978
 31
0.0
 11
6.497329593800005
 21
-39.78563053226446
 31
0.0
 11
6.503135494600003
 21
-39.73683133866446
 31
0.0
  0
SPLINE
  5
121
100
AcDbEntity
  8
0
  6
CONTINUOUS
100
AcDbSpline
210
0.0
220
0.0
230
-1.0
 70
     8
 71
     3
 72
    12
 73
     8
 74
     6
 42
0.0000001
 43
0.0000001
 44
0.0000000001
 40
0.0
 40
0.0
 40
0.0
 40
0.0
 40
0.343695920877279
 40
0.663579423088224
 40
0.9390763733917443
 40
1.149390207132416
 40
1.282507709346556
 40
1.282507709346556
 40
1.282507709346556
 40
1.282507709346556
 10
6.665256109000004
 20
-38.48944413119779
 30
0.0
 10
6.6813853505689
 20
-38.37601959245688
 30
0.0
 10
6.712526345166157
 20
-38.15702895157402
 30
0.0
 10
6.758749843247662
 20
-37.8474327946199
 30
0.0
 10
6.79961309663207
 20
-37.58199444911967
 30
0.0
 10
6.831793727802158
 20
-37.37820967823216
 30
0.0
 10
6.850030434878136
 20
-37.26519445962688
 30
0.0
 10
6.857099169266672
 20
-37.22138860373113
 30
0.0
 11
6.665256109000004
 21
-38.48944413119779
 31
0.0
 11
6.714052107933338
 21
-38.14922973333113
 31
0.0
 11
6.761191721800004
 21
-37.8328386591978
 31
0.0
 11
6.803118417266671
 21
-37.5605507199978
 31
0.0
 11
6.835950102600001
 21
-37.3528153375978
 31
0.0
 11
6.857099169266672
 21
-37.22138860373113
 31
0.0
  0
LINE
  5
122
100
AcDbEntity
  8
CENTER
  6
CENTER
 48
3.0
100
AcDbLine
 10
4.276909
 20
-38.489444
 30
0.0
 11
9.053603
 21
-38.489444
 31
0.0
  0
LINE
  5
123
100
AcDbEntity
  8
0
  6
CONTINUOUS
100
AcDbLine
 10
8.936296
 20
-36.489444
 30
0.0
 11
8.7321
 21
-35.200332
 31
0.0
  0
LINE
  5
124
100
AcDbEntity
  8
0
  6
CONTINUOUS
100
AcDbLine
 10
6.960719
 20
-36.491009
 30
0.0
 11
6.864317
 21
-37.176944
 31
0.0
  0
SPLINE
  5
125
100
AcDbEntity
  8
0
  6
CONTINUOUS
100
AcDbSpline
210
-0.9870667963609797
220
0.1603095116381818
230
0.0
 70
    24
 71
     3
 72
     8
 73
     4
 74
     2
 42
0.0000001
 43
0.0000001
 44
0.0000000001
 40
0.0
 40
0.0
 40
0.0
 40
0.0
 40
0.0450268113200196
 40
0.0450268113200196
 40
0.0450268113200196
 40
0.0450268113200196
 10
6.857099169266672
 20
-37.22138860373113
 30
0.0
 10
6.85950524464445
 20
-37.20657378026447
 30
0.0
 10
6.86191132002223
 20
-37.1917589567978
 30
0.0
 10
6.864317395400009
 20
-37.17694413333113
 30
0.0
 11
6.857099169266672
 21
-37.22138860373113
 31
0.0
 11
6.864317395400009
 21
-37.17694413333113
 31
0.0
  0
ARC
  5
12C
100
AcDbEntity
  8
0
  6
CONTINUOUS
100
AcDbCircle
 10
8.485179
 20
-35.239444
 30
0.0
 40
0.25
100
AcDbArc
 50
9.00087
 51
90.0
  0
LINE
  5
240
100
AcDbEntity
  8
0
100
AcDbLine
 10
8.936296
 20
-36.489444
 30
0.0
 11
-51.063704
 21
-36.489444
 31
0.0
  0
VIEWPORT
  5
168
102
{ACAD_XDICTIONARY
360
21F
102
}
100
AcDbEntity
 67
     1
  8
0
100
AcDbViewport
 10
5.31375
 20
3.96875
 30
0.0
 40
15.253385
 41
8.746133
 68
    -1
 69
     1
1001
ACAD
1000
MVIEW
1002
{
1070
    16
1010
0.0
1020
0.0
1030
0.0
1010
0.0
1020
0.0
1030
1.0
1040
0.0
1040
8.746133
1040
5.31375
1040
3.96875
1040
50.0
1040
0.0
1040
0.0
1070
     0
1070
   100
1070
     1
1070
     1
1070
     0
1070
     0
1070
     0
1070
     0
1040
0.0
1040
0.0
1040
0.0
1040
10.0
1040
10.0
1040
10.0
1040
10.0
1070
     0
1002
{
1002
}
1002
}
  0
ENDSEC
  0
SECTION
  2
OBJECTS
  0
DICTIONARY
  5
7
102
{ACAD_XDICTIONARY
360
216
102
}
100
AcDbDictionary
  3
ACAD_GROUP
350
25
  3
ACAD_LAYOUT
350
B
  3
ACAD_MLINESTYLE
350
26
  3
ACAD_PLOTSETTINGS
350
27
  3
ACAD_PLOTSTYLENAME
350
6
  3
ACDBHEADERROUNDTRIPXREC
350
1F4
  3
ACDBVARIABLEDICTIONARY
350
12D
  0
DICTIONARY
  5
11
100
AcDbDictionary
280
     1
  3
ACAD_LAYERFILTERS
360
12
  0
DICTIONARY
  5
1EE
100
AcDbDictionary
280
     1
  3
ACAD_XREC_ROUNDTRIP
360
1EF
  0
DICTIONARY
  5
1F0
100
AcDbDictionary
280
     1
  3
ACAD_XREC_ROUNDTRIP
360
1F1
  0
DICTIONARY
  5
21C
100
AcDbDictionary
280
     1
  3
ACAD_XREC_ROUNDTRIP
360
21D
  0
DICTIONARY
  5
1D1
100
AcDbDictionary
280
     1
  3
ACAD_LAYOUTSELFREF
360
215
  0
DICTIONARY
  5
1A8
100
AcDbDictionary
280
     1
  3
ACAD_LAYOUTSELFREF
360
21E
  3
ACAD_XREC_ROUNDTRIP
360
1ED
  0
DICTIONARY
  5
21F
100
AcDbDictionary
280
     1
  3
ACAD_XREC_ROUNDTRIP
360
220
  0
DICTIONARY
  5
216
100
AcDbDictionary
280
     1
  3
ACAD_XREC_ROUNDTRIP
360
217
  0
DICTIONARY
  5
25
102
{ACAD_REACTORS
330
7
102
}
100
AcDbDictionary
  0
DICTIONARY
  5
B
102
{ACAD_XDICTIONARY
360
218
102
}
102
{ACAD_REACTORS
330
7
102
}
100
AcDbDictionary
  3
LAYOUT1
350
162
  3
MODEL
350
A
  0
DICTIONARY
  5
26
102
{ACAD_REACTORS
330
7
102
}
100
AcDbDictionary
  3
STANDARD
350
2A
  0
DICTIONARY
  5
27
102
{ACAD_REACTORS
330
7
102
}
100
AcDbDictionary
  0
ACAD_PROXY_OBJECT
  5
6
102
{ACAD_REACTORS
330
7
102
}
100
AcDbProxyObject
 90
      499
 91
      517
 93
       86
310
405010041939BDC9B585B0
350
5
340
5
 94
        0
  0
DICTIONARY
  5
1F4
102
{ACAD_REACTORS
330
7
102
}
100
AcDbDictionary
  3
CEPSNTYPE
350
1FE
  3
DIMSTYLEDATA
350
202
  3
FINGERPRINTGUID
350
1FF
  3
HYPERLINKBASE
350
1F7
  3
INSUNITS
350
1FD
  3
LAYOUTDICT
350
1F9
  3
LWETCUNION
350
1FC
  3
PLOTSETDICT
350
1FA
  3
PLOTSTYLNAMDICT
350
1FB
  3
PSVPSCALE
350
201
  3
PUCSBASE
350
205
  3
PUCSORGBACK
350
20B
  3
PUCSORGBOTTOM
350
207
  3
PUCSORGFRONT
350
20A
  3
PUCSORGLEFT
350
208
  3
PUCSORGRIGHT
350
209
  3
PUCSORGTOP
350
206
  3
PUCSORTHOREF
350
203
  3
PUCSORTHOVIEW
350
204
  3
STYLESHEET
350
1F8
  3
TSTACKALIGN
350
1F5
  3
TSTACKSIZE
350
1F6
  3
UCSBASE
350
20E
  3
UCSORGBACK
350
214
  3
UCSORGBOTTOM
350
210
  3
UCSORGFRONT
350
213
  3
UCSORGLEFT
350
211
  3
UCSORGRIGHT
350
212
  3
UCSORGTOP
350
20F
  3
UCSORTHOREF
350
20C
  3
UCSORTHOVIEW
350
20D
  3
VERSIONGUID
350
200
  0
DICTIONARY
  5
12D
102
{ACAD_REACTORS
330
7
102
}
100
AcDbDictionary
  3
DIMASSOC
350
12F
  3
HIDETEXT
350
12E
  0
DICTIONARY
  5
12
102
{ACAD_XDICTIONARY
360
21A
102
}
102
{ACAD_REACTORS
330
11
102
}
100
AcDbDictionary
280
     1
  3
DIM-1_12
360
13
  3
DIM-1_16
360
14
  0
XRECORD
  5
1EF
102
{ACAD_REACTORS
330
1EE
102
}
100
AcDbXrecord
102
EXTNAMES
  1
DEFPOINTS
  2
Defpoints
102
PLOTBIT
280
     0
  0
XRECORD
  5
1F1
102
{ACAD_REACTORS
330
1F0
102
}
100
AcDbXrecord
102
EXTNAMES
  1
ROMANS
  2
romans
  0
XRECORD
  5
21D
102
{ACAD_REACTORS
330
21C
102
}
100
AcDbXrecord
102
ACADR14ROUNDTRIP
1000
DSTYLE
1002
{
1070
    79
 70
     1
1070
   276
 70
     1
1070
   277
 70
     5
1070
   289
 70
     1
1002
}
  0
XRECORD
  5
215
102
{ACAD_REACTORS
330
1D1
102
}
100
AcDbXrecord
340
2
  0
XRECORD
  5
21E
102
{ACAD_REACTORS
330
1A8
102
}
100
AcDbXrecord
340
161
  0
XRECORD
  5
1ED
102
{ACAD_REACTORS
330
1A8
102
}
100
AcDbXrecord
102
EXTNAMES
  1
*PAPER_SPACE
  2
*Paper_Space
  0
XRECORD
  5
220
102
{ACAD_REACTORS
330
21F
102
}
100
AcDbXrecord
102
UCS
 74
     0
 71
     1
 10
0.0
 20
0.0
 30
0.0
 10
1.0
 20
0.0
 30
0.0
 10
0.0
 20
1.0
 30
0.0
146
0.0
 79
     0
102
VIEW
281
     0
102
NEWVIEWCONTROL
280
     4
  0
XRECORD
  5
217
102
{ACAD_REACTORS
330
216
102
}
100
AcDbXrecord
102
EXTNAMES
  1
ACDBVARIABLEDICTIONARY
  2
AcDbVariableDictionary
  0
DICTIONARY
  5
218
100
AcDbDictionary
280
     1
  3
ACAD_XREC_ROUNDTRIP
360
219
  0
ACAD_PROXY_OBJECT
  5
162
102
{ACAD_REACTORS
330
B
102
}
100
AcDbProxyObject
 90
      499
 91
      515
 93
     1268
310
9104850204465736B4A65742031313230432C008000000C0CCFC2A40000000382F2E041000000000050690F4000000000302E04100000000E0D08E724000000020094FDA901024134AA416AA591069074C61796F75743140501AAFF7FBFDFFFFF82FE8F45A0D0384716FCFA7F3E9D1D4499030580C12110D08102A6A6A2E36
310
FB5D93A6FC4FC3097CB656666E93F82E97CB45B8CE234004C2A14C8CE4C71020
330
161
330
168
340
0
340
0
 94
        0
  0
ACAD_PROXY_OBJECT
  5
A
102
{ACAD_REACTORS
330
B
102
}
100
AcDbProxyObject
 90
      499
 91
      515
 93
      668
310
91D4850204C617365724A65742035303030205365726965732050434C20362C01AAAAAAAAA5A69054D6F64656C901A800000000000000000000000000000000000000000000A1000000000000008902A6A6AAAA0
330
2
330
0
340
0
340
0
 94
        0
  0
MLINESTYLE
  5
2A
102
{ACAD_REACTORS
330
26
102
}
100
AcDbMlineStyle
  2
STANDARD
 70
     0
  3

 62
     0
 51
90.0
 52
90.0
 71
     2
 49
0.5
 62
   256
  6
BYLAYER
 49
-0.5
 62
   256
  6
BYLAYER
  0
ACAD_PROXY_OBJECT
  5
5
102
{ACAD_REACTORS
330
6
102
}
100
AcDbProxyObject
 90
      499
 91
      518
 93
        0
 94
        0
  0
XRECORD
  5
1FE
102
{ACAD_REACTORS
330
1F4
102
}
100
AcDbXrecord
 90
        0
  0
XRECORD
  5
202
102
{ACAD_REACTORS
330
1F4
102
}
100
AcDbXrecord
1000
DSTYLE
1002
{
1070
    79
 70
     1
1070
   276
 70
     1
1070
   277
 70
     5
1070
   289
 70
     1
1002
}
  0
XRECORD
  5
1FF
102
{ACAD_REACTORS
330
1F4
102
}
100
AcDbXrecord
  1
{79676A53-AD94-471B-8EF8-C28729BBCFEF}
  0
XRECORD
  5
1F7
102
{ACAD_REACTORS
330
1F4
102
}
100
AcDbXrecord
  1

  0
XRECORD
  5
1FD
102
{ACAD_REACTORS
330
1F4
102
}
100
AcDbXrecord
 90
        0
  0
XRECORD
  5
1F9
102
{ACAD_REACTORS
330
1F4
102
}
100
AcDbXrecord
340
B
  0
XRECORD
  5
1FC
102
{ACAD_REACTORS
330
1F4
102
}
100
AcDbXrecord
 90
    10781
  0
XRECORD
  5
1FA
102
{ACAD_REACTORS
330
1F4
102
}
100
AcDbXrecord
340
27
  0
XRECORD
  5
1FB
102
{ACAD_REACTORS
330
1F4
102
}
100
AcDbXrecord
340
6
  0
XRECORD
  5
201
102
{ACAD_REACTORS
330
1F4
102
}
100
AcDbXrecord
 40
0.0
  0
XRECORD
  5
205
102
{ACAD_REACTORS
330
1F4
102
}
100
AcDbXrecord
340
0
  0
XRECORD
  5
20B
102
{ACAD_REACTORS
330
1F4
102
}
100
AcDbXrecord
 10
0.0
 20
0.0
 30
0.0
  0
XRECORD
  5
207
102
{ACAD_REACTORS
330
1F4
102
}
100
AcDbXrecord
 10
0.0
 20
0.0
 30
0.0
  0
XRECORD
  5
20A
102
{ACAD_REACTORS
330
1F4
102
}
100
AcDbXrecord
 10
0.0
 20
0.0
 30
0.0
  0
XRECORD
  5
208
102
{ACAD_REACTORS
330
1F4
102
}
100
AcDbXrecord
 10
0.0
 20
0.0
 30
0.0
  0
XRECORD
  5
209
102
{ACAD_REACTORS
330
1F4
102
}
100
AcDbXrecord
 10
0.0
 20
0.0
 30
0.0
  0
XRECORD
  5
206
102
{ACAD_REACTORS
330
1F4
102
}
100
AcDbXrecord
 10
0.0
 20
0.0
 30
0.0
  0
XRECORD
  5
203
102
{ACAD_REACTORS
330
1F4
102
}
100
AcDbXrecord
340
0
  0
XRECORD
  5
204
102
{ACAD_REACTORS
330
1F4
102
}
100
AcDbXrecord
 70
     0
  0
XRECORD
  5
1F8
102
{ACAD_REACTORS
330
1F4
102
}
100
AcDbXrecord
  1

  0
XRECORD
  5
1F5
102
{ACAD_REACTORS
330
1F4
102
}
100
AcDbXrecord
 90
        1
  0
XRECORD
  5
1F6
102
{ACAD_REACTORS
330
1F4
102
}
100
AcDbXrecord
 90
       70
  0
XRECORD
  5
20E
102
{ACAD_REACTORS
330
1F4
102
}
100
AcDbXrecord
340
0
  0
XRECORD
  5
214
102
{ACAD_REACTORS
330
1F4
102
}
100
AcDbXrecord
 10
0.0
 20
0.0
 30
0.0
  0
XRECORD
  5
210
102
{ACAD_REACTORS
330
1F4
102
}
100
AcDbXrecord
 10
0.0
 20
0.0
 30
0.0
  0
XRECORD
  5
213
102
{ACAD_REACTORS
330
1F4
102
}
100
AcDbXrecord
 10
0.0
 20
0.0
 30
0.0
  0
XRECORD
  5
211
102
{ACAD_REACTORS
330
1F4
102
}
100
AcDbXrecord
 10
0.0
 20
0.0
 30
0.0
  0
XRECORD
  5
212
102
{ACAD_REACTORS
330
1F4
102
}
100
AcDbXrecord
 10
0.0
 20
0.0
 30
0.0
  0
XRECORD
  5
20F
102
{ACAD_REACTORS
330
1F4
102
}
100
AcDbXrecord
 10
0.0
 20
0.0
 30
0.0
  0
XRECORD
  5
20C
102
{ACAD_REACTORS
330
1F4
102
}
100
AcDbXrecord
340
0
  0
XRECORD
  5
20D
102
{ACAD_REACTORS
330
1F4
102
}
100
AcDbXrecord
 70
     0
  0
XRECORD
  5
200
102
{ACAD_REACTORS
330
1F4
102
}
100
AcDbXrecord
  1
{8AAD551C-0881-46E7-86A4-B1F6BE3CA678}
  0
DICTIONARYVAR
  5
12F
102
{ACAD_REACTORS
330
12D
102
}
100
DictionaryVariables
280
     0
  1
1
  0
DICTIONARYVAR
  5
12E
102
{ACAD_REACTORS
330
12D
102
}
100
DictionaryVariables
280
     0
  1
1
  0
DICTIONARY
  5
21A
100
AcDbDictionary
280
     1
  3
ACAD_XREC_ROUNDTRIP
360
21B
  0
XRECORD
  5
13
102
{ACAD_REACTORS
330
12
102
}
100
AcDbXrecord
  1
DIM-1_12
  1
DIM-1_12
  1
*
  1
*
 70
     0
  1
*
  1
*
  0
XRECORD
  5
14
102
{ACAD_REACTORS
330
12
102
}
100
AcDbXrecord
  1
dim-1_16
  1
*
  1
*
  1
*
 70
     0
  1
*
  1
*
  0
XRECORD
  5
219
102
{ACAD_REACTORS
330
218
102
}
100
AcDbXrecord
102
EXTNAMES
  1
LAYOUT1
  2
Layout1
  1
MODEL
  2
Model
  0
XRECORD
  5
21B
102
{ACAD_REACTORS
330
21A
102
}
100
AcDbXrecord
102
EXTNAMES
  1
DIM-1_16
  2
dim-1_16
  0
ENDSEC
  0
EOF
