  0
SECTION
  2
HEADER
  9
$ACADVER
  1
AC1014
  9
$ACADMAINTVER
 70
     0
  9
$DWGCODEPAGE
  3
ANSI_1252
  9
$INSBASE
 10
-118.185353
 20
-54.114444
 30
0.0
  9
$EXTMIN
 10
-133.69536
 20
-56.482835
 30
0.0
  9
$EXTMAX
 10
-102.677013
 20
-34.235011
 30
0.0
  9
$LIMMIN
 10
0.0
 20
0.0
  9
$LIMMAX
 10
17.0
 20
11.0
  9
$ORTHOMODE
 70
     1
  9
$REGENMODE
 70
     1
  9
$FILLMODE
 70
     1
  9
$QTEXTMODE
 70
     0
  9
$MIRRTEXT
 70
     1
  9
$DRAGMODE
 70
     2
  9
$LTSCALE
 40
12.0
  9
$OSMODE
 70
    37
  9
$ATTMODE
 70
     1
  9
$TEXTSIZE
 40
1.0
  9
$TRACEWID
 40
0.05
  9
$TEXTSTYLE
  7
STANDARD
  9
$CLAYER
  8
0
  9
$CELTYPE
  6
BYLAYER
  9
$CECOLOR
 62
   256
  9
$CELTSCALE
 40
1.0
  9
$DELOBJ
 70
     1
  9
$DISPSILH
 70
     0
  9
$DIMSCALE
 40
16.0
  9
$DIMASZ
 40
0.1
  9
$DIMEXO
 40
0.0625
  9
$DIMDLI
 40
0.25
  9
$DIMRND
 40
0.0
  9
$DIMDLE
 40
0.0
  9
$DIMEXE
 40
0.1
  9
$DIMTP
 40
0.0
  9
$DIMTM
 40
0.0
  9
$DIMTXT
 40
0.1
  9
$DIMCEN
 40
0.09
  9
$DIMTSZ
 40
0.0
  9
$DIMTOL
 70
     0
  9
$DIMLIM
 70
     0
  9
$DIMTIH
 70
     1
  9
$DIMTOH
 70
     1
  9
$DIMSE1
 70
     0
  9
$DIMSE2
 70
     0
  9
$DIMTAD
 70
     0
  9
$DIMZIN
 70
     4
  9
$DIMBLK
  1

  9
$DIMASO
 70
     1
  9
$DIMSHO
 70
     1
  9
$DIMPOST
  1
\X
  9
$DIMAPOST
  1
cm
  9
$DIMALT
 70
     1
  9
$DIMALTD
 70
     1
  9
$DIMALTF
 40
2.54
  9
$DIMLFAC
 40
1.0
  9
$DIMTOFL
 70
     0
  9
$DIMTVP
 40
0.0
  9
$DIMTIX
 70
     0
  9
$DIMSOXD
 70
     0
  9
$DIMSAH
 70
     0
  9
$DIMBLK1
  1

  9
$DIMBLK2
  1

  9
$DIMSTYLE
  2
STD
  9
$DIMCLRD
 70
     0
  9
$DIMCLRE
 70
     0
  9
$DIMCLRT
 70
     0
  9
$DIMTFAC
 40
1.0
  9
$DIMGAP
 40
0.08
  9
$DIMJUST
 70
     0
  9
$DIMSD1
 70
     0
  9
$DIMSD2
 70
     0
  9
$DIMTOLJ
 70
     1
  9
$DIMTZIN
 70
     4
  9
$DIMALTZ
 70
     4
  9
$DIMALTTZ
 70
     4
  9
$DIMFIT
 70
     1
  9
$DIMUPT
 70
     0
  9
$DIMUNIT
 70
     2
  9
$DIMDEC
 70
     3
  9
$DIMTDEC
 70
     3
  9
$DIMALTU
 70
     2
  9
$DIMALTTD
 70
     1
  9
$DIMTXSTY
  7
ROMANS
  9
$DIMAUNIT
 70
     0
  9
$LUNITS
 70
     2
  9
$LUPREC
 70
     4
  9
$SKETCHINC
 40
0.1
  9
$FILLETRAD
 40
0.0
  9
$AUNITS
 70
     0
  9
$AUPREC
 70
     0
  9
$MENU
  1
acad
  9
$ELEVATION
 40
0.0
  9
$PELEVATION
 40
0.0
  9
$THICKNESS
 40
0.0
  9
$LIMCHECK
 70
     0
  9
$BLIPMODE
 70
     0
  9
$CHAMFERA
 40
0.0
  9
$CHAMFERB
 40
0.0
  9
$CHAMFERC
 40
0.0
  9
$CHAMFERD
 40
0.0
  9
$SKPOLY
 70
     0
  9
$TDCREATE
 40
2444971.791666666
  9
$TDUPDATE
 40
2453689.696238472
  9
$TDINDWG
 40
0.4074736806
  9
$TDUSRTIMER
 40
0.4074736806
  9
$USRTIMER
 70
     1
  9
$ANGBASE
 50
0.0
  9
$ANGDIR
 70
     0
  9
$PDMODE
 70
     0
  9
$PDSIZE
 40
0.0
  9
$PLINEWID
 40
0.0
  9
$COORDS
 70
     1
  9
$SPLFRAME
 70
     0
  9
$SPLINETYPE
 70
     6
  9
$SPLINESEGS
 70
     8
  9
$ATTDIA
 70
     0
  9
$ATTREQ
 70
     1
  9
$HANDLING
 70
     1
  9
$HANDSEED
  5
121
  9
$SURFTAB1
 70
     6
  9
$SURFTAB2
 70
     6
  9
$SURFTYPE
 70
     6
  9
$SURFU
 70
     6
  9
$SURFV
 70
     6
  9
$UCSNAME
  2

  9
$UCSORG
 10
0.0
 20
0.0
 30
0.0
  9
$UCSXDIR
 10
1.0
 20
0.0
 30
0.0
  9
$UCSYDIR
 10
0.0
 20
1.0
 30
0.0
  9
$PUCSNAME
  2

  9
$PUCSORG
 10
0.0
 20
0.0
 30
0.0
  9
$PUCSXDIR
 10
1.0
 20
0.0
 30
0.0
  9
$PUCSYDIR
 10
0.0
 20
1.0
 30
0.0
  9
$USERI1
 70
     0
  9
$USERI2
 70
     0
  9
$USERI3
 70
     0
  9
$USERI4
 70
     0
  9
$USERI5
 70
     0
  9
$USERR1
 40
0.0
  9
$USERR2
 40
0.0
  9
$USERR3
 40
0.0
  9
$USERR4
 40
0.0
  9
$USERR5
 40
0.0
  9
$WORLDVIEW
 70
     1
  9
$SHADEDGE
 70
     3
  9
$SHADEDIF
 70
    70
  9
$TILEMODE
 70
     1
  9
$MAXACTVP
 70
    16
  9
$PINSBASE
 10
0.0
 20
0.0
 30
0.0
  9
$PLIMCHECK
 70
     0
  9
$PEXTMIN
 10
-0.088121
 20
-0.150733
 30
-0.001526
  9
$PEXTMAX
 10
21.926473
 20
11.621875
 30
0.0
  9
$PLIMMIN
 10
-0.166667
 20
-0.25
  9
$PLIMMAX
 10
16.833333
 20
10.75
  9
$UNITMODE
 70
     0
  9
$VISRETAIN
 70
     0
  9
$PLINEGEN
 70
     1
  9
$PSLTSCALE
 70
     0
  9
$TREEDEPTH
 70
  3020
  9
$PICKSTYLE
 70
     1
  9
$CMLSTYLE
  2
STANDARD
  9
$CMLJUST
 70
     0
  9
$CMLSCALE
 40
1.0
  9
$PROXYGRAPHICS
 70
     1
  9
$MEASUREMENT
 70
     0
  0
ENDSEC
  0
SECTION
  2
CLASSES
  0
CLASS
  1
LWPOLYLINE
  2
AcDbPolyline
  3
"AutoCAD"
 90
        0
280
     0
281
     1
  0
CLASS
  1
IMAGE
  2
AcDbRasterImage
  3
ISM
 90
      127
280
     1
281
     1
  0
CLASS
  1
OLE2FRAME
  2
AcDbOle2Frame
  3
""
 90
        0
280
     0
281
     1
  0
CLASS
  1
HATCH
  2
AcDbHatch
  3
"ACAD_SEDONA"
 90
        0
280
     0
281
     1
  0
CLASS
  1
DICTIONARYVAR
  2
AcDbDictionaryVar
  3
"AutoCAD"
 90
        0
280
     0
281
     0
  0
CLASS
  1
RASTERVARIABLES
  2
AcDbRasterVariables
  3
ISM
 90
        0
280
     1
281
     0
  0
CLASS
  1
IMAGEDEF
  2
AcDbRasterImageDef
  3
ISM
 90
        0
280
     1
281
     0
  0
CLASS
  1
IMAGEDEF_REACTOR
  2
AcDbRasterImageDefReactor
  3
ISM
 90
        1
280
     1
281
     0
  0
CLASS
  1
IDBUFFER
  2
AcDbIdBuffer
  3
"Acad"
 90
        0
280
     0
281
     0
  0
CLASS
  1
SPATIAL_FILTER
  2
AcDbSpatialFilter
  3
"Acad"
 90
        0
280
     0
281
     0
  0
CLASS
  1
XRECORD
  2
AcDbXrecord
  3
"<Built In>"
 90
        0
280
     0
281
     0
  0
CLASS
  1
SORTENTSTABLE
  2
AcDbSortentsTable
  3
"AutoCAD"
 90
        0
280
     0
281
     0
  0
CLASS
  1
LAYER_INDEX
  2
AcDbLayerIndex
  3
"Acad"
 90
        0
280
     0
281
     0
  0
CLASS
  1
SPATIAL_INDEX
  2
AcDbSpatialIndex
  3
"Acad"
 90
        0
280
     0
281
     0
  0
CLASS
  1
OBJECT_PTR
  2
CAseDLPNTableRecord
  3
ASE-LPNTableRecord
 90
        1
280
     0
281
     0
  0
CLASS
  1
LAYOUT
  2
AcDbLayout
  3
AutoCAD 2000
 90
        0
280
     1
281
     0
  0
CLASS
  1
PLOTSETTINGS
  2
AcDbPlotSettings
  3
AutoCAD 2000
 90
        0
280
     1
281
     0
  0
CLASS
  1
ACDBDICTIONARYWDFLT
  2
AcDbDictionaryWithDefault
  3
AutoCAD 2000
 90
        0
280
     1
281
     0
  0
CLASS
  1
ACDBPLACEHOLDER
  2
AcDbPlaceHolder
  3
AutoCAD 2000
 90
        0
280
     1
281
     0
  0
CLASS
  1
VBA_PROJECT
  2
AcDbVbaProject
  3
acadvba
 90
        0
280
     1
281
     0
  0
CLASS
  1
WIPEOUT
  2
AcDbWipeout
  3
"WipeOut|Version(1.0.0.0) Product Desc: Object Enabler for WipeOut entity^I^I^I^I^I^I|Company: Autodesk, Inc.^I^I^I^I^I^I|WEB Address: www.autodesk.com"
 90
      127
280
     1
281
     1
  0
CLASS
  1
WIPEOUTVARIABLES
  2
AcDbWipeoutVariables
  3
WipeOut|AutoCAD Express Tool|expresstools@autodesk.com
 90
        0
280
     1
281
     0
  0
CLASS
  1
RTEXT
  2
RText
  3
RText|AutoCAD Express Tool|expresstools@autodesk.com
 90
        0
280
     1
281
     1
  0
CLASS
  1
ARCALIGNEDTEXT
  2
AcDbArcAlignedText
  3
ATEXT|AutoCAD Express Tool|expresstools@autodesk.com
 90
        0
280
     1
281
     1
  0
CLASS
  1
LONG_TRANSACTION
  2
AcDbLongTransaction
  3
AutoCAD 2000
 90
        0
280
     1
281
     0
  0
CLASS
  1
LWPOLYLINE
  2
AcDbPolyline
  3
"AutoCAD"
 90
        0
280
     0
281
     1
  0
CLASS
  1
HATCH
  2
AcDbHatch
  3
"ACAD_SEDONA"
 90
        0
280
     0
281
     1
  0
CLASS
  1
XRECORD
  2
AcDbXrecord
  3
"<Built In>"
 90
        0
280
     0
281
     0
  0
ENDSEC
  0
SECTION
  2
TABLES
  0
TABLE
  2
VPORT
  5
1C
100
AcDbSymbolTable
 70
     2
  0
VPORT
  5
120
100
AcDbSymbolTableRecord
100
AcDbViewportTableRecord
  2
*ACTIVE
 70
     0
 10
0.0
 20
0.0
 11
1.0
 21
1.0
 12
-118.186187
 22
-45.358923
 13
0.0
 23
0.0
 14
1.0
 24
1.0
 15
0.0
 25
0.0
 16
0.0
 26
0.0
 36
1.0
 17
0.0
 27
0.0
 37
0.0
 40
24.41971
 41
1.487748
 42
50.0
 43
0.0
 44
0.0
 50
0.0
 51
0.0
 71
     0
 72
   100
 73
     1
 74
     1
 75
     0
 76
     0
 77
     0
 78
     0
  0
ENDTAB
  0
TABLE
  2
LTYPE
  5
17
100
AcDbSymbolTable
 70
     3
  0
LTYPE
  5
18
100
AcDbSymbolTableRecord
100
AcDbLinetypeTableRecord
  2
BYBLOCK
 70
     0
  3

 72
    65
 73
     0
 40
0.0
  0
LTYPE
  5
19
100
AcDbSymbolTableRecord
100
AcDbLinetypeTableRecord
  2
BYLAYER
 70
     0
  3

 72
    65
 73
     0
 40
0.0
  0
LTYPE
  5
7
100
AcDbSymbolTableRecord
100
AcDbLinetypeTableRecord
  2
CONTINUOUS
 70
     0
  3
Solid line
 72
    65
 73
     0
 40
0.0
  0
LTYPE
  5
31
100
AcDbSymbolTableRecord
100
AcDbLinetypeTableRecord
  2
CENTER
 70
     0
  3
____ _ ____ _ ____ _ ____ _ ____ _ ____ _ ____
 72
    65
 73
     4
 40
0.6
 49
0.375
 74
     0
 49
-0.075
 74
     0
 49
0.075
 74
     0
 49
-0.075
 74
     0
  0
LTYPE
  5
4C
100
AcDbSymbolTableRecord
100
AcDbLinetypeTableRecord
  2
HIDDEN
 70
     0
  3
- - - - - - - - - - - - - - - - - - - -
 72
    65
 73
     2
 40
0.2
 49
0.1
 74
     0
 49
-0.1
 74
     0
  0
ENDTAB
  0
TABLE
  2
LAYER
  5
E
102
{ACAD_XDICTIONARY
360
F
102
}
100
AcDbSymbolTable
 70
     1
  0
LAYER
  5
6
100
AcDbSymbolTableRecord
100
AcDbLayerTableRecord
  2
0
 70
     0
 62
     7
  6
CONTINUOUS
  0
ENDTAB
  0
TABLE
  2
STYLE
  5
15
100
AcDbSymbolTable
 70
     2
  0
STYLE
  5
16
100
AcDbSymbolTableRecord
100
AcDbTextStyleTableRecord
  2
STANDARD
 70
     0
 40
0.0
 41
1.0
 50
0.0
 71
     0
 42
1.0
  3
txt
  4

  0
STYLE
  5
27
102
{ACAD_XDICTIONARY
360
28
102
}
100
AcDbSymbolTableRecord
100
AcDbTextStyleTableRecord
  2
ROMANS
 70
     0
 40
0.0
 41
1.0
 50
0.0
 71
     0
 42
1.0
  3
romans.shx
  4

  0
ENDTAB
  0
TABLE
  2
VIEW
  5
1A
100
AcDbSymbolTable
 70
     0
  0
ENDTAB
  0
TABLE
  2
UCS
  5
1B
100
AcDbSymbolTable
 70
     0
  0
ENDTAB
  0
TABLE
  2
APPID
  5
1E
100
AcDbSymbolTable
 70
     1
  0
APPID
  5
1F
100
AcDbSymbolTableRecord
100
AcDbRegAppTableRecord
  2
ACAD
 70
     0
  0
ENDTAB
  0
TABLE
  2
DIMSTYLE
  5
20
100
AcDbSymbolTable
 70
     1
  0
DIMSTYLE
105
2B
102
{ACAD_XDICTIONARY
360
2C
102
}
100
AcDbSymbolTableRecord
100
AcDbDimStyleTableRecord
  2
STD
 70
     0
  3
\X
  4
cm
  5

  6

  7

 40
16.0
 41
0.1
 42
0.0625
 43
0.25
 44
0.1
 45
0.0
 46
0.0
 47
0.0
 48
0.0
140
0.1
141
0.09
142
0.0
143
2.54
144
1.0
145
0.0
146
1.0
147
0.08
 71
     0
 72
     0
 73
     1
 74
     1
 75
     0
 76
     0
 77
     0
 78
     4
170
     1
171
     1
172
     0
173
     0
174
     0
175
     0
176
     0
177
     0
178
     0
270
     2
271
     3
272
     3
273
     2
274
     1
340
27
275
     0
280
     0
281
     0
282
     0
283
     1
284
     4
285
     4
286
     4
287
     1
288
     0
  0
ENDTAB
  0
TABLE
  2
BLOCK_RECORD
  5
1
100
AcDbSymbolTable
 70
     0
  0
BLOCK_RECORD
  5
2
102
{ACAD_XDICTIONARY
360
3
102
}
100
AcDbSymbolTableRecord
100
AcDbBlockTableRecord
  2
*MODEL_SPACE
  0
BLOCK_RECORD
  5
9
102
{ACAD_XDICTIONARY
360
A
102
}
100
AcDbSymbolTableRecord
100
AcDbBlockTableRecord
  2
*PAPER_SPACE
  0
ENDTAB
  0
ENDSEC
  0
SECTION
  2
BLOCKS
  0
BLOCK
  5
5
100
AcDbEntity
  8
0
100
AcDbBlockBegin
  2
*MODEL_SPACE
 70
     0
 10
0.0
 20
0.0
 30
0.0
  3
*MODEL_SPACE
  1

  0
ENDBLK
  5
8
100
AcDbEntity
  8
0
100
AcDbBlockEnd
  0
BLOCK
  5
C
100
AcDbEntity
 67
     1
  8
0
100
AcDbBlockBegin
  2
*PAPER_SPACE
 70
     0
 10
0.0
 20
0.0
 30
0.0
  3
*PAPER_SPACE
  1

  0
ENDBLK
  5
D
100
AcDbEntity
 67
     1
  8
0
100
AcDbBlockEnd
  0
ENDSEC
  0
SECTION
  2
ENTITIES
  0
LINE
  5
2E
100
AcDbEntity
  8
0
  6
CONTINUOUS
100
AcDbLine
 10
-107.669927
 20
-36.116009
 30
0.0
 11
-109.27918
 21
-50.355058
 31
0.0
  0
LINE
  5
30
100
AcDbEntity
  8
0
  6
CENTER
 62
     1
100
AcDbLine
 10
-118.185353
 20
-34.238706
 30
0.0
 11
-118.185353
 21
-56.481438
 31
0.0
  0
LINE
  5
34
100
AcDbEntity
  8
0
  6
CONTINUOUS
100
AcDbLine
 10
-128.700778
 20
-36.116009
 30
0.0
 11
-127.091525
 21
-50.355058
 31
0.0
  0
ARC
  5
38
100
AcDbEntity
  8
0
  6
CONTINUOUS
100
AcDbCircle
 10
-124.581603
 20
-50.35451
 30
0.0
 40
2.509934
100
AcDbArc
 50
180.0125
 51
270.0
  0
LINE
  5
39
100
AcDbEntity
  8
0
  6
CONTINUOUS
100
AcDbLine
 10
-126.410991
 20
-52.864509
 30
0.0
 11
-109.959714
 21
-52.864509
 31
0.0
  0
ARC
  5
3B
100
AcDbEntity
  8
0
  6
CONTINUOUS
100
AcDbCircle
 10
-126.410991
 20
-50.35451
 30
0.0
 40
2.509934
100
AcDbArc
 50
180.012512
 51
270.0
  0
LINE
  5
3C
100
AcDbEntity
  8
0
  6
CONTINUOUS
100
AcDbLine
 10
-126.410991
 20
-52.864444
 30
0.0
 11
-124.848381
 21
-52.864444
 31
0.0
  0
SPLINE
  5
3D
100
AcDbEntity
  8
0
  6
CONTINUOUS
100
AcDbSpline
210
-0.994572466308765
220
-0.1040461881113404
230
0.0
 70
    24
 71
     3
 72
     8
 73
     4
 74
     2
 42
0.0000001
 43
0.0000001
 44
0.0000000001
 40
0.0
 40
0.0
 40
0.0
 40
0.0
 40
0.0385275661969073
 40
0.0385275661969073
 40
0.0385275661969073
 40
0.0385275661969073
 10
-129.2129830235769
 20
-48.01749795839779
 30
0.0
 10
-129.2143192390436
 20
-48.00472513955335
 30
0.0
 10
-129.2156554545102
 20
-47.9919523207089
 30
0.0
 10
-129.2169916699769
 20
-47.97917950186446
 30
0.0
 11
-129.2129830235769
 21
-48.01749795839779
 31
0.0
 11
-129.2169916699769
 21
-47.97917950186446
 31
0.0
  0
SPLINE
  5
3E
100
AcDbEntity
  8
0
  6
CONTINUOUS
100
AcDbSpline
210
-0.9945723534140707
220
-0.1040472672605913
230
0.0
 70
    24
 71
     3
 72
     8
 73
     4
 74
     2
 42
0.0000001
 43
0.0000001
 44
0.0000000001
 40
0.0
 40
0.0
 40
0.0
 40
0.0
 40
0.0385126501206093
 40
0.0385126501206093
 40
0.0385126501206093
 40
0.0385126501206093
 10
-129.2169923825102
 20
-47.9791803711978
 30
0.0
 10
-129.2156566705102
 20
-47.99194824355335
 30
0.0
 10
-129.2143209585102
 20
-48.0047161159089
 30
0.0
 10
-129.2129852465102
 20
-48.01748398826447
 30
0.0
 11
-129.2169923825102
 21
-47.9791803711978
 31
0.0
 11
-129.2129852465102
 21
-48.01748398826447
 31
0.0
  0
SPLINE
  5
3F
100
AcDbEntity
  8
0
  6
CONTINUOUS
100
AcDbSpline
210
-0.9936645468875347
220
0.1123866907546895
230
0.0
 70
    24
 71
     3
 72
     8
 73
     4
 74
     2
 42
0.0000001
 43
0.0000001
 44
0.0000000001
 40
0.0
 40
0.0
 40
0.0
 40
0.0
 40
14.32984236440872
 40
14.32984236440872
 40
14.32984236440872
 40
14.32984236440872
 10
-107.4497802523769
 20
-50.35505804693113
 30
0.0
 10
-106.9129523982528
 20
-45.60870594026447
 30
0.0
 10
-106.3761245441287
 20
-40.8623538335978
 30
0.0
 10
-105.8392966900046
 20
-36.11600172693114
 30
0.0
 11
-107.4497802523769
 21
-50.35505804693113
 31
0.0
 11
-105.8392966900046
 21
-36.11600172693114
 31
0.0
  0
LINE
  5
40
100
AcDbEntity
  8
0
  6
CONTINUOUS
100
AcDbLine
 10
-119.565114
 20
-54.114444
 30
0.0
 11
-116.805592
 21
-54.114444
 31
0.0
  0
LINE
  5
41
100
AcDbEntity
  8
0
  6
CONTINUOUS
100
AcDbLine
 10
-119.565613
 20
-54.114444
 30
0.0
 11
-119.909363
 21
-52.864509
 31
0.0
  0
LINE
  5
42
100
AcDbEntity
  8
0
  6
CONTINUOUS
100
AcDbLine
 10
-116.805092
 20
-54.114444
 30
0.0
 11
-116.461342
 21
-52.864509
 31
0.0
  0
ARC
  5
43
100
AcDbEntity
  8
0
  6
CONTINUOUS
100
AcDbCircle
 10
-111.789102
 20
-50.35451
 30
0.0
 40
2.509934
100
AcDbArc
 50
270.0
 51
359.9875
  0
ARC
  5
44
100
AcDbEntity
  8
0
  6
CONTINUOUS
100
AcDbCircle
 10
-109.959714
 20
-50.35451
 30
0.0
 40
2.509934
100
AcDbArc
 50
270.0
 51
359.987488
  0
LINE
  5
45
100
AcDbEntity
  8
0
  6
CONTINUOUS
100
AcDbLine
 10
-111.522324
 20
-52.864444
 30
0.0
 11
-109.959714
 21
-52.864444
 31
0.0
  0
SPLINE
  5
46
100
AcDbEntity
  8
0
  6
CONTINUOUS
100
AcDbSpline
210
-0.9945727827978441
220
0.1040431627631167
230
0.0
 70
    24
 71
     3
 72
     8
 73
     4
 74
     2
 42
0.0000001
 43
0.0000001
 44
0.0000000001
 40
0.0
 40
0.0
 40
0.0
 40
0.0
 40
0.0385085205049097
 40
0.0385085205049097
 40
0.0385085205049097
 40
0.0385085205049097
 10
-105.8392966900046
 20
-36.11600172693114
 30
0.0
 10
-105.8379611739157
 20
-36.10323521813113
 30
0.0
 10
-105.8366256578269
 20
-36.09046870933113
 30
0.0
 10
-105.835290141738
 20
-36.07770220053114
 30
0.0
 11
-105.8392966900046
 21
-36.11600172693114
 31
0.0
 11
-105.835290141738
 21
-36.07770220053114
 31
0.0
  0
SPLINE
  5
47
100
AcDbEntity
  8
0
  6
CONTINUOUS
100
AcDbSpline
210
-0.9945723536404271
220
0.1040472650968845
230
0.0
 70
    24
 71
     3
 72
     8
 73
     4
 74
     2
 42
0.0000001
 43
0.0000001
 44
0.0000000001
 40
0.0
 40
0.0
 40
0.0
 40
0.0
 40
0.0385054644439115
 40
0.0385054644439115
 40
0.0385054644439115
 40
0.0385054644439115
 10
-105.839297402538
 20
-36.11599935466447
 30
0.0
 10
-105.8379619397824
 20
-36.10323386453114
 30
0.0
 10
-105.8366264770269
 20
-36.0904683743978
 30
0.0
 10
-105.8352910142713
 20
-36.07770288426447
 30
0.0
 11
-105.839297402538
 21
-36.11599935466447
 31
0.0
 11
-105.8352910142713
 21
-36.07770288426447
 31
0.0
  0
LINE
  5
48
100
AcDbEntity
  8
0
  6
CONTINUOUS
100
AcDbLine
 10
-103.13647
 20
-34.614444
 30
0.0
 11
-133.234236
 21
-34.614444
 31
0.0
  0
LINE
  5
4B
100
AcDbEntity
  8
0
  6
HIDDEN
 62
     9
 48
0.5
100
AcDbLine
 10
-129.143488
 20
-39.525769
 30
0.0
 11
-129.214703
 21
-39.452274
 31
0.0
  0
SPLINE
  5
4D
100
AcDbEntity
  8
0
  6
HIDDEN
 62
     9
 48
0.5
100
AcDbSpline
210
0.0
220
0.0
230
1.0
 70
     8
 71
     3
 72
    19
 73
    15
 74
    13
 42
0.0000001
 43
0.0000001
 44
0.0000000001
 40
0.0
 40
0.0
 40
0.0
 40
0.0
 40
0.0827764907581542
 40
0.184833067300238
 40
0.3494254135902728
 40
0.5752921261843035
 40
0.8420418189237455
 40
1.117798577691456
 40
1.381191047127271
 40
1.623801835214112
 40
1.844014529332324
 40
2.045397773843649
 40
2.203119772689333
 40
2.300668057490441
 40
2.300668057490441
 40
2.300668057490441
 40
2.300668057490441
 10
-129.3949767078436
 20
-37.4657797919978
 30
0.0
 10
-129.3684329943235
 20
-37.45076928437486
 30
0.0
 10
-129.3091630742954
 20
-37.41725206058014
 30
0.0
 10
-129.212522164865
 20
-37.51704604810019
 30
0.0
 10
-129.1456703752951
 20
-37.6587677362253
 30
0.0
 10
-129.0762850753618
 20
-37.87058977977855
 30
0.0
 10
-129.0210284572505
 20
-38.11977326472004
 30
0.0
 10
-128.9781761434933
 20
-38.38537988540585
 30
0.0
 10
-128.949854751734
 20
-38.64456563505677
 30
0.0
 10
-128.9359065326088
 20
-38.8859989045468
 30
0.0
 10
-128.9342696873402
 20
-39.10865418684041
 30
0.0
 10
-128.9536768644945
 20
-39.29802919646388
 30
0.0
 10
-128.9770684184008
 20
-39.45625127463346
 30
0.0
 10
-129.0386014234366
 20
-39.51739134825513
 30
0.0
 10
-129.0621154769102
 20
-39.5407552479978
 30
0.0
 11
-129.3949767078436
 21
-37.4657797919978
 31
0.0
 11
-129.3169802641102
 21
-37.4380579199978
 31
0.0
 11
-129.2353189030436
 21
-37.49927039359779
 31
0.0
 11
-129.1560799942436
 21
-37.64353347199779
 31
0.0
 11
-129.0840873873102
 21
-37.85761952106446
 31
0.0
 11
-129.0241341979769
 21
-38.11754453653113
 31
0.0
 11
-128.9799087035769
 21
-38.38973178026447
 31
0.0
 11
-128.9514355462435
 21
-38.65158072959779
 31
0.0
 11
-128.9376055622436
 21
-38.89379700906447
 31
0.0
 11
-128.9383600529102
 21
-39.11400841066447
 31
0.0
 11
-128.9571411398435
 21
-39.31451397653113
 31
0.0
 11
-128.9986494491769
 21
-39.46667602559779
 31
0.0
 11
-129.0621154769102
 21
-39.5407552479978
 31
0.0
  0
LINE
  5
4E
100
AcDbEntity
  8
0
  6
HIDDEN
 62
     9
 48
0.5
100
AcDbLine
 10
-129.062115
 20
-39.540755
 30
0.0
 11
-129.143488
 21
-39.525769
 31
0.0
  0
LWPOLYLINE
  5
4F
100
AcDbEntity
  8
0
  6
HIDDEN
 62
     9
 48
0.5
100
AcDbPolyline
 90
        7
 70
     0
 43
0.0
 10
-127.554192
 20
-36.578629
 10
-127.486874
 20
-36.708779
 10
-127.465307
 20
-36.842679
 10
-127.489692
 20
-36.979081
 10
-127.559802
 20
-37.116714
 10
-127.674983
 20
-37.254295
 10
-127.834161
 20
-37.39054
  0
SPLINE
  5
50
100
AcDbEntity
  8
0
  6
CONTINUOUS
100
AcDbSpline
210
0.0
220
0.0
230
1.0
 70
     8
 71
     3
 72
    10
 73
     6
 74
     4
 42
0.0000001
 43
0.0000001
 44
0.0000000001
 40
0.0
 40
0.0
 40
0.0
 40
0.0
 40
0.1392256789853238
 40
0.2675222196896509
 40
0.3934109669061882
 40
0.3934109669061882
 40
0.3934109669061882
 40
0.3934109669061882
 10
-129.4138634438436
 20
-36.9836022655978
 30
0.0
 10
-129.36891420911
 20
-36.97099151501107
 30
0.0
 10
-129.2825442295421
 20
-36.94675995073712
 30
0.0
 10
-129.1734043162926
 20
-36.8690994923718
 30
0.0
 10
-129.1201073718371
 20
-36.80301225484653
 30
0.0
 10
-129.0937113297102
 20
-36.77028164479779
 30
0.0
 11
-129.4138634438436
 21
-36.9836022655978
 31
0.0
 11
-129.2823075953102
 21
-36.93802981333113
 31
0.0
 11
-129.1771230470436
 21
-36.86457089173113
 31
0.0
 11
-129.0937113297102
 21
-36.77028164479779
 31
0.0
  0
LWPOLYLINE
  5
51
100
AcDbEntity
  8
0
  6
HIDDEN
 62
     9
 48
0.5
100
AcDbPolyline
 90
       10
 70
     0
 43
0.0
 10
-128.771202
 20
-36.872358
 10
-128.766514
 20
-36.868262
 10
-128.76165
 20
-36.854156
 10
-128.757479
 20
-36.8306
 10
-128.754183
 20
-36.798624
 10
-128.751906
 20
-36.759625
 10
-128.750749
 20
-36.715309
 10
-128.750761
 20
-36.667611
 10
-128.751942
 20
-36.618617
 10
-128.75424
 20
-36.570467
  0
LWPOLYLINE
  5
52
100
AcDbEntity
  8
0
  6
HIDDEN
 62
     9
 48
0.5
100
AcDbPolyline
 90
        8
 70
     0
 43
0.0
 10
-128.717716
 20
-37.026689
 10
-128.709978
 20
-36.993676
 10
-128.70371
 20
-36.944318
 10
-128.699227
 20
-36.881088
 10
-128.696753
 20
-36.807157
 10
-128.696413
 20
-36.726233
 10
-128.698224
 20
-36.642373
 10
-128.702095
 20
-36.559783
  0
LWPOLYLINE
  5
53
100
AcDbEntity
  8
0
  6
HIDDEN
 62
     9
 48
0.5
100
AcDbPolyline
 90
        8
 70
     0
 43
0.0
 10
-128.800776
 20
-36.705422
 10
-128.797461
 20
-36.750622
 10
-128.793274
 20
-36.790898
 10
-128.788397
 20
-36.824489
 10
-128.783045
 20
-36.849927
 10
-128.777451
 20
-36.866101
 10
-128.771859
 20
-36.872303
 10
-128.771202
 20
-36.872358
  0
LINE
  5
54
100
AcDbEntity
  8
0
  6
HIDDEN
 62
     9
 48
0.5
100
AcDbLine
 10
-128.806069
 20
-37.010768
 30
0.0
 11
-128.835767
 21
-36.516902
 31
0.0
  0
SPLINE
  5
55
100
AcDbEntity
  8
0
  6
HIDDEN
 62
     9
 48
0.5
100
AcDbSpline
210
0.0
220
0.0
230
1.0
 70
     8
 71
     3
 72
    12
 73
     8
 74
     6
 42
0.0000001
 43
0.0000001
 44
0.0000000001
 40
0.0
 40
0.0
 40
0.0
 40
0.0
 40
0.0272937053683029
 40
0.0566187207649212
 40
0.0881094250690943
 40
0.121889837066276
 40
0.1580492260348237
 40
0.1580492260348237
 40
0.1580492260348237
 40
0.1580492260348237
 10
-128.6563759291769
 20
-36.7195736447978
 30
0.0
 10
-128.656429228731
 20
-36.7286713919181
 30
0.0
 10
-128.6565397946117
 20
-36.74754397799036
 30
0.0
 10
-128.6567731080374
 20
-36.77691288863255
 30
0.0
 10
-128.6570937367712
 20
-36.80844331938693
 30
0.0
 10
-128.6575231426532
 20
-36.84225084746492
 30
0.0
 10
-128.6579177837664
 20
-36.86556079749836
 30
0.0
 10
-128.6581218161102
 20
-36.87761221226447
 30
0.0
 11
-128.6563759291769
 21
-36.7195736447978
 31
0.0
 11
-128.6565449745102
 21
-36.74686682666446
 31
0.0
 11
-128.6567778577102
 21
-36.77619091733113
 31
0.0
 11
-128.6570987995769
 21
-36.80767998613113
 31
0.0
 11
-128.6575360614436
 21
-36.8414575679978
 31
0.0
 11
-128.6581218161102
 21
-36.87761221226447
 31
0.0
  0
SPLINE
  5
56
100
AcDbEntity
  8
0
  6
CONTINUOUS
100
AcDbSpline
210
0.0
220
0.0
230
1.0
 70
     8
 71
     3
 72
     9
 73
     5
 74
     3
 42
0.0000001
 43
0.0000001
 44
0.0000000001
 40
0.0
 40
0.0
 40
0.0
 40
0.0
 40
0.0167412404179008
 40
0.0679274575365551
 40
0.0679274575365551
 40
0.0679274575365551
 40
0.0679274575365551
 10
-129.7876101691769
 20
-36.81186576853113
 30
0.0
 10
-129.7923747072068
 20
-36.80895920988437
 30
0.0
 10
-129.8117067845576
 20
-36.79716586995697
 30
0.0
 10
-129.8302492370827
 20
-36.7841525498768
 30
0.0
 10
-129.8442217606436
 20
-36.77434646186446
 30
0.0
 11
-129.7876101691769
 21
-36.81186576853113
 31
0.0
 11
-129.8018558203769
 21
-36.80307198933113
 31
0.0
 11
-129.8442217606436
 21
-36.77434646186446
 31
0.0
  0
SPLINE
  5
57
100
AcDbEntity
  8
0
  6
CONTINUOUS
100
AcDbSpline
210
0.0
220
0.0
230
1.0
 70
     8
 71
     3
 72
    11
 73
     7
 74
     5
 42
0.0000001
 43
0.0000001
 44
0.0000000001
 40
0.0
 40
0.0
 40
0.0
 40
0.0
 40
0.1102615571783754
 40
0.2205373622210546
 40
0.3329746253658973
 40
0.4518547241892483
 40
0.4518547241892483
 40
0.4518547241892483
 40
0.4518547241892483
 10
-129.1232543814436
 20
-36.76536311893113
 30
0.0
 10
-129.153356741895
 20
-36.78658576442312
 30
0.0
 10
-129.2135653525883
 20
-36.82903379777155
 30
0.0
 10
-129.315251665655
 20
-36.87480714678722
 30
0.0
 10
-129.4266828334193
 20
-36.90388231070978
 30
0.0
 10
-129.5041246665107
 20
-36.90073458548637
 30
0.0
 10
-129.5439240689102
 20
-36.8991168863978
 30
0.0
 11
-129.1232543814436
 21
-36.76536311893113
 31
0.0
 11
-129.2153464219769
 21
-36.82599864533113
 31
0.0
 11
-129.3157285553102
 21
-36.87165147093113
 31
0.0
 11
-129.4250498118436
 21
-36.89793836906447
 31
0.0
 11
-129.5439240689102
 21
-36.8991168863978
 31
0.0
  0
SPLINE
  5
58
100
AcDbEntity
  8
0
  6
CONTINUOUS
100
AcDbSpline
210
0.0
220
0.0
230
-1.0
 70
     8
 71
     3
 72
     9
 73
     5
 74
     3
 42
0.0000001
 43
0.0000001
 44
0.0000000001
 40
0.0
 40
0.0
 40
0.0
 40
0.0
 40
0.1075883970612185
 40
0.3838783185518815
 40
0.3838783185518815
 40
0.3838783185518815
 40
0.3838783185518815
 10
-130.1718415387769
 20
-36.5385050335978
 30
0.0
 10
-130.1535340816077
 20
-36.56942880910116
 30
0.0
 10
-130.0882125779229
 20
-36.67976567876147
 30
0.0
 10
-129.9981111902516
 20
-36.77175548350355
 30
0.0
 10
-129.9332622417102
 20
-36.83796358826446
 30
0.0
 11
-130.1718415387769
 21
-36.5385050335978
 31
0.0
 11
-130.1149727185102
 21
-36.6298352063978
 31
0.0
 11
-129.9332622417102
 21
-36.83796358826446
 31
0.0
  0
SPLINE
  5
59
100
AcDbEntity
  8
0
  6
HIDDEN
 62
     9
 48
0.5
100
AcDbSpline
210
0.0
220
0.0
230
1.0
 70
     8
 71
     3
 72
    14
 73
    10
 74
     8
 42
0.0000001
 43
0.0000001
 44
0.0000000001
 40
0.0
 40
0.0
 40
0.0
 40
0.0
 40
0.0572632786617365
 40
0.3683972613073843
 40
0.6534679430974986
 40
0.9079499075047666
 40
1.13187932899261
 40
1.332258478342801
 40
1.519579869652921
 40
1.519579869652921
 40
1.519579869652921
 40
1.519579869652921
 10
-127.9587910342436
 20
-36.11456393386446
 30
0.0
 10
-127.9410788330662
 20
-36.12167684274243
 30
0.0
 10
-127.8271292556415
 20
-36.16743699151163
 30
0.0
 10
-127.6294311457659
 20
-36.26000189261004
 30
0.0
 10
-127.3880422557324
 20
-36.41032113826848
 30
0.0
 10
-127.1950213307183
 20
-36.57867315559776
 30
0.0
 10
-127.05771860518
 20
-36.76013850923878
 30
0.0
 10
-126.9706849104195
 20
-36.94774046489193
 30
0.0
 10
-126.9537820259525
 20
-37.07648097659793
 30
0.0
 10
-126.9456152283769
 20
-37.1386832415978
 30
0.0
 11
-127.9587910342436
 21
-36.11456393386446
 31
0.0
 11
-127.9057147334436
 21
-36.1360578719978
 31
0.0
 11
-127.6245951569102
 21
-36.2693850591978
 31
0.0
 11
-127.3840227025102
 21
-36.42232356906446
 31
0.0
 11
-127.1941387249102
 21
-36.5917494975978
 31
0.0
 11
-127.0600430555769
 21
-36.77108922346446
 31
0.0
 11
-126.9790485990436
 21
-36.95436961386446
 31
0.0
 11
-126.9456152283769
 21
-37.1386832415978
 31
0.0
  0
LWPOLYLINE
  5
5A
100
AcDbEntity
  8
0
  6
HIDDEN
 62
     9
 48
0.5
100
AcDbPolyline
 90
        8
 70
     0
 43
0.0
 10
-129.432644
 20
-37.9757
 10
-129.440383
 20
-38.008712
 10
-129.446651
 20
-38.058071
 10
-129.451134
 20
-38.121301
 10
-129.453607
 20
-38.195231
 10
-129.453947
 20
-38.276156
 10
-129.452136
 20
-38.360015
 10
-129.448265
 20
-38.442606
  0
LINE
  5
5B
100
AcDbEntity
  8
0
  6
HIDDEN
 62
     9
 48
0.5
100
AcDbLine
 10
-129.314593
 20
-38.485486
 30
0.0
 11
-129.344291
 21
-37.991621
 31
0.0
  0
LWPOLYLINE
  5
5C
100
AcDbEntity
  8
0
  6
HIDDEN
 62
     9
 48
0.5
100
AcDbPolyline
 90
       10
 70
     0
 43
0.0
 10
-129.396121
 20
-38.431921
 10
-129.398419
 20
-38.383772
 10
-129.3996
 20
-38.334778
 10
-129.399612
 20
-38.28708
 10
-129.398454
 20
-38.242763
 10
-129.396178
 20
-38.203765
 10
-129.392882
 20
-38.171789
 10
-129.388711
 20
-38.148233
 10
-129.383846
 20
-38.134126
 10
-129.379158
 20
-38.130031
  0
LWPOLYLINE
  5
5D
100
AcDbEntity
  8
0
  6
HIDDEN
 62
     9
 48
0.5
100
AcDbPolyline
 90
        8
 70
     0
 43
0.0
 10
-129.379158
 20
-38.130031
 10
-129.378501
 20
-38.130086
 10
-129.37291
 20
-38.136288
 10
-129.367316
 20
-38.152461
 10
-129.361963
 20
-38.177899
 10
-129.357087
 20
-38.21149
 10
-129.3529
 20
-38.251766
 10
-129.349585
 20
-38.296967
  0
SPLINE
  5
5E
100
AcDbEntity
  8
0
  6
HIDDEN
 62
     9
 48
0.5
100
AcDbSpline
210
0.0
220
0.0
230
1.0
 70
     8
 71
     3
 72
    15
 73
    11
 74
     9
 42
0.0000001
 43
0.0000001
 44
0.0000000001
 40
0.0
 40
0.0
 40
0.0
 40
0.0
 40
0.194396709195105
 40
0.4037122076426403
 40
0.639121126425196
 40
0.9078069478029517
 40
1.208269872396169
 40
1.536179842328078
 40
1.891246569954998
 40
2.15891687418359
 40
2.15891687418359
 40
2.15891687418359
 40
2.15891687418359
 10
-126.9306193361102
 20
-37.38805875733113
 30
0.0
 10
-126.9314784689896
 20
-37.45318221936296
 30
0.0
 10
-126.9332626680785
 20
-37.58842698114449
 30
0.0
 10
-127.0030941349323
 20
-37.79318720001391
 30
0.0
 10
-127.1279467968073
 20
-37.99724929400231
 30
0.0
 10
-127.3136076300981
 20
-38.19317137124599
 30
0.0
 10
-127.5516683502532
 20
-38.37553613556135
 30
0.0
 10
-127.8342545299852
 20
-38.54275376699878
 30
0.0
 10
-128.1200556169391
 20
-38.68050960455546
 30
0.0
 10
-128.3128884384893
 20
-38.75743117728268
 30
0.0
 10
-128.3957735366436
 20
-38.79049428373113
 30
0.0
 11
-126.9306193361102
 21
-37.38805875733113
 31
0.0
 11
-126.9430106470435
 21
-37.58206013866447
 31
0.0
 11
-127.0067202822436
 21
-37.78144434133113
 31
0.0
 11
-127.1282522545102
 21
-37.98305619306447
 31
0.0
 11
-127.3106657019769
 21
-38.18033114026447
 31
0.0
 11
-127.5475402491769
 21
-38.36517815253113
 31
0.0
 11
-127.8285440955769
 21
-38.5341804799978
 31
0.0
 11
-128.1481554619769
 21
-38.68884448853113
 31
0.0
 11
-128.3957735366436
 21
-38.79049428373113
 31
0.0
  0
LINE
  5
5F
100
AcDbEntity
  8
0
  6
HIDDEN
 62
     9
 48
0.5
100
AcDbLine
 10
-129.45353
 20
-37.504775
 30
0.0
 11
-129.48442
 21
-38.522443
 31
0.0
  0
LWPOLYLINE
  5
60
100
AcDbEntity
  8
0
  6
HIDDEN
 62
     9
 48
0.5
100
AcDbPolyline
 90
       12
 70
     0
 43
0.0
 10
-129.420275
 20
-37.496417
 10
-129.389676
 20
-37.498837
 10
-129.358408
 20
-37.58533
 10
-129.329511
 20
-37.747467
 10
-129.305789
 20
-37.969473
 10
-129.289531
 20
-38.229978
 10
-129.282332
 20
-38.503492
 10
-129.284888
 20
-38.763611
 10
-129.296957
 20
-38.985012
 10
-129.317351
 20
-39.146056
 10
-129.344112
 20
-39.231297
 10
-129.375157
 20
-39.231625
  0
SPLINE
  5
61
100
AcDbEntity
  8
0
  6
HIDDEN
 62
     9
 48
0.5
100
AcDbSpline
210
-0.3583518946309727
220
0.9335865892430078
230
0.0
 70
    24
 71
     3
 72
     8
 73
     4
 74
     2
 42
0.0000001
 43
0.0000001
 44
0.0000000001
 40
0.0
 40
0.0
 40
0.0
 40
0.0
 40
0.0107041480477675
 40
0.0107041480477675
 40
0.0107041480477675
 40
0.0107041480477675
 10
-128.3957735366436
 20
-38.79049428373113
 30
0.0
 10
-128.3991046196658
 20
-38.79177290097557
 30
0.0
 10
-128.402435702688
 20
-38.79305151822001
 30
0.0
 10
-128.4057667857102
 20
-38.79433013546446
 30
0.0
 11
-128.3957735366436
 21
-38.79049428373113
 31
0.0
 11
-128.4057667857102
 21
-38.79433013546446
 31
0.0
  0
SPLINE
  5
62
100
AcDbEntity
  8
0
  6
HIDDEN
 62
     9
 48
0.5
100
AcDbSpline
210
0.0
220
0.0
230
1.0
 70
     8
 71
     3
 72
    15
 73
    11
 74
     9
 42
0.0000001
 43
0.0000001
 44
0.0000000001
 40
0.0
 40
0.0
 40
0.0
 40
0.0
 40
0.0246026956874787
 40
0.0541766445686988
 40
0.0879698042256314
 40
0.1251465179425073
 40
0.1647867870885777
 40
0.2058741818647847
 40
0.2473148578477403
 40
0.2878569433205365
 40
0.2878569433205365
 40
0.2878569433205365
 40
0.2878569433205365
 10
-129.3198531867769
 20
-38.77288545173113
 30
0.0
 10
-129.3187193419078
 20
-38.76476180325006
 30
0.0
 10
-129.3162225459774
 20
-38.74687303114352
 30
0.0
 10
-129.3138939591626
 20
-38.71762865660663
 30
0.0
 10
-129.3120665927853
 20
-38.68416356959881
 30
0.0
 10
-129.3110148962113
 20
-38.64730401533918
 30
0.0
 10
-129.3107033897596
 20
-38.60800142960385
 30
0.0
 10
-129.3111916328137
 20
-38.56727959138032
 30
0.0
 10
-129.3123895685969
 20
-38.52626986295426
 30
0.0
 10
-129.3138639673656
 20
-38.49898119926974
 30
0.0
 10
-129.3145930865102
 20
-38.4854864191978
 30
0.0
 11
-129.3198531867769
 21
-38.77288545173113
 31
0.0
 11
-129.3166708123769
 21
-38.74848944533113
 31
0.0
 11
-129.3141201403769
 21
-38.7190256959978
 31
0.0
 11
-129.3122675441102
 21
-38.68528335573113
 31
0.0
 11
-129.3111618566435
 21
-38.6481230879978
 31
0.0
 11
-129.3108364305102
 21
-38.60848415466446
 31
0.0
 11
-129.3113075814436
 21
-38.56739946133113
 31
0.0
 11
-129.3125711419769
 21
-38.52597805333113
 31
0.0
 11
-129.3145930865102
 21
-38.4854864191978
 31
0.0
  0
SPLINE
  5
63
100
AcDbEntity
  8
0
  6
HIDDEN
 62
     9
 48
0.5
100
AcDbSpline
210
-0.9965625980200293
220
-0.0828431543796441
230
0.0
 70
    24
 71
     3
 72
     8
 73
     4
 74
     2
 42
0.0000001
 43
0.0000001
 44
0.0000000001
 40
0.0
 40
0.0
 40
0.0
 40
0.0
 40
0.0315408430898151
 40
0.0315408430898151
 40
0.0315408430898151
 40
0.0315408430898151
 10
-129.4589458225102
 20
-38.76996408426446
 30
0.0
 10
-129.459816803488
 20
-38.75948660942002
 30
0.0
 10
-129.4606877844658
 20
-38.74900913457558
 30
0.0
 10
-129.4615587654436
 20
-38.73853165973113
 30
0.0
 11
-129.4589458225102
 21
-38.76996408426446
 31
0.0
 11
-129.4615587654436
 21
-38.73853165973113
 31
0.0
  0
SPLINE
  5
64
100
AcDbEntity
  8
0
  6
HIDDEN
 62
     9
 48
0.5
100
AcDbSpline
210
0.0
220
0.0
230
-1.0
 70
     8
 71
     3
 72
     9
 73
     5
 74
     3
 42
0.0000001
 43
0.0000001
 44
0.0000000001
 40
0.0
 40
0.0
 40
0.0
 40
0.0
 40
0.0295462380552408
 40
0.0571555822139575
 40
0.0571555822139575
 40
0.0571555822139575
 40
0.0571555822139575
 10
-129.4615587654436
 20
-38.73853165973113
 30
0.0
 10
-129.4623542258309
 20
-38.72871508236585
 30
0.0
 10
-129.4638930004621
 20
-38.70972545012867
 30
0.0
 10
-129.4653696053371
 20
-38.69073088369568
 30
0.0
 10
-129.4660828881103
 20
-38.68155544533113
 30
0.0
 11
-129.4615587654436
 21
-38.73853165973113
 31
0.0
 11
-129.4639285329102
 21
-38.70908060906446
 31
0.0
 11
-129.4660828881103
 21
-38.68155544533113
 31
0.0
  0
LWPOLYLINE
  5
65
100
AcDbEntity
  8
0
  6
HIDDEN
 62
     9
 48
0.5
100
AcDbPolyline
 90
        3
 70
     0
 43
0.0
 10
-129.436197
 20
-38.643289
 10
-128.358467
 20
-38.281227
 10
-128.114068
 20
-38.182729
  0
LWPOLYLINE
  5
66
100
AcDbEntity
  8
0
  6
HIDDEN
 62
     9
 48
0.5
100
AcDbPolyline
 90
        3
 70
     0
 43
0.0
 10
-129.386569
 20
-38.948882
 10
-129.383897
 20
-38.948043
 10
-129.375076
 20
-38.933032
  0
LWPOLYLINE
  5
67
100
AcDbEntity
  8
0
  6
HIDDEN
 62
     9
 48
0.5
100
AcDbPolyline
 90
        3
 70
     0
 43
0.0
 10
-129.375157
 20
-39.231625
 10
-129.405905
 20
-39.149229
 10
-129.434956
 20
-38.989952
  0
LINE
  5
68
100
AcDbEntity
  8
0
  6
HIDDEN
 62
     9
 48
0.5
100
AcDbLine
 10
-129.214703
 20
-39.452274
 30
0.0
 11
-129.375166
 21
-39.231615
 31
0.0
  0
LINE
  5
69
100
AcDbEntity
  8
0
  6
HIDDEN
 62
     9
 48
0.5
100
AcDbLine
 10
-128.80432
 20
-38.933226
 30
0.0
 11
-129.386575
 21
-38.948897
 31
0.0
  0
LINE
  5
6A
100
AcDbEntity
  8
0
  6
HIDDEN
 62
     9
 48
0.5
100
AcDbLine
 10
-128.780902
 20
-38.91704
 30
0.0
 11
-129.375076
 21
-38.933032
 31
0.0
  0
LINE
  5
6B
100
AcDbEntity
  8
0
  6
HIDDEN
 62
     9
 48
0.5
100
AcDbLine
 10
-128.804411
 20
-38.933228
 30
0.0
 11
-128.801614
 21
-38.932704
 31
0.0
  0
SPLINE
  5
6C
100
AcDbEntity
  8
0
  6
HIDDEN
 62
     9
 48
0.5
100
AcDbSpline
210
0.0
220
0.0
230
1.0
 70
     8
 71
     3
 72
    11
 73
     7
 74
     5
 42
0.0000001
 43
0.0000001
 44
0.0000000001
 40
0.0
 40
0.0
 40
0.0
 40
0.0
 40
0.0209826328236583
 40
0.0301983842191271
 40
0.0337129426431847
 40
0.033917706431927
 40
0.033917706431927
 40
0.033917706431927
 40
0.033917706431927
 10
-128.7809021617102
 20
-38.91704045013113
 30
0.0
 10
-128.7864267226833
 20
-38.91905584188628
 30
0.0
 10
-128.7943777179806
 20
-38.92195641089902
 30
0.0
 10
-128.8099511818358
 20
-38.92930260291649
 30
0.0
 10
-128.8056718585332
 20
-38.93289730892798
 30
0.0
 10
-128.8044952866368
 20
-38.93327303729248
 30
0.0
 10
-128.8044305115769
 20
-38.93329372266446
 30
0.0
 11
-128.7809021617102
 21
-38.91704045013113
 31
0.0
 11
-128.8003720358436
 21
-38.92486316586446
 31
0.0
 11
-128.8072958278436
 21
-38.9309452031978
 31
0.0
 11
-128.8046250001102
 21
-38.93322967253113
 31
0.0
 11
-128.8044305115769
 21
-38.93329372266446
 31
0.0
  0
SPLINE
  5
6D
100
AcDbEntity
  8
0
  6
HIDDEN
 62
     9
 48
0.5
100
AcDbSpline
210
-0.8985939341672432
220
-0.4387812000050101
230
0.0
 70
    24
 71
     3
 72
     8
 73
     4
 74
     2
 42
0.0000001
 43
0.0000001
 44
0.0000000001
 40
0.0
 40
0.0
 40
0.0
 40
0.0
 40
0.0929160684175371
 40
0.0929160684175371
 40
0.0929160684175371
 40
0.0929160684175371
 10
-129.2355951291769
 20
-39.46140563733113
 30
0.0
 10
-129.2491850705102
 20
-39.43357436550891
 30
0.0
 10
-129.2627750118436
 20
-39.40574309368669
 30
0.0
 10
-129.2763649531769
 20
-39.37791182186446
 30
0.0
 11
-129.2355951291769
 21
-39.46140563733113
 31
0.0
 11
-129.2763649531769
 21
-39.37791182186446
 31
0.0
  0
LINE
  5
6E
100
AcDbEntity
  8
0
  6
HIDDEN
 62
     9
 48
0.5
100
AcDbLine
 10
-129.375076
 20
-38.933032
 30
0.0
 11
-129.319853
 21
-38.772885
 31
0.0
  0
LWPOLYLINE
  5
6F
100
AcDbEntity
  8
0
  6
HIDDEN
 62
     9
 48
0.5
100
AcDbPolyline
 90
        7
 70
     0
 43
0.0
 10
-129.433873
 20
-38.681939
 10
-129.428137
 20
-38.759118
 10
-129.420822
 20
-38.827017
 10
-129.412295
 20
-38.88223
 10
-129.402985
 20
-38.921988
 10
-129.393358
 20
-38.944299
 10
-129.386569
 20
-38.948882
  0
LINE
  5
70
100
AcDbEntity
  8
0
  6
HIDDEN
 62
     9
 48
0.5
100
AcDbLine
 10
-129.434956
 20
-38.989952
 30
0.0
 11
-129.458946
 21
-38.769964
 31
0.0
  0
LINE
  5
71
100
AcDbEntity
  8
0
  6
HIDDEN
 62
     9
 48
0.5
100
AcDbLine
 10
-128.780902
 20
-38.91704
 30
0.0
 11
-128.430089
 21
-38.7911
 31
0.0
  0
SPLINE
  5
72
100
AcDbEntity
  8
0
  6
HIDDEN
 62
     9
 48
0.5
100
AcDbSpline
210
0.0
220
0.0
230
1.0
 70
     8
 71
     3
 72
     9
 73
     5
 74
     3
 42
0.0000001
 43
0.0000001
 44
0.0000000001
 40
0.0
 40
0.0
 40
0.0
 40
0.0
 40
0.1045668869706076
 40
0.4193261839390829
 40
0.4193261839390829
 40
0.4193261839390829
 40
0.4193261839390829
 10
-128.4057667857102
 20
-38.79433013546446
 30
0.0
 10
-128.4383724842586
 20
-38.80665585208248
 30
0.0
 10
-128.5691253788226
 20
-38.85608350421483
 30
0.0
 10
-128.7019024643582
 20
-38.89985213789568
 30
0.0
 10
-128.8015690811769
 20
-38.93270623786446
 30
0.0
 11
-128.4057667857102
 21
-38.79433013546446
 31
0.0
 11
-128.5037097553102
 21
-38.83095538026447
 31
0.0
 11
-128.8015690811769
 21
-38.93270623786446
 31
0.0
  0
SPLINE
  5
73
100
AcDbEntity
  8
0
  6
HIDDEN
 62
     9
 48
0.5
100
AcDbSpline
210
0.0
220
0.0
230
-1.0
 70
     8
 71
     3
 72
    13
 73
     9
 74
     0
 42
0.0000001
 43
0.0000001
 40
0.0
 40
0.0
 40
0.0
 40
0.0
 40
0.0235821028530107
 40
0.236006711454257
 40
0.4266494643642545
 40
0.5915567747896895
 40
0.7274143272363385
 40
0.7953596843175826
 40
0.7953596843175826
 40
0.7953596843175826
 40
0.7953596843175826
 10
-128.5713560529103
 20
-37.19989444693113
 30
0.0
 10
-128.5635229961158
 20
-37.2005526131977
 30
0.0
 10
-128.4851307515307
 20
-37.20713945819325
 30
0.0
 10
-128.3436946869023
 20
-37.22263614540666
 30
0.0
 10
-128.1566898270193
 20
-37.25270241927592
 30
0.0
 10
-127.9966531249757
 20
-37.28826667823932
 30
0.0
 10
-127.8788312616758
 20
-37.32350253405867
 30
0.0
 10
-127.8151762605497
 20
-37.34761335438463
 30
0.0
 10
-127.7943079426512
 20
-37.35642868942695
 30
0.0
  0
LINE
  5
74
100
AcDbEntity
  8
0
  6
HIDDEN
 62
     9
 48
0.5
100
AcDbLine
 10
-128.717716
 20
-37.026689
 30
0.0
 11
-128.772939
 21
-37.186835
 31
0.0
  0
LWPOLYLINE
  5
75
100
AcDbEntity
  8
0
  6
HIDDEN
 62
     9
 48
0.5
100
AcDbPolyline
 90
        6
 70
     0
 43
0.0
 10
-128.658122
 20
-36.877612
 10
-128.667016
 20
-37.105767
 10
-128.684155
 20
-37.283615
 10
-128.707985
 20
-37.395039
 10
-128.736328
 20
-37.429891
 10
-128.750157
 20
-37.418952
  0
LWPOLYLINE
  5
76
100
AcDbEntity
  8
0
  6
HIDDEN
 62
     9
 48
0.5
100
AcDbPolyline
 90
        3
 70
     0
 43
0.0
 10
-128.750157
 20
-37.418952
 10
-128.766643
 20
-37.385
 10
-128.796137
 20
-37.264475
  0
LINE
  5
77
100
AcDbEntity
  8
0
  6
HIDDEN
 62
     9
 48
0.5
100
AcDbLine
 10
-128.772939
 20
-37.186835
 30
0.0
 11
-128.581881
 21
-37.199893
 31
0.0
  0
LINE
  5
78
100
AcDbEntity
  8
0
  6
HIDDEN
 62
     9
 48
0.5
100
AcDbLine
 10
-128.581881
 20
-37.199893
 30
0.0
 11
-128.571366
 21
-37.200612
 31
0.0
  0
LINE
  5
79
100
AcDbEntity
  8
0
  6
HIDDEN
 62
     9
 48
0.5
100
AcDbLine
 10
-128.774431
 20
-37.187103
 30
0.0
 11
-128.772939
 21
-37.186835
 31
0.0
  0
SPLINE
  5
7A
100
AcDbEntity
  8
0
  6
HIDDEN
 62
     9
 48
0.5
100
AcDbSpline
210
0.0618224855042196
220
0.9980871606658812
230
0.0
 70
    24
 71
     3
 72
     8
 73
     4
 74
     2
 42
0.0000001
 43
0.0000001
 44
0.0000000001
 40
0.0
 40
0.0
 40
0.0
 40
0.0
 40
0.1929446678833666
 40
0.1929446678833666
 40
0.1929446678833666
 40
0.1929446678833666
 10
-128.7744305787769
 20
-37.1871112127978
 30
0.0
 10
-128.7102387135325
 20
-37.19108731910891
 30
0.0
 10
-128.646046848288
 20
-37.19506342542002
 30
0.0
 10
-128.5818549830436
 20
-37.19903953173114
 30
0.0
 11
-128.7744305787769
 21
-37.1871112127978
 31
0.0
 11
-128.5818549830436
 21
-37.19903953173114
 31
0.0
  0
SPLINE
  5
7B
100
AcDbEntity
  8
0
  6
HIDDEN
 62
     9
 48
0.5
100
AcDbSpline
210
0.0
220
0.0
230
-1.0
 70
     8
 71
     3
 72
    15
 73
    11
 74
     9
 42
0.0000001
 43
0.0000001
 44
0.0000000001
 40
0.0
 40
0.0
 40
0.0
 40
0.0
 40
0.0386619634242467
 40
0.07432253838002
 40
0.1058636503498434
 40
0.1324543513811682
 40
0.1535121470582073
 40
0.1687183531263405
 40
0.1780778089897474
 40
0.1816888144214034
 40
0.1816888144214034
 40
0.1816888144214034
 40
0.1816888144214034
 10
-128.8060694502436
 20
-37.01076787413113
 30
0.0
 10
-128.8052223986896
 20
-37.02362871941959
 30
0.0
 10
-128.8035940535136
 20
-37.04835200253538
 30
0.0
 10
-128.8002566549162
 20
-37.08347579510327
 30
0.0
 10
-128.7964880852553
 20
-37.11455116579431
 30
0.0
 10
-128.7922715593186
 20
-37.14051930024758
 30
0.0
 10
-128.7880263298363
 20
-37.16130081228537
 30
0.0
 10
-128.7832855645433
 20
-37.17523723514708
 30
0.0
 10
-128.7796657153812
 20
-37.18490197777342
 30
0.0
 10
-128.7755623695628
 20
-37.18655568020827
 30
0.0
 10
-128.7744199889102
 20
-37.18701607466447
 30
0.0
 11
-128.8060694502436
 21
-37.01076787413113
 31
0.0
 11
-128.8033348966436
 21
-37.04933300906446
 31
0.0
 11
-128.7999630161102
 21
-37.08483381226447
 31
0.0
 11
-128.7960655718435
 21
-37.11613319999779
 31
0.0
 11
-128.7917648369102
 21
-37.14237379946447
 31
0.0
 11
-128.7871863803769
 21
-37.16292783786446
 31
0.0
 11
-128.7824468582436
 21
-37.17737656213113
 31
0.0
 11
-128.7776582417102
 21
-37.18541823893113
 31
0.0
 11
-128.7744199889102
 21
-37.18701607466447
 31
0.0
  0
SPLINE
  5
7C
100
AcDbEntity
  8
0
  6
HIDDEN
 62
     9
 48
0.5
100
AcDbSpline
210
0.0811601644942327
220
0.9967010723879397
230
0.0
 70
    24
 71
     3
 72
     8
 73
     4
 74
     2
 42
0.0000001
 43
0.0000001
 44
0.0000000001
 40
0.0
 40
0.0
 40
0.0
 40
0.0
 40
0.0105336799810838
 40
0.0105336799810838
 40
0.0105336799810838
 40
0.0105336799810838
 10
-128.5818549830436
 20
-37.19903953173114
 30
0.0
 10
-128.5783553396658
 20
-37.19932450346446
 30
0.0
 10
-128.5748556962881
 20
-37.1996094751978
 30
0.0
 10
-128.5713560529103
 20
-37.19989444693113
 30
0.0
 11
-128.5818549830436
 21
-37.19903953173114
 31
0.0
 11
-128.5713560529103
 21
-37.19989444693113
 31
0.0
  0
SPLINE
  5
7D
100
AcDbEntity
  8
0
  6
HIDDEN
 62
     9
 48
0.5
100
AcDbSpline
210
0.0
220
0.0
230
-1.0
 70
     8
 71
     3
 72
    10
 73
     6
 74
     4
 42
0.0000001
 43
0.0000001
 44
0.0000000001
 40
0.0
 40
0.0
 40
0.0
 40
0.0
 40
0.0138409831092831
 40
0.0271122361621242
 40
0.0397904419203242
 40
0.0397904419203242
 40
0.0397904419203242
 40
0.0397904419203242
 10
-129.4202758459769
 20
-37.49641581653113
 30
0.0
 10
-129.4176144342597
 20
-37.49264643988946
 30
0.0
 10
-129.4124011612983
 20
-37.4852628437326
 30
0.0
 10
-129.4039850212161
 20
-37.47498595395728
 30
0.0
 10
-129.3979333776745
 20
-37.46880139884012
 30
0.0
 10
-129.3949767078436
 20
-37.4657797919978
 30
0.0
 11
-129.4202758459769
 21
-37.49641581653113
 31
0.0
 11
-129.4121557563769
 21
-37.4852070271978
 31
0.0
 11
-129.4037123195769
 21
-37.4749681535978
 31
0.0
 11
-129.3949767078436
 21
-37.4657797919978
 31
0.0
  0
SPLINE
  5
7E
100
AcDbEntity
  8
0
  6
HIDDEN
 62
     9
 48
0.5
100
AcDbSpline
210
0.0
220
0.0
230
-1.0
 70
     8
 71
     3
 72
    22
 73
    18
 74
    16
 42
0.0000001
 43
0.0000001
 44
0.0000000001
 40
0.0
 40
0.0
 40
0.0
 40
0.0
 40
0.0163557024200535
 40
0.0314222832759357
 40
0.040741062610054
 40
0.0437524309484739
 40
0.0457480135945183
 40
0.0488366120405707
 40
0.052913998935176
 40
0.0577889723940146
 40
0.0633179131320803
 40
0.0693765887901269
 40
0.0758530300345951
 40
0.0826486228975921
 40
0.0896572432150107
 40
0.0967593604462804
 40
0.1038196992627536
 40
0.1038196992627536
 40
0.1038196992627536
 40
0.1038196992627536
 10
-129.4535295270436
 20
-37.5047749951978
 30
0.0
 10
-129.4536864201658
 20
-37.51018844394434
 30
0.0
 10
-129.4539878404291
 20
-37.52058866495872
 30
0.0
 10
-129.4534057336278
 20
-37.53461482057945
 30
0.0
 10
-129.4530525167215
 20
-37.54285317620882
 30
0.0
 10
-129.4506596887676
 20
-37.54846959569587
 30
0.0
 10
-129.4477039627241
 20
-37.54705258073053
 30
0.0
 10
-129.446121575991
 20
-37.54452200275483
 30
0.0
 10
-129.4440161818894
 20
-37.54106911521092
 30
0.0
 10
-129.4418667090295
 20
-37.53675394123986
 30
0.0
 10
-129.4394847025627
 20
-37.53180791702973
 30
0.0
 10
-129.4369208621632
 20
-37.52636034923337
 30
0.0
 10
-129.4341370503287
 20
-37.52054891738098
 30
0.0
 10
-129.4311203296229
 20
-37.51449825233371
 30
0.0
 10
-129.4278326889686
 20
-37.50835351372413
 30
0.0
 10
-129.4242907895627
 20
-37.50224335221274
 30
0.0
 10
-129.4216106895707
 20
-37.49835504757923
 30
0.0
 10
-129.4202745926436
 20
-37.4964166303978
 30
0.0
 11
-129.4535295270436
 21
-37.5047749951978
 31
0.0
 11
-129.4537969030436
 21
-37.5211285119978
 31
0.0
 11
-129.4533365979769
 21
-37.53618805973113
 31
0.0
 11
-129.4518856273102
 21
-37.54539318506447
 31
0.0
 11
-129.4501312785102
 21
-37.54784075519779
 31
0.0
 11
-129.4482537201102
 21
-37.54716464533113
 31
0.0
 11
-129.4462895206436
 21
-37.5447810847978
 31
0.0
 11
-129.4442047089102
 21
-37.54127699519779
 31
0.0
 11
-129.4419723185102
 21
-37.53694319786446
 31
0.0
 11
-129.4395686363769
 21
-37.53196409173113
 31
0.0
 11
-129.4369740667769
 21
-37.52648907946447
 31
0.0
 11
-129.4341680347769
 21
-37.52065208746447
 31
0.0
 11
-129.4311235579769
 21
-37.51457662506446
 31
0.0
 11
-129.4278124305102
 21
-37.50839947413113
 31
0.0
 11
-129.4242056571769
 21
-37.50228136533113
 31
0.0
 11
-129.4202745926436
 21
-37.4964166303978
 31
0.0
  0
SPLINE
  5
7F
100
AcDbEntity
  8
0
  6
CONTINUOUS
100
AcDbSpline
210
0.0
220
0.0
230
1.0
 70
     8
 71
     3
 72
    10
 73
     6
 74
     4
 42
0.0000001
 43
0.0000001
 44
0.0000000001
 40
0.0
 40
0.0
 40
0.0
 40
0.0
 40
0.1115066653880564
 40
0.2190265592215705
 40
0.3251154095771493
 40
0.3251154095771493
 40
0.3251154095771493
 40
0.3251154095771493
 10
-129.9331787249102
 20
-36.83786544533114
 30
0.0
 10
-129.9037856050212
 20
-36.86068851562648
 30
0.0
 10
-129.8460502768981
 20
-36.90551864789044
 30
0.0
 10
-129.7484461235075
 20
-36.9549269368682
 30
0.0
 10
-129.679388238615
 20
-36.97283825071254
 30
0.0
 10
-129.6450906182436
 20
-36.9817339103978
 30
0.0
 11
-129.9331787249102
 21
-36.83786544533114
 31
0.0
 11
-129.8429208443769
 21
-36.90334255146447
 31
0.0
 11
-129.7467675419769
 21
-36.95145772586446
 31
0.0
 11
-129.6450906182436
 21
-36.9817339103978
 31
0.0
  0
SPLINE
  5
80
100
AcDbEntity
  8
0
  6
CONTINUOUS
100
AcDbSpline
210
0.0
220
0.0
230
1.0
 70
     8
 71
     3
 72
    10
 73
     6
 74
     4
 42
0.0000001
 43
0.0000001
 44
0.0000000001
 40
0.0
 40
0.0
 40
0.0
 40
0.0
 40
0.0830593567162927
 40
0.1694652764272785
 40
0.2607121622133247
 40
0.2607121622133247
 40
0.2607121622133247
 40
0.2607121622133247
 10
-129.5439240689102
 20
-36.8991168863978
 30
0.0
 10
-129.5713036066888
 20
-36.89472004654138
 30
0.0
 10
-129.6271658372856
 20
-36.88574921277703
 30
0.0
 10
-129.7093934377918
 20
-36.85576987806054
 30
0.0
 10
-129.7611104177081
 20
-36.82683346999091
 30
0.0
 10
-129.7876735409102
 20
-36.81197101333113
 30
0.0
 11
-129.5439240689102
 21
-36.8991168863978
 31
0.0
 11
-129.6254828923769
 21
-36.88340017386446
 31
0.0
 11
-129.7068460870436
 21
-36.8543138623978
 31
0.0
 11
-129.7876735409102
 21
-36.81197101333113
 31
0.0
  0
SPLINE
  5
81
100
AcDbEntity
  8
0
  6
CONTINUOUS
100
AcDbSpline
210
0.0
220
0.0
230
1.0
 70
     8
 71
     3
 72
    10
 73
     6
 74
     4
 42
0.0000001
 43
0.0000001
 44
0.0000000001
 40
0.0
 40
0.0
 40
0.0
 40
0.0
 40
0.078976263659204
 40
0.1561342844579392
 40
0.2325970540292191
 40
0.2325970540292191
 40
0.2325970540292191
 40
0.2325970540292191
 10
-129.6450906182436
 20
-36.9817339103978
 30
0.0
 10
-129.6190993005224
 20
-36.98605364642284
 30
0.0
 10
-129.5677150540856
 20
-36.99459366670321
 30
0.0
 10
-129.4897351119813
 20
-36.99535278464113
 30
0.0
 10
-129.4390775785661
 20
-36.98750726963278
 30
0.0
 10
-129.4138634438436
 20
-36.9836022655978
 30
0.0
 11
-129.6450906182436
 21
-36.9817339103978
 31
0.0
 11
-129.5668707953102
 21
-36.99263847466446
 31
0.0
 11
-129.4897151931769
 21
-36.99324940266446
 31
0.0
 11
-129.4138634438436
 21
-36.9836022655978
 31
0.0
  0
SPLINE
  5
82
100
AcDbEntity
  8
0
  6
HIDDEN
 62
     9
 48
0.5
100
AcDbSpline
210
-0.2312297933097239
220
0.9728991636783035
230
0.0
 70
    24
 71
     3
 72
     8
 73
     4
 74
     2
 42
0.0000001
 43
0.0000001
 44
0.0000000001
 40
0.0
 40
0.0
 40
0.0
 40
0.0
 40
0.0772011380734348
 40
0.0772011380734348
 40
0.0772011380734348
 40
0.0772011380734348
 10
-128.6351095633102
 20
-37.69931665173113
 30
0.0
 10
-128.6100732557547
 20
-37.69336625066447
 30
0.0
 10
-128.5850369481991
 20
-37.6874158495978
 30
0.0
 10
-128.5600006406436
 20
-37.68146544853113
 30
0.0
 11
-128.6351095633102
 21
-37.69931665173113
 31
0.0
 11
-128.5600006406436
 21
-37.68146544853113
 31
0.0
  0
LINE
  5
83
100
AcDbEntity
  8
0
  6
HIDDEN
 62
     9
 48
0.5
100
AcDbLine
 10
-129.432644
 20
-37.9757
 30
0.0
 11
-129.377421
 21
-37.815553
 31
0.0
  0
LINE
  5
84
100
AcDbEntity
  8
0
  6
HIDDEN
 62
     9
 48
0.5
100
AcDbLine
 10
-129.376385
 20
-37.815296
 30
0.0
 11
-129.377421
 21
-37.815553
 31
0.0
  0
SPLINE
  5
85
100
AcDbEntity
  8
0
  6
HIDDEN
 62
     9
 48
0.5
100
AcDbSpline
210
0.0
220
0.0
230
1.0
 70
     8
 71
     3
 72
    10
 73
     6
 74
     4
 42
0.0000001
 43
0.0000001
 44
0.0000000001
 40
0.0
 40
0.0
 40
0.0
 40
0.0
 40
0.2612363485075256
 40
0.5140177170334131
 40
0.7507524179377435
 40
0.7507524179377435
 40
0.7507524179377435
 40
0.7507524179377435
 10
-129.3763850843769
 20
-37.81528869653113
 30
0.0
 10
-129.2897905902476
 20
-37.80606531283672
 30
0.0
 10
-129.1194042545239
 20
-37.78791706257594
 30
0.0
 10
-128.8719462674196
 20
-37.74959448378169
 30
0.0
 10
-128.7123108119707
 20
-37.71570562922869
 30
0.0
 10
-128.6351095633102
 20
-37.69931665173113
 30
0.0
 11
-129.3763850843769
 21
-37.81528869653113
 31
0.0
 11
-129.1168493702436
 21
-37.7855289439978
 31
0.0
 11
-128.8671145403769
 21
-37.7464017791978
 31
0.0
 11
-128.6351095633102
 21
-37.69931665173113
 31
0.0
  0
SPLINE
  5
86
100
AcDbEntity
  8
0
  6
HIDDEN
 62
     9
 48
0.5
100
AcDbSpline
210
0.0
220
0.0
230
1.0
 70
     8
 71
     3
 72
    15
 73
    11
 74
     9
 42
0.0000001
 43
0.0000001
 44
0.0000000001
 40
0.0
 40
0.0
 40
0.0
 40
0.0
 40
0.0386619624356945
 40
0.0743225372906093
 40
0.1058636493922447
 40
0.1324543504235579
 40
0.1535121461006101
 40
0.1687183528498062
 40
0.1780778083424725
 40
0.1821020961221601
 40
0.1821020961221601
 40
0.1821020961221601
 40
0.1821020961221601
 10
-129.3442911025102
 20
-37.99162062826447
 30
0.0
 10
-129.3451381345898
 20
-37.97875970173647
 30
0.0
 10
-129.3467664423466
 20
-37.95403626217859
 30
0.0
 10
-129.3501041008287
 20
-37.91891353508378
 30
0.0
 10
-129.3538718445641
 20
-37.88783480463957
 30
0.0
 10
-129.3580907623012
 20
-37.86187637533596
 30
0.0
 10
-129.362329694506
 20
-37.84106931499663
 30
0.0
 10
-129.3670849764784
 20
-37.82719178482379
 30
0.0
 10
-129.3707310276213
 20
-37.81727619889284
 30
0.0
 10
-129.3750774866164
 20
-37.81579247708346
 30
0.0
 10
-129.3763844006436
 20
-37.81534634453113
 30
0.0
 11
-129.3442911025102
 21
-37.99162062826447
 31
0.0
 11
-129.3470256571769
 21
-37.9530554943978
 31
0.0
 11
-129.3503975366436
 21
-37.9175546911978
 31
0.0
 11
-129.3542949819769
 21
-37.88625530346446
 31
0.0
 11
-129.3585957169102
 21
-37.8600147039978
 31
0.0
 11
-129.3631741734436
 21
-37.8394606655978
 31
0.0
 11
-129.3679136945102
 21
-37.82501194026446
 31
0.0
 11
-129.3727023121102
 21
-37.81697026453113
 31
0.0
 11
-129.3763844006436
 21
-37.81534634453113
 31
0.0
  0
LINE
  5
87
100
AcDbEntity
  8
0
  6
HIDDEN
 62
     9
 48
0.5
100
AcDbLine
 10
-126.930619
 20
-37.388059
 30
0.0
 11
-126.945615
 21
-37.138683
 31
0.0
  0
LWPOLYLINE
  5
88
100
AcDbEntity
  8
0
  6
HIDDEN
 62
     9
 48
0.5
100
AcDbPolyline
 90
        6
 70
     0
 43
0.0
 10
-127.591334
 20
-37.926614
 10
-127.414292
 20
-37.818324
 10
-127.20771
 20
-37.653619
 10
-127.059622
 20
-37.486778
 10
-126.971706
 20
-37.319691
 10
-126.945615
 20
-37.138683
  0
LINE
  5
89
100
AcDbEntity
  8
0
  6
CONTINUOUS
100
AcDbLine
 10
-133.685353
 20
-36.114444
 30
0.0
 11
-133.481157
 21
-34.825332
 31
0.0
  0
ARC
  5
91
100
AcDbEntity
  8
0
  6
CONTINUOUS
100
AcDbCircle
 10
-133.234236
 20
-34.864444
 30
0.0
 40
0.25
100
AcDbArc
 50
90.0
 51
170.99913
  0
LWPOLYLINE
  5
92
100
AcDbEntity
  8
0
  6
HIDDEN
 62
     9
 48
0.5
100
AcDbPolyline
 90
        3
 70
     0
 43
0.0
 10
-128.763792
 20
-36.053507
 10
-128.766463
 20
-36.054346
 10
-128.775284
 20
-36.069356
  0
LWPOLYLINE
  5
93
100
AcDbEntity
  8
0
  6
HIDDEN
 62
     9
 48
0.5
100
AcDbPolyline
 90
        4
 70
     0
 43
0.0
 10
-128.738065
 20
-36.120159
 10
-128.747375
 20
-36.0804
 10
-128.757002
 20
-36.05809
 10
-128.763792
 20
-36.053507
  0
LINE
  5
94
100
AcDbEntity
  8
0
  6
HIDDEN
 62
     9
 48
0.5
100
AcDbLine
 10
-128.181491
 20
-36.03782
 30
0.0
 11
-128.763786
 21
-36.053492
 31
0.0
  0
SPLINE
  5
95
100
AcDbEntity
  8
0
  6
CONTINUOUS
100
AcDbSpline
210
-0.8427248240069332
220
-0.5383445653134093
230
0.0
 70
    24
 71
     3
 72
     8
 73
     4
 74
     2
 42
0.0000001
 43
0.0000001
 44
0.0000000001
 40
0.0
 40
0.0
 40
0.0
 40
0.0
 40
0.0817948447342325
 40
0.0817948447342325
 40
0.0817948447342325
 40
0.0817948447342325
 10
-130.4238462907769
 20
-36.1155842591978
 30
0.0
 10
-130.4091683540658
 20
-36.13856110790891
 30
0.0
 10
-130.3944904173547
 20
-36.16153795662002
 30
0.0
 10
-130.3798124806436
 20
-36.18451480533113
 30
0.0
 11
-130.4238462907769
 21
-36.1155842591978
 31
0.0
 11
-130.3798124806436
 21
-36.18451480533113
 31
0.0
  0
SPLINE
  5
96
100
AcDbEntity
  8
0
  6
CONTINUOUS
100
AcDbSpline
210
0.0
220
0.0
230
1.0
 70
     8
 71
     3
 72
    14
 73
    10
 74
     8
 42
0.0000001
 43
0.0000001
 44
0.0000000001
 40
0.0
 40
0.0
 40
0.0
 40
0.0
 40
0.0223514550190764
 40
0.0435275199645119
 40
0.063568387014874
 40
0.082517415138849
 40
0.1003822095338428
 40
0.1171038116333845
 40
0.1325767306325868
 40
0.1325767306325868
 40
0.1325767306325868
 40
0.1325767306325868
 10
-129.0937113297102
 20
-36.77028164479779
 30
0.0
 10
-129.0894272827454
 20
-36.76418528723925
 30
0.0
 10
-129.0810844728644
 20
-36.75231315967021
 30
0.0
 10
-129.0695672358779
 20
-36.73452168960549
 30
0.0
 10
-129.0590808498019
 20
-36.7174246561915
 30
0.0
 10
-129.049568278776
 20
-36.70103118413927
 30
0.0
 10
-129.0409488756798
 20
-36.68540462326663
 30
0.0
 10
-129.0331560644451
 20
-36.6706481026637
 30
0.0
 10
-129.0283514736339
 20
-36.6610519458804
 30
0.0
 10
-129.0260423526436
 20
-36.65643996373113
 30
0.0
 11
-129.0937113297102
 21
-36.77028164479779
 31
0.0
 11
-129.0809795739769
 21
-36.7519107455978
 31
0.0
 11
-129.0694364977102
 21
-36.73415734826447
 31
0.0
 11
-129.0589624251769
 21
-36.71707138453113
 31
0.0
 11
-129.0494484166436
 21
-36.7006839103978
 31
0.0
 11
-129.0408140209102
 21
-36.6850442783978
 31
0.0
 11
-129.0330175707769
 21
-36.67025146453113
 31
0.0
 11
-129.0260423526436
 21
-36.65643996373113
 31
0.0
  0
SPLINE
  5
97
100
AcDbEntity
  8
0
  6
CONTINUOUS
100
AcDbSpline
210
0.0
220
0.0
230
1.0
 70
     8
 71
     3
 72
     9
 73
     5
 74
     3
 42
0.0000001
 43
0.0000001
 44
0.0000000001
 40
0.0
 40
0.0
 40
0.0
 40
0.0
 40
0.0724282465929442
 40
0.146721678281583
 40
0.146721678281583
 40
0.146721678281583
 40
0.146721678281583
 10
-129.0261296401102
 20
-36.65638939733113
 30
0.0
 10
-129.0393893158309
 20
-36.67674135533909
 30
0.0
 10
-129.0662501328012
 20
-36.71796937859948
 30
0.0
 10
-129.1040616213366
 20
-36.74947261040605
 30
0.0
 10
-129.1232077030435
 20
-36.7654244671978
 30
0.0
 11
-129.0261296401102
 21
-36.65638939733113
 31
0.0
 11
-129.0685771729102
 21
-36.71507549333113
 31
0.0
 11
-129.1232077030435
 21
-36.7654244671978
 31
0.0
  0
SPLINE
  5
98
100
AcDbEntity
  8
0
  6
CONTINUOUS
100
AcDbSpline
210
0.0
220
0.0
230
-1.0
 70
     8
 71
     3
 72
    10
 73
     6
 74
     4
 42
0.0000001
 43
0.0000001
 44
0.0000000001
 40
0.0
 40
0.0
 40
0.0
 40
0.0
 40
0.0100866533893253
 40
0.0207296802530212
 40
0.0319358441230986
 40
0.0319358441230986
 40
0.0319358441230986
 40
0.0319358441230986
 10
-129.0149499942436
 20
-36.62649729493113
 30
0.0
 10
-129.0162001689207
 20
-36.62961855360151
 30
0.0
 10
-129.0187694771261
 20
-36.63603323761279
 30
0.0
 10
-129.0224615021329
 20
-36.64601942603104
 30
0.0
 10
-129.0248284011341
 20
-36.6529072757754
 30
0.0
 10
-129.0260423526436
 20
-36.65643996373113
 30
0.0
 11
-129.0149499942436
 21
-36.62649729493113
 31
0.0
 11
-129.0186596059769
 21
-36.63587702613113
 31
0.0
 11
-129.0223586641102
 21
-36.64585655466447
 31
0.0
 11
-129.0260423526436
 21
-36.65643996373113
 31
0.0
  0
SPLINE
  5
99
100
AcDbEntity
  8
0
  6
CONTINUOUS
100
AcDbSpline
210
0.0
220
0.0
230
-1.0
 70
     8
 71
     3
 72
    10
 73
     6
 74
     4
 42
0.0000001
 43
0.0000001
 44
0.0000000001
 40
0.0
 40
0.0
 40
0.0
 40
0.0
 40
0.0028769666633041
 40
0.0058047894799385
 40
0.008783762934593
 40
0.008783762934593
 40
0.008783762934593
 40
0.008783762934593
 10
-129.0115365169102
 20
-36.61840410133113
 30
0.0
 10
-129.0119172481517
 20
-36.61928427715531
 30
0.0
 10
-129.0126854408226
 20
-36.62106018767586
 30
0.0
 10
-129.013823094235
 20
-36.62375811028545
 30
0.0
 10
-129.0145721985865
 20
-36.62557897737412
 30
0.0
 10
-129.0149499942436
 20
-36.62649729493113
 30
0.0
 11
-129.0115365169102
 21
-36.61840410133113
 31
0.0
 11
-129.0126746897102
 21
-36.62104635413113
 31
0.0
 11
-129.0138125553102
 21
-36.62374402133113
 31
0.0
 11
-129.0149499942436
 21
-36.62649729493113
 31
0.0
  0
SPLINE
  5
9A
100
AcDbEntity
  8
0
  6
CONTINUOUS
100
AcDbSpline
210
-0.9160367233381231
220
0.4010944047178357
230
0.0
 70
    24
 71
     3
 72
     9
 73
     5
 74
     3
 42
0.0000001
 43
0.0000001
 44
0.0000000001
 40
0.0
 40
0.0
 40
0.0
 40
0.0
 40
0.0020485833144711
 40
0.0030836700628001
 40
0.0030836700628001
 40
0.0030836700628001
 40
0.0030836700628001
 10
-129.0102918598436
 20
-36.6155826783978
 30
0.0
 10
-129.0105713394199
 20
-36.6162057573446
 30
0.0
 10
-129.010992031513
 20
-36.61714365910405
 30
0.0
 10
-129.0113938130968
 20
-36.61808979149812
 30
0.0
 10
-129.0115286779769
 20
-36.61840737706446
 30
0.0
 11
-129.0102918598436
 21
-36.6155826783978
 31
0.0
 11
-129.0111219526436
 21
-36.61745554773113
 31
0.0
 11
-129.0115286779769
 21
-36.61840737706446
 31
0.0
  0
LWPOLYLINE
  5
9B
100
AcDbEntity
  8
0
  6
HIDDEN
 62
     9
 48
0.5
100
AcDbPolyline
 90
       10
 70
     0
 43
0.0
 10
-128.783814
 20
-36.403531
 10
-128.788501
 20
-36.407626
 10
-128.793366
 20
-36.421733
 10
-128.797537
 20
-36.445289
 10
-128.800833
 20
-36.477265
 10
-128.80311
 20
-36.516264
 10
-128.804267
 20
-36.56058
 10
-128.804255
 20
-36.608278
 10
-128.803074
 20
-36.657272
 10
-128.800776
 20
-36.705422
  0
LWPOLYLINE
  5
9C
100
AcDbEntity
  8
0
  6
HIDDEN
 62
     9
 48
0.5
100
AcDbPolyline
 90
        8
 70
     0
 43
0.0
 10
-128.75424
 20
-36.570467
 10
-128.757555
 20
-36.525267
 10
-128.761742
 20
-36.484991
 10
-128.766619
 20
-36.4514
 10
-128.771971
 20
-36.425961
 10
-128.777565
 20
-36.409788
 10
-128.783157
 20
-36.403586
 10
-128.783814
 20
-36.403531
  0
LINE
  5
9D
100
AcDbEntity
  8
0
  6
HIDDEN
 62
     9
 48
0.5
100
AcDbLine
 10
-128.702095
 20
-36.559783
 30
0.0
 11
-128.716487
 21
-36.32045
 31
0.0
  0
SPLINE
  5
9E
100
AcDbEntity
  8
0
  6
HIDDEN
 62
     9
 48
0.5
100
AcDbSpline
210
0.0
220
0.0
230
-1.0
 70
     8
 71
     3
 72
    15
 73
    11
 74
     9
 42
0.0000001
 43
0.0000001
 44
0.0000000001
 40
0.0
 40
0.0
 40
0.0
 40
0.0
 40
0.0246025253047153
 40
0.0541760834007226
 40
0.0879687721245737
 40
0.1251451963440617
 40
0.164785554248168
 40
0.2058733658923826
 40
0.2473145420394986
 40
0.2878569445564303
 40
0.2878569445564303
 40
0.2878569445564303
 40
0.2878569445564303
 10
-128.8305073659769
 20
-36.22950305066447
 30
0.0
 10
-128.8316412045712
 20
-36.23762664266127
 30
0.0
 10
-128.8341379781132
 20
-36.25551522897836
 30
0.0
 10
-128.8364665510617
 20
-36.2847592591328
 30
0.0
 10
-128.8382939205201
 20
-36.31822396167679
 30
0.0
 10
-128.8393456340998
 20
-36.35508329143569
 30
0.0
 10
-128.8396571688471
 20
-36.39438594901773
 30
0.0
 10
-128.8391689399793
 20
-36.43510812277757
 30
0.0
 10
-128.8379710038539
 20
-36.47611826284439
 30
0.0
 10
-128.8364965915715
 20
-36.50340719862262
 30
0.0
 10
-128.8357674673102
 20
-36.51690208426446
 30
0.0
 11
-128.8305073659769
 21
-36.22950305066447
 31
0.0
 11
-128.8336897233102
 21
-36.25389888746446
 31
0.0
 11
-128.8362403739769
 21
-36.2833622463978
 31
0.0
 11
-128.8380929670436
 21
-36.3171041151978
 31
0.0
 11
-128.8391986715769
 21
-36.3542640927978
 31
0.0
 11
-128.8395241254436
 21
-36.39390311466446
 31
0.0
 11
-128.8390529894436
 21
-36.43498822506446
 31
0.0
 11
-128.8377894246436
 21
-36.47641013333113
 31
0.0
 11
-128.8357674673102
 21
-36.51690208426446
 31
0.0
  0
SPLINE
  5
9F
100
AcDbEntity
  8
0
  6
HIDDEN
 62
     9
 48
0.5
100
AcDbSpline
210
0.0
220
0.0
230
-1.0
 70
     8
 71
     3
 72
    16
 73
    12
 74
    10
 42
0.0000001
 43
0.0000001
 44
0.0000000001
 40
0.0
 40
0.0
 40
0.0
 40
0.0
 40
0.0045046100792914
 40
0.0174197366666521
 40
0.0327152810300055
 40
0.0496753091556896
 40
0.0682505613963955
 40
0.0884376249335221
 40
0.1102944529758026
 40
0.1338731582085646
 40
0.1592603032793174
 40
0.1592603032793174
 40
0.1592603032793174
 40
0.1592603032793174
 10
-128.6544810182436
 20
-36.5603367807978
 30
0.0
 10
-128.6545469730025
 20
-36.56183685792195
 30
0.0
 10
-128.6548020260509
 20
-36.56763779252504
 30
0.0
 10
-128.655355482307
 20
-36.57852986198692
 30
0.0
 10
-128.6555963619616
 20
-36.5935866780774
 30
0.0
 10
-128.6558154088767
 20
-36.61052835770612
 30
0.0
 10
-128.6559486839019
 20
-36.62910223592099
 30
0.0
 10
-128.6560562943923
 20
-36.64930826876883
 30
0.0
 10
-128.6561498689358
 20
-36.67118228866643
 30
0.0
 10
-128.6562485114346
 20
-36.69478963757899
 30
0.0
 10
-128.656332423563
 20
-36.71111137392988
 30
0.0
 10
-128.6563759291769
 20
-36.7195736447978
 30
0.0
 11
-128.6544810182436
 21
-36.5603367807978
 31
0.0
 11
-128.6546815334436
 21
-36.56483692586447
 31
0.0
 11
-128.6552467153102
 21
-36.5777396799978
 31
0.0
 11
-128.6555800635769
 21
-36.59303159146446
 31
0.0
 11
-128.6557929265102
 21
-36.60999028373113
 31
0.0
 11
-128.6559393403769
 21
-36.62856495893113
 31
0.0
 11
-128.6560499451769
 21
-36.64875171946447
 31
0.0
 11
-128.6561470651769
 21
-36.67060833173113
 31
0.0
 11
-128.6562496358436
 21
-36.69418681386447
 31
0.0
 11
-128.6563759291769
 21
-36.7195736447978
 31
0.0
  0
SPLINE
  5
A0
100
AcDbEntity
  8
0
  6
CONTINUOUS
100
AcDbSpline
210
-0.8704420257683265
220
-0.4922709414299532
230
0.0
 70
    24
 71
     3
 72
     8
 73
     4
 74
     2
 42
0.0000001
 43
0.0000001
 44
0.0000000001
 40
0.0
 40
0.0
 40
0.0
 40
0.0
 40
0.1141343176519687
 40
0.1141343176519687
 40
0.1141343176519687
 40
0.1141343176519687
 10
-130.2390292113102
 20
-36.41971679893113
 30
0.0
 10
-130.2203008753102
 20
-36.45283256782002
 30
0.0
 10
-130.2015725393102
 20
-36.48594833670891
 30
0.0
 10
-130.1828442033102
 20
-36.5190641055978
 30
0.0
 11
-130.2390292113102
 21
-36.41971679893113
 31
0.0
 11
-130.1828442033102
 21
-36.5190641055978
 31
0.0
  0
SPLINE
  5
A1
100
AcDbEntity
  8
0
  6
CONTINUOUS
100
AcDbSpline
210
-0.870132215092603
220
-0.4928183521928139
230
0.0
 70
    24
 71
     3
 72
     8
 73
     4
 74
     2
 42
0.0000001
 43
0.0000001
 44
0.0000000001
 40
0.0
 40
0.0
 40
0.0
 40
0.0
 40
0.0223405619622934
 40
0.0223405619622934
 40
0.0223405619622934
 40
0.0223405619622934
 10
-130.1828513777102
 20
-36.51906579093113
 30
0.0
 10
-130.1791814313991
 20
-36.52554553848669
 30
0.0
 10
-130.175511485088
 20
-36.53202528604225
 30
0.0
 10
-130.1718415387769
 20
-36.5385050335978
 30
0.0
 11
-130.1828513777102
 21
-36.51906579093113
 31
0.0
 11
-130.1718415387769
 21
-36.5385050335978
 31
0.0
  0
SPLINE
  5
A2
100
AcDbEntity
  8
0
  6
CONTINUOUS
100
AcDbSpline
210
-0.7932444434921801
220
-0.6089033198043691
230
0.0
 70
    24
 71
     3
 72
     8
 73
     4
 74
     2
 42
0.0000001
 43
0.0000001
 44
0.0000000001
 40
0.0
 40
0.0
 40
0.0
 40
0.0
 40
0.1825390746252234
 40
0.1825390746252234
 40
0.1825390746252234
 40
0.1825390746252234
 10
-130.0978513137102
 20
-36.51849438613113
 30
0.0
 10
-130.1349008632213
 20
-36.47022835057557
 30
0.0
 10
-130.1719504127324
 20
-36.42196231502001
 30
0.0
 10
-130.2089999622436
 20
-36.37369627946446
 30
0.0
 11
-130.0978513137102
 21
-36.51849438613113
 31
0.0
 11
-130.2089999622436
 21
-36.37369627946446
 31
0.0
  0
SPLINE
  5
A3
100
AcDbEntity
  8
0
  6
CONTINUOUS
100
AcDbSpline
210
0.0
220
0.0
230
-1.0
 70
     8
 71
     3
 72
     9
 73
     5
 74
     3
 42
0.0000001
 43
0.0000001
 44
0.0000000001
 40
0.0
 40
0.0
 40
0.0
 40
0.0
 40
0.1696491854430443
 40
0.3611485684456859
 40
0.3611485684456859
 40
0.3611485684456859
 40
0.3611485684456859
 10
-129.8440318907769
 20
-36.77408394453113
 30
0.0
 10
-129.8881797116116
 20
-36.73847449690077
 30
0.0
 10
-129.982161431906
 20
-36.66266923440417
 30
0.0
 10
-130.0577959833482
 20
-36.56847782041278
 30
0.0
 10
-130.0979012785102
 20
-36.51853273066446
 30
0.0
 11
-129.8440318907769
 21
-36.77408394453113
 31
0.0
 11
-129.9724267910436
 21
-36.66319843733114
 31
0.0
 11
-130.0979012785102
 21
-36.51853273066446
 31
0.0
  0
SPLINE
  5
A4
100
AcDbEntity
  8
0
  6
CONTINUOUS
100
AcDbSpline
210
0.0
220
0.0
230
1.0
 70
     8
 71
     3
 72
     9
 73
     5
 74
     3
 42
0.0000001
 43
0.0000001
 44
0.0000000001
 40
0.0
 40
0.0
 40
0.0
 40
0.0
 40
0.23744976626344
 40
0.5181508774244649
 40
0.5181508774244649
 40
0.5181508774244649
 40
0.5181508774244649
 10
-129.0102800486436
 20
-36.61558834133114
 30
0.0
 10
-128.9822575455972
 20
-36.54132546843099
 30
0.0
 10
-128.9211082559199
 20
-36.37927278099824
 30
0.0
 10
-128.8955092387638
 20
-36.20785923909171
 30
0.0
 10
-128.8816413233102
 20
-36.1149983103978
 30
0.0
 11
-129.0102800486436
 21
-36.61558834133114
 31
0.0
 11
-128.9336782982436
 21
-36.39083389013113
 31
0.0
 11
-128.8816413233102
 21
-36.1149983103978
 31
0.0
  0
SPLINE
  5
A5
100
AcDbEntity
  8
0
  6
CONTINUOUS
100
AcDbSpline
210
-0.8580363223400592
220
-0.5135890083959604
230
0.0
 70
    24
 71
     3
 72
     8
 73
     4
 74
     2
 42
0.0000001
 43
0.0000001
 44
0.0000000001
 40
0.0
 40
0.0
 40
0.0
 40
0.0
 40
0.274116593291239
 40
0.274116593291239
 40
0.274116593291239
 40
0.274116593291239
 10
-130.3798124806436
 20
-36.18451480533113
 30
0.0
 10
-130.3328847241991
 20
-36.26291546986446
 30
0.0
 10
-130.2859569677547
 20
-36.3413161343978
 30
0.0
 10
-130.2390292113102
 20
-36.41971679893113
 30
0.0
 11
-130.3798124806436
 21
-36.18451480533113
 31
0.0
 11
-130.2390292113102
 21
-36.41971679893113
 31
0.0
  0
SPLINE
  5
A6
100
AcDbEntity
  8
0
  6
CONTINUOUS
100
AcDbSpline
210
0.0
220
0.0
230
1.0
 70
     8
 71
     3
 72
     9
 73
     5
 74
     3
 42
0.0000001
 43
0.0000001
 44
0.0000000001
 40
0.0
 40
0.0
 40
0.0
 40
0.0
 40
0.1816726070997843
 40
0.3249529946961676
 40
0.3249529946961676
 40
0.3249529946961676
 40
0.3249529946961676
 10
-130.2089999622436
 20
-36.37369627946446
 30
0.0
 10
-130.2458860569644
 20
-36.32566887908688
 30
0.0
 10
-130.311863240501
 20
-36.23976353634252
 30
0.0
 10
-130.3778631303937
 20
-36.15387563753651
 30
0.0
 10
-130.4069642310436
 20
-36.11600538666447
 30
0.0
 11
-130.2089999622436
 21
-36.37369627946446
 31
0.0
 11
-130.3196653435769
 21
-36.22961953066447
 31
0.0
 11
-130.4069642310436
 21
-36.11600538666447
 31
0.0
  0
LINE
  5
A7
100
AcDbEntity
  8
0
  6
HIDDEN
 62
     9
 48
0.5
100
AcDbLine
 10
-128.775284
 20
-36.069356
 30
0.0
 11
-128.830507
 21
-36.229503
 31
0.0
  0
LWPOLYLINE
  5
A8
100
AcDbEntity
  8
0
  6
HIDDEN
 62
     9
 48
0.5
100
AcDbPolyline
 90
        4
 70
     0
 43
0.0
 10
-128.716487
 20
-36.32045
 10
-128.722224
 20
-36.24327
 10
-128.729539
 20
-36.175372
 10
-128.738065
 20
-36.120159
  0
LINE
  5
A9
100
AcDbEntity
  8
0
  6
HIDDEN
 62
     9
 48
0.5
100
AcDbLine
 10
-107.227218
 20
-39.525769
 30
0.0
 11
-107.156003
 21
-39.452274
 31
0.0
  0
SPLINE
  5
AA
100
AcDbEntity
  8
0
  6
HIDDEN
 62
     9
 48
0.5
100
AcDbSpline
210
0.0
220
0.0
230
-1.0
 70
     8
 71
     3
 72
    19
 73
    15
 74
    13
 42
0.0000001
 43
0.0000001
 44
0.0000000001
 40
0.0
 40
0.0
 40
0.0
 40
0.0
 40
0.0827764907581408
 40
0.1848330673002246
 40
0.3494254135902662
 40
0.5752921261842924
 40
0.8420418189237345
 40
1.117798577691445
 40
1.38119104712726
 40
1.623801835214101
 40
1.844014529332313
 40
2.045397773843639
 40
2.203119772689323
 40
2.300668057490431
 40
2.300668057490431
 40
2.300668057490431
 40
2.300668057490431
 10
-106.9757285905102
 20
-37.4657797919978
 30
0.0
 10
-107.0022723040302
 20
-37.45076928437487
 30
0.0
 10
-107.0615422240583
 20
-37.41725206058015
 30
0.0
 10
-107.1581831334888
 20
-37.51704604810018
 30
0.0
 10
-107.2250349230587
 20
-37.6587677362253
 30
0.0
 10
-107.2944202229919
 20
-37.87058977977856
 30
0.0
 10
-107.3496768411033
 20
-38.11977326472004
 30
0.0
 10
-107.3925291548605
 20
-38.38537988540584
 30
0.0
 10
-107.4208505466198
 20
-38.64456563505676
 30
0.0
 10
-107.434798765745
 20
-38.88599890454681
 30
0.0
 10
-107.4364356110136
 20
-39.10865418684043
 30
0.0
 10
-107.4170284338592
 20
-39.29802919646387
 30
0.0
 10
-107.393636879953
 20
-39.45625127463346
 30
0.0
 10
-107.3321038749172
 20
-39.51739134825513
 30
0.0
 10
-107.3085898214436
 20
-39.5407552479978
 30
0.0
 11
-106.9757285905102
 21
-37.4657797919978
 31
0.0
 11
-107.0537250342435
 21
-37.4380579199978
 31
0.0
 11
-107.1353863953102
 21
-37.49927039359779
 31
0.0
 11
-107.2146253041102
 21
-37.64353347199779
 31
0.0
 11
-107.2866179110436
 21
-37.85761952106446
 31
0.0
 11
-107.3465711003769
 21
-38.11754453653113
 31
0.0
 11
-107.3907965947769
 21
-38.38973178026447
 31
0.0
 11
-107.4192697521102
 21
-38.65158072959779
 31
0.0
 11
-107.4330997361102
 21
-38.89379700906447
 31
0.0
 11
-107.4323452454436
 21
-39.11400841066447
 31
0.0
 11
-107.4135641585102
 21
-39.31451397653113
 31
0.0
 11
-107.3720558491769
 21
-39.46667602559779
 31
0.0
 11
-107.3085898214436
 21
-39.5407552479978
 31
0.0
  0
LINE
  5
AB
100
AcDbEntity
  8
0
  6
HIDDEN
 62
     9
 48
0.5
100
AcDbLine
 10
-107.30859
 20
-39.540755
 30
0.0
 11
-107.227218
 21
-39.525769
 31
0.0
  0
CIRCLE
  5
AC
100
AcDbEntity
  8
0
  6
CONTINUOUS
100
AcDbCircle
 10
-118.185353
 20
-38.114444
 30
0.0
 40
1.3125
  0
LINE
  5
AD
100
AcDbEntity
  8
0
  6
CENTER
 62
     1
 48
0.5
100
AcDbLine
 10
-120.894749
 20
-38.114444
 30
0.0
 11
-115.475956
 21
-38.114444
 31
0.0
  0
SPLINE
  5
AE
100
AcDbEntity
  8
0
  6
CONTINUOUS
100
AcDbSpline
210
0.0
220
0.0
230
1.0
 70
     8
 71
     3
 72
     9
 73
     5
 74
     3
 42
0.0000001
 43
0.0000001
 44
0.0000000001
 40
0.0
 40
0.0
 40
0.0
 40
0.0
 40
0.0167412404179008
 40
0.0679274575365551
 40
0.0679274575365551
 40
0.0679274575365551
 40
0.0679274575365551
 10
-106.5830951291769
 20
-36.81186576853113
 30
0.0
 10
-106.578330591147
 20
-36.80895920988437
 30
0.0
 10
-106.5589985137961
 20
-36.79716586995697
 30
0.0
 10
-106.5404560612711
 20
-36.7841525498768
 30
0.0
 10
-106.5264835377102
 20
-36.77434646186446
 30
0.0
 11
-106.5830951291769
 21
-36.81186576853113
 31
0.0
 11
-106.5688494779769
 21
-36.80307198933113
 31
0.0
 11
-106.5264835377102
 21
-36.77434646186446
 31
0.0
  0
SPLINE
  5
AF
100
AcDbEntity
  8
0
  6
CONTINUOUS
100
AcDbSpline
210
0.0
220
0.0
230
1.0
 70
     8
 71
     3
 72
     9
 73
     5
 74
     3
 42
0.0000001
 43
0.0000001
 44
0.0000000001
 40
0.0
 40
0.0
 40
0.0
 40
0.0
 40
0.107588397061211
 40
0.3838783185518833
 40
0.3838783185518833
 40
0.3838783185518833
 40
0.3838783185518833
 10
-106.1988637595769
 20
-36.5385050335978
 30
0.0
 10
-106.2171712167461
 20
-36.56942880910116
 30
0.0
 10
-106.2824927204308
 20
-36.67976567876149
 30
0.0
 10
-106.3725941081022
 20
-36.77175548350356
 30
0.0
 10
-106.4374430566435
 20
-36.83796358826446
 30
0.0
 11
-106.1988637595769
 21
-36.5385050335978
 31
0.0
 11
-106.2557325798435
 21
-36.6298352063978
 31
0.0
 11
-106.4374430566435
 21
-36.83796358826446
 31
0.0
  0
SPLINE
  5
B0
100
AcDbEntity
  8
0
  6
CONTINUOUS
100
AcDbSpline
210
0.0
220
0.0
230
1.0
 70
     8
 71
     3
 72
    11
 73
     7
 74
     5
 42
0.0000001
 43
0.0000001
 44
0.0000000001
 40
0.0
 40
0.0
 40
0.0
 40
0.0
 40
0.1102615571783635
 40
0.2205373622210557
 40
0.3329746253658846
 40
0.4518547241892498
 40
0.4518547241892498
 40
0.4518547241892498
 40
0.4518547241892498
 10
-107.2474509169102
 20
-36.76536311893113
 30
0.0
 10
-107.2173485564588
 20
-36.78658576442312
 30
0.0
 10
-107.1571399457655
 20
-36.82903379777156
 30
0.0
 10
-107.0554536326987
 20
-36.87480714678721
 30
0.0
 10
-106.9440224649345
 20
-36.90388231070979
 30
0.0
 10
-106.8665806318431
 20
-36.90073458548638
 30
0.0
 10
-106.8267812294436
 20
-36.8991168863978
 30
0.0
 11
-107.2474509169102
 21
-36.76536311893113
 31
0.0
 11
-107.1553588763769
 21
-36.82599864533113
 31
0.0
 11
-107.0549767430436
 21
-36.87165147093113
 31
0.0
 11
-106.9456554865102
 21
-36.89793836906447
 31
0.0
 11
-106.8267812294436
 21
-36.8991168863978
 31
0.0
  0
LINE
  5
B1
100
AcDbEntity
  8
0
  6
HIDDEN
 62
     9
 48
0.5
100
AcDbLine
 10
-107.564636
 20
-37.010768
 30
0.0
 11
-107.534938
 21
-36.516902
 31
0.0
  0
LWPOLYLINE
  5
B2
100
AcDbEntity
  8
0
  6
HIDDEN
 62
     9
 48
0.5
100
AcDbPolyline
 90
        8
 70
     0
 43
0.0
 10
-107.569929
 20
-36.705422
 10
-107.573245
 20
-36.750622
 10
-107.577432
 20
-36.790898
 10
-107.582308
 20
-36.824489
 10
-107.58766
 20
-36.849927
 10
-107.593254
 20
-36.866101
 10
-107.598846
 20
-36.872303
 10
-107.599503
 20
-36.872358
  0
LWPOLYLINE
  5
B3
100
AcDbEntity
  8
0
  6
HIDDEN
 62
     9
 48
0.5
100
AcDbPolyline
 90
        8
 70
     0
 43
0.0
 10
-107.652989
 20
-37.026689
 10
-107.660727
 20
-36.993676
 10
-107.666995
 20
-36.944318
 10
-107.671479
 20
-36.881088
 10
-107.673952
 20
-36.807157
 10
-107.674292
 20
-36.726233
 10
-107.672481
 20
-36.642373
 10
-107.66861
 20
-36.559783
  0
LWPOLYLINE
  5
B4
100
AcDbEntity
  8
0
  6
HIDDEN
 62
     9
 48
0.5
100
AcDbPolyline
 90
       10
 70
     0
 43
0.0
 10
-107.599503
 20
-36.872358
 10
-107.604191
 20
-36.868262
 10
-107.609055
 20
-36.854156
 10
-107.613227
 20
-36.8306
 10
-107.616523
 20
-36.798624
 10
-107.618799
 20
-36.759625
 10
-107.619957
 20
-36.715309
 10
-107.619945
 20
-36.667611
 10
-107.618764
 20
-36.618617
 10
-107.616465
 20
-36.570467
  0
SPLINE
  5
B5
100
AcDbEntity
  8
0
  6
CONTINUOUS
100
AcDbSpline
210
0.0
220
0.0
230
1.0
 70
     8
 71
     3
 72
    10
 73
     6
 74
     4
 42
0.0000001
 43
0.0000001
 44
0.0000000001
 40
0.0
 40
0.0
 40
0.0
 40
0.0
 40
0.1392256789853238
 40
0.2675222196896509
 40
0.3934109669061976
 40
0.3934109669061976
 40
0.3934109669061976
 40
0.3934109669061976
 10
-106.9568418545102
 20
-36.9836022655978
 30
0.0
 10
-107.0017910892438
 20
-36.97099151501107
 30
0.0
 10
-107.0881610688117
 20
-36.94675995073712
 30
0.0
 10
-107.1973009820612
 20
-36.8690994923718
 30
0.0
 10
-107.2505979265167
 20
-36.80301225484653
 30
0.0
 10
-107.2769939686436
 20
-36.77028164479779
 30
0.0
 11
-106.9568418545102
 21
-36.9836022655978
 31
0.0
 11
-107.0883977030435
 21
-36.93802981333113
 31
0.0
 11
-107.1935822513102
 21
-36.86457089173113
 31
0.0
 11
-107.2769939686436
 21
-36.77028164479779
 31
0.0
  0
SPLINE
  5
B6
100
AcDbEntity
  8
0
  6
HIDDEN
 62
     9
 48
0.5
100
AcDbSpline
210
0.0
220
0.0
230
-1.0
 70
     8
 71
     3
 72
    12
 73
     8
 74
     6
 42
0.0000001
 43
0.0000001
 44
0.0000000001
 40
0.0
 40
0.0
 40
0.0
 40
0.0
 40
0.0272937053683029
 40
0.0566187207649212
 40
0.0881094250690941
 40
0.1218898370662761
 40
0.1580492260348235
 40
0.1580492260348235
 40
0.1580492260348235
 40
0.1580492260348235
 10
-107.7143293691769
 20
-36.7195736447978
 30
0.0
 10
-107.7142760696228
 20
-36.7286713919181
 30
0.0
 10
-107.714165503742
 20
-36.74754397799036
 30
0.0
 10
-107.7139321903164
 20
-36.77691288863255
 30
0.0
 10
-107.7136115615826
 20
-36.80844331938693
 30
0.0
 10
-107.7131821557006
 20
-36.8422508474649
 30
0.0
 10
-107.7127875145874
 20
-36.86556079749836
 30
0.0
 10
-107.7125834822435
 20
-36.87761221226447
 30
0.0
 11
-107.7143293691769
 21
-36.7195736447978
 31
0.0
 11
-107.7141603238435
 21
-36.74686682666446
 31
0.0
 11
-107.7139274406436
 21
-36.77619091733113
 31
0.0
 11
-107.7136064987769
 21
-36.80767998613113
 31
0.0
 11
-107.7131692369102
 21
-36.8414575679978
 31
0.0
 11
-107.7125834822435
 21
-36.87761221226447
 31
0.0
  0
LWPOLYLINE
  5
B7
100
AcDbEntity
  8
0
  6
HIDDEN
 62
     9
 48
0.5
100
AcDbPolyline
 90
        7
 70
     0
 43
0.0
 10
-108.816513
 20
-36.578629
 10
-108.883831
 20
-36.708779
 10
-108.905399
 20
-36.842679
 10
-108.881014
 20
-36.979081
 10
-108.810904
 20
-37.116714
 10
-108.695723
 20
-37.254295
 10
-108.536544
 20
-37.39054
  0
SPLINE
  5
B8
100
AcDbEntity
  8
0
  6
HIDDEN
 62
     9
 48
0.5
100
AcDbSpline
210
0.0
220
0.0
230
-1.0
 70
     8
 71
     3
 72
    14
 73
    10
 74
     8
 42
0.0000001
 43
0.0000001
 44
0.0000000001
 40
0.0
 40
0.0
 40
0.0
 40
0.0
 40
0.0572632786617365
 40
0.3683972613073843
 40
0.6534679430974986
 40
0.9079499075047666
 40
1.13187932899261
 40
1.332258478342801
 40
1.519579869652921
 40
1.519579869652921
 40
1.519579869652921
 40
1.519579869652921
 10
-108.4119142641102
 20
-36.11456393386446
 30
0.0
 10
-108.4296264652875
 20
-36.12167684274243
 30
0.0
 10
-108.5435760427123
 20
-36.16743699151163
 30
0.0
 10
-108.7412741525879
 20
-36.26000189261004
 30
0.0
 10
-108.9826630426214
 20
-36.41032113826848
 30
0.0
 10
-109.1756839676355
 20
-36.57867315559776
 30
0.0
 10
-109.3129866931737
 20
-36.76013850923878
 30
0.0
 10
-109.4000203879343
 20
-36.94774046489193
 30
0.0
 10
-109.4169232724013
 20
-37.07648097659793
 30
0.0
 10
-109.4250900699769
 20
-37.1386832415978
 30
0.0
 11
-108.4119142641102
 21
-36.11456393386446
 31
0.0
 11
-108.4649905649102
 21
-36.1360578719978
 31
0.0
 11
-108.7461101414435
 21
-36.2693850591978
 31
0.0
 11
-108.9866825958436
 21
-36.42232356906446
 31
0.0
 11
-109.1765665734436
 21
-36.5917494975978
 31
0.0
 11
-109.3106622427769
 21
-36.77108922346446
 31
0.0
 11
-109.3916566993102
 21
-36.95436961386446
 31
0.0
 11
-109.4250900699769
 21
-37.1386832415978
 31
0.0
  0
LWPOLYLINE
  5
B9
100
AcDbEntity
  8
0
  6
HIDDEN
 62
     9
 48
0.5
100
AcDbPolyline
 90
        8
 70
     0
 43
0.0
 10
-106.991547
 20
-38.130031
 10
-106.992204
 20
-38.130086
 10
-106.997796
 20
-38.136288
 10
-107.00339
 20
-38.152461
 10
-107.008742
 20
-38.177899
 10
-107.013618
 20
-38.21149
 10
-107.017805
 20
-38.251766
 10
-107.021121
 20
-38.296967
  0
LWPOLYLINE
  5
BA
100
AcDbEntity
  8
0
  6
HIDDEN
 62
     9
 48
0.5
100
AcDbPolyline
 90
       10
 70
     0
 43
0.0
 10
-106.974585
 20
-38.431921
 10
-106.972286
 20
-38.383772
 10
-106.971105
 20
-38.334778
 10
-106.971093
 20
-38.28708
 10
-106.972251
 20
-38.242763
 10
-106.974528
 20
-38.203765
 10
-106.977823
 20
-38.171789
 10
-106.981995
 20
-38.148233
 10
-106.986859
 20
-38.134126
 10
-106.991547
 20
-38.130031
  0
LINE
  5
BB
100
AcDbEntity
  8
0
  6
HIDDEN
 62
     9
 48
0.5
100
AcDbLine
 10
-107.056112
 20
-38.485486
 30
0.0
 11
-107.026414
 21
-37.991621
 31
0.0
  0
LWPOLYLINE
  5
BC
100
AcDbEntity
  8
0
  6
HIDDEN
 62
     9
 48
0.5
100
AcDbPolyline
 90
        8
 70
     0
 43
0.0
 10
-106.938061
 20
-37.9757
 10
-106.930323
 20
-38.008712
 10
-106.924055
 20
-38.058071
 10
-106.919571
 20
-38.121301
 10
-106.917098
 20
-38.195231
 10
-106.916758
 20
-38.276156
 10
-106.918569
 20
-38.360015
 10
-106.92244
 20
-38.442606
  0
LINE
  5
BD
100
AcDbEntity
  8
0
  6
HIDDEN
 62
     9
 48
0.5
100
AcDbLine
 10
-106.917176
 20
-37.504775
 30
0.0
 11
-106.886285
 21
-38.522443
 31
0.0
  0
LWPOLYLINE
  5
BE
100
AcDbEntity
  8
0
  6
HIDDEN
 62
     9
 48
0.5
100
AcDbPolyline
 90
       12
 70
     0
 43
0.0
 10
-106.950431
 20
-37.496417
 10
-106.981029
 20
-37.498837
 10
-107.012297
 20
-37.58533
 10
-107.041194
 20
-37.747467
 10
-107.064917
 20
-37.969473
 10
-107.081174
 20
-38.229978
 10
-107.088373
 20
-38.503492
 10
-107.085817
 20
-38.763611
 10
-107.073748
 20
-38.985012
 10
-107.053355
 20
-39.146056
 10
-107.026593
 20
-39.231297
 10
-106.995548
 20
-39.231625
  0
SPLINE
  5
BF
100
AcDbEntity
  8
0
  6
HIDDEN
 62
     9
 48
0.5
100
AcDbSpline
210
0.0
220
0.0
230
1.0
 70
     8
 71
     3
 72
    15
 73
    11
 74
     9
 42
0.0000001
 43
0.0000001
 44
0.0000000001
 40
0.0
 40
0.0
 40
0.0
 40
0.0
 40
0.194396709195105
 40
0.4037122076426403
 40
0.639121126425196
 40
0.9078069478029517
 40
1.208269872396169
 40
1.536179842328078
 40
1.891246569954985
 40
2.158916874183577
 40
2.158916874183577
 40
2.158916874183577
 40
2.158916874183577
 10
-109.4400859622435
 20
-37.38805875733113
 30
0.0
 10
-109.4392268293641
 20
-37.45318221936296
 30
0.0
 10
-109.4374426302754
 20
-37.58842698114449
 30
0.0
 10
-109.3676111634214
 20
-37.79318720001391
 30
0.0
 10
-109.2427585015465
 20
-37.99724929400232
 30
0.0
 10
-109.0570976682556
 20
-38.19317137124599
 30
0.0
 10
-108.8190369481006
 20
-38.37553613556136
 30
0.0
 10
-108.5364507683686
 20
-38.54275376699878
 30
0.0
 10
-108.2506496814147
 20
-38.68050960455547
 30
0.0
 10
-108.0578168598644
 20
-38.75743117728267
 30
0.0
 10
-107.9749317617102
 20
-38.79049428373113
 30
0.0
 11
-109.4400859622435
 21
-37.38805875733113
 31
0.0
 11
-109.4276946513102
 21
-37.58206013866447
 31
0.0
 11
-109.3639850161102
 21
-37.78144434133113
 31
0.0
 11
-109.2424530438435
 21
-37.98305619306447
 31
0.0
 11
-109.0600395963769
 21
-38.18033114026447
 31
0.0
 11
-108.8231650491769
 21
-38.36517815253113
 31
0.0
 11
-108.5421612027769
 21
-38.5341804799978
 31
0.0
 11
-108.2225498363769
 21
-38.68884448853113
 31
0.0
 11
-107.9749317617102
 21
-38.79049428373113
 31
0.0
  0
SPLINE
  5
C0
100
AcDbEntity
  8
0
  6
HIDDEN
 62
     9
 48
0.5
100
AcDbSpline
210
0.0
220
0.0
230
1.0
 70
     8
 71
     3
 72
     9
 73
     5
 74
     3
 42
0.0000001
 43
0.0000001
 44
0.0000000001
 40
0.0
 40
0.0
 40
0.0
 40
0.0
 40
0.0295462380552419
 40
0.0571555822139575
 40
0.0571555822139575
 40
0.0571555822139575
 40
0.0571555822139575
 10
-106.9091465329102
 20
-38.73853165973113
 30
0.0
 10
-106.9083510725229
 20
-38.72871508236585
 30
0.0
 10
-106.9068122978916
 20
-38.70972545012867
 30
0.0
 10
-106.9053356930167
 20
-38.69073088369567
 30
0.0
 10
-106.9046224102435
 20
-38.68155544533113
 30
0.0
 11
-106.9091465329102
 21
-38.73853165973113
 31
0.0
 11
-106.9067767654436
 21
-38.70908060906446
 31
0.0
 11
-106.9046224102435
 21
-38.68155544533113
 31
0.0
  0
SPLINE
  5
C1
100
AcDbEntity
  8
0
  6
HIDDEN
 62
     9
 48
0.5
100
AcDbSpline
210
-0.9965625980200664
220
0.0828431543791967
230
0.0
 70
    24
 71
     3
 72
     8
 73
     4
 74
     2
 42
0.0000001
 43
0.0000001
 44
0.0000000001
 40
0.0
 40
0.0
 40
0.0
 40
0.0
 40
0.0315408430898139
 40
0.0315408430898139
 40
0.0315408430898139
 40
0.0315408430898139
 10
-106.9117594758436
 20
-38.76996408426446
 30
0.0
 10
-106.9108884948658
 20
-38.75948660942002
 30
0.0
 10
-106.910017513888
 20
-38.74900913457557
 30
0.0
 10
-106.9091465329102
 20
-38.73853165973113
 30
0.0
 11
-106.9117594758436
 21
-38.76996408426446
 31
0.0
 11
-106.9091465329102
 21
-38.73853165973113
 31
0.0
  0
SPLINE
  5
C2
100
AcDbEntity
  8
0
  6
HIDDEN
 62
     9
 48
0.5
100
AcDbSpline
210
0.0
220
0.0
230
-1.0
 70
     8
 71
     3
 72
    15
 73
    11
 74
     9
 42
0.0000001
 43
0.0000001
 44
0.0000000001
 40
0.0
 40
0.0
 40
0.0
 40
0.0
 40
0.0246026956874787
 40
0.0541766445686988
 40
0.0879698042256322
 40
0.1251465179425076
 40
0.1647867870885782
 40
0.2058741818647853
 40
0.2473148578477405
 40
0.2878569433205367
 40
0.2878569433205367
 40
0.2878569433205367
 40
0.2878569433205367
 10
-107.0508521115769
 20
-38.77288545173113
 30
0.0
 10
-107.051985956446
 20
-38.76476180325006
 30
0.0
 10
-107.0544827523764
 20
-38.74687303114353
 30
0.0
 10
-107.0568113391912
 20
-38.71762865660662
 30
0.0
 10
-107.0586387055686
 20
-38.68416356959882
 30
0.0
 10
-107.0596904021424
 20
-38.64730401533918
 30
0.0
 10
-107.0600019085942
 20
-38.60800142960385
 30
0.0
 10
-107.0595136655401
 20
-38.56727959138031
 30
0.0
 10
-107.0583157297569
 20
-38.52626986295426
 30
0.0
 10
-107.0568413309881
 20
-38.49898119926974
 30
0.0
 10
-107.0561122118435
 20
-38.4854864191978
 30
0.0
 11
-107.0508521115769
 21
-38.77288545173113
 31
0.0
 11
-107.0540344859769
 21
-38.74848944533113
 31
0.0
 11
-107.0565851579769
 21
-38.7190256959978
 31
0.0
 11
-107.0584377542435
 21
-38.68528335573113
 31
0.0
 11
-107.0595434417102
 21
-38.6481230879978
 31
0.0
 11
-107.0598688678435
 21
-38.60848415466446
 31
0.0
 11
-107.0593977169102
 21
-38.56739946133113
 31
0.0
 11
-107.0581341563769
 21
-38.52597805333113
 31
0.0
 11
-107.0561122118435
 21
-38.4854864191978
 31
0.0
  0
SPLINE
  5
C3
100
AcDbEntity
  8
0
  6
HIDDEN
 62
     9
 48
0.5
100
AcDbSpline
210
0.3583518946309727
220
0.9335865892430078
230
0.0
 70
    24
 71
     3
 72
     8
 73
     4
 74
     2
 42
0.0000001
 43
0.0000001
 44
0.0000000001
 40
0.0
 40
0.0
 40
0.0
 40
0.0
 40
0.0107041480477675
 40
0.0107041480477675
 40
0.0107041480477675
 40
0.0107041480477675
 10
-107.9749317617102
 20
-38.79049428373113
 30
0.0
 10
-107.971600678688
 20
-38.79177290097557
 30
0.0
 10
-107.9682695956658
 20
-38.79305151822001
 30
0.0
 10
-107.9649385126435
 20
-38.79433013546446
 30
0.0
 11
-107.9749317617102
 21
-38.79049428373113
 31
0.0
 11
-107.9649385126435
 21
-38.79433013546446
 31
0.0
  0
SPLINE
  5
C4
100
AcDbEntity
  8
0
  6
HIDDEN
 62
     9
 48
0.5
100
AcDbSpline
210
-0.8985939341671828
220
0.4387812000051336
230
0.0
 70
    24
 71
     3
 72
     8
 73
     4
 74
     2
 42
0.0000001
 43
0.0000001
 44
0.0000000001
 40
0.0
 40
0.0
 40
0.0
 40
0.0
 40
0.0929160684175433
 40
0.0929160684175433
 40
0.0929160684175433
 40
0.0929160684175433
 10
-107.1351101691769
 20
-39.46140563733113
 30
0.0
 10
-107.1215202278436
 20
-39.43357436550891
 30
0.0
 10
-107.1079302865102
 20
-39.40574309368669
 30
0.0
 10
-107.0943403451769
 20
-39.37791182186446
 30
0.0
 11
-107.1351101691769
 21
-39.46140563733113
 31
0.0
 11
-107.0943403451769
 21
-39.37791182186446
 31
0.0
  0
SPLINE
  5
C5
100
AcDbEntity
  8
0
  6
HIDDEN
 62
     9
 48
0.5
100
AcDbSpline
210
0.0
220
0.0
230
1.0
 70
     8
 71
     3
 72
    11
 73
     7
 74
     5
 42
0.0000001
 43
0.0000001
 44
0.0000000001
 40
0.0
 40
0.0
 40
0.0
 40
0.0
 40
0.0209826328236583
 40
0.0301983842191378
 40
0.0337129426431954
 40
0.0339177064319377
 40
0.0339177064319377
 40
0.0339177064319377
 40
0.0339177064319377
 10
-107.5898031366435
 20
-38.91704045013113
 30
0.0
 10
-107.5842785756706
 20
-38.91905584188625
 30
0.0
 10
-107.5763275803735
 20
-38.92195641089896
 30
0.0
 10
-107.5607541165175
 20
-38.92930260291656
 30
0.0
 10
-107.5650334398209
 20
-38.93289730892792
 30
0.0
 10
-107.566210011717
 20
-38.93327303729249
 30
0.0
 10
-107.5662747867769
 20
-38.93329372266446
 30
0.0
 11
-107.5898031366435
 21
-38.91704045013113
 31
0.0
 11
-107.5703332625102
 21
-38.92486316586446
 31
0.0
 11
-107.5634094705102
 21
-38.9309452031978
 31
0.0
 11
-107.5660802982436
 21
-38.93322967253113
 31
0.0
 11
-107.5662747867769
 21
-38.93329372266446
 31
0.0
  0
LINE
  5
C6
100
AcDbEntity
  8
0
  6
HIDDEN
 62
     9
 48
0.5
100
AcDbLine
 10
-107.566295
 20
-38.933228
 30
0.0
 11
-107.569091
 21
-38.932704
 31
0.0
  0
LINE
  5
C7
100
AcDbEntity
  8
0
  6
HIDDEN
 62
     9
 48
0.5
100
AcDbLine
 10
-107.589803
 20
-38.91704
 30
0.0
 11
-106.995629
 21
-38.933032
 31
0.0
  0
LINE
  5
C8
100
AcDbEntity
  8
0
  6
HIDDEN
 62
     9
 48
0.5
100
AcDbLine
 10
-107.566386
 20
-38.933226
 30
0.0
 11
-106.98413
 21
-38.948897
 31
0.0
  0
LINE
  5
C9
100
AcDbEntity
  8
0
  6
HIDDEN
 62
     9
 48
0.5
100
AcDbLine
 10
-107.156003
 20
-39.452274
 30
0.0
 11
-106.99554
 21
-39.231615
 31
0.0
  0
LWPOLYLINE
  5
CA
100
AcDbEntity
  8
0
  6
HIDDEN
 62
     9
 48
0.5
100
AcDbPolyline
 90
        3
 70
     0
 43
0.0
 10
-106.995548
 20
-39.231625
 10
-106.9648
 20
-39.149229
 10
-106.93575
 20
-38.989952
  0
LWPOLYLINE
  5
CB
100
AcDbEntity
  8
0
  6
HIDDEN
 62
     9
 48
0.5
100
AcDbPolyline
 90
        3
 70
     0
 43
0.0
 10
-106.984137
 20
-38.948882
 10
-106.986808
 20
-38.948043
 10
-106.995629
 20
-38.933032
  0
LINE
  5
CC
100
AcDbEntity
  8
0
  6
HIDDEN
 62
     9
 48
0.5
100
AcDbLine
 10
-106.93575
 20
-38.989952
 30
0.0
 11
-106.911759
 21
-38.769964
 31
0.0
  0
LWPOLYLINE
  5
CD
100
AcDbEntity
  8
0
  6
HIDDEN
 62
     9
 48
0.5
100
AcDbPolyline
 90
        7
 70
     0
 43
0.0
 10
-106.936832
 20
-38.681939
 10
-106.942569
 20
-38.759118
 10
-106.949884
 20
-38.827017
 10
-106.95841
 20
-38.88223
 10
-106.96772
 20
-38.921988
 10
-106.977347
 20
-38.944299
 10
-106.984137
 20
-38.948882
  0
LINE
  5
CE
100
AcDbEntity
  8
0
  6
HIDDEN
 62
     9
 48
0.5
100
AcDbLine
 10
-106.995629
 20
-38.933032
 30
0.0
 11
-107.050852
 21
-38.772885
 31
0.0
  0
SPLINE
  5
CF
100
AcDbEntity
  8
0
  6
HIDDEN
 62
     9
 48
0.5
100
AcDbSpline
210
0.0
220
0.0
230
1.0
 70
     8
 71
     3
 72
     9
 73
     5
 74
     3
 42
0.0000001
 43
0.0000001
 44
0.0000000001
 40
0.0
 40
0.0
 40
0.0
 40
0.0
 40
0.1045668869706209
 40
0.4193261839390962
 40
0.4193261839390962
 40
0.4193261839390962
 40
0.4193261839390962
 10
-107.9649385126435
 20
-38.79433013546446
 30
0.0
 10
-107.9323328140952
 20
-38.80665585208248
 30
0.0
 10
-107.8015799195312
 20
-38.85608350421483
 30
0.0
 10
-107.6688028339956
 20
-38.89985213789568
 30
0.0
 10
-107.5691362171769
 20
-38.93270623786446
 30
0.0
 11
-107.9649385126435
 21
-38.79433013546446
 31
0.0
 11
-107.8669955430435
 21
-38.83095538026447
 31
0.0
 11
-107.5691362171769
 21
-38.93270623786446
 31
0.0
  0
LINE
  5
D0
100
AcDbEntity
  8
0
  6
HIDDEN
 62
     9
 48
0.5
100
AcDbLine
 10
-107.589803
 20
-38.91704
 30
0.0
 11
-107.940617
 21
-38.7911
 31
0.0
  0
LWPOLYLINE
  5
D1
100
AcDbEntity
  8
0
  6
HIDDEN
 62
     9
 48
0.5
100
AcDbPolyline
 90
        3
 70
     0
 43
0.0
 10
-106.934508
 20
-38.643289
 10
-108.012238
 20
-38.281227
 10
-108.256638
 20
-38.182729
  0
LWPOLYLINE
  5
D2
100
AcDbEntity
  8
0
  6
HIDDEN
 62
     9
 48
0.5
100
AcDbPolyline
 90
        6
 70
     0
 43
0.0
 10
-108.779371
 20
-37.926614
 10
-108.956414
 20
-37.818324
 10
-109.162996
 20
-37.653619
 10
-109.311083
 20
-37.486778
 10
-109.398999
 20
-37.319691
 10
-109.42509
 20
-37.138683
  0
LINE
  5
D3
100
AcDbEntity
  8
0
  6
HIDDEN
 62
     9
 48
0.5
100
AcDbLine
 10
-109.440086
 20
-37.388059
 30
0.0
 11
-109.42509
 21
-37.138683
 31
0.0
  0
SPLINE
  5
D4
100
AcDbEntity
  8
0
  6
CONTINUOUS
100
AcDbSpline
210
0.0
220
0.0
230
1.0
 70
     8
 71
     3
 72
    10
 73
     6
 74
     4
 42
0.0000001
 43
0.0000001
 44
0.0000000001
 40
0.0
 40
0.0
 40
0.0
 40
0.0
 40
0.0789762636591899
 40
0.1561342844579393
 40
0.2325970540292052
 40
0.2325970540292052
 40
0.2325970540292052
 40
0.2325970540292052
 10
-106.7256146801102
 20
-36.9817339103978
 30
0.0
 10
-106.7516059978314
 20
-36.98605364642284
 30
0.0
 10
-106.8029902442682
 20
-36.99459366670321
 30
0.0
 10
-106.8809701863725
 20
-36.99535278464113
 30
0.0
 10
-106.9316277197877
 20
-36.98750726963278
 30
0.0
 10
-106.9568418545102
 20
-36.9836022655978
 30
0.0
 11
-106.7256146801102
 21
-36.9817339103978
 31
0.0
 11
-106.8038345030435
 21
-36.99263847466446
 31
0.0
 11
-106.8809901051769
 21
-36.99324940266446
 31
0.0
 11
-106.9568418545102
 21
-36.9836022655978
 31
0.0
  0
SPLINE
  5
D5
100
AcDbEntity
  8
0
  6
HIDDEN
 62
     9
 48
0.5
100
AcDbSpline
210
0.0
220
0.0
230
1.0
 70
     8
 71
     3
 72
    10
 73
     6
 74
     4
 42
0.0000001
 43
0.0000001
 44
0.0000000001
 40
0.0
 40
0.0
 40
0.0
 40
0.0
 40
0.0138409831092748
 40
0.0271122361621159
 40
0.0397904419203257
 40
0.0397904419203257
 40
0.0397904419203257
 40
0.0397904419203257
 10
-106.9504294523769
 20
-37.49641581653113
 30
0.0
 10
-106.9530908640941
 20
-37.49264643988945
 30
0.0
 10
-106.9583041370555
 20
-37.48526284373258
 30
0.0
 10
-106.9667202771377
 20
-37.47498595395728
 30
0.0
 10
-106.9727719206793
 20
-37.46880139884012
 30
0.0
 10
-106.9757285905102
 20
-37.4657797919978
 30
0.0
 11
-106.9504294523769
 21
-37.49641581653113
 31
0.0
 11
-106.9585495419769
 21
-37.4852070271978
 31
0.0
 11
-106.9669929787769
 21
-37.4749681535978
 31
0.0
 11
-106.9757285905102
 21
-37.4657797919978
 31
0.0
  0
SPLINE
  5
D6
100
AcDbEntity
  8
0
  6
HIDDEN
 62
     9
 48
0.5
100
AcDbSpline
210
0.0
220
0.0
230
1.0
 70
     8
 71
     3
 72
    15
 73
    11
 74
     9
 42
0.0000001
 43
0.0000001
 44
0.0000000001
 40
0.0
 40
0.0
 40
0.0
 40
0.0
 40
0.0386619634242457
 40
0.074322538380019
 40
0.1058636503498424
 40
0.1324543513811672
 40
0.1535121470582063
 40
0.1687183531263394
 40
0.1780778089897464
 40
0.1816888144214024
 40
0.1816888144214024
 40
0.1816888144214024
 40
0.1816888144214024
 10
-107.5646358481102
 20
-37.01076787413113
 30
0.0
 10
-107.5654828996642
 20
-37.02362871941958
 30
0.0
 10
-107.5671112448402
 20
-37.04835200253539
 30
0.0
 10
-107.5704486434376
 20
-37.08347579510325
 30
0.0
 10
-107.5742172130985
 20
-37.11455116579432
 30
0.0
 10
-107.5784337390352
 20
-37.14051930024758
 30
0.0
 10
-107.5826789685175
 20
-37.16130081228537
 30
0.0
 10
-107.5874197338106
 20
-37.17523723514708
 30
0.0
 10
-107.5910395829726
 20
-37.18490197777342
 30
0.0
 10
-107.595142928791
 20
-37.18655568020827
 30
0.0
 10
-107.5962853094436
 20
-37.18701607466447
 30
0.0
 11
-107.5646358481102
 21
-37.01076787413113
 31
0.0
 11
-107.5673704017102
 21
-37.04933300906446
 31
0.0
 11
-107.5707422822435
 21
-37.08483381226447
 31
0.0
 11
-107.5746397265102
 21
-37.11613319999779
 31
0.0
 11
-107.5789404614436
 21
-37.14237379946447
 31
0.0
 11
-107.5835189179769
 21
-37.16292783786446
 31
0.0
 11
-107.5882584401102
 21
-37.17737656213113
 31
0.0
 11
-107.5930470566436
 21
-37.18541823893113
 31
0.0
 11
-107.5962853094436
 21
-37.18701607466447
 31
0.0
  0
LINE
  5
D7
100
AcDbEntity
  8
0
  6
HIDDEN
 62
     9
 48
0.5
100
AcDbLine
 10
-107.596275
 20
-37.187103
 30
0.0
 11
-107.597766
 21
-37.186835
 31
0.0
  0
LWPOLYLINE
  5
D8
100
AcDbEntity
  8
0
  6
HIDDEN
 62
     9
 48
0.5
100
AcDbPolyline
 90
        3
 70
     0
 43
0.0
 10
-107.620548
 20
-37.418952
 10
-107.604063
 20
-37.385
 10
-107.574569
 20
-37.264475
  0
LINE
  5
D9
100
AcDbEntity
  8
0
  6
HIDDEN
 62
     9
 48
0.5
100
AcDbLine
 10
-107.652989
 20
-37.026689
 30
0.0
 11
-107.597766
 21
-37.186835
 31
0.0
  0
SPLINE
  5
DA
100
AcDbEntity
  8
0
  6
HIDDEN
 62
     9
 48
0.5
100
AcDbSpline
210
0.0
220
0.0
230
1.0
 70
     8
 71
     3
 72
    22
 73
    18
 74
    16
 42
0.0000001
 43
0.0000001
 44
0.0000000001
 40
0.0
 40
0.0
 40
0.0
 40
0.0
 40
0.0163557024200532
 40
0.0314222832759355
 40
0.0407410626100538
 40
0.0437524309484654
 40
0.0457480135945098
 40
0.0488366120405622
 40
0.0529139989351675
 40
0.0577889723940061
 40
0.0633179131320718
 40
0.0693765887901184
 40
0.0758530300345866
 40
0.08264862289759
 40
0.0896572432150018
 40
0.0967593604462716
 40
0.1038196992627448
 40
0.1038196992627448
 40
0.1038196992627448
 40
0.1038196992627448
 10
-106.9171757713102
 20
-37.5047749951978
 30
0.0
 10
-106.917018878188
 20
-37.51018844394434
 30
0.0
 10
-106.9167174579247
 20
-37.5205886649587
 30
0.0
 10
-106.9172995647261
 20
-37.53461482057946
 30
0.0
 10
-106.9176527816323
 20
-37.54285317620881
 30
0.0
 10
-106.9200456095861
 20
-37.54846959569587
 30
0.0
 10
-106.9230013356297
 20
-37.54705258073055
 30
0.0
 10
-106.9245837223628
 20
-37.54452200275482
 30
0.0
 10
-106.9266891164644
 20
-37.54106911521091
 30
0.0
 10
-106.9288385893242
 20
-37.53675394123986
 30
0.0
 10
-106.9312205957911
 20
-37.53180791702973
 30
0.0
 10
-106.9337844361905
 20
-37.52636034923337
 30
0.0
 10
-106.9365682480251
 20
-37.52054891738098
 30
0.0
 10
-106.9395849687309
 20
-37.51449825233372
 30
0.0
 10
-106.9428726093852
 20
-37.50835351372412
 30
0.0
 10
-106.9464145087911
 20
-37.50224335221274
 30
0.0
 10
-106.9490946087831
 20
-37.49835504757923
 30
0.0
 10
-106.9504307057102
 20
-37.4964166303978
 30
0.0
 11
-106.9171757713102
 21
-37.5047749951978
 31
0.0
 11
-106.9169083953102
 21
-37.5211285119978
 31
0.0
 11
-106.9173687003769
 21
-37.53618805973113
 31
0.0
 11
-106.9188196710436
 21
-37.54539318506447
 31
0.0
 11
-106.9205740198436
 21
-37.54784075519779
 31
0.0
 11
-106.9224515782436
 21
-37.54716464533113
 31
0.0
 11
-106.9244157777102
 21
-37.5447810847978
 31
0.0
 11
-106.9265005894436
 21
-37.54127699519779
 31
0.0
 11
-106.9287329798435
 21
-37.53694319786446
 31
0.0
 11
-106.9311366619769
 21
-37.53196409173113
 31
0.0
 11
-106.9337312315769
 21
-37.52648907946447
 31
0.0
 11
-106.9365372635769
 21
-37.52065208746447
 31
0.0
 11
-106.9395817403769
 21
-37.51457662506446
 31
0.0
 11
-106.9428928678435
 21
-37.50839947413113
 31
0.0
 11
-106.9464996411769
 21
-37.50228136533113
 31
0.0
 11
-106.9504307057102
 21
-37.4964166303978
 31
0.0
  0
SPLINE
  5
DB
100
AcDbEntity
  8
0
  6
HIDDEN
 62
     9
 48
0.5
100
AcDbSpline
210
-0.0811601644942327
220
0.9967010723879397
230
0.0
 70
    24
 71
     3
 72
     8
 73
     4
 74
     2
 42
0.0000001
 43
0.0000001
 44
0.0000000001
 40
0.0
 40
0.0
 40
0.0
 40
0.0
 40
0.0105336799810838
 40
0.0105336799810838
 40
0.0105336799810838
 40
0.0105336799810838
 10
-107.7888503153102
 20
-37.19903953173114
 30
0.0
 10
-107.792349958688
 20
-37.19932450346446
 30
0.0
 10
-107.7958496020658
 20
-37.1996094751978
 30
0.0
 10
-107.7993492454435
 20
-37.19989444693113
 30
0.0
 11
-107.7888503153102
 21
-37.19903953173114
 31
0.0
 11
-107.7993492454435
 21
-37.19989444693113
 31
0.0
  0
LINE
  5
DC
100
AcDbEntity
  8
0
  6
HIDDEN
 62
     9
 48
0.5
100
AcDbLine
 10
-107.788825
 20
-37.199893
 30
0.0
 11
-107.79934
 21
-37.200612
 31
0.0
  0
SPLINE
  5
DD
100
AcDbEntity
  8
0
  6
HIDDEN
 62
     9
 48
0.5
100
AcDbSpline
210
-0.0618224855042196
220
0.9980871606658812
230
0.0
 70
    24
 71
     3
 72
     8
 73
     4
 74
     2
 42
0.0000001
 43
0.0000001
 44
0.0000000001
 40
0.0
 40
0.0
 40
0.0
 40
0.0
 40
0.1929446678833666
 40
0.1929446678833666
 40
0.1929446678833666
 40
0.1929446678833666
 10
-107.5962747195769
 20
-37.1871112127978
 30
0.0
 10
-107.6604665848213
 20
-37.19108731910891
 30
0.0
 10
-107.7246584500658
 20
-37.19506342542002
 30
0.0
 10
-107.7888503153102
 20
-37.19903953173114
 30
0.0
 11
-107.5962747195769
 21
-37.1871112127978
 31
0.0
 11
-107.7888503153102
 21
-37.19903953173114
 31
0.0
  0
LINE
  5
DE
100
AcDbEntity
  8
0
  6
HIDDEN
 62
     9
 48
0.5
100
AcDbLine
 10
-107.597766
 20
-37.186835
 30
0.0
 11
-107.788825
 21
-37.199893
 31
0.0
  0
LWPOLYLINE
  5
DF
100
AcDbEntity
  8
0
  6
HIDDEN
 62
     9
 48
0.5
100
AcDbPolyline
 90
        6
 70
     0
 43
0.0
 10
-107.712583
 20
-36.877612
 10
-107.70369
 20
-37.105767
 10
-107.686551
 20
-37.283615
 10
-107.66272
 20
-37.395039
 10
-107.634378
 20
-37.429891
 10
-107.620548
 20
-37.418952
  0
SPLINE
  5
E0
100
AcDbEntity
  8
0
  6
CONTINUOUS
100
AcDbSpline
210
0.0
220
0.0
230
1.0
 70
     8
 71
     3
 72
    10
 73
     6
 74
     4
 42
0.0000001
 43
0.0000001
 44
0.0000000001
 40
0.0
 40
0.0
 40
0.0
 40
0.0
 40
0.0830593567162927
 40
0.1694652764272785
 40
0.2607121622133247
 40
0.2607121622133247
 40
0.2607121622133247
 40
0.2607121622133247
 10
-106.8267812294436
 20
-36.8991168863978
 30
0.0
 10
-106.7994016916649
 20
-36.89472004654138
 30
0.0
 10
-106.7435394610682
 20
-36.88574921277703
 30
0.0
 10
-106.661311860562
 20
-36.85576987806054
 30
0.0
 10
-106.6095948806457
 20
-36.82683346999091
 30
0.0
 10
-106.5830317574435
 20
-36.81197101333113
 30
0.0
 11
-106.8267812294436
 21
-36.8991168863978
 31
0.0
 11
-106.7452224059769
 21
-36.88340017386446
 31
0.0
 11
-106.6638592113102
 21
-36.8543138623978
 31
0.0
 11
-106.5830317574435
 21
-36.81197101333113
 31
0.0
  0
SPLINE
  5
E1
100
AcDbEntity
  8
0
  6
CONTINUOUS
100
AcDbSpline
210
0.0
220
0.0
230
1.0
 70
     8
 71
     3
 72
    10
 73
     6
 74
     4
 42
0.0000001
 43
0.0000001
 44
0.0000000001
 40
0.0
 40
0.0
 40
0.0
 40
0.0
 40
0.1115066653880564
 40
0.2190265592215705
 40
0.3251154095771628
 40
0.3251154095771628
 40
0.3251154095771628
 40
0.3251154095771628
 10
-106.4375265734435
 20
-36.83786544533114
 30
0.0
 10
-106.4669196933326
 20
-36.86068851562648
 30
0.0
 10
-106.5246550214558
 20
-36.90551864789044
 30
0.0
 10
-106.6222591748463
 20
-36.95492693686821
 30
0.0
 10
-106.6913170597387
 20
-36.97283825071254
 30
0.0
 10
-106.7256146801102
 20
-36.9817339103978
 30
0.0
 11
-106.4375265734435
 21
-36.83786544533114
 31
0.0
 11
-106.5277844539769
 21
-36.90334255146447
 31
0.0
 11
-106.6239377563769
 21
-36.95145772586446
 31
0.0
 11
-106.7256146801102
 21
-36.9817339103978
 31
0.0
  0
SPLINE
  5
E2
100
AcDbEntity
  8
0
  6
HIDDEN
 62
     9
 48
0.5
100
AcDbSpline
210
0.0
220
0.0
230
-1.0
 70
     8
 71
     3
 72
    15
 73
    11
 74
     9
 42
0.0000001
 43
0.0000001
 44
0.0000000001
 40
0.0
 40
0.0
 40
0.0
 40
0.0
 40
0.0386619624356955
 40
0.0743225372906104
 40
0.1058636493922457
 40
0.1324543504235589
 40
0.1535121461006081
 40
0.1687183528498085
 40
0.1780778083424676
 40
0.1821020961221682
 40
0.1821020961221682
 40
0.1821020961221682
 40
0.1821020961221682
 10
-107.0264141958435
 20
-37.99162062826447
 30
0.0
 10
-107.0255671637639
 20
-37.97875970173647
 30
0.0
 10
-107.0239388560072
 20
-37.9540362621786
 30
0.0
 10
-107.0206011975251
 20
-37.91891353508376
 30
0.0
 10
-107.0168334537897
 20
-37.88783480463958
 30
0.0
 10
-107.0126145360526
 20
-37.86187637533595
 30
0.0
 10
-107.0083756038479
 20
-37.84106931499664
 30
0.0
 10
-107.0036203218754
 20
-37.82719178482379
 30
0.0
 10
-106.9999742707325
 20
-37.81727619889284
 30
0.0
 10
-106.9956278117374
 20
-37.81579247708346
 30
0.0
 10
-106.9943208977102
 20
-37.81534634453113
 30
0.0
 11
-107.0264141958435
 21
-37.99162062826447
 31
0.0
 11
-107.0236796411769
 21
-37.9530554943978
 31
0.0
 11
-107.0203077617102
 21
-37.9175546911978
 31
0.0
 11
-107.0164103163769
 21
-37.88625530346446
 31
0.0
 11
-107.0121095814436
 21
-37.8600147039978
 31
0.0
 11
-107.0075311249102
 21
-37.8394606655978
 31
0.0
 11
-107.0027916038436
 21
-37.82501194026446
 31
0.0
 11
-106.9980029862436
 21
-37.81697026453113
 31
0.0
 11
-106.9943208977102
 21
-37.81534634453113
 31
0.0
  0
LINE
  5
E3
100
AcDbEntity
  8
0
  6
HIDDEN
 62
     9
 48
0.5
100
AcDbLine
 10
-106.99432
 20
-37.815296
 30
0.0
 11
-106.993284
 21
-37.815553
 31
0.0
  0
LINE
  5
E4
100
AcDbEntity
  8
0
  6
HIDDEN
 62
     9
 48
0.5
100
AcDbLine
 10
-106.938061
 20
-37.9757
 30
0.0
 11
-106.993284
 21
-37.815553
 31
0.0
  0
SPLINE
  5
E5
100
AcDbEntity
  8
0
  6
HIDDEN
 62
     9
 48
0.5
100
AcDbSpline
210
0.2312297933097239
220
0.9728991636783035
230
0.0
 70
    24
 71
     3
 72
     8
 73
     4
 74
     2
 42
0.0000001
 43
0.0000001
 44
0.0000000001
 40
0.0
 40
0.0
 40
0.0
 40
0.0
 40
0.0772011380734348
 40
0.0772011380734348
 40
0.0772011380734348
 40
0.0772011380734348
 10
-107.7355957350436
 20
-37.69931665173113
 30
0.0
 10
-107.7606320425991
 20
-37.69336625066447
 30
0.0
 10
-107.7856683501547
 20
-37.6874158495978
 30
0.0
 10
-107.8107046577102
 20
-37.68146544853113
 30
0.0
 11
-107.7355957350436
 21
-37.69931665173113
 31
0.0
 11
-107.8107046577102
 21
-37.68146544853113
 31
0.0
  0
SPLINE
  5
E6
100
AcDbEntity
  8
0
  6
HIDDEN
 62
     9
 48
0.5
100
AcDbSpline
210
0.0
220
0.0
230
1.0
 70
     8
 71
     3
 72
    10
 73
     6
 74
     4
 42
0.0000001
 43
0.0000001
 44
0.0000000001
 40
0.0
 40
0.0
 40
0.0
 40
0.0
 40
0.2612363485075256
 40
0.5140177170334131
 40
0.7507524179377435
 40
0.7507524179377435
 40
0.7507524179377435
 40
0.7507524179377435
 10
-106.9943202139769
 20
-37.81528869653113
 30
0.0
 10
-107.0809147081062
 20
-37.80606531283672
 30
0.0
 10
-107.2513010438298
 20
-37.78791706257594
 30
0.0
 10
-107.4987590309342
 20
-37.74959448378169
 30
0.0
 10
-107.658394486383
 20
-37.71570562922869
 30
0.0
 10
-107.7355957350436
 20
-37.69931665173113
 30
0.0
 11
-106.9943202139769
 21
-37.81528869653113
 31
0.0
 11
-107.2538559281102
 21
-37.7855289439978
 31
0.0
 11
-107.5035907579769
 21
-37.7464017791978
 31
0.0
 11
-107.7355957350436
 21
-37.69931665173113
 31
0.0
  0
SPLINE
  5
E7
100
AcDbEntity
  8
0
  6
HIDDEN
 62
     9
 48
0.5
100
AcDbSpline
210
0.0
220
0.0
230
-1.0
 70
     8
 71
     3
 72
    13
 73
     9
 74
     0
 42
0.0000001
 43
0.0000001
 40
0.0
 40
0.0
 40
0.0
 40
0.0
 40
0.0235821028530107
 40
0.236006711454257
 40
0.4266494643642545
 40
0.5915567747896895
 40
0.7274143272363385
 40
0.7953596843175826
 40
0.7953596843175826
 40
0.7953596843175826
 40
0.7953596843175826
 10
-107.7993492454435
 20
-37.19989444693113
 30
0.0
 10
-107.807182302238
 20
-37.2005526131977
 30
0.0
 10
-107.8855745468231
 20
-37.20713945819325
 30
0.0
 10
-108.0270106114515
 20
-37.22263614540666
 30
0.0
 10
-108.2140154713344
 20
-37.25270241927592
 30
0.0
 10
-108.3740521733781
 20
-37.28826667823932
 30
0.0
 10
-108.4918740366779
 20
-37.32350253405867
 30
0.0
 10
-108.555529037804
 20
-37.34761335438463
 30
0.0
 10
-108.5763973557025
 20
-37.35642868942695
 30
0.0
  0
SPLINE
  5
E8
100
AcDbEntity
  8
0
  6
CONTINUOUS
100
AcDbSpline
210
-0.8704420257683265
220
0.4922709414299532
230
0.0
 70
    24
 71
     3
 72
     8
 73
     4
 74
     2
 42
0.0000001
 43
0.0000001
 44
0.0000000001
 40
0.0
 40
0.0
 40
0.0
 40
0.0
 40
0.1141343176519687
 40
0.1141343176519687
 40
0.1141343176519687
 40
0.1141343176519687
 10
-106.1316760870435
 20
-36.41971679893113
 30
0.0
 10
-106.1504044230435
 20
-36.45283256782002
 30
0.0
 10
-106.1691327590436
 20
-36.48594833670891
 30
0.0
 10
-106.1878610950435
 20
-36.5190641055978
 30
0.0
 11
-106.1316760870435
 21
-36.41971679893113
 31
0.0
 11
-106.1878610950435
 21
-36.5190641055978
 31
0.0
  0
SPLINE
  5
E9
100
AcDbEntity
  8
0
  6
CONTINUOUS
100
AcDbSpline
210
0.0
220
0.0
230
-1.0
 70
     8
 71
     3
 72
     9
 73
     5
 74
     3
 42
0.0000001
 43
0.0000001
 44
0.0000000001
 40
0.0
 40
0.0
 40
0.0
 40
0.0
 40
0.1816726070997756
 40
0.3249529946961589
 40
0.3249529946961589
 40
0.3249529946961589
 40
0.3249529946961589
 10
-106.1617053361102
 20
-36.37369627946446
 30
0.0
 10
-106.1248192413893
 20
-36.32566887908688
 30
0.0
 10
-106.0588420578528
 20
-36.23976353634253
 30
0.0
 10
-105.9928421679601
 20
-36.15387563753651
 30
0.0
 10
-105.9637410673102
 20
-36.11600538666447
 30
0.0
 11
-106.1617053361102
 21
-36.37369627946446
 31
0.0
 11
-106.0510399547769
 21
-36.22961953066447
 31
0.0
 11
-105.9637410673102
 21
-36.11600538666447
 31
0.0
  0
LWPOLYLINE
  5
EA
100
AcDbEntity
  8
0
  6
HIDDEN
 62
     9
 48
0.5
100
AcDbPolyline
 90
        4
 70
     0
 43
0.0
 10
-107.63264
 20
-36.120159
 10
-107.62333
 20
-36.0804
 10
-107.613703
 20
-36.05809
 10
-107.606913
 20
-36.053507
  0
LWPOLYLINE
  5
EB
100
AcDbEntity
  8
0
  6
HIDDEN
 62
     9
 48
0.5
100
AcDbPolyline
 90
        3
 70
     0
 43
0.0
 10
-107.606913
 20
-36.053507
 10
-107.604242
 20
-36.054346
 10
-107.595421
 20
-36.069356
  0
SPLINE
  5
EC
100
AcDbEntity
  8
0
  6
CONTINUOUS
100
AcDbSpline
210
-0.7932444434921426
220
0.6089033198044181
230
0.0
 70
    24
 71
     3
 72
     8
 73
     4
 74
     2
 42
0.0000001
 43
0.0000001
 44
0.0000000001
 40
0.0
 40
0.0
 40
0.0
 40
0.0
 40
0.182539074625232
 40
0.182539074625232
 40
0.182539074625232
 40
0.182539074625232
 10
-106.2728539846435
 20
-36.51849438613113
 30
0.0
 10
-106.2358044351324
 20
-36.47022835057558
 30
0.0
 10
-106.1987548856213
 20
-36.42196231502002
 30
0.0
 10
-106.1617053361102
 20
-36.37369627946446
 30
0.0
 11
-106.2728539846435
 21
-36.51849438613113
 31
0.0
 11
-106.1617053361102
 21
-36.37369627946446
 31
0.0
  0
SPLINE
  5
ED
100
AcDbEntity
  8
0
  6
CONTINUOUS
100
AcDbSpline
210
-0.870132215092603
220
0.4928183521928139
230
0.0
 70
    24
 71
     3
 72
     8
 73
     4
 74
     2
 42
0.0000001
 43
0.0000001
 44
0.0000000001
 40
0.0
 40
0.0
 40
0.0
 40
0.0
 40
0.0223405619622934
 40
0.0223405619622934
 40
0.0223405619622934
 40
0.0223405619622934
 10
-106.1878539206436
 20
-36.51906579093113
 30
0.0
 10
-106.1915238669547
 20
-36.52554553848669
 30
0.0
 10
-106.1951938132658
 20
-36.53202528604225
 30
0.0
 10
-106.1988637595769
 20
-36.5385050335978
 30
0.0
 11
-106.1878539206436
 21
-36.51906579093113
 31
0.0
 11
-106.1988637595769
 21
-36.5385050335978
 31
0.0
  0
SPLINE
  5
EE
100
AcDbEntity
  8
0
  6
CONTINUOUS
100
AcDbSpline
210
0.0
220
0.0
230
1.0
 70
     8
 71
     3
 72
     9
 73
     5
 74
     3
 42
0.0000001
 43
0.0000001
 44
0.0000000001
 40
0.0
 40
0.0
 40
0.0
 40
0.0
 40
0.1696491854430443
 40
0.3611485684456765
 40
0.3611485684456765
 40
0.3611485684456765
 40
0.3611485684456765
 10
-106.5266734075769
 20
-36.77408394453113
 30
0.0
 10
-106.4825255867421
 20
-36.73847449690078
 30
0.0
 10
-106.3885438664478
 20
-36.66266923440418
 30
0.0
 10
-106.3129093150056
 20
-36.56847782041279
 30
0.0
 10
-106.2728040198436
 20
-36.51853273066446
 30
0.0
 11
-106.5266734075769
 21
-36.77408394453113
 31
0.0
 11
-106.3982785073102
 21
-36.66319843733114
 31
0.0
 11
-106.2728040198436
 21
-36.51853273066446
 31
0.0
  0
SPLINE
  5
EF
100
AcDbEntity
  8
0
  6
HIDDEN
 62
     9
 48
0.5
100
AcDbSpline
210
0.0
220
0.0
230
1.0
 70
     8
 71
     3
 72
    15
 73
    11
 74
     9
 42
0.0000001
 43
0.0000001
 44
0.0000000001
 40
0.0
 40
0.0
 40
0.0
 40
0.0
 40
0.0246025253047153
 40
0.0541760834007226
 40
0.0879687721245729
 40
0.1251451963440613
 40
0.1647855542481677
 40
0.2058733658923823
 40
0.2473145420394982
 40
0.2878569445564307
 40
0.2878569445564307
 40
0.2878569445564307
 40
0.2878569445564307
 10
-107.5401979323769
 20
-36.22950305066447
 30
0.0
 10
-107.5390640937826
 20
-36.23762664266126
 30
0.0
 10
-107.5365673202406
 20
-36.25551522897836
 30
0.0
 10
-107.5342387472921
 20
-36.28475925913281
 30
0.0
 10
-107.5324113778338
 20
-36.31822396167678
 30
0.0
 10
-107.5313596642539
 20
-36.3550832914357
 30
0.0
 10
-107.5310481295067
 20
-36.39438594901772
 30
0.0
 10
-107.5315363583745
 20
-36.43510812277759
 30
0.0
 10
-107.5327342944999
 20
-36.47611826284438
 30
0.0
 10
-107.5342087067823
 20
-36.50340719862262
 30
0.0
 10
-107.5349378310435
 20
-36.51690208426446
 30
0.0
 11
-107.5401979323769
 21
-36.22950305066447
 31
0.0
 11
-107.5370155750436
 21
-36.25389888746446
 31
0.0
 11
-107.5344649243769
 21
-36.2833622463978
 31
0.0
 11
-107.5326123313102
 21
-36.3171041151978
 31
0.0
 11
-107.5315066267769
 21
-36.3542640927978
 31
0.0
 11
-107.5311811729102
 21
-36.39390311466446
 31
0.0
 11
-107.5316523089102
 21
-36.43498822506446
 31
0.0
 11
-107.5329158737102
 21
-36.47641013333113
 31
0.0
 11
-107.5349378310435
 21
-36.51690208426446
 31
0.0
  0
LINE
  5
F0
100
AcDbEntity
  8
0
  6
HIDDEN
 62
     9
 48
0.5
100
AcDbLine
 10
-107.66861
 20
-36.559783
 30
0.0
 11
-107.654218
 21
-36.32045
 31
0.0
  0
LWPOLYLINE
  5
F1
100
AcDbEntity
  8
0
  6
HIDDEN
 62
     9
 48
0.5
100
AcDbPolyline
 90
        8
 70
     0
 43
0.0
 10
-107.616465
 20
-36.570467
 10
-107.61315
 20
-36.525267
 10
-107.608963
 20
-36.484991
 10
-107.604087
 20
-36.4514
 10
-107.598735
 20
-36.425961
 10
-107.59314
 20
-36.409788
 10
-107.587549
 20
-36.403586
 10
-107.586892
 20
-36.403531
  0
LWPOLYLINE
  5
F2
100
AcDbEntity
  8
0
  6
HIDDEN
 62
     9
 48
0.5
100
AcDbPolyline
 90
       10
 70
     0
 43
0.0
 10
-107.586892
 20
-36.403531
 10
-107.582204
 20
-36.407626
 10
-107.577339
 20
-36.421733
 10
-107.573168
 20
-36.445289
 10
-107.569872
 20
-36.477265
 10
-107.567596
 20
-36.516264
 10
-107.566438
 20
-36.56058
 10
-107.56645
 20
-36.608278
 10
-107.567631
 20
-36.657272
 10
-107.569929
 20
-36.705422
  0
SPLINE
  5
F3
100
AcDbEntity
  8
0
  6
CONTINUOUS
100
AcDbSpline
210
-0.9160367233364297
220
-0.4010944047217027
230
0.0
 70
    24
 71
     3
 72
     9
 73
     5
 74
     3
 42
0.0000001
 43
0.0000001
 44
0.0000000001
 40
0.0
 40
0.0
 40
0.0
 40
0.0
 40
0.0020485833144768
 40
0.0030836700628059
 40
0.0030836700628059
 40
0.0030836700628059
 40
0.0030836700628059
 10
-107.3604134385102
 20
-36.6155826783978
 30
0.0
 10
-107.3601339589339
 20
-36.6162057573446
 30
0.0
 10
-107.3597132668408
 20
-36.61714365910405
 30
0.0
 10
-107.3593114852569
 20
-36.61808979149813
 30
0.0
 10
-107.3591766203769
 20
-36.61840737706446
 30
0.0
 11
-107.3604134385102
 21
-36.6155826783978
 31
0.0
 11
-107.3595833457102
 21
-36.61745554773113
 31
0.0
 11
-107.3591766203769
 21
-36.61840737706446
 31
0.0
  0
SPLINE
  5
F4
100
AcDbEntity
  8
0
  6
CONTINUOUS
100
AcDbSpline
210
0.0
220
0.0
230
1.0
 70
     8
 71
     3
 72
    10
 73
     6
 74
     4
 42
0.0000001
 43
0.0000001
 44
0.0000000001
 40
0.0
 40
0.0
 40
0.0
 40
0.0
 40
0.0028769666633041
 40
0.0058047894799385
 40
0.008783762934593
 40
0.008783762934593
 40
0.008783762934593
 40
0.008783762934593
 10
-107.3591687814436
 20
-36.61840410133113
 30
0.0
 10
-107.3587880502021
 20
-36.61928427715531
 30
0.0
 10
-107.3580198575312
 20
-36.62106018767586
 30
0.0
 10
-107.3568822041188
 20
-36.62375811028545
 30
0.0
 10
-107.3561330997672
 20
-36.62557897737412
 30
0.0
 10
-107.3557553041102
 20
-36.62649729493113
 30
0.0
 11
-107.3591687814436
 21
-36.61840410133113
 31
0.0
 11
-107.3580306086435
 21
-36.62104635413113
 31
0.0
 11
-107.3568927430436
 21
-36.62374402133113
 31
0.0
 11
-107.3557553041102
 21
-36.62649729493113
 31
0.0
  0
SPLINE
  5
F5
100
AcDbEntity
  8
0
  6
CONTINUOUS
100
AcDbSpline
210
0.0
220
0.0
230
1.0
 70
     8
 71
     3
 72
    10
 73
     6
 74
     4
 42
0.0000001
 43
0.0000001
 44
0.0000000001
 40
0.0
 40
0.0
 40
0.0
 40
0.0
 40
0.0100866533893201
 40
0.0207296802530209
 40
0.0319358441230984
 40
0.0319358441230984
 40
0.0319358441230984
 40
0.0319358441230984
 10
-107.3557553041102
 20
-36.62649729493113
 30
0.0
 10
-107.3545051294331
 20
-36.62961855360151
 30
0.0
 10
-107.3519358212277
 20
-36.6360332376128
 30
0.0
 10
-107.3482437962209
 20
-36.64601942603103
 30
0.0
 10
-107.3458768972197
 20
-36.6529072757754
 30
0.0
 10
-107.3446629457102
 20
-36.65643996373113
 30
0.0
 11
-107.3557553041102
 21
-36.62649729493113
 31
0.0
 11
-107.3520456923769
 21
-36.63587702613113
 31
0.0
 11
-107.3483466342435
 21
-36.64585655466447
 31
0.0
 11
-107.3446629457102
 21
-36.65643996373113
 31
0.0
  0
SPLINE
  5
F6
100
AcDbEntity
  8
0
  6
CONTINUOUS
100
AcDbSpline
210
0.0
220
0.0
230
-1.0
 70
     8
 71
     3
 72
     9
 73
     5
 74
     3
 42
0.0000001
 43
0.0000001
 44
0.0000000001
 40
0.0
 40
0.0
 40
0.0
 40
0.0
 40
0.0724282465929442
 40
0.146721678281583
 40
0.146721678281583
 40
0.146721678281583
 40
0.146721678281583
 10
-107.3445756582436
 20
-36.65638939733113
 30
0.0
 10
-107.3313159825229
 20
-36.67674135533909
 30
0.0
 10
-107.3044551655525
 20
-36.71796937859948
 30
0.0
 10
-107.2666436770171
 20
-36.74947261040605
 30
0.0
 10
-107.2474975953102
 20
-36.7654244671978
 30
0.0
 11
-107.3445756582436
 21
-36.65638939733113
 31
0.0
 11
-107.3021281254435
 21
-36.71507549333113
 31
0.0
 11
-107.2474975953102
 21
-36.7654244671978
 31
0.0
  0
SPLINE
  5
F7
100
AcDbEntity
  8
0
  6
CONTINUOUS
100
AcDbSpline
210
0.0
220
0.0
230
-1.0
 70
     8
 71
     3
 72
    14
 73
    10
 74
     8
 42
0.0000001
 43
0.0000001
 44
0.0000000001
 40
0.0
 40
0.0
 40
0.0
 40
0.0
 40
0.0223514550190764
 40
0.0435275199645119
 40
0.063568387014874
 40
0.0825174151388419
 40
0.1003822095338356
 40
0.1171038116333773
 40
0.1325767306325797
 40
0.1325767306325797
 40
0.1325767306325797
 40
0.1325767306325797
 10
-107.2769939686436
 20
-36.77028164479779
 30
0.0
 10
-107.2812780156084
 20
-36.76418528723925
 30
0.0
 10
-107.2896208254894
 20
-36.75231315967021
 30
0.0
 10
-107.3011380624758
 20
-36.7345216896055
 30
0.0
 10
-107.3116244485519
 20
-36.71742465619151
 30
0.0
 10
-107.3211370195777
 20
-36.70103118413926
 30
0.0
 10
-107.3297564226739
 20
-36.68540462326663
 30
0.0
 10
-107.3375492339087
 20
-36.6706481026637
 30
0.0
 10
-107.3423538247198
 20
-36.6610519458804
 30
0.0
 10
-107.3446629457102
 20
-36.65643996373113
 30
0.0
 11
-107.2769939686436
 21
-36.77028164479779
 31
0.0
 11
-107.2897257243769
 21
-36.7519107455978
 31
0.0
 11
-107.3012688006435
 21
-36.73415734826447
 31
0.0
 11
-107.3117428731769
 21
-36.71707138453113
 31
0.0
 11
-107.3212568817102
 21
-36.7006839103978
 31
0.0
 11
-107.3298912774436
 21
-36.6850442783978
 31
0.0
 11
-107.3376877275769
 21
-36.67025146453113
 31
0.0
 11
-107.3446629457102
 21
-36.65643996373113
 31
0.0
  0
SPLINE
  5
F8
100
AcDbEntity
  8
0
  6
HIDDEN
 62
     9
 48
0.5
100
AcDbSpline
210
0.0
220
0.0
230
1.0
 70
     8
 71
     3
 72
    16
 73
    12
 74
    10
 42
0.0000001
 43
0.0000001
 44
0.0000000001
 40
0.0
 40
0.0
 40
0.0
 40
0.0
 40
0.0045046100792914
 40
0.0174197366666514
 40
0.0327152810300052
 40
0.0496753091556891
 40
0.068250561396395
 40
0.0884376249335216
 40
0.1102944529758022
 40
0.1338731582085642
 40
0.159260303279317
 40
0.159260303279317
 40
0.159260303279317
 40
0.159260303279317
 10
-107.7162242801102
 20
-36.5603367807978
 30
0.0
 10
-107.7161583253513
 20
-36.56183685792195
 30
0.0
 10
-107.7159032723029
 20
-36.56763779252504
 30
0.0
 10
-107.7153498160468
 20
-36.57852986198692
 30
0.0
 10
-107.7151089363922
 20
-36.5935866780774
 30
0.0
 10
-107.7148898894771
 20
-36.61052835770613
 30
0.0
 10
-107.7147566144519
 20
-36.62910223592099
 30
0.0
 10
-107.7146490039615
 20
-36.64930826876885
 30
0.0
 10
-107.714555429418
 20
-36.67118228866641
 30
0.0
 10
-107.7144567869191
 20
-36.694789637579
 30
0.0
 10
-107.7143728747907
 20
-36.71111137392988
 30
0.0
 10
-107.7143293691769
 20
-36.7195736447978
 30
0.0
 11
-107.7162242801102
 21
-36.5603367807978
 31
0.0
 11
-107.7160237649102
 21
-36.56483692586447
 31
0.0
 11
-107.7154585830436
 21
-36.5777396799978
 31
0.0
 11
-107.7151252347769
 21
-36.59303159146446
 31
0.0
 11
-107.7149123718436
 21
-36.60999028373113
 31
0.0
 11
-107.7147659579769
 21
-36.62856495893113
 31
0.0
 11
-107.7146553531769
 21
-36.64875171946447
 31
0.0
 11
-107.7145582331769
 21
-36.67060833173113
 31
0.0
 11
-107.7144556625102
 21
-36.69418681386447
 31
0.0
 11
-107.7143293691769
 21
-36.7195736447978
 31
0.0
  0
LWPOLYLINE
  5
F9
100
AcDbEntity
  8
0
  6
HIDDEN
 62
     9
 48
0.5
100
AcDbPolyline
 90
        4
 70
     0
 43
0.0
 10
-107.654218
 20
-36.32045
 10
-107.648481
 20
-36.24327
 10
-107.641166
 20
-36.175372
 10
-107.63264
 20
-36.120159
  0
LINE
  5
FA
100
AcDbEntity
  8
0
  6
HIDDEN
 62
     9
 48
0.5
100
AcDbLine
 10
-107.595421
 20
-36.069356
 30
0.0
 11
-107.540198
 21
-36.229503
 31
0.0
  0
SPLINE
  5
FB
100
AcDbEntity
  8
0
  6
CONTINUOUS
100
AcDbSpline
210
0.0
220
0.0
230
-1.0
 70
     8
 71
     3
 72
     9
 73
     5
 74
     3
 42
0.0000001
 43
0.0000001
 44
0.0000000001
 40
0.0
 40
0.0
 40
0.0
 40
0.0
 40
0.23744976626344
 40
0.5181508774244649
 40
0.5181508774244649
 40
0.5181508774244649
 40
0.5181508774244649
 10
-107.3604252497102
 20
-36.61558834133114
 30
0.0
 10
-107.3884477527565
 20
-36.54132546843099
 30
0.0
 10
-107.4495970424339
 20
-36.37927278099824
 30
0.0
 10
-107.47519605959
 20
-36.20785923909171
 30
0.0
 10
-107.4890639750435
 20
-36.1149983103978
 30
0.0
 11
-107.3604252497102
 21
-36.61558834133114
 31
0.0
 11
-107.4370270001102
 21
-36.39083389013113
 31
0.0
 11
-107.4890639750435
 21
-36.1149983103978
 31
0.0
  0
LINE
  5
FC
100
AcDbEntity
  8
0
  6
HIDDEN
 62
     9
 48
0.5
100
AcDbLine
 10
-108.189214
 20
-36.03782
 30
0.0
 11
-107.60692
 21
-36.053492
 31
0.0
  0
LINE
  5
FD
100
AcDbEntity
  8
0
  6
CONTINUOUS
100
AcDbLine
 10
-102.685353
 20
-36.114444
 30
0.0
 11
-102.889548
 21
-34.825332
 31
0.0
  0
SPLINE
  5
FE
100
AcDbEntity
  8
0
  6
CONTINUOUS
100
AcDbSpline
210
-0.8427248240069332
220
0.5383445653134093
230
0.0
 70
    24
 71
     3
 72
     8
 73
     4
 74
     2
 42
0.0000001
 43
0.0000001
 44
0.0000000001
 40
0.0
 40
0.0
 40
0.0
 40
0.0
 40
0.0817948447342325
 40
0.0817948447342325
 40
0.0817948447342325
 40
0.0817948447342325
 10
-105.9468590075769
 20
-36.1155842591978
 30
0.0
 10
-105.961536944288
 20
-36.13856110790891
 30
0.0
 10
-105.9762148809991
 20
-36.16153795662002
 30
0.0
 10
-105.9908928177102
 20
-36.18451480533113
 30
0.0
 11
-105.9468590075769
 21
-36.1155842591978
 31
0.0
 11
-105.9908928177102
 21
-36.18451480533113
 31
0.0
  0
SPLINE
  5
FF
100
AcDbEntity
  8
0
  6
CONTINUOUS
100
AcDbSpline
210
-0.8580363223400592
220
0.5135890083959604
230
0.0
 70
    24
 71
     3
 72
     8
 73
     4
 74
     2
 42
0.0000001
 43
0.0000001
 44
0.0000000001
 40
0.0
 40
0.0
 40
0.0
 40
0.0
 40
0.274116593291239
 40
0.274116593291239
 40
0.274116593291239
 40
0.274116593291239
 10
-105.9908928177102
 20
-36.18451480533113
 30
0.0
 10
-106.0378205741547
 20
-36.26291546986446
 30
0.0
 10
-106.0847483305991
 20
-36.3413161343978
 30
0.0
 10
-106.1316760870435
 20
-36.41971679893113
 30
0.0
 11
-105.9908928177102
 21
-36.18451480533113
 31
0.0
 11
-106.1316760870435
 21
-36.41971679893113
 31
0.0
  0
ARC
  5
107
100
AcDbEntity
  8
0
  6
CONTINUOUS
100
AcDbCircle
 10
-103.13647
 20
-34.864444
 30
0.0
 40
0.25
100
AcDbArc
 50
9.00087
 51
90.0
  0
LINE
  5
111
100
AcDbEntity
  8
0
100
AcDbLine
 10
-102.685353
 20
-36.114444
 30
0.0
 11
-133.685353
 21
-36.114444
 31
0.0
  0
LINE
  5
115
100
AcDbEntity
  8
0
100
AcDbLine
 10
-128.920925
 20
-50.355058
 30
0.0
 11
-130.53143
 21
-36.116009
 31
0.0
  0
ENDSEC
  0
SECTION
  2
OBJECTS
  0
DICTIONARY
  5
24
102
{ACAD_XDICTIONARY
360
25
102
}
100
AcDbDictionary
  3
ACAD_GROUP
350
22
  3
ACAD_MLINESTYLE
350
23
  0
DICTIONARY
  5
F
100
AcDbDictionary
280
     1
  3
ACAD_LAYERFILTERS
360
10
  0
DICTIONARY
  5
28
100
AcDbDictionary
280
     1
  3
ACAD_XREC_ROUNDTRIP
360
29
  0
DICTIONARY
  5
2C
100
AcDbDictionary
280
     1
  3
ACAD_XREC_ROUNDTRIP
360
2D
  0
DICTIONARY
  5
3
100
AcDbDictionary
280
     1
  3
ACAD_LAYOUTSELFREF
360
4
  0
DICTIONARY
  5
A
100
AcDbDictionary
280
     1
  3
ACAD_LAYOUTSELFREF
360
B
  0
DICTIONARY
  5
25
100
AcDbDictionary
280
     1
  3
ACAD_XREC_ROUNDTRIP
360
26
  0
DICTIONARY
  5
22
102
{ACAD_REACTORS
330
24
102
}
100
AcDbDictionary
  0
DICTIONARY
  5
23
102
{ACAD_REACTORS
330
24
102
}
100
AcDbDictionary
  3
STANDARD
350
2A
  0
DICTIONARY
  5
10
102
{ACAD_XDICTIONARY
360
11
102
}
102
{ACAD_REACTORS
330
F
102
}
100
AcDbDictionary
280
     1
  3
DIM-1_12
360
13
  3
DIM-1_16
360
14
  0
XRECORD
  5
29
102
{ACAD_REACTORS
330
28
102
}
100
AcDbXrecord
102
EXTNAMES
  1
ROMANS
  2
romans
  0
XRECORD
  5
2D
102
{ACAD_REACTORS
330
2C
102
}
100
AcDbXrecord
102
EXTNAMES
  1
DIM-1_16
  2
dim-1_16
102
ACADR14ROUNDTRIP
1000
DSTYLE
1002
{
1070
    79
 70
     1
1070
   276
 70
     1
1070
   277
 70
     5
1070
   289
 70
     1
1002
}
  0
XRECORD
  5
4
102
{ACAD_REACTORS
330
3
102
}
100
AcDbXrecord
340
2
  0
XRECORD
  5
B
102
{ACAD_REACTORS
330
A
102
}
100
AcDbXrecord
340
9
  0
XRECORD
  5
26
102
{ACAD_REACTORS
330
25
102
}
100
AcDbXrecord
102
EXTNAMES
  1
ACDBVARIABLEDICTIONARY
  2
AcDbVariableDictionary
  0
MLINESTYLE
  5
2A
102
{ACAD_REACTORS
330
23
102
}
100
AcDbMlineStyle
  2
STANDARD
 70
     0
  3

 62
     0
 51
90.0
 52
90.0
 71
     2
 49
0.5
 62
   256
  6
BYLAYER
 49
-0.5
 62
   256
  6
BYLAYER
  0
DICTIONARY
  5
11
100
AcDbDictionary
280
     1
  3
ACAD_XREC_ROUNDTRIP
360
12
  0
XRECORD
  5
13
102
{ACAD_REACTORS
330
10
102
}
100
AcDbXrecord
  1
DIM-1_12
  1
DIM-1_12
  1
*
  1
*
 70
     0
  1
*
  1
*
  0
XRECORD
  5
14
102
{ACAD_REACTORS
330
10
102
}
100
AcDbXrecord
  1
dim-1_16
  1
*
  1
*
  1
*
 70
     0
  1
*
  1
*
  0
XRECORD
  5
12
102
{ACAD_REACTORS
330
11
102
}
100
AcDbXrecord
102
EXTNAMES
  1
DIM-1_16
  2
dim-1_16
  0
ENDSEC
  0
EOF
