  0
SECTION
  2
HEADER
  9
$ACADVER
  1
AC1014
  9
$ACADMAINTVER
 70
     0
  9
$DWGCODEPAGE
  3
ANSI_1252
  9
$INSBASE
 10
-4.498993
 20
-105.709642
 30
0.0
  9
$EXTMIN
 10
-62.249357
 20
-108.74223
 30
0.0
  9
$EXTMAX
 10
3.502754
 20
-86.156034
 30
0.0
  9
$LIMMIN
 10
0.0
 20
0.0
  9
$LIMMAX
 10
17.0
 20
11.0
  9
$ORTHOMODE
 70
     1
  9
$REGENMODE
 70
     1
  9
$FILLMODE
 70
     1
  9
$QTEXTMODE
 70
     0
  9
$MIRRTEXT
 70
     1
  9
$DRAGMODE
 70
     2
  9
$LTSCALE
 40
2.0
  9
$OSMODE
 70
    37
  9
$ATTMODE
 70
     1
  9
$TEXTSIZE
 40
0.0
  9
$TRACEWID
 40
0.05
  9
$TEXTSTYLE
  7
ROMANS
  9
$CLAYER
  8
0
  9
$CELTYPE
  6
BYLAYER
  9
$CECOLOR
 62
   256
  9
$CELTSCALE
 40
1.0
  9
$DELOBJ
 70
     1
  9
$DISPSILH
 70
     0
  9
$DIMSCALE
 40
16.0
  9
$DIMASZ
 40
0.1
  9
$DIMEXO
 40
0.0625
  9
$DIMDLI
 40
0.25
  9
$DIMRND
 40
0.0
  9
$DIMDLE
 40
0.0
  9
$DIMEXE
 40
0.1
  9
$DIMTP
 40
0.1
  9
$DIMTM
 40
0.1
  9
$DIMTXT
 40
0.1
  9
$DIMCEN
 40
0.09
  9
$DIMTSZ
 40
0.0
  9
$DIMTOL
 70
     0
  9
$DIMLIM
 70
     0
  9
$DIMTIH
 70
     1
  9
$DIMTOH
 70
     1
  9
$DIMSE1
 70
     0
  9
$DIMSE2
 70
     0
  9
$DIMTAD
 70
     0
  9
$DIMZIN
 70
     4
  9
$DIMBLK
  1

  9
$DIMASO
 70
     1
  9
$DIMSHO
 70
     1
  9
$DIMPOST
  1

  9
$DIMAPOST
  1
cm
  9
$DIMALT
 70
     1
  9
$DIMALTD
 70
     2
  9
$DIMALTF
 40
2.54
  9
$DIMLFAC
 40
1.0
  9
$DIMTOFL
 70
     0
  9
$DIMTVP
 40
0.0
  9
$DIMTIX
 70
     0
  9
$DIMSOXD
 70
     0
  9
$DIMSAH
 70
     0
  9
$DIMBLK1
  1

  9
$DIMBLK2
  1

  9
$DIMSTYLE
  2
STANDARD
  9
$DIMCLRD
 70
     0
  9
$DIMCLRE
 70
     0
  9
$DIMCLRT
 70
     0
  9
$DIMTFAC
 40
1.0
  9
$DIMGAP
 40
0.08
  9
$DIMJUST
 70
     0
  9
$DIMSD1
 70
     0
  9
$DIMSD2
 70
     0
  9
$DIMTOLJ
 70
     1
  9
$DIMTZIN
 70
     0
  9
$DIMALTZ
 70
     0
  9
$DIMALTTZ
 70
     0
  9
$DIMFIT
 70
     0
  9
$DIMUPT
 70
     0
  9
$DIMUNIT
 70
     2
  9
$DIMDEC
 70
     4
  9
$DIMTDEC
 70
     4
  9
$DIMALTU
 70
     2
  9
$DIMALTTD
 70
     2
  9
$DIMTXSTY
  7
ROMANS
  9
$DIMAUNIT
 70
     0
  9
$LUNITS
 70
     2
  9
$LUPREC
 70
     4
  9
$SKETCHINC
 40
0.1
  9
$FILLETRAD
 40
2.5
  9
$AUNITS
 70
     0
  9
$AUPREC
 70
     0
  9
$MENU
  1
acad
  9
$ELEVATION
 40
0.0
  9
$PELEVATION
 40
0.0
  9
$THICKNESS
 40
0.0
  9
$LIMCHECK
 70
     0
  9
$BLIPMODE
 70
     0
  9
$CHAMFERA
 40
0.0
  9
$CHAMFERB
 40
0.0
  9
$CHAMFERC
 40
0.0
  9
$CHAMFERD
 40
0.0
  9
$SKPOLY
 70
     0
  9
$TDCREATE
 40
2444971.833333333
  9
$TDUPDATE
 40
2453690.326009294
  9
$TDINDWG
 40
0.5025332755
  9
$TDUSRTIMER
 40
0.5025332755
  9
$USRTIMER
 70
     1
  9
$ANGBASE
 50
0.0
  9
$ANGDIR
 70
     0
  9
$PDMODE
 70
    35
  9
$PDSIZE
 40
0.0
  9
$PLINEWID
 40
0.0
  9
$COORDS
 70
     1
  9
$SPLFRAME
 70
     0
  9
$SPLINETYPE
 70
     6
  9
$SPLINESEGS
 70
     8
  9
$ATTDIA
 70
     0
  9
$ATTREQ
 70
     1
  9
$HANDLING
 70
     1
  9
$HANDSEED
  5
20C
  9
$SURFTAB1
 70
     6
  9
$SURFTAB2
 70
     6
  9
$SURFTYPE
 70
     6
  9
$SURFU
 70
     6
  9
$SURFV
 70
     6
  9
$UCSNAME
  2

  9
$UCSORG
 10
0.0
 20
0.0
 30
0.0
  9
$UCSXDIR
 10
1.0
 20
0.0
 30
0.0
  9
$UCSYDIR
 10
0.0
 20
1.0
 30
0.0
  9
$PUCSNAME
  2

  9
$PUCSORG
 10
0.0
 20
0.0
 30
0.0
  9
$PUCSXDIR
 10
1.0
 20
0.0
 30
0.0
  9
$PUCSYDIR
 10
0.0
 20
1.0
 30
0.0
  9
$USERI1
 70
     0
  9
$USERI2
 70
     0
  9
$USERI3
 70
     0
  9
$USERI4
 70
     0
  9
$USERI5
 70
     0
  9
$USERR1
 40
0.0
  9
$USERR2
 40
0.0
  9
$USERR3
 40
0.0
  9
$USERR4
 40
0.0
  9
$USERR5
 40
0.0
  9
$WORLDVIEW
 70
     1
  9
$SHADEDGE
 70
     3
  9
$SHADEDIF
 70
    70
  9
$TILEMODE
 70
     1
  9
$MAXACTVP
 70
    16
  9
$PINSBASE
 10
0.0
 20
0.0
 30
0.0
  9
$PLIMCHECK
 70
     0
  9
$PEXTMIN
 10
0.0
 20
0.0
 30
0.0
  9
$PEXTMAX
 10
0.0
 20
0.0
 30
0.0
  9
$PLIMMIN
 10
0.0
 20
0.0
  9
$PLIMMAX
 10
12.0
 20
9.0
  9
$UNITMODE
 70
     0
  9
$VISRETAIN
 70
     0
  9
$PLINEGEN
 70
     1
  9
$PSLTSCALE
 70
     1
  9
$TREEDEPTH
 70
  3020
  9
$PICKSTYLE
 70
     1
  9
$CMLSTYLE
  2
STANDARD
  9
$CMLJUST
 70
     0
  9
$CMLSCALE
 40
1.0
  9
$PROXYGRAPHICS
 70
     1
  9
$MEASUREMENT
 70
     0
  0
ENDSEC
  0
SECTION
  2
CLASSES
  0
CLASS
  1
LWPOLYLINE
  2
AcDbPolyline
  3
"AutoCAD"
 90
        0
280
     0
281
     1
  0
CLASS
  1
IMAGE
  2
AcDbRasterImage
  3
ISM
 90
      127
280
     0
281
     1
  0
CLASS
  1
OLE2FRAME
  2
AcDbOle2Frame
  3
""
 90
        0
280
     0
281
     1
  0
CLASS
  1
HATCH
  2
AcDbHatch
  3
"ACAD_SEDONA"
 90
        0
280
     0
281
     1
  0
CLASS
  1
DICTIONARYVAR
  2
AcDbDictionaryVar
  3
"AutoCAD"
 90
        0
280
     0
281
     0
  0
CLASS
  1
RASTERVARIABLES
  2
AcDbRasterVariables
  3
ISM
 90
        0
280
     0
281
     0
  0
CLASS
  1
IMAGEDEF
  2
AcDbRasterImageDef
  3
ISM
 90
        0
280
     0
281
     0
  0
CLASS
  1
IMAGEDEF_REACTOR
  2
AcDbRasterImageDefReactor
  3
ISM
 90
        1
280
     0
281
     0
  0
CLASS
  1
IDBUFFER
  2
AcDbIdBuffer
  3
"Acad"
 90
        0
280
     0
281
     0
  0
CLASS
  1
SPATIAL_FILTER
  2
AcDbSpatialFilter
  3
"Acad"
 90
        0
280
     0
281
     0
  0
CLASS
  1
XRECORD
  2
AcDbXrecord
  3
"<Built In>"
 90
        0
280
     0
281
     0
  0
CLASS
  1
SORTENTSTABLE
  2
AcDbSortentsTable
  3
"AutoCAD"
 90
        0
280
     0
281
     0
  0
CLASS
  1
LAYER_INDEX
  2
AcDbLayerIndex
  3
"Acad"
 90
        0
280
     0
281
     0
  0
CLASS
  1
SPATIAL_INDEX
  2
AcDbSpatialIndex
  3
"Acad"
 90
        0
280
     0
281
     0
  0
CLASS
  1
OBJECT_PTR
  2
CAseDLPNTableRecord
  3
ASE-LPNTableRecord
 90
        1
280
     0
281
     0
  0
CLASS
  1
LAYOUT
  2
AcDbLayout
  3
AutoCAD 2000
 90
        0
280
     0
281
     0
  0
CLASS
  1
PLOTSETTINGS
  2
AcDbPlotSettings
  3
AutoCAD 2000
 90
        0
280
     0
281
     0
  0
CLASS
  1
ACDBDICTIONARYWDFLT
  2
AcDbDictionaryWithDefault
  3
AutoCAD 2000
 90
        0
280
     0
281
     0
  0
CLASS
  1
ACDBPLACEHOLDER
  2
AcDbPlaceHolder
  3
AutoCAD 2000
 90
        0
280
     0
281
     0
  0
CLASS
  1
VBA_PROJECT
  2
AcDbVbaProject
  3
acadvba
 90
        0
280
     0
281
     0
  0
CLASS
  1
WIPEOUT
  2
AcDbWipeout
  3
"WipeOut|Version(1.0.0.0) Product Desc: Object Enabler for WipeOut entity^I^I^I^I^I^I|Company: Autodesk, Inc.^I^I^I^I^I^I|WEB Address: www.autodesk.com"
 90
      127
280
     1
281
     1
  0
CLASS
  1
WIPEOUTVARIABLES
  2
AcDbWipeoutVariables
  3
WipeOut|AutoCAD Express Tool|expresstools@autodesk.com
 90
        0
280
     1
281
     0
  0
CLASS
  1
RTEXT
  2
RText
  3
RText|AutoCAD Express Tool|expresstools@autodesk.com
 90
        0
280
     1
281
     1
  0
CLASS
  1
ARCALIGNEDTEXT
  2
AcDbArcAlignedText
  3
ATEXT|AutoCAD Express Tool|expresstools@autodesk.com
 90
        0
280
     1
281
     1
  0
CLASS
  1
LONG_TRANSACTION
  2
AcDbLongTransaction
  3
AutoCAD 2000
 90
        0
280
     0
281
     0
  0
CLASS
  1
LWPOLYLINE
  2
AcDbPolyline
  3
"AutoCAD"
 90
        0
280
     0
281
     1
  0
CLASS
  1
HATCH
  2
AcDbHatch
  3
"ACAD_SEDONA"
 90
        0
280
     0
281
     1
  0
CLASS
  1
XRECORD
  2
AcDbXrecord
  3
"<Built In>"
 90
        0
280
     0
281
     0
  0
CLASS
  1
LONG_TRANSACTION
  2
AcDbLongTransaction
  3
AutoCAD 2000
 90
        0
280
     0
281
     0
  0
CLASS
  1
LWPOLYLINE
  2
AcDbPolyline
  3
"AutoCAD"
 90
        0
280
     0
281
     1
  0
CLASS
  1
HATCH
  2
AcDbHatch
  3
"ACAD_SEDONA"
 90
        0
280
     0
281
     1
  0
CLASS
  1
XRECORD
  2
AcDbXrecord
  3
"<Built In>"
 90
        0
280
     0
281
     0
  0
ENDSEC
  0
SECTION
  2
TABLES
  0
TABLE
  2
VPORT
  5
1D
100
AcDbSymbolTable
 70
     3
  0
VPORT
  5
20B
100
AcDbSymbolTableRecord
100
AcDbViewportTableRecord
  2
*ACTIVE
 70
     0
 10
0.0
 20
0.0
 11
1.0
 21
1.0
 12
-29.373302
 22
-97.449132
 13
0.0
 23
0.0
 14
1.0
 24
1.0
 15
0.0
 25
0.0
 16
0.0
 26
0.0
 36
1.0
 17
0.0
 27
0.0
 37
0.0
 40
44.40347
 41
1.487748
 42
50.0
 43
0.0
 44
0.0
 50
0.0
 51
0.0
 71
     0
 72
   100
 73
     1
 74
     1
 75
     0
 76
     0
 77
     0
 78
     0
  0
ENDTAB
  0
TABLE
  2
LTYPE
  5
18
100
AcDbSymbolTable
 70
     3
  0
LTYPE
  5
19
100
AcDbSymbolTableRecord
100
AcDbLinetypeTableRecord
  2
BYBLOCK
 70
     0
  3

 72
    65
 73
     0
 40
0.0
  0
LTYPE
  5
1A
100
AcDbSymbolTableRecord
100
AcDbLinetypeTableRecord
  2
BYLAYER
 70
     0
  3

 72
    65
 73
     0
 40
0.0
  0
LTYPE
  5
8
100
AcDbSymbolTableRecord
100
AcDbLinetypeTableRecord
  2
CONTINUOUS
 70
     0
  3
Solid line
 72
    65
 73
     0
 40
0.0
  0
LTYPE
  5
62
100
AcDbSymbolTableRecord
100
AcDbLinetypeTableRecord
  2
CENTER
 70
     0
  3
____ _ ____ _ ____ _ ____ _ ____ _ ____ _ ____
 72
    65
 73
     4
 40
0.6
 49
0.375
 74
     0
 49
-0.075
 74
     0
 49
0.075
 74
     0
 49
-0.075
 74
     0
  0
LTYPE
  5
34
100
AcDbSymbolTableRecord
100
AcDbLinetypeTableRecord
  2
HIDDEN
 70
     0
  3
- - - - - - - - - - - - - - - - - - - -
 72
    65
 73
     2
 40
0.2
 49
0.1
 74
     0
 49
-0.1
 74
     0
  0
ENDTAB
  0
TABLE
  2
LAYER
  5
10
102
{ACAD_XDICTIONARY
360
11
102
}
100
AcDbSymbolTable
 70
     3
  0
LAYER
  5
4
100
AcDbSymbolTableRecord
100
AcDbLayerTableRecord
  2
0
 70
     0
 62
     7
  6
CONTINUOUS
  0
LAYER
  5
61
100
AcDbSymbolTableRecord
100
AcDbLayerTableRecord
  2
CENTER
 70
     0
 62
     1
  6
CENTER
  0
LAYER
  5
F4
102
{ACAD_XDICTIONARY
360
1B1
102
}
100
AcDbSymbolTableRecord
100
AcDbLayerTableRecord
  2
DEFPOINTS
 70
     0
 62
     7
  6
CONTINUOUS
  0
ENDTAB
  0
TABLE
  2
STYLE
  5
15
100
AcDbSymbolTable
 70
     2
  0
STYLE
  5
16
100
AcDbSymbolTableRecord
100
AcDbTextStyleTableRecord
  2
STANDARD
 70
     0
 40
0.0
 41
1.0
 50
0.0
 71
     0
 42
0.0
  3
txt
  4

  0
STYLE
  5
102
100
AcDbSymbolTableRecord
100
AcDbTextStyleTableRecord
  2
ROMANS
 70
     0
 40
0.0
 41
1.0
 50
0.0
 71
     0
 42
0.0
  3
romans.shx
  4

  0
ENDTAB
  0
TABLE
  2
VIEW
  5
1B
100
AcDbSymbolTable
 70
     0
  0
ENDTAB
  0
TABLE
  2
UCS
  5
1C
100
AcDbSymbolTable
 70
     0
  0
ENDTAB
  0
TABLE
  2
APPID
  5
1F
100
AcDbSymbolTable
 70
     2
  0
APPID
  5
20
100
AcDbSymbolTableRecord
100
AcDbRegAppTableRecord
  2
ACAD
 70
     0
  0
APPID
  5
ED
100
AcDbSymbolTableRecord
100
AcDbRegAppTableRecord
  2
DCO15
 70
     0
  0
ENDTAB
  0
TABLE
  2
DIMSTYLE
  5
21
100
AcDbSymbolTable
 70
     1
  0
DIMSTYLE
105
22
102
{ACAD_XDICTIONARY
360
1DD
102
}
100
AcDbSymbolTableRecord
100
AcDbDimStyleTableRecord
  2
STANDARD
 70
     0
  3

  4
cm
  5

  6

  7

 40
16.0
 41
0.1
 42
0.0625
 43
0.25
 44
0.1
 45
0.0
 46
0.0
 47
0.1
 48
0.1
140
0.1
141
0.09
142
0.0
143
2.54
144
1.0
145
0.0
146
1.0
147
0.08
 71
     0
 72
     0
 73
     1
 74
     1
 75
     0
 76
     0
 77
     0
 78
     4
170
     1
171
     2
172
     0
173
     0
174
     0
175
     0
176
     0
177
     0
178
     0
270
     5
271
     4
272
     4
273
     2
274
     2
340
102
275
     0
280
     0
281
     0
282
     0
283
     1
284
     0
285
     0
286
     0
287
     0
288
     0
  0
ENDTAB
  0
TABLE
  2
BLOCK_RECORD
  5
1
100
AcDbSymbolTable
 70
     2
  0
BLOCK_RECORD
  5
2
102
{ACAD_XDICTIONARY
360
196
102
}
100
AcDbSymbolTableRecord
100
AcDbBlockTableRecord
  2
*MODEL_SPACE
  0
BLOCK_RECORD
  5
131
102
{ACAD_XDICTIONARY
360
16F
102
}
100
AcDbSymbolTableRecord
100
AcDbBlockTableRecord
  2
*PAPER_SPACE
  0
BLOCK_RECORD
  5
1EF
100
AcDbSymbolTableRecord
100
AcDbBlockTableRecord
  2
*D0
  0
BLOCK_RECORD
  5
1FF
100
AcDbSymbolTableRecord
100
AcDbBlockTableRecord
  2
*D1
  0
ENDTAB
  0
ENDSEC
  0
SECTION
  2
BLOCKS
  0
BLOCK
  5
3
100
AcDbEntity
  8
0
100
AcDbBlockBegin
  2
*MODEL_SPACE
 70
     0
 10
0.0
 20
0.0
 30
0.0
  3
*MODEL_SPACE
  1

  0
ENDBLK
  5
9
100
AcDbEntity
  8
0
100
AcDbBlockEnd
  0
BLOCK
  5
133
100
AcDbEntity
 67
     1
  8
0
100
AcDbBlockBegin
  2
*PAPER_SPACE
 70
     0
 10
0.0
 20
0.0
 30
0.0
  3
*PAPER_SPACE
  1

  0
ENDBLK
  5
134
100
AcDbEntity
 67
     1
  8
0
100
AcDbBlockEnd
  0
BLOCK
  5
1F0
100
AcDbEntity
  8
0
100
AcDbBlockBegin
  2
*D0
 70
     1
 10
0.0
 20
0.0
 30
0.0
  3
*D0
  1

  0
LINE
  5
1F1
100
AcDbEntity
  8
0
  6
BYBLOCK
 62
     0
100
AcDbLine
 10
3.254085
 20
-86.709642
 30
0.0
 11
3.254085
 21
-76.162857
 31
0.0
  0
LINE
  5
1F2
100
AcDbEntity
  8
0
  6
BYBLOCK
 62
     0
100
AcDbLine
 10
-62.002072
 20
-86.709642
 30
0.0
 11
-62.002072
 21
-76.162857
 31
0.0
  0
LINE
  5
1F3
100
AcDbEntity
  8
0
  6
BYBLOCK
 62
     0
100
AcDbLine
 10
1.654085
 20
-77.762857
 30
0.0
 11
-15.598755
 21
-77.762857
 31
0.0
  0
LINE
  5
1F4
100
AcDbEntity
  8
0
  6
BYBLOCK
 62
     0
100
AcDbLine
 10
-60.402072
 20
-77.762857
 30
0.0
 11
-43.149231
 21
-77.762857
 31
0.0
  0
SOLID
  5
1F5
100
AcDbEntity
  8
0
  6
BYBLOCK
 62
     0
100
AcDbTrace
 10
1.654085
 20
-77.496191
 30
0.0
 11
1.654085
 21
-78.029524
 31
0.0
 12
3.254085
 22
-77.762857
 32
0.0
 13
3.254085
 23
-77.762857
 33
0.0
  0
SOLID
  5
1F6
100
AcDbEntity
  8
0
  6
BYBLOCK
 62
     0
100
AcDbTrace
 10
-60.402072
 20
-77.496191
 30
0.0
 11
-60.402072
 21
-78.029524
 31
0.0
 12
-62.002072
 22
-77.762857
 32
0.0
 13
-62.002072
 23
-77.762857
 33
0.0
  0
MTEXT
  5
1F7
100
AcDbEntity
  8
0
  6
BYBLOCK
 62
     0
100
AcDbMText
 10
-29.373993
 20
-77.762857
 30
0.0
 40
1.6
 41
0.0
 71
     5
 72
     1
  1
\A1;65.2562 [165.75cm]
  7
ROMANS
  0
POINT
  5
1F8
100
AcDbEntity
  8
DEFPOINTS
  6
BYBLOCK
 62
     0
100
AcDbPoint
 10
3.254085
 20
-87.709642
 30
0.0
  0
POINT
  5
1F9
100
AcDbEntity
  8
DEFPOINTS
  6
BYBLOCK
 62
     0
100
AcDbPoint
 10
-62.002072
 20
-87.709642
 30
0.0
  0
POINT
  5
1FA
100
AcDbEntity
  8
DEFPOINTS
  6
BYBLOCK
 62
     0
100
AcDbPoint
 10
-62.002072
 20
-77.762857
 30
0.0
  0
ENDBLK
  5
1FB
100
AcDbEntity
  8
0
100
AcDbBlockEnd
  0
BLOCK
  5
200
100
AcDbEntity
  8
0
100
AcDbBlockBegin
  2
*D1
 70
     1
 10
0.0
 20
0.0
 30
0.0
  3
*D1
  1

  0
LINE
  5
201
100
AcDbEntity
  8
0
  6
BYBLOCK
 62
     0
100
AcDbLine
 10
-5.432038
 20
-100.568994
 30
0.0
 11
-3.832038
 21
-100.568994
 31
0.0
  0
LINE
  5
202
100
AcDbEntity
  8
0
  6
BYBLOCK
 62
     0
100
AcDbLine
 10
-3.832038
 20
-100.568994
 30
0.0
 11
-1.802427
 21
-104.131914
 31
0.0
  0
MTEXT
  5
203
100
AcDbEntity
  8
0
  6
BYBLOCK
 62
     0
100
AcDbMText
 10
-18.521562
 20
-100.568994
 30
0.0
 40
1.6
 41
0.0
 71
     5
 72
     1
  1
\A1;R2.5000 [R6.35cm]
  7
ROMANS
  0
SOLID
  5
204
100
AcDbEntity
  8
0
  6
BYBLOCK
 62
     0
100
AcDbTrace
 10
-2.362673
 20
-102.609667
 30
0.0
 11
-2.826091
 21
-102.873653
 31
0.0
 12
-1.802427
 22
-104.131914
 32
0.0
 13
-1.802427
 23
-104.131914
 33
0.0
  0
POINT
  5
205
100
AcDbEntity
  8
DEFPOINTS
  6
BYBLOCK
 62
     0
100
AcDbPoint
 10
-1.802427
 20
-104.131914
 30
0.0
  0
POINT
  5
206
100
AcDbEntity
  8
DEFPOINTS
  6
BYBLOCK
 62
     0
100
AcDbPoint
 10
-3.039858
 20
-101.959642
 30
0.0
  0
ENDBLK
  5
207
100
AcDbEntity
  8
0
100
AcDbBlockEnd
  0
ENDSEC
  0
SECTION
  2
ENTITIES
  0
LINE
  5
2A
100
AcDbEntity
  8
0
100
AcDbLine
 10
3.04989
 20
-86.209642
 30
0.0
 11
-61.797876
 21
-86.209642
 31
0.0
  0
LINE
  5
2C
100
AcDbEntity
  8
0
100
AcDbLine
 10
-57.721759
 20
-87.709642
 30
0.0
 11
-49.61321
 21
-101.962852
 31
0.0
  0
ARC
  5
2D
100
AcDbEntity
  8
0
100
AcDbCircle
 10
-61.797876
 20
-86.459642
 30
0.0
 40
0.25
100
AcDbArc
 50
90.0
 51
170.99913
  0
LINE
  5
2F
100
AcDbEntity
  8
0
100
AcDbLine
 10
-62.248993
 20
-87.709642
 30
0.0
 11
-62.044798
 21
-86.42053
 31
0.0
  0
LINE
  5
32
100
AcDbEntity
  8
0
100
AcDbLine
 10
-3.123993
 20
-105.709642
 30
0.0
 11
-5.873993
 21
-105.709642
 31
0.0
  0
SPLINE
  5
33
100
AcDbEntity
  8
0
  6
HIDDEN
 62
     8
100
AcDbSpline
210
0.0
220
0.0
230
-1.0
 70
     8
 71
     3
 72
    21
 73
    17
 74
    15
 42
0.0000001
 43
0.0000001
 44
0.0000000001
 40
0.0
 40
0.0
 40
0.0
 40
0.0
 40
0.0366435860507002
 40
0.0694377468930751
 40
0.0994893916697252
 40
0.1270313517293329
 40
0.1523389644277799
 40
0.1757186377810102
 40
0.197491654148447
 40
0.2179803446270185
 40
0.237500746741653
 40
0.2563556317625455
 40
0.2739604674236013
 40
0.2900268935213907
 40
0.3054314840324308
 40
0.3228595907076702
 40
0.3228595907076702
 40
0.3228595907076702
 40
0.3228595907076702
 10
-29.53158721594977
 20
-90.48108646928554
 30
0.0
 10
-29.53875503323642
 20
-90.47119575889281
 30
0.0
 10
-29.55233768537745
 20
-90.45245336168603
 30
0.0
 10
-29.57119100405591
 20
-90.42516799899207
 30
0.0
 10
-29.58803021162159
 20
-90.40018347048714
 30
0.0
 10
-29.60327418465836
 20
-90.37713438794625
 30
0.0
 10
-29.61722053923679
 20
-90.35589420101331
 30
0.0
 10
-29.6301586218682
 20
-90.33629166305734
 30
0.0
 10
-29.64238823451723
 20
-90.31814901154954
 30
0.0
 10
-29.65424318684079
 20
-90.3013003618981
 30
0.0
 10
-29.66609094060128
 20
-90.28567362849907
 30
0.0
 10
-29.67836361072228
 20
-90.27150550081875
 30
0.0
 10
-29.69127523031998
 20
-90.25987761015832
 30
0.0
 10
-29.70685388947101
 20
-90.25200994533816
 30
0.0
 10
-29.72382493223697
 20
-90.25862419946232
 30
0.0
 10
-29.7292583841661
 20
-90.26837771754825
 30
0.0
 10
-29.73214254501643
 20
-90.2735550367522
 30
0.0
 11
-29.53158721594977
 21
-90.48108646928554
 31
0.0
 11
-29.5529725492831
 21
-90.45133046288553
 31
0.0
 11
-29.57165593274977
 21
-90.4243788735522
 31
0.0
 11
-29.58845984208311
 21
-90.39946442021886
 31
0.0
 11
-29.6036717140831
 21
-90.37650448741885
 31
0.0
 11
-29.61758206821644
 21
-90.3553626495522
 31
0.0
 11
-29.63048617061644
 21
-90.33586666875221
 31
0.0
 11
-29.64269003941643
 21
-90.3178353119522
 31
0.0
 11
-29.65452750928311
 21
-90.30111225168553
 31
0.0
 11
-29.66640321701643
 21
-90.28561987728554
 31
0.0
 11
-29.6788968404831
 21
-90.27149840208554
 31
0.0
 11
-29.69231269114978
 21
-90.26009905168553
 31
0.0
 11
-29.7073069460831
 21
-90.25432823141887
 31
0.0
 11
-29.72181030821644
 21
-90.25951994555219
 31
0.0
 11
-29.73214254501643
 21
-90.2735550367522
 31
0.0
  0
SPLINE
  5
35
100
AcDbEntity
  8
0
  6
HIDDEN
 62
     8
100
AcDbSpline
210
0.0
220
0.0
230
-1.0
 70
     8
 71
     3
 72
     9
 73
     5
 74
     3
 42
0.0000001
 43
0.0000001
 44
0.0000000001
 40
0.0
 40
0.0
 40
0.0
 40
0.0
 40
0.2375404084231474
 40
0.4732827616719293
 40
0.4732827616719293
 40
0.4732827616719293
 40
0.4732827616719293
 10
-29.5473183444831
 20
-90.70651429648552
 30
0.0
 10
-29.58948492576208
 20
-90.63887474122934
 30
0.0
 10
-29.67349890961629
 20
-90.50410762635229
 30
0.0
 10
-29.71264013787938
 20
-90.35020676395543
 30
0.0
 10
-29.73213640101644
 20
-90.27354867621886
 30
0.0
 11
-29.5473183444831
 21
-90.70651429648552
 31
0.0
 11
-29.66251449914977
 21
-90.4987757791522
 31
0.0
 11
-29.73213640101644
 21
-90.27354867621886
 31
0.0
  0
SPLINE
  5
36
100
AcDbEntity
  8
0
  6
HIDDEN
 62
     8
100
AcDbSpline
210
0.0
220
0.0
230
1.0
 70
     8
 71
     3
 72
    10
 73
     6
 74
     4
 42
0.0000001
 43
0.0000001
 44
0.0000000001
 40
0.0
 40
0.0
 40
0.0
 40
0.0
 40
0.122006320812329
 40
0.2431328449637251
 40
0.3633751774245006
 40
0.3633751774245006
 40
0.3633751774245006
 40
0.3633751774245006
 10
-29.57176210128311
 20
-89.94749532155219
 30
0.0
 10
-29.58939567624427
 20
-89.98414248304124
 30
0.0
 10
-29.62453566914498
 20
-90.05717254060998
 30
0.0
 10
-29.67798318003786
 20
-90.16587012815628
 30
0.0
 10
-29.71413356585205
 20
-90.23774783561554
 30
0.0
 10
-29.73214254501643
 20
-90.2735550367522
 30
0.0
 11
-29.57176210128311
 21
-89.94749532155219
 31
0.0
 11
-29.62481933221644
 21
-90.05736102395221
 31
0.0
 11
-29.67827650554977
 21
-90.1660530911522
 31
0.0
 11
-29.73214254501643
 21
-90.2735550367522
 31
0.0
  0
SPLINE
  5
37
100
AcDbEntity
  8
0
  6
HIDDEN
 62
     8
100
AcDbSpline
210
0.174867780639799
220
0.984591925263513
230
0.0
 70
    24
 71
     3
 72
     8
 73
     4
 74
     2
 42
0.0000001
 43
0.0000001
 44
0.0000000001
 40
0.0
 40
0.0
 40
0.0
 40
0.0
 40
0.3445906160996936
 40
0.3445906160996936
 40
0.3445906160996936
 40
0.3445906160996936
 10
-29.6040743668831
 20
-88.42589577808553
 30
0.0
 10
-29.71716807959421
 20
-88.40580984599666
 30
0.0
 10
-29.83026179230533
 20
-88.38572391390778
 30
0.0
 10
-29.94335550501644
 20
-88.36563798181888
 30
0.0
 11
-29.6040743668831
 21
-88.42589577808553
 31
0.0
 11
-29.94335550501644
 21
-88.36563798181888
 31
0.0
  0
SPLINE
  5
38
100
AcDbEntity
  8
0
  6
HIDDEN
 62
     8
100
AcDbSpline
210
0.0
220
0.0
230
1.0
 70
     8
 71
     3
 72
     9
 73
     5
 74
     3
 42
0.0000001
 43
0.0000001
 44
0.0000000001
 40
0.0
 40
0.0
 40
0.0
 40
0.0
 40
0.1184133224420617
 40
1.29063461250947
 40
1.29063461250947
 40
1.29063461250947
 40
1.29063461250947
 10
-30.8973675540831
 20
-88.4296886079522
 30
0.0
 10
-30.85862633361245
 20
-88.43727627463293
 30
0.0
 10
-30.43637012933488
 20
-88.51997731742395
 30
0.0
 10
-30.00636678587663
 20
-88.55119578928588
 30
0.0
 10
-29.61581544848311
 20
-88.57955002448553
 30
0.0
 11
-30.8973675540831
 21
-88.4296886079522
 31
0.0
 11
-30.78107867941644
 21
-88.45201824208553
 31
0.0
 11
-29.61581544848311
 21
-88.57955002448553
 31
0.0
  0
LINE
  5
39
100
AcDbEntity
  8
0
100
AcDbLine
 10
-45.79114
 20
-101.959642
 30
0.0
 11
-28.21648
 21
-101.959642
 31
0.0
  0
LINE
  5
3A
100
AcDbEntity
  8
0
100
AcDbLine
 10
-3.071886
 20
-104.467224
 30
0.0
 11
-47.114893
 21
-104.371137
 31
0.0
  0
SPLINE
  5
3B
100
AcDbEntity
  8
0
100
AcDbSpline
210
0.0
220
0.0
230
1.0
 70
     8
 71
     3
 72
    10
 73
     6
 74
     4
 42
0.0000001
 43
0.0000001
 44
0.0000000001
 40
0.0
 40
0.0
 40
0.0
 40
0.0
 40
0.5520345313118554
 40
1.098978595224652
 40
1.617807468446784
 40
1.617807468446784
 40
1.617807468446784
 40
1.617807468446784
 10
-44.0424737972831
 20
-95.37915794341888
 30
0.0
 10
-43.85849687668833
 20
-95.37559018150558
 30
0.0
 10
-43.49223953900235
 20
-95.36848755702619
 30
0.0
 10
-42.95307539442538
 20
-95.35784491553171
 30
0.0
 10
-42.59788958424089
 20
-95.35070093583689
 30
0.0
 10
-42.42498159674977
 20
-95.34722317541886
 30
0.0
 11
-44.0424737972831
 21
-95.37915794341888
 31
0.0
 11
-43.4905436596831
 21
-95.36842262928553
 31
0.0
 11
-42.94370618874977
 21
-95.35762497061886
 31
0.0
 11
-42.42498159674977
 21
-95.34722317541886
 31
0.0
  0
LINE
  5
3C
100
AcDbEntity
  8
0
100
AcDbLine
 10
-47.171671
 20
-95.342156
 30
0.0
 11
-36.059926
 21
-95.1482
 31
0.0
  0
ARC
  5
3E
100
AcDbEntity
  8
0
100
AcDbCircle
 10
-47.114893
 20
-101.871137
 30
0.0
 40
2.5
100
AcDbArc
 50
182.102425
 51
270.0
  0
SPLINE
  5
3F
100
AcDbEntity
  8
0
100
AcDbSpline
210
0.0
220
0.0
230
1.0
 70
     8
 71
     3
 72
    23
 73
    19
 74
    17
 42
0.0000001
 43
0.0000001
 44
0.0000000001
 40
0.0
 40
0.0
 40
0.0
 40
0.0
 40
0.2293951092974486
 40
0.4702636901093785
 40
0.7206951345940494
 40
0.9785299578998712
 40
1.241390143475201
 40
1.503824827468258
 40
1.744411578940578
 40
1.963130623386254
 40
2.160215621376418
 40
2.341132144043476
 40
2.513055280565426
 40
2.682687984302606
 40
2.855424875138048
 40
3.036473489616398
 40
3.231273013195414
 40
3.446064681294971
 40
3.446064681294971
 40
3.446064681294971
 40
3.446064681294971
 10
-50.61706578341643
 20
-95.41012251408554
 30
0.0
 10
-50.5406152174778
 20
-95.4086349773088
 30
0.0
 10
-50.38389031885483
 20
-95.40558550281934
 30
0.0
 10
-50.14370430796283
 20
-95.40089983824017
 30
0.0
 10
-49.89404045186365
 20
-95.39601616084866
 30
0.0
 10
-49.63704780913794
 20
-95.39097144869499
 30
0.0
 10
-49.37605521480289
 20
-95.38583001327172
 30
0.0
 10
-49.12081139989201
 20
-95.38077462146029
 30
0.0
 10
-48.8802782882777
 20
-95.37601693531732
 30
0.0
 10
-48.66152409943265
 20
-95.37169235282961
 30
0.0
 10
-48.46265616516619
 20
-95.36775767291365
 30
0.0
 10
-48.27938392868908
 20
-95.36412579599378
 30
0.0
 10
-48.10526081872382
 20
-95.36066725756855
 30
0.0
 10
-47.9338639083307
 20
-95.35725314072118
 30
0.0
 10
-47.75942605966394
 20
-95.3537641985485
 30
0.0
 10
-47.57660102316285
 20
-95.35010377765011
 30
0.0
 10
-47.37976059173902
 20
-95.34615998280527
 30
0.0
 10
-47.24325757332851
 20
-95.34342587759162
 30
0.0
 10
-47.17167470821644
 20
-95.3419920991522
 30
0.0
 11
-50.61706578341643
 21
-95.41012251408554
 31
0.0
 11
-50.38771412261644
 21
-95.40565800315221
 31
0.0
 11
-50.14689136314977
 21
-95.40095994555221
 31
0.0
 11
-49.89650782821644
 21
-95.39606159675219
 31
0.0
 11
-49.63872266554977
 21
-95.39100135781888
 31
0.0
 11
-49.37591350074978
 21
-95.38582254928554
 31
0.0
 11
-49.11353015994977
 21
-95.38063161168555
 31
0.0
 11
-48.87299046928311
 21
-95.37587322981886
 31
0.0
 11
-48.65431417168311
 21
-95.37154919568553
 31
0.0
 11
-48.4572677492831
 21
-95.36764998395218
 31
0.0
 11
-48.27638674981644
 21
-95.36406498661888
 31
0.0
 11
-48.10449752421644
 21
-95.36065045968554
 31
0.0
 11
-47.93489847781644
 21
-95.35727146021887
 31
0.0
 11
-47.7621960916831
 21
-95.35381902928554
 31
0.0
 11
-47.58118374928311
 21
-95.35019512208553
 31
0.0
 11
-47.38642329914977
 21
-95.3462936543522
 31
0.0
 11
-47.17167470821644
 21
-95.3419920991522
 31
0.0
  0
SPLINE
  5
40
100
AcDbEntity
  8
0
100
AcDbSpline
210
0.0
220
0.0
230
-1.0
 70
     8
 71
     3
 72
    13
 73
     9
 74
     7
 42
0.0000001
 43
0.0000001
 44
0.0000000001
 40
0.0
 40
0.0
 40
0.0
 40
0.0
 40
0.2515451645475919
 40
0.657469329434778
 40
1.197185690696316
 40
1.855835540139711
 40
2.618007941889746
 40
3.444381217024254
 40
3.444381217024254
 40
3.444381217024254
 40
3.444381217024254
 10
-49.23550734394978
 20
-101.9596769610188
 30
0.0
 10
-49.15166089977789
 20
-101.9590709948541
 30
0.0
 10
-48.9325095377379
 20
-101.9574871672789
 30
0.0
 10
-48.53344403858796
 20
-101.9578890360615
 30
0.0
 10
-47.99868471925605
 20
-101.9607904394553
 30
0.0
 10
-47.34517516267412
 20
-101.9569179935109
 30
0.0
 10
-46.5961081526118
 20
-101.9567455899851
 30
0.0
 10
-46.06659595701593
 20
-101.9586509126601
 30
0.0
 10
-45.79113977488311
 20
-101.9596420756855
 30
0.0
 11
-49.23550734394978
 21
-101.9596769610188
 31
0.0
 11
-48.9839669780831
 21
-101.9581232084855
 31
0.0
 11
-48.57804281381643
 21
-101.9581007636855
 31
0.0
 11
-48.03832869221643
 21
-101.9596556138188
 31
0.0
 11
-47.37968173968311
 21
-101.9577021322188
 31
0.0
 11
-46.61750949221644
 21
-101.9572171775521
 31
0.0
 11
-45.79113977488311
 21
-101.9596420756855
 31
0.0
  0
LINE
  5
41
100
AcDbEntity
  8
0
100
AcDbLine
 10
-50.729413
 20
-95.488163
 30
0.0
 11
-46.81461
 21
-95.424663
 31
0.0
  0
SPLINE
  5
42
100
AcDbEntity
  8
0
100
AcDbSpline
210
-0.0000003428899839
220
0.9999999999999413
230
0.0
 70
    24
 71
     3
 72
    10
 73
     6
 74
     4
 42
0.0000001
 43
0.0000001
 44
0.0000000001
 40
0.0
 40
0.0
 40
0.0
 40
0.0
 40
0.0421906613333363
 40
0.1687810698666684
 40
0.3795192341333779
 40
0.3795192341333779
 40
0.3795192341333779
 40
0.3795192341333779
 10
-49.61321010353053
 20
-101.9628522855845
 30
0.0
 10
-49.59914654975275
 20
-101.9628522843965
 30
0.0
 10
-49.54288619313052
 20
-101.9628522796442
 30
0.0
 10
-49.41637978175272
 20
-101.9628523204356
 30
0.0
 10
-49.30393692415274
 20
-101.9628522188896
 30
0.0
 10
-49.23369086939719
 20
-101.9628521554512
 30
0.0
 11
-49.61321010353053
 21
-101.9628522855845
 31
0.0
 11
-49.57101944219719
 21
-101.9628522834512
 31
0.0
 11
-49.44442903366386
 21
-101.9628522919845
 31
0.0
 11
-49.23369086939719
 21
-101.9628521554512
 31
0.0
  0
SPLINE
  5
43
100
AcDbEntity
  8
0
100
AcDbSpline
210
0.0
220
0.0
230
1.0
 70
     8
 71
     3
 72
    17
 73
    13
 74
    11
 42
0.0000001
 43
0.0000001
 44
0.0000000001
 40
0.0
 40
0.0
 40
0.0
 40
0.0
 40
0.1455351766755498
 40
0.3008375145489555
 40
0.4567467739138219
 40
0.6079295998640033
 40
0.7535970268046003
 40
0.8954303993551729
 40
1.038465106687044
 40
1.189651852037472
 40
1.357656825945854
 40
1.550261901304068
 40
1.550261901304068
 40
1.550261901304068
 40
1.550261901304068
 10
-52.38294422608311
 20
-95.44403180261886
 30
0.0
 10
-52.33444094234624
 20
-95.44312681633497
 30
0.0
 10
-52.23417922102105
 20
-95.4412561083002
 30
0.0
 10
-52.08195752718697
 20
-95.43837662655306
 30
0.0
 10
-51.92785399687974
 20
-95.43544177607078
 30
0.0
 10
-51.77696172590252
 20
-95.432557346668
 30
0.0
 10
-51.63076072603416
 20
-95.42975393588834
 30
0.0
 10
-51.48727535416941
 20
-95.42699802396242
 30
0.0
 10
-51.34195080251867
 20
-95.42419359735825
 30
0.0
 10
-51.18790420565331
 20
-95.42121061671918
 30
0.0
 10
-51.01733739322929
 20
-95.41790033711386
 30
0.0
 10
-50.89715671600133
 20
-95.41556578934372
 30
0.0
 10
-50.83296713381644
 20
-95.41431888635219
 30
0.0
 11
-52.38294422608311
 21
-95.44403180261886
 31
0.0
 11
-52.2374344884831
 21
-95.44131078928552
 31
0.0
 11
-52.0821598612831
 21
-95.43837714021888
 31
0.0
 11
-51.9262788404831
 21
-95.4354099007522
 31
0.0
 11
-51.77512362448311
 21
-95.43252069008554
 31
0.0
 11
-51.62948295781644
 21
-95.42972865061887
 31
0.0
 11
-51.48767576634977
 21
-95.42700357861887
 31
0.0
 11
-51.3446676724831
 21
-95.4242444863522
 31
0.0
 11
-51.19350925114978
 21
-95.42131811835218
 31
0.0
 11
-51.02553589221644
 21
-95.41805898555219
 31
0.0
 11
-50.83296713381644
 21
-95.41431888635219
 31
0.0
  0
SPLINE
  5
44
100
AcDbEntity
  8
0
100
AcDbSpline
210
0.0
220
0.0
230
-1.0
 70
     8
 71
     3
 72
    13
 73
     9
 74
     7
 42
0.0000001
 43
0.0000001
 44
0.0000000001
 40
0.0
 40
0.0
 40
0.0
 40
0.0
 40
0.4180405651605089
 40
0.7844376727817889
 40
1.086078469754695
 40
1.338800703166481
 40
1.56395042552945
 40
1.753867364276867
 40
1.753867364276867
 40
1.753867364276867
 40
1.753867364276867
 10
-50.7294890004831
 20
-95.48806147088553
 30
0.0
 10
-50.8688343089046
 20
-95.48734728896716
 30
0.0
 10
-51.1303106309674
 20
-95.4860071529883
 30
0.0
 10
-51.4923383026085
 20
-95.48625146972863
 30
0.0
 10
-51.79925650267299
 20
-95.48742016837673
 30
0.0
 10
-52.05908804340521
 20
-95.48921788549947
 30
0.0
 10
-52.28167433547143
 20
-95.49145078721158
 30
0.0
 10
-52.42001199878565
 20
-95.49369229828004
 30
0.0
 10
-52.48330945914977
 20
-95.49471791888553
 30
0.0
 11
-50.7294890004831
 21
-95.48806147088553
 31
0.0
 11
-51.14752606074977
 21
-95.48634964048554
 31
0.0
 11
-51.51392314661644
 21
-95.48647590075219
 31
0.0
 11
-51.81556164901644
 21
-95.48765245008553
 31
0.0
 11
-52.06827770021644
 21
-95.48942013968554
 31
0.0
 11
-52.29341463461643
 21
-95.49181977488553
 31
0.0
 11
-52.48330945914977
 21
-95.49471791888553
 31
0.0
  0
SPLINE
  5
45
100
AcDbEntity
  8
0
100
AcDbSpline
210
0.0
220
0.0
230
1.0
 70
     8
 71
     3
 72
    22
 73
    18
 74
    16
 42
0.0000001
 43
0.0000001
 44
0.0000000001
 40
0.0
 40
0.0
 40
0.0
 40
0.0
 40
0.0165948554712763
 40
0.0250514267788629
 40
0.032967509663141
 40
0.0402486246992234
 40
0.0468366824081688
 40
0.0536257068163343
 40
0.0613316143152118
 40
0.0702478100442834
 40
0.0797963292384007
 40
0.0893662365900847
 40
0.0990202583160554
 40
0.1093087647624264
 40
0.1208008367995666
 40
0.133947090967066
 40
0.1491325300094839
 40
0.1491325300094839
 40
0.1491325300094839
 40
0.1491325300094839
 10
-52.62539162021644
 20
-95.50185304101887
 30
0.0
 10
-52.63025853873359
 20
-95.49609517709447
 30
0.0
 10
-52.63760558993764
 20
-95.48740316367174
 30
0.0
 10
-52.62463241148171
 20
-95.48271558976269
 30
0.0
 10
-52.62204047158316
 20
-95.47470086867397
 30
0.0
 10
-52.614909837152
 20
-95.47176953050398
 30
0.0
 10
-52.60942658960754
 20
-95.46769075903547
 30
0.0
 10
-52.60303465513118
 20
-95.46466409776774
 30
0.0
 10
-52.59595223908746
 20
-95.4614133515575
 30
0.0
 10
-52.58776110183746
 20
-95.45837752279361
 30
0.0
 10
-52.57884523485307
 20
-95.45557268003257
 30
0.0
 10
-52.56955480986088
 20
-95.45317306325358
 30
0.0
 10
-52.55992752136975
 20
-95.45113779606456
 30
0.0
 10
-52.54959124243976
 20
-95.44939941532005
 30
0.0
 10
-52.53803686539976
 20
-95.44795064223327
 30
0.0
 10
-52.52480466378371
 20
-95.4468170575206
 30
0.0
 10
-52.51536345112727
 20
-95.44653149935145
 30
0.0
 10
-52.5103030772831
 20
-95.44637844368555
 30
0.0
 11
-52.62539162021644
 21
-95.50185304101887
 31
0.0
 11
-52.63244249274977
 21
-95.48683057701888
 31
0.0
 11
-52.62565991568311
 21
-95.48177981008553
 31
0.0
 11
-52.62107307514977
 21
-95.47532804581887
 31
0.0
 11
-52.61491955301644
 21
-95.47143589968554
 31
0.0
 11
-52.6093574420831
 21
-95.46790525861885
 31
0.0
 11
-52.6033147220831
 21
-95.4648106847522
 31
0.0
 11
-52.59628098981644
 21
-95.46166304741886
 31
0.0
 11
-52.58793730981643
 21
-95.45851955408554
 31
0.0
 11
-52.57882884794977
 21
-95.45565421968552
 31
0.0
 11
-52.5695661620831
 21
-95.45324885541887
 31
0.0
 11
-52.5601223124831
 21
-95.45124539835219
 31
0.0
 11
-52.54997728634977
 21
-95.4495331455522
 31
0.0
 11
-52.53857631141644
 21
-95.44808902288554
 31
0.0
 11
-52.52547630714977
 21
-95.44698725755219
 31
0.0
 11
-52.5103030772831
 21
-95.44637844368555
 31
0.0
  0
SPLINE
  5
46
100
AcDbEntity
  8
0
100
AcDbSpline
210
-0.0184428080746057
220
0.9998299169510397
230
0.0
 70
    24
 71
     3
 72
     8
 73
     4
 74
     2
 42
0.0000001
 43
0.0000001
 44
0.0000000001
 40
0.0
 40
0.0
 40
0.0
 40
0.0
 40
0.1011850541291776
 40
0.1011850541291776
 40
0.1011850541291776
 40
0.1011850541291776
 10
-52.48411207034977
 20
-95.44589793915219
 30
0.0
 10
-52.45038945559421
 20
-95.44527589364108
 30
0.0
 10
-52.41666684083867
 20
-95.44465384812998
 30
0.0
 10
-52.38294422608311
 20
-95.44403180261886
 30
0.0
 11
-52.48411207034977
 21
-95.44589793915219
 31
0.0
 11
-52.38294422608311
 21
-95.44403180261886
 31
0.0
  0
SPLINE
  5
47
100
AcDbEntity
  8
0
100
AcDbSpline
210
-0.0182993340090742
220
0.9998325531681913
230
0.0
 70
    24
 71
     3
 72
     8
 73
     4
 74
     2
 42
0.0000001
 43
0.0000001
 44
0.0000000001
 40
0.0
 40
0.0
 40
0.0
 40
0.0
 40
0.0261933321238098
 40
0.0261933321238098
 40
0.0261933321238098
 40
0.0261933321238098
 10
-52.51030101648311
 20
-95.44637725968554
 30
0.0
 10
-52.50157136777199
 20
-95.44621748617442
 30
0.0
 10
-52.49284171906087
 20
-95.44605771266331
 30
0.0
 10
-52.48411207034977
 20
-95.44589793915219
 30
0.0
 11
-52.51030101648311
 21
-95.44637725968554
 31
0.0
 11
-52.48411207034977
 21
-95.44589793915219
 31
0.0
  0
SPLINE
  5
49
100
AcDbEntity
  8
0
100
AcDbSpline
210
0.0
220
0.0
230
-1.0
 70
     8
 71
     3
 72
     9
 73
     5
 74
     3
 42
0.0000001
 43
0.0000001
 44
0.0000000001
 40
0.0
 40
0.0
 40
0.0
 40
0.0
 40
0.0073357575984951
 40
0.1470788582538367
 40
0.1470788582538367
 40
0.1470788582538367
 40
0.1470788582538367
 10
-52.48330945914977
 20
-95.49471791888553
 30
0.0
 10
-52.48575432095881
 20
-95.49476171540883
 30
0.0
 10
-52.53477277319563
 20
-95.49563981730299
 30
0.0
 10
-52.58378014652273
 20
-95.49703129378292
 30
0.0
 10
-52.63034321061644
 20
-95.49835336848554
 30
0.0
 11
-52.48330945914977
 21
-95.49471791888553
 31
0.0
 11
-52.49064401701644
 21
-95.4948505855522
 31
0.0
 11
-52.63034321061644
 21
-95.49835336848554
 31
0.0
  0
SPLINE
  5
4C
100
AcDbEntity
  8
0
100
AcDbSpline
210
-0.0194328559486414
220
0.9998111642253647
230
0.0
 70
    24
 71
     3
 72
     8
 73
     4
 74
     2
 42
0.0000001
 43
0.0000001
 44
0.0000000001
 40
0.0
 40
0.0
 40
0.0
 40
0.0
 40
0.21594212799902
 40
0.21594212799902
 40
0.21594212799902
 40
0.21594212799902
 10
-50.83296713381644
 20
-95.41431888635219
 30
0.0
 10
-50.76100001701644
 20
-95.41292009559665
 30
0.0
 10
-50.68903290021644
 20
-95.4115213048411
 30
0.0
 10
-50.61706578341643
 20
-95.41012251408554
 30
0.0
 11
-50.83296713381644
 21
-95.41431888635219
 31
0.0
 11
-50.61706578341643
 21
-95.41012251408554
 31
0.0
  0
SPLINE
  5
4D
100
AcDbEntity
  8
0
100
AcDbSpline
210
0.0
220
0.0
230
1.0
 70
     8
 71
     3
 72
    10
 73
     6
 74
     4
 42
0.0000001
 43
0.0000001
 44
0.0000000001
 40
0.0
 40
0.0
 40
0.0
 40
0.0
 40
0.9180509487884616
 40
1.842218531858077
 40
2.772509623417534
 40
2.772509623417534
 40
2.772509623417534
 40
2.772509623417534
 10
-46.8146099252831
 20
-95.42466349221887
 30
0.0
 10
-46.50863336152635
 20
-95.41968991770231
 30
0.0
 10
-45.89464162521715
 20
-95.40970963157972
 30
0.0
 10
-44.97059621184145
 20
-95.39454252574321
 30
0.0
 10
-44.35252822544784
 20
-95.38429741555875
 30
0.0
 10
-44.0424737876831
 20
-95.37915794555221
 30
0.0
 11
-46.8146099252831
 21
-95.42466349221887
 31
0.0
 11
-45.89668062928311
 21
-95.40971852261888
 31
0.0
 11
-44.97263751781644
 21
-95.39455113168555
 31
0.0
 11
-44.0424737876831
 21
-95.37915794555221
 31
0.0
  0
LINE
  5
51
100
AcDbEntity
  8
0
100
AcDbLine
 10
-40.587575
 20
-95.313678
 30
0.0
 11
-34.843656
 21
-95.210878
 31
0.0
  0
SPLINE
  5
54
100
AcDbEntity
  8
0
100
AcDbSpline
210
-0.0183682135551852
220
0.9998312901338859
230
0.0
 70
    24
 71
     3
 72
     8
 73
     4
 74
     2
 42
0.0000001
 43
0.0000001
 44
0.0000000001
 40
0.0
 40
0.0
 40
0.0
 40
0.0
 40
0.0181346904345278
 40
0.0181346904345278
 40
0.0181346904345278
 40
0.0181346904345278
 10
-40.60570674554977
 20
-95.3140111199522
 30
0.0
 10
-40.59966286857199
 20
-95.31390008599665
 30
0.0
 10
-40.59361899159422
 20
-95.3137890520411
 30
0.0
 10
-40.58757511461644
 20
-95.31367801808555
 30
0.0
 11
-40.60570674554977
 21
-95.3140111199522
 31
0.0
 11
-40.58757511461644
 21
-95.31367801808555
 31
0.0
  0
SPLINE
  5
55
100
AcDbEntity
  8
0
100
AcDbSpline
210
0.0
220
0.0
230
1.0
 70
     8
 71
     3
 72
    10
 73
     6
 74
     4
 42
0.0000001
 43
0.0000001
 44
0.0000000001
 40
0.0
 40
0.0
 40
0.0
 40
0.0
 40
0.6085751118791942
 40
1.215124238389505
 40
1.801513406453852
 40
1.801513406453852
 40
1.801513406453852
 40
1.801513406453852
 10
-42.40692067301644
 20
-95.34685809381887
 30
0.0
 10
-42.20409562716361
 20
-95.34318122744933
 30
0.0
 10
-41.79912075297396
 20
-95.33583973523294
 30
0.0
 10
-41.19871613344687
 20
-95.32488930655025
 30
0.0
 10
-40.80113692292004
 20
-95.3175960985035
 30
0.0
 10
-40.60570674554977
 20
-95.3140111199522
 30
0.0
 11
-42.40692067301644
 21
-95.34685809381887
 31
0.0
 11
-41.79844573861643
 21
-95.33581630928553
 31
0.0
 11
-41.19199746341644
 21
-95.32475591248553
 31
0.0
 11
-40.60570674554977
 21
-95.3140111199522
 31
0.0
  0
SPLINE
  5
56
100
AcDbEntity
  8
0
100
AcDbSpline
210
-0.020209198733592
220
0.9997957732889982
230
0.0
 70
    24
 71
     3
 72
     8
 73
     4
 74
     2
 42
0.0000001
 43
0.0000001
 44
0.0000000001
 40
0.0
 40
0.0
 40
0.0
 40
0.0
 40
0.0180645393948045
 40
0.0180645393948045
 40
0.0180645393948045
 40
0.0180645393948045
 10
-42.42498159674977
 20
-95.34722317541886
 30
0.0
 10
-42.41896131337199
 20
-95.34710148546331
 30
0.0
 10
-42.41294102999421
 20
-95.34697979550776
 30
0.0
 10
-42.40692074661644
 20
-95.3468581055522
 30
0.0
 11
-42.42498159674977
 21
-95.34722317541886
 31
0.0
 11
-42.40692074661644
 21
-95.3468581055522
 31
0.0
  0
SPLINE
  5
57
100
AcDbEntity
  8
0
100
AcDbSpline
210
0.0
220
0.0
230
-1.0
 70
     8
 71
     3
 72
    10
 73
     6
 74
     4
 42
0.0000001
 43
0.0000001
 44
0.0000000001
 40
0.0
 40
0.0
 40
0.0
 40
0.0
 40
0.189072114414486
 40
0.3772519626308362
 40
0.5649291553309234
 40
0.5649291553309234
 40
0.5649291553309234
 40
0.5649291553309234
 10
-35.05186869434977
 20
-95.17736575568553
 30
0.0
 10
-35.11478948985311
 20
-95.17375959759556
 30
0.0
 10
-35.24033414601476
 20
-95.1665642995411
 30
0.0
 10
-35.42836937289655
 20
-95.15638898083095
 30
0.0
 10
-35.55350012679202
 20
-95.15015809469167
 30
0.0
 10
-35.61598183141643
 20
-95.14704681808552
 30
0.0
 11
-35.05186869434977
 21
-95.17736575568553
 31
0.0
 11
-35.24063678181644
 21
-95.16664784528552
 31
0.0
 11
-35.42854362341644
 21
-95.15651501968553
 31
0.0
 11
-35.61598183141643
 21
-95.14704681808552
 31
0.0
  0
SPLINE
  5
58
100
AcDbEntity
  8
0
100
AcDbSpline
210
0.0
220
0.0
230
-1.0
 70
     8
 71
     3
 72
    10
 73
     6
 74
     4
 42
0.0000001
 43
0.0000001
 44
0.0000000001
 40
0.0
 40
0.0
 40
0.0
 40
0.0
 40
0.1353891571813902
 40
0.284195594994479
 40
0.4439590648522165
 40
0.4439590648522165
 40
0.4439590648522165
 40
0.4439590648522165
 10
-36.05992615248311
 20
-95.14819966608554
 30
0.0
 10
-36.0148007678791
 20
-95.14755545660653
 30
0.0
 10
-35.92007800134538
 20
-95.14620319546548
 30
0.0
 10
-35.77208786558797
 20
-95.14584880294169
 30
0.0
 10
-35.66923396808822
 20
-95.14663811297008
 30
0.0
 10
-35.61598089594977
 20
-95.14704678181885
 30
0.0
 11
-36.05992615248311
 21
-95.14819966608554
 31
0.0
 11
-35.9245473844831
 21
-95.14652244901887
 31
0.0
 11
-35.7757415508831
 21
-95.14609839568553
 31
0.0
 11
-35.61598089594977
 21
-95.14704678181885
 31
0.0
  0
SPLINE
  5
5B
100
AcDbEntity
  8
0
100
AcDbSpline
210
0.0
220
0.0
230
-1.0
 70
     8
 71
     3
 72
    24
 73
    20
 74
    18
 42
0.0000001
 43
0.0000001
 44
0.0000000001
 40
0.0
 40
0.0
 40
0.0
 40
0.0
 40
0.0071494897342791
 40
0.0152102740467486
 40
0.0239321762477602
 40
0.0333002128872934
 40
0.043272610214108
 40
0.0537548668179214
 40
0.0646897094273172
 40
0.0761445773061924
 40
0.0881888196578771
 40
0.1008904337218224
 40
0.1143179631709805
 40
0.1285403033514826
 40
0.1436265208772733
 40
0.1596455700803554
 40
0.1766659082175572
 40
0.1947550087448612
 40
0.2139355611695168
 40
0.2139355611695168
 40
0.2139355611695168
 40
0.2139355611695168
 10
-34.84365586661644
 20
-95.21087821435219
 30
0.0
 10
-34.84483173504264
 20
-95.20871366597473
 30
0.0
 10
-34.84733335147547
 20
-95.20410866964182
 30
0.0
 10
-34.85528681992914
 20
-95.20135527334035
 30
0.0
 10
-34.86339879238617
 20
-95.19853322530588
 30
0.0
 10
-34.87253204400976
 20
-95.19629492099168
 30
0.0
 10
-34.88224600152225
 20
-95.19424162741797
 30
0.0
 10
-34.89255015664787
 20
-95.19239428521521
 30
0.0
 10
-34.90337312081862
 20
-95.19068741842387
 30
0.0
 10
-34.9147409021362
 20
-95.18909483725707
 30
0.0
 10
-34.92671357987898
 20
-95.1875879706869
 30
0.0
 10
-34.93935673815868
 20
-95.18614929070885
 30
0.0
 10
-34.95273613147313
 20
-95.18476618934682
 30
0.0
 10
-34.9669188796563
 20
-95.18343012882455
 30
0.0
 10
-34.98197266505166
 20
-95.18213553290442
 30
0.0
 10
-34.99796534363438
 20
-95.18087845813864
 30
0.0
 10
-35.01496460431755
 20
-95.1796592114457
 30
0.0
 10
-35.03302233140553
 20
-95.17847037972376
 30
0.0
 10
-35.0454242987754
 20
-95.17774349070124
 30
0.0
 10
-35.05180687994978
 20
-95.17736940261887
 30
0.0
 11
-34.84365586661644
 21
-95.21087821435219
 31
0.0
 11
-34.84774759354976
 21
-95.20501536741887
 31
0.0
 11
-34.85498141754978
 21
-95.20145895995218
 31
0.0
 11
-34.86326254181644
 21
-95.19872134075219
 31
0.0
 11
-34.87233653008311
 21
-95.1963926399522
 31
0.0
 11
-34.8820922964831
 21
-95.19432533968553
 31
0.0
 11
-34.89240660688311
 21
-95.19245646181886
 31
0.0
 11
-34.90320664101643
 21
-95.19074472421886
 31
0.0
 11
-34.9145496660831
 21
-95.18914792101886
 31
0.0
 11
-34.92649894074977
 21
-95.18763841488553
 31
0.0
 11
-34.93911858341643
 21
-95.18619771408552
 31
0.0
 11
-34.95247453114977
 21
-95.18481308155219
 31
0.0
 11
-34.96663386021644
 21
-95.1834757855522
 31
0.0
 11
-34.9816643284831
 21
-95.18218002981887
 31
0.0
 11
-34.99763392421643
 21
-95.18092227408553
 31
0.0
 11
-35.01461037434977
 21
-95.17970077861887
 31
0.0
 11
-35.03266058768311
 21
-95.17851530128552
 31
0.0
 11
-35.05180687994978
 21
-95.17736940261887
 31
0.0
  0
SPLINE
  5
5C
100
AcDbEntity
  8
0
  6
HIDDEN
 62
     8
100
AcDbSpline
210
0.0
220
0.0
230
1.0
 70
     8
 71
     3
 72
     9
 73
     5
 74
     3
 42
0.0000001
 43
0.0000001
 44
0.0000000001
 40
0.0
 40
0.0
 40
0.0
 40
0.0
 40
0.127842976491954
 40
0.5111006035120165
 40
0.5111006035120165
 40
0.5111006035120165
 40
0.5111006035120165
 10
-32.9706506996831
 20
-87.70845891408553
 30
0.0
 10
-32.93262321721282
 20
-87.72769826276718
 30
0.0
 10
-32.78059398749735
 20
-87.80461482863723
 30
0.0
 10
-32.62502251740474
 20
-87.87416828803225
 30
0.0
 10
-32.50836455994976
 20
-87.92632415248553
 30
0.0
 11
-32.9706506996831
 21
-87.70845891408553
 31
0.0
 11
-32.85634662714977
 21
-87.76571627728554
 31
0.0
 11
-32.50836455994976
 21
-87.92632415248553
 31
0.0
  0
SPLINE
  5
5D
100
AcDbEntity
  8
0
  6
HIDDEN
 62
     8
100
AcDbSpline
210
0.0
220
0.0
230
1.0
 70
     8
 71
     3
 72
     9
 73
     5
 74
     3
 42
0.0000001
 43
0.0000001
 44
0.0000000001
 40
0.0
 40
0.0
 40
0.0
 40
0.0
 40
0.2305079057364615
 40
0.9217086941283463
 40
0.9217086941283463
 40
0.9217086941283463
 40
0.9217086941283463
 10
-29.94335550501644
 20
-88.36563798181888
 30
0.0
 10
-30.01846685952328
 20
-88.3492994208434
 30
0.0
 10
-30.31880705070038
 20
-88.28396806636101
 30
0.0
 10
-30.60997406461616
 20
-88.18445489923393
 30
0.0
 10
-30.82832382181644
 20
-88.10982874021886
 30
0.0
 11
-29.94335550501644
 21
-88.36563798181888
 31
0.0
 11
-30.16811584314977
 21
-88.31448443835219
 31
0.0
 11
-30.82832382181644
 21
-88.10982874021886
 31
0.0
  0
SPLINE
  5
5E
100
AcDbEntity
  8
0
  6
HIDDEN
 62
     8
100
AcDbSpline
210
0.0
220
0.0
230
1.0
 70
     8
 71
     3
 72
     9
 73
     5
 74
     3
 42
0.0000001
 43
0.0000001
 44
0.0000000001
 40
0.0
 40
0.0
 40
0.0
 40
0.0
 40
0.6446852970323763
 40
1.690033277469311
 40
1.690033277469311
 40
1.690033277469311
 40
1.690033277469311
 10
-32.50836455994976
 20
-87.92632415248553
 30
0.0
 10
-32.30921957240151
 20
-88.007799861504
 30
0.0
 10
-31.78716383831385
 20
-88.22138726636721
 30
0.0
 10
-31.23741037116113
 20
-88.35008457245665
 30
0.0
 10
-30.8973675540831
 20
-88.4296886079522
 30
0.0
 11
-32.50836455994976
 21
-87.92632415248553
 31
0.0
 11
-31.90689918714977
 21
-88.15839857488553
 31
0.0
 11
-30.8973675540831
 21
-88.4296886079522
 31
0.0
  0
LINE
  5
5F
100
AcDbEntity
  8
0
  6
HIDDEN
 62
     8
100
AcDbLine
 10
-30.828324
 20
-88.109829
 30
0.0
 11
-31.897237
 21
-87.709642
 31
0.0
  0
LINE
  5
60
100
AcDbEntity
  8
CENTER
  6
CENTER
 48
3.0
100
AcDbLine
 10
-4.498993
 20
-102.463349
 30
0.0
 11
-4.498993
 21
-108.741301
 31
0.0
  0
LINE
  5
63
100
AcDbEntity
  8
0
100
AcDbLine
 10
-5.873993
 20
-105.709642
 30
0.0
 11
-6.217743
 21
-104.459642
 31
0.0
  0
SPLINE
  5
64
100
AcDbEntity
  8
0
  6
HIDDEN
 62
     8
100
AcDbSpline
210
0.0
220
0.0
230
-1.0
 70
     8
 71
     3
 72
    18
 73
    14
 74
    12
 42
0.0000001
 43
0.0000001
 44
0.0000000001
 40
0.0
 40
0.0
 40
0.0
 40
0.0
 40
0.28025135266728
 40
0.552463407680779
 40
0.8077016919596589
 40
1.035194608141877
 40
1.244820651367016
 40
1.456751632454578
 40
1.675528478229735
 40
1.902282308873942
 40
2.134137035272952
 40
2.360232781006856
 40
2.438974285626144
 40
2.438974285626144
 40
2.438974285626144
 40
2.438974285626144
 10
-22.73168931301644
 20
-89.23224953595221
 30
0.0
 10
-22.82332801366604
 20
-89.25358962437094
 30
0.0
 10
-23.00397666479468
 20
-89.29565763887227
 30
0.0
 10
-23.27634628353069
 20
-89.25750440091809
 30
0.0
 10
-23.5096974506978
 20
-89.15665125178241
 30
0.0
 10
-23.6921306398812
 20
-89.01126962712801
 30
0.0
 10
-23.82710303644988
 20
-88.84007533475928
 30
0.0
 10
-23.92086928300713
 20
-88.64647677885663
 30
0.0
 10
-23.9725223804548
 20
-88.43177656143053
 30
0.0
 10
-23.97697995838297
 20
-88.20413733537268
 30
0.0
 10
-23.93071330447375
 20
-87.97892448593714
 30
0.0
 10
-23.85794540863302
 20
-87.81352878639134
 30
0.0
 10
-23.80197180108422
 20
-87.72868789374644
 30
0.0
 10
-23.78751344314977
 20
-87.70677292261886
 30
0.0
 11
-22.73168931301644
 21
-89.23224953595221
 31
0.0
 11
-23.00805948581644
 21
-89.27872908261887
 31
0.0
 11
-23.27811991994977
 21
-89.24457114341887
 31
0.0
 11
-23.51211931514977
 21
-89.14263555195219
 31
0.0
 11
-23.69026255354977
 21
-89.00115052261886
 31
0.0
 11
-23.82021083088311
 21
-88.83666185061887
 31
0.0
 11
-23.91278936314977
 21
-88.64602094181888
 31
0.0
 11
-23.96416245541644
 21
-88.43336132261887
 31
0.0
 11
-23.96863274234977
 21
-88.20665156048553
 31
0.0
 11
-23.92234029541644
 21
-87.9794652415522
 31
0.0
 11
-23.82991157114977
 21
-87.77312518928553
 31
0.0
 11
-23.78751344314977
 21
-87.70677292261886
 31
0.0
  0
SPLINE
  5
65
100
AcDbEntity
  8
0
  6
HIDDEN
 62
     8
100
AcDbSpline
210
0.0
220
0.0
230
-1.0
 70
     8
 71
     3
 72
    18
 73
    14
 74
    12
 42
0.0000001
 43
0.0000001
 44
0.0000000001
 40
0.0
 40
0.0
 40
0.0
 40
0.0
 40
0.3051596647620252
 40
0.6014157041253281
 40
0.8792138613687445
 40
1.126720390890133
 40
1.353996780931497
 40
1.582856122602947
 40
1.818850264736774
 40
2.063651344189768
 40
2.315007113920633
 40
2.562039949367771
 40
2.599277418387735
 40
2.599277418387735
 40
2.599277418387735
 40
2.599277418387735
 10
-22.70303002021644
 20
-89.32268803835219
 30
0.0
 10
-22.8031404273645
 20
-89.34424627338243
 30
0.0
 10
-23.00044032626229
 20
-89.38673374010091
 30
0.0
 10
-23.29631794721573
 20
-89.34394384306013
 30
0.0
 10
-23.55062926520302
 20
-89.2354888632254
 30
0.0
 10
-23.75072060173092
 20
-89.07994421742644
 30
0.0
 10
-23.90018115685716
 20
-88.89695959575623
 30
0.0
 10
-24.00596347433227
 20
-88.68998351422002
 30
0.0
 10
-24.06748490754221
 20
-88.45974866535838
 30
0.0
 10
-24.07910924948484
 20
-88.21401429050538
 30
0.0
 10
-24.0365177287934
 20
-87.96808408587825
 30
0.0
 10
-23.96876463361141
 20
-87.80107606383268
 30
0.0
 10
-23.92174805689263
 20
-87.71881052753625
 30
0.0
 10
-23.91558920634977
 20
-87.7080343039522
 30
0.0
 11
-22.70303002021644
 21
-89.32268803835219
 31
0.0
 11
-23.0046721204831
 21
-89.36888830181885
 31
0.0
 11
-23.29840470608311
 21
-89.33030321381886
 31
0.0
 11
-23.55358997434977
 21
-89.22052026875221
 31
0.0
 11
-23.7492010484831
 21
-89.06887664101887
 31
0.0
 11
-23.89309854288311
 21
-88.8929560095522
 31
0.0
 11
-23.99742037114977
 21
-88.68925634235219
 31
0.0
 11
-24.05851850021644
 21
-88.46130842341887
 31
0.0
 11
-24.07016551141643
 21
-88.21678456848554
 31
0.0
 11
-24.02749964474977
 21
-87.96907637968553
 31
0.0
 11
-23.93387600634977
 21
-87.74047227621887
 31
0.0
 11
-23.91558920634977
 21
-87.7080343039522
 31
0.0
  0
SPLINE
  5
66
100
AcDbEntity
  8
0
  6
HIDDEN
 62
     8
100
AcDbSpline
210
0.0
220
0.0
230
1.0
 70
     8
 71
     3
 72
    15
 73
    11
 74
     9
 42
0.0000001
 43
0.0000001
 44
0.0000000001
 40
0.0
 40
0.0
 40
0.0
 40
0.0
 40
0.0414189274265466
 40
0.0829319515060544
 40
0.1244020359669567
 40
0.1657920371899431
 40
0.2071117385777256
 40
0.2484606632368766
 40
0.2899623174694396
 40
0.3316682314890163
 40
0.3316682314890163
 40
0.3316682314890163
 40
0.3316682314890163
 10
-23.46027734394977
 20
-88.60596582395221
 30
0.0
 10
-23.45569803053332
 20
-88.61902656161197
 30
0.0
 10
-23.44652900029086
 20
-88.64517770867278
 30
0.0
 10
-23.42453443972999
 20
-88.68069471788571
 30
0.0
 10
-23.39730046928585
 20
-88.71215966904495
 30
0.0
 10
-23.36510175453633
 20
-88.73849737786164
 30
0.0
 10
-23.32906366152081
 20
-88.75917600719622
 30
0.0
 10
-23.29010914253604
 20
-88.77358824979999
 30
0.0
 10
-23.24918101014836
 20
-88.78203361648473
 30
0.0
 10
-23.22138522880536
 20
-88.78203340226056
 30
0.0
 10
-23.20745322128311
 20
-88.78203329488554
 30
0.0
 11
-23.46027734394977
 21
-88.60596582395221
 31
0.0
 11
-23.44516913701644
 21
-88.64453095888553
 31
0.0
 11
-23.4236511412831
 21
-88.68003176208553
 31
0.0
 11
-23.39644606394977
 21
-88.71133114981887
 31
0.0
 11
-23.3644372660831
 21
-88.73757174928554
 31
0.0
 11
-23.32859247248311
 21
-88.75812578768554
 31
0.0
 11
-23.28985014501644
 21
-88.7725745119522
 31
0.0
 11
-23.24913505274977
 21
-88.7806161887522
 31
0.0
 11
-23.20745322128311
 21
-88.78203329488554
 31
0.0
  0
LWPOLYLINE
  5
67
100
AcDbEntity
  8
0
  6
HIDDEN
 62
     8
100
AcDbPolyline
 90
        6
 70
     0
 43
0.0
 10
-23.339957
 20
-88.30062
 10
-23.321268
 20
-88.34582
 10
-23.293634
 20
-88.386096
 10
-23.258262
 20
-88.419687
 10
-23.216697
 20
-88.445125
 10
-23.171235
 20
-88.461185
  0
LWPOLYLINE
  5
68
100
AcDbEntity
  8
0
  6
HIDDEN
 62
     8
100
AcDbPolyline
 90
        6
 70
     0
 43
0.0
 10
-23.395735
 20
-88.287251
 10
-23.375357
 20
-88.335514
 10
-23.3448
 20
-88.377974
 10
-23.305596
 20
-88.4125
 10
-23.259711
 20
-88.437362
 10
-23.226983
 20
-88.447812
  0
LWPOLYLINE
  5
69
100
AcDbEntity
  8
0
  6
HIDDEN
 62
     8
100
AcDbPolyline
 90
       11
 70
     0
 43
0.0
 10
-23.11774
 20
-87.991736
 10
-23.135276
 20
-87.988234
 10
-23.187401
 20
-87.985893
 10
-23.238771
 20
-87.99528
 10
-23.286811
 20
-88.015923
 10
-23.329113
 20
-88.046789
 10
-23.363554
 20
-88.086329
 10
-23.388408
 20
-88.13256
 10
-23.402428
 20
-88.183165
 10
-23.404912
 20
-88.235605
 10
-23.395735
 20
-88.287251
  0
LWPOLYLINE
  5
6A
100
AcDbEntity
  8
0
  6
HIDDEN
 62
     8
100
AcDbPolyline
 90
       11
 70
     0
 43
0.0
 10
-23.061932
 20
-88.0051
 10
-23.110717
 20
-87.998784
 10
-23.159281
 20
-88.002824
 10
-23.205978
 20
-88.016931
 10
-23.248769
 20
-88.040487
 10
-23.285783
 20
-88.072463
 10
-23.315402
 20
-88.111462
 10
-23.336331
 20
-88.155778
 10
-23.347657
 20
-88.203476
 10
-23.348883
 20
-88.25247
 10
-23.339957
 20
-88.30062
  0
LWPOLYLINE
  5
6B
100
AcDbEntity
  8
0
  6
HIDDEN
 62
     8
100
AcDbPolyline
 90
        8
 70
     0
 43
0.0
 10
-23.207453
 20
-88.782033
 10
-23.323615
 20
-88.800313
 10
-23.476414
 20
-88.830648
 10
-23.662446
 20
-88.872365
 10
-23.877572
 20
-88.924535
 10
-24.11701
 20
-88.985998
 10
-24.375436
 20
-89.055387
 10
-24.647102
 20
-89.13116
  0
LWPOLYLINE
  5
6C
100
AcDbEntity
  8
0
  6
HIDDEN
 62
     8
100
AcDbPolyline
 90
       15
 70
     0
 43
0.0
 10
-22.501117
 20
-88.141735
 10
-22.966684
 20
-88.260061
 10
-23.461706
 20
-88.390273
 10
-23.980578
 20
-88.530896
 10
-24.517424
 20
-88.680337
 10
-25.066164
 20
-88.836904
 10
-25.620585
 20
-88.998825
 10
-26.174409
 20
-89.164265
 10
-26.721364
 20
-89.331351
 10
-27.255256
 20
-89.498192
 10
-27.77004
 20
-89.662898
 10
-28.259886
 20
-89.823603
 10
-28.719248
 20
-89.978489
 10
-29.142923
 20
-90.1258
 10
-29.526115
 20
-90.26387
  0
LWPOLYLINE
  5
6D
100
AcDbEntity
  8
0
  6
HIDDEN
 62
     8
100
AcDbPolyline
 90
       15
 70
     0
 43
0.0
 10
-23.027234
 20
-87.648563
 10
-23.45134
 20
-87.757802
 10
-23.898558
 20
-87.876594
 10
-24.364376
 20
-88.00374
 10
-24.844102
 20
-88.137959
 10
-25.332907
 20
-88.277899
 10
-25.825871
 20
-88.422152
 10
-26.318032
 20
-88.569266
 10
-26.804435
 20
-88.71776
 10
-27.280184
 20
-88.866139
 10
-27.740491
 20
-89.01291
 10
-28.180721
 20
-89.156594
 10
-28.596441
 20
-89.295747
 10
-28.983466
 20
-89.428965
 10
-29.337888
 20
-89.554906
  0
LWPOLYLINE
  5
6E
100
AcDbEntity
  8
0
  6
HIDDEN
 62
     8
100
AcDbPolyline
 90
       13
 70
     0
 43
0.0
 10
-22.030965
 20
-88.485268
 10
-22.155823
 20
-88.695168
 10
-22.333377
 20
-88.862297
 10
-22.549756
 20
-88.97365
 10
-22.788087
 20
-89.020582
 10
-23.029802
 20
-88.999466
 10
-23.256083
 20
-88.911966
 10
-23.449319
 20
-88.764906
 10
-23.594469
 20
-88.569739
 10
-23.68023
 20
-88.341676
 10
-23.699936
 20
-88.098488
 10
-23.652062
 20
-87.859084
 10
-23.575105
 20
-87.709642
  0
LINE
  5
6F
100
AcDbEntity
  8
0
  6
HIDDEN
 62
     8
100
AcDbLine
 10
-22.96051
 20
-87.664554
 30
0.0
 11
-23.490651
 21
-87.824701
 31
0.0
  0
LWPOLYLINE
  5
70
100
AcDbEntity
  8
0
  6
HIDDEN
 62
     8
100
AcDbPolyline
 90
       15
 70
     0
 43
0.0
 10
-29.054691
 20
-90.512238
 10
-28.700268
 20
-90.386298
 10
-28.313244
 20
-90.253079
 10
-27.897523
 20
-90.113927
 10
-27.457293
 20
-89.970242
 10
-26.996987
 20
-89.823471
 10
-26.521237
 20
-89.675092
 10
-26.034834
 20
-89.526598
 10
-25.542674
 20
-89.379485
 10
-25.04971
 20
-89.235231
 10
-24.560904
 20
-89.095291
 10
-24.081178
 20
-88.961072
 10
-23.615361
 20
-88.833927
 10
-23.168142
 20
-88.715135
 10
-22.744036
 20
-88.605895
  0
LWPOLYLINE
  5
71
100
AcDbEntity
  8
0
  6
HIDDEN
 62
     8
100
AcDbPolyline
 90
       15
 70
     0
 43
0.0
 10
-29.599885
 20
-90.014494
 10
-29.216693
 20
-89.876425
 10
-28.793018
 20
-89.729113
 10
-28.333656
 20
-89.574228
 10
-27.84381
 20
-89.413522
 10
-27.329026
 20
-89.248817
 10
-26.795134
 20
-89.081976
 10
-26.248179
 20
-88.914889
 10
-25.694356
 20
-88.749449
 10
-25.139934
 20
-88.587529
 10
-24.591194
 20
-88.430961
 10
-24.054348
 20
-88.28152
 10
-23.535477
 20
-88.140898
 10
-23.040454
 20
-88.010686
 10
-22.574887
 20
-87.892359
  0
LINE
  5
72
100
AcDbEntity
  8
0
  6
HIDDEN
 62
     8
100
AcDbLine
 10
-24.892736
 20
-88.425781
 30
0.0
 11
-24.746641
 21
-88.919646
 31
0.0
  0
LWPOLYLINE
  5
73
100
AcDbEntity
  8
0
  6
HIDDEN
 62
     8
100
AcDbPolyline
 90
        8
 70
     0
 43
0.0
 10
-24.746641
 20
-88.919646
 10
-24.506859
 20
-88.852738
 10
-24.278349
 20
-88.791289
 10
-24.065947
 20
-88.736601
 10
-23.874148
 20
-88.689831
 10
-23.707012
 20
-88.651968
 10
-23.568075
 20
-88.623815
 10
-23.460277
 20
-88.605966
  0
LWPOLYLINE
  5
74
100
AcDbEntity
  8
0
  6
HIDDEN
 62
     8
100
AcDbPolyline
 90
        7
 70
     0
 43
0.0
 10
-24.892736
 20
-88.425781
 10
-25.329157
 20
-88.550988
 10
-25.768826
 20
-88.679803
 10
-26.207647
 20
-88.811026
 10
-26.641528
 20
-88.943432
 10
-27.066424
 20
-89.075788
 10
-27.478377
 20
-89.20686
  0
LWPOLYLINE
  5
75
100
AcDbEntity
  8
0
  6
HIDDEN
 62
     8
100
AcDbPolyline
 90
        7
 70
     0
 43
0.0
 10
-24.930299
 20
-88.173827
 10
-25.383947
 20
-88.303977
 10
-25.840972
 20
-88.437877
 10
-26.297115
 20
-88.574279
 10
-26.748123
 20
-88.711912
 10
-27.189792
 20
-88.849493
 10
-27.618005
 20
-88.985738
  0
LWPOLYLINE
  5
76
100
AcDbEntity
  8
0
  6
HIDDEN
 62
     8
100
AcDbPolyline
 90
        7
 70
     0
 43
0.0
 10
-24.647102
 20
-89.13116
 10
-25.100749
 20
-89.261309
 10
-25.557775
 20
-89.395209
 10
-26.013918
 20
-89.531612
 10
-26.464926
 20
-89.669245
 10
-26.906595
 20
-89.806825
 10
-27.334807
 20
-89.943071
  0
LWPOLYLINE
  5
77
100
AcDbEntity
  8
0
  6
HIDDEN
 62
     8
100
AcDbPolyline
 90
        7
 70
     0
 43
0.0
 10
-24.746641
 20
-88.919646
 10
-25.183062
 20
-89.044854
 10
-25.622731
 20
-89.173669
 10
-26.061552
 20
-89.304891
 10
-26.495433
 20
-89.437298
 10
-26.920329
 20
-89.569654
 10
-27.332281
 20
-89.700725
  0
SPLINE
  5
78
100
AcDbEntity
  8
0
  6
HIDDEN
 62
     8
100
AcDbSpline
210
0.0
220
0.0
230
-1.0
 70
     8
 71
     3
 72
     9
 73
     5
 74
     3
 42
0.0000001
 43
0.0000001
 44
0.0000000001
 40
0.0
 40
0.0
 40
0.0
 40
0.0
 40
0.0259789886676101
 40
0.0522359154404203
 40
0.0522359154404203
 40
0.0522359154404203
 40
0.0522359154404203
 10
-28.8629420596831
 20
-89.08561039141886
 30
0.0
 10
-28.85456267552846
 20
-89.08342061631413
 30
0.0
 10
-28.83771425976658
 20
-89.07901763863597
 30
0.0
 10
-28.82069090544532
 20
-89.07534861376959
 30
0.0
 10
-28.81213393914977
 20
-89.07350434021887
 30
0.0
 11
-28.8629420596831
 21
-89.08561039141886
 31
0.0
 11
-28.83776063674977
 21
-89.07922260688554
 31
0.0
 11
-28.81213393914977
 21
-89.07350434021887
 31
0.0
  0
SPLINE
  5
79
100
AcDbEntity
  8
0
  6
HIDDEN
 62
     8
100
AcDbSpline
210
0.0
220
0.0
230
-1.0
 70
     8
 71
     3
 72
     9
 73
     5
 74
     3
 42
0.0000001
 43
0.0000001
 44
0.0000000001
 40
0.0
 40
0.0
 40
0.0
 40
0.0
 40
0.1710469930234598
 40
0.3534713072871163
 40
0.3534713072871163
 40
0.3534713072871163
 40
0.3534713072871163
 10
-29.1689893460831
 20
-89.0777134975522
 30
0.0
 10
-29.11934120532229
 20
-89.04891697179378
 30
0.0
 10
-29.01674253983924
 20
-88.98940849739602
 30
0.0
 10
-28.90068725147591
 20
-88.96463348310573
 30
0.0
 10
-28.8407918484831
 20
-88.95184725435219
 30
0.0
 11
-29.1689893460831
 21
-89.0777134975522
 31
0.0
 11
-29.01689384954977
 21
-88.99945729168553
 31
0.0
 11
-28.8407918484831
 21
-88.95184725435219
 31
0.0
  0
SPLINE
  5
7A
100
AcDbEntity
  8
0
  6
HIDDEN
 62
     8
100
AcDbSpline
210
0.0
220
0.0
230
1.0
 70
     8
 71
     3
 72
    15
 73
    11
 74
     9
 42
0.0000001
 43
0.0000001
 44
0.0000000001
 40
0.0
 40
0.0
 40
0.0
 40
0.0
 40
0.0224090466281275
 40
0.0549356437942631
 40
0.0885425669836591
 40
0.1249190314096281
 40
0.1642504043287485
 40
0.2064109174840439
 40
0.2517282243639454
 40
0.3030397697071356
 40
0.3030397697071356
 40
0.3030397697071356
 40
0.3030397697071356
 10
-29.15428797754977
 20
-89.0752155295522
 30
0.0
 10
-29.14987766123697
 20
-89.08158023977803
 30
0.0
 10
-29.13906579717147
 20
-89.09718328883331
 30
0.0
 10
-29.10711094997767
 20
-89.10095131088551
 30
0.0
 10
-29.07369224550005
 20
-89.1009053877385
 30
0.0
 10
-29.03709699064378
 20
-89.09836673977777
 30
0.0
 10
-28.99802781696624
 20
-89.09496043040252
 30
0.0
 10
-28.95589648985754
 20
-89.09129216282442
 30
0.0
 10
-28.90976754226967
 20
-89.08779534263228
 30
0.0
 10
-28.87759078864355
 20
-89.08628371576829
 30
0.0
 10
-28.86050439141644
 20
-89.08548101648554
 30
0.0
 11
-29.15428797754977
 21
-89.0752155295522
 31
0.0
 11
-29.13955709968311
 21
-89.09210240635221
 31
0.0
 11
-29.1080590548831
 21
-89.10021737381887
 31
0.0
 11
-29.07445367141644
 21
-89.10053906981886
 31
0.0
 11
-29.03814397114977
 21
-89.09833615568553
 31
0.0
 11
-28.99895081914976
 21
-89.09504165541887
 31
0.0
 11
-28.95694277541644
 21
-89.09145931941887
 31
0.0
 11
-28.91174650874977
 21
-89.08814936741888
 31
0.0
 11
-28.86050439141644
 21
-89.08548101648554
 31
0.0
  0
SPLINE
  5
7B
100
AcDbEntity
  8
0
  6
HIDDEN
 62
     8
100
AcDbSpline
210
0.0
220
0.0
230
1.0
 70
     8
 71
     3
 72
    23
 73
    19
 74
    17
 42
0.0000001
 43
0.0000001
 44
0.0000000001
 40
0.0
 40
0.0
 40
0.0
 40
0.0
 40
0.2292029381706289
 40
0.4339235480856872
 40
0.6289414305271482
 40
0.8238792937139479
 40
1.020031814636833
 40
1.216785375686881
 40
1.413772013480503
 40
1.61041050774379
 40
1.805461605029236
 40
1.997506652575875
 40
2.18848991144734
 40
2.393718621252902
 40
2.628221136817787
 40
2.894655486159416
 40
3.182734282096131
 40
3.47595416273241
 40
3.47595416273241
 40
3.47595416273241
 40
3.47595416273241
 10
-28.8407906356831
 20
-88.95184771408555
 30
0.0
 10
-28.76463173841589
 20
-88.94271260949196
 30
0.0
 10
-28.62044886194735
 20
-88.92541816715619
 30
0.0
 10
-28.41089378145303
 20
-88.9554758207036
 30
0.0
 10
-28.2217334687354
 20
-89.01739237761033
 30
0.0
 10
-28.0493545653411
 20
-89.1117794164799
 30
0.0
 10
-27.89613084190814
 20
-89.23553053063532
 30
0.0
 10
-27.7666567789631
 20
-89.38487513797847
 30
0.0
 10
-27.66495681024304
 20
-89.5544947011556
 30
0.0
 10
-27.59387851517667
 20
-89.73841117984907
 30
0.0
 10
-27.55496125487783
 20
-89.92998366931216
 30
0.0
 10
-27.54816460298861
 20
-90.1234185112391
 30
0.0
 10
-27.5733884843674
 20
-90.31876306895977
 30
0.0
 10
-27.63561284199509
 20
-90.52068224248186
 30
0.0
 10
-27.74730828419117
 20
-90.73000971275765
 30
0.0
 10
-27.92163553817136
 20
-90.92947904913655
 30
0.0
 10
-28.15703335022736
 20
-91.09531816268338
 30
0.0
 10
-28.34534159039772
 20
-91.14612365152956
 30
0.0
 10
-28.44032842234977
 20
-91.17175106128554
 30
0.0
 11
-28.8407906356831
 21
-88.95184771408555
 31
0.0
 11
-28.61220379514977
 21
-88.93505357221886
 31
0.0
 11
-28.4092438484831
 21
-88.96184514128554
 31
0.0
 11
-28.22404694501644
 21
-89.02295227195219
 31
0.0
 11
-28.05296239141644
 21
-89.11639126821887
 31
0.0
 11
-27.90031876261644
 21
-89.23958109755218
 31
0.0
 11
-27.77135105061644
 21
-89.38817212368553
 31
0.0
 11
-27.6699756692831
 21
-89.55707081381886
 31
0.0
 11
-27.59902482661643
 21
-89.74046294928553
 31
0.0
 11
-27.56015776741644
 21
-89.93160238075219
 31
0.0
 11
-27.55341297914977
 21
-90.1235289503522
 31
0.0
 11
-27.57791247461644
 21
-90.31293428261887
 31
0.0
 11
-27.6384252916831
 21
-90.50903890341887
 31
0.0
 11
-27.74914838821644
 21
-90.71575567995219
 31
0.0
 11
-27.92411660474977
 21
-90.91668697595221
 31
0.0
 11
-28.16221080314977
 21
-91.07886140475221
 31
0.0
 11
-28.44032842234977
 21
-91.17175106128554
 31
0.0
  0
SPLINE
  5
7C
100
AcDbEntity
  8
0
  6
HIDDEN
 62
     8
100
AcDbSpline
210
0.0
220
0.0
230
1.0
 70
     8
 71
     3
 72
    23
 73
    19
 74
    17
 42
0.0000001
 43
0.0000001
 44
0.0000000001
 40
0.0
 40
0.0
 40
0.0
 40
0.0
 40
0.2042659933653396
 40
0.3874193407666881
 40
0.562693613144445
 40
0.738741780425463
 40
0.9166772735205158
 40
1.095887303952914
 40
1.275957766162015
 40
1.456250146880627
 40
1.635495844414776
 40
1.812248511367357
 40
1.988164931251927
 40
2.17719614518017
 40
2.392980507897144
 40
2.637689945520944
 40
2.901587883258896
 40
3.169407746419757
 40
3.169407746419757
 40
3.169407746419757
 40
3.169407746419757
 10
-28.81213393914977
 20
-89.07350434021887
 30
0.0
 10
-28.74447399104234
 20
-89.06371102214732
 30
0.0
 10
-28.61614733196303
 20
-89.04513660959493
 30
0.0
 10
-28.42808729964584
 20
-89.06803024606853
 30
0.0
 10
-28.25703846715397
 20
-89.12047553817576
 30
0.0
 10
-28.09998526861309
 20
-89.20317011569826
 30
0.0
 10
-27.959422200108
 20
-89.31345982176109
 30
0.0
 10
-27.83983051682084
 20
-89.44801552647215
 30
0.0
 10
-27.74516794706765
 20
-89.60201027717721
 30
0.0
 10
-27.67829664893242
 20
-89.76993097542905
 30
0.0
 10
-27.64085602235663
 20
-89.94558779704524
 30
0.0
 10
-27.63299044924584
 20
-90.12351673922669
 30
0.0
 10
-27.65470741979582
 20
-90.30359807824948
 30
0.0
 10
-27.71062824749026
 20
-90.48994616289064
 30
0.0
 10
-27.81228883371851
 20
-90.68310308999153
 30
0.0
 10
-27.97190015364162
 20
-90.86667514857962
 30
0.0
 10
-28.18802160630449
 20
-91.01826159164321
 30
0.0
 10
-28.36085876994541
 20
-91.06275248196849
 30
0.0
 10
-28.44791477114977
 20
-91.08516200848553
 30
0.0
 11
-28.81213393914977
 21
-89.07350434021887
 31
0.0
 11
-28.6088332180831
 21
-89.0536697023522
 31
0.0
 11
-28.42678137594977
 21
-89.07372650768554
 31
0.0
 11
-28.25932260154976
 21
-89.12548198501886
 31
0.0
 11
-28.10344491194978
 21
-89.20730559461887
 31
0.0
 11
-27.96339383461644
 21
-89.31706321595219
 31
0.0
 11
-27.84423896101644
 21
-89.45092266128554
 31
0.0
 11
-27.74984212154977
 21
-89.60426739728552
 31
0.0
 11
-27.6830590868831
 21
-89.77173491301886
 31
0.0
 11
-27.6456481652831
 21
-89.94703306768554
 31
0.0
 11
-27.63783946981644
 21
-90.12361316155219
 31
0.0
 11
-27.65894753381644
 21
-90.29825862075218
 31
0.0
 11
-27.71336780688311
 21
-90.47928688848553
 31
0.0
 11
-27.81421510181643
 21
-90.67005563408555
 31
0.0
 11
-27.97450283728311
 21
-90.85496250448555
 31
0.0
 11
-28.19304655994977
 21
-91.00288397968553
 31
0.0
 11
-28.44791477114977
 21
-91.08516200848553
 31
0.0
  0
SPLINE
  5
7D
100
AcDbEntity
  8
0
  6
HIDDEN
 62
     8
100
AcDbSpline
210
0.0
220
0.0
230
1.0
 70
     8
 71
     3
 72
    10
 73
     6
 74
     4
 42
0.0000001
 43
0.0000001
 44
0.0000000001
 40
0.0
 40
0.0
 40
0.0
 40
0.0
 40
0.2943499357700878
 40
0.588139229431733
 40
0.8785432003194449
 40
0.8785432003194449
 40
0.8785432003194449
 40
0.8785432003194449
 10
-28.71818089168311
 20
-91.09097527888554
 30
0.0
 10
-28.81458505425853
 20
-91.07035841360971
 30
0.0
 10
-29.00720976043618
 20
-91.0291639515661
 30
0.0
 10
-29.26244166684206
 20
-90.86990773075447
 30
0.0
 10
-29.38410467406404
 20
-90.71676046937191
 30
0.0
 10
-29.44458366714977
 20
-90.6406305727522
 30
0.0
 11
-28.71818089168311
 21
-91.09097527888554
 31
0.0
 11
-29.00194296634977
 21
-91.01273865275221
 31
0.0
 11
-29.25127172581644
 21
-90.85734457701887
 31
0.0
 11
-29.44458366714977
 21
-90.6406305727522
 31
0.0
  0
SPLINE
  5
7E
100
AcDbEntity
  8
0
  6
HIDDEN
 62
     8
100
AcDbSpline
210
0.0
220
0.0
230
1.0
 70
     8
 71
     3
 72
    10
 73
     6
 74
     4
 42
0.0000001
 43
0.0000001
 44
0.0000000001
 40
0.0
 40
0.0
 40
0.0
 40
0.0
 40
0.3217602062573913
 40
0.6448421665526834
 40
0.9665235413441495
 40
0.9665235413441495
 40
0.9665235413441495
 40
0.9665235413441495
 10
-28.7366838964831
 20
-91.1835142879522
 30
0.0
 10
-28.84251430287357
 20
-91.163271477748
 30
0.0
 10
-29.05460985483063
 20
-91.1227027021961
 30
0.0
 10
-29.33960810572612
 20
-90.95463257977126
 30
0.0
 10
-29.47818213281152
 20
-90.78910045804937
 30
0.0
 10
-29.54731863781644
 20
-90.7065141855522
 30
0.0
 11
-28.7366838964831
 21
-91.1835142879522
 31
0.0
 11
-29.04870976314977
 21
-91.10496819408552
 31
0.0
 11
-29.32707830501644
 21
-90.94097762128553
 31
0.0
 11
-29.54731863781644
 21
-90.7065141855522
 31
0.0
  0
SPLINE
  5
7F
100
AcDbEntity
  8
0
  6
HIDDEN
 62
     8
100
AcDbSpline
210
0.0
220
0.0
230
-1.0
 70
     8
 71
     3
 72
     9
 73
     5
 74
     3
 42
0.0000001
 43
0.0000001
 44
0.0000000001
 40
0.0
 40
0.0
 40
0.0
 40
0.0
 40
0.0917539215309571
 40
0.182651072182871
 40
0.182651072182871
 40
0.182651072182871
 40
0.182651072182871
 10
-29.44458366714977
 20
-90.6406305727522
 30
0.0
 10
-29.460986561654
 20
-90.61477289095055
 30
0.0
 10
-29.49363918530332
 20
-90.56329897870318
 30
0.0
 10
-29.51927148523264
 20
-90.50799398197261
 30
0.0
 10
-29.53202751781644
 20
-90.48047119461887
 30
0.0
 11
-29.44458366714977
 21
-90.6406305727522
 31
0.0
 11
-29.49202076581644
 21
-90.56209074981888
 31
0.0
 11
-29.53202751781644
 21
-90.48047119461887
 31
0.0
  0
SPLINE
  5
80
100
AcDbEntity
  8
0
  6
HIDDEN
 62
     8
100
AcDbSpline
210
0.0
220
0.0
230
1.0
 70
     8
 71
     3
 72
    15
 73
    11
 74
     9
 42
0.0000001
 43
0.0000001
 44
0.0000000001
 40
0.0
 40
0.0
 40
0.0
 40
0.0
 40
0.0068972729149847
 40
0.0487861055267179
 40
0.0905345615733962
 40
0.1321582731233526
 40
0.1736908999340747
 40
0.2151624287453607
 40
0.2566050077989492
 40
0.2979387052706229
 40
0.2979387052706229
 40
0.2979387052706229
 40
0.2979387052706229
 10
-28.42897391781644
 20
-90.3480603455522
 30
0.0
 10
-28.42718909324179
 20
-90.346611198831
 30
0.0
 10
-28.41456459061321
 20
-90.3363610281135
 30
0.0
 10
-28.39305394683554
 20
-90.31497084442703
 30
0.0
 10
-28.36833351114384
 20
-90.28111278970149
 30
0.0
 10
-28.3494890859751
 20
-90.24377951984892
 30
0.0
 10
-28.33698512125091
 20
-90.20394934419304
 30
0.0
 10
-28.33139299741389
 20
-90.16269367270076
 30
0.0
 10
-28.33232268730604
 20
-90.12098484109248
 30
0.0
 10
-28.3388465885427
 20
-90.09410607451933
 30
0.0
 10
-28.3421042484831
 20
-90.08068436901886
 30
0.0
 11
-28.42897391781644
 21
-90.3480603455522
 31
0.0
 11
-28.42364009381644
 21
-90.34368739515221
 31
0.0
 11
-28.39386490661643
 21
-90.31422364581885
 31
0.0
 11
-28.36928060154977
 21
-90.2804813055522
 31
0.0
 11
-28.3505283252831
 21
-90.24332103781887
 31
0.0
 11
-28.3381301780831
 21
-90.20368210448552
 31
0.0
 11
-28.33247901221644
 21
-90.1625974111522
 31
0.0
 11
-28.3338035188831
 21
-90.12117600315219
 31
0.0
 11
-28.3421042484831
 21
-90.08068436901886
 31
0.0
  0
SPLINE
  5
81
100
AcDbEntity
  8
0
  6
HIDDEN
 62
     8
100
AcDbSpline
210
0.0
220
0.0
230
-1.0
 70
     8
 71
     3
 72
    15
 73
    11
 74
     9
 42
0.0000001
 43
0.0000001
 44
0.0000000001
 40
0.0
 40
0.0
 40
0.0
 40
0.0
 40
0.041418926433403
 40
0.082931950512895
 40
0.1244020349737911
 40
0.165792035371875
 40
0.2071117376849896
 40
0.2484606627168771
 40
0.2899623167427461
 40
0.331668230762329
 40
0.331668230762329
 40
0.331668230762329
 40
0.331668230762329
 10
-28.48819932901644
 20
-89.58681857808555
 30
0.0
 10
-28.49277864248528
 20
-89.57375784080687
 30
0.0
 10
-28.5019476729427
 20
-89.5476066941952
 30
0.0
 10
-28.52394223316633
 20
-89.51208968514254
 30
0.0
 10
-28.55117620368706
 20
-89.480624734525
 30
0.0
 10
-28.58337491754778
 20
-89.45428702443093
 30
0.0
 10
-28.61941301156157
 20
-89.43360839663757
 30
0.0
 10
-28.65836753000406
 20
-89.41919615151654
 30
0.0
 10
-28.6992956629974
 20
-89.41075078706736
 30
0.0
 10
-28.72709144419774
 20
-89.41075100099332
 30
0.0
 10
-28.7410234516831
 20
-89.41075110821888
 30
0.0
 11
-28.48819932901644
 21
-89.58681857808555
 31
0.0
 11
-28.50330753594977
 21
-89.54825344421886
 31
0.0
 11
-28.5248255316831
 21
-89.51275264101886
 31
0.0
 11
-28.55203060901644
 21
-89.48145325328553
 31
0.0
 11
-28.58403940581644
 21
-89.45521265381888
 31
0.0
 11
-28.6198842004831
 21
-89.43465861541886
 31
0.0
 11
-28.65862652794977
 21
-89.42020989008554
 31
0.0
 11
-28.69934162021643
 21
-89.41216821435219
 31
0.0
 11
-28.7410234516831
 21
-89.41075110821888
 31
0.0
  0
SPLINE
  5
82
100
AcDbEntity
  8
0
  6
HIDDEN
 62
     8
100
AcDbSpline
210
0.0
220
0.0
230
-1.0
 70
     8
 71
     3
 72
    19
 73
    15
 74
    13
 42
0.0000001
 43
0.0000001
 44
0.0000000001
 40
0.0
 40
0.0
 40
0.0
 40
0.0
 40
0.0697409566618714
 40
0.1402195613998612
 40
0.2076283951759697
 40
0.2688226553598504
 40
0.3228979879312207
 40
0.3710517933057634
 40
0.4143570385304585
 40
0.4540953530360329
 40
0.4903218696869799
 40
0.5234475129136396
 40
0.5554978272704253
 40
0.5844023537793089
 40
0.5844023537793089
 40
0.5844023537793089
 40
0.5844023537793089
 10
-29.59988477541644
 20
-90.01449404368555
 30
0.0
 10
-29.60494748501385
 20
-89.99172984162029
 30
0.0
 10
-29.61512645234126
 20
-89.94596066118472
 30
0.0
 10
-29.61311667917481
 20
-89.8760996868307
 30
0.0
 10
-29.59936789303283
 20
-89.81087478915991
 30
0.0
 10
-29.57621979828568
 20
-89.75421641243753
 30
0.0
 10
-29.54798480988232
 20
-89.70741765010716
 30
0.0
 10
-29.51746006820433
 20
-89.66954581431256
 30
0.0
 10
-29.48611782239835
 20
-89.63891865533552
 30
0.0
 10
-29.45486819757743
 20
-89.61423608242283
 30
0.0
 10
-29.42431593461861
 20
-89.59442818529128
 30
0.0
 10
-29.39450992553971
 20
-89.57842759640019
 30
0.0
 10
-29.36592338989947
 20
-89.56546687761585
 30
0.0
 10
-29.34690608797458
 20
-89.55830312608537
 30
0.0
 10
-29.33788816421644
 20
-89.55490610555219
 30
0.0
 11
-29.59988477541644
 21
-90.01449404368555
 31
0.0
 11
-29.61221910714977
 21
-89.94585247248554
 31
0.0
 11
-29.61094782074977
 21
-89.8753853343522
 31
0.0
 11
-29.59690161274977
 21
-89.80945616848552
 31
0.0
 11
-29.57382147941643
 21
-89.75278126288554
 31
0.0
 11
-29.54590423994977
 21
-89.70646960848553
 31
0.0
 11
-29.51570403514977
 21
-89.66896312101885
 31
0.0
 11
-29.48474374288311
 21
-89.63868434021888
 31
0.0
 11
-29.45357273274977
 21
-89.61403678928553
 31
0.0
 11
-29.42318495034978
 21
-89.59431514661886
 31
0.0
 11
-29.39402692901643
 21
-89.5785951583522
 31
0.0
 11
-29.36483039141645
 21
-89.56537453648554
 31
0.0
 11
-29.33788816421644
 21
-89.55490610555219
 31
0.0
  0
SPLINE
  5
83
100
AcDbEntity
  8
0
  6
HIDDEN
 62
     8
100
AcDbSpline
210
-0.9606975484816308
220
-0.2775972268258178
230
0.0
 70
    24
 71
     3
 72
     9
 73
     5
 74
     3
 42
0.0000001
 43
0.0000001
 44
0.0000000001
 40
0.0
 40
0.0
 40
0.0
 40
0.0
 40
0.0026185543830763
 40
0.0052385953106599
 40
0.0052385953106599
 40
0.0052385953106599
 40
0.0052385953106599
 10
-29.59843054394977
 20
-90.0195268031522
 30
0.0
 10
-29.59867681989699
 20
-90.01868940996994
 30
0.0
 10
-29.59916951160145
 20
-90.01701414822012
 30
0.0
 10
-29.59964629624607
 20
-90.01533429004915
 30
0.0
 10
-29.59988475621644
 20
-90.01449412261885
 30
0.0
 11
-29.59843054394977
 21
-90.0195268031522
 31
0.0
 11
-29.59916539728311
 21
-90.0170134751522
 31
0.0
 11
-29.59988475621644
 21
-90.01449412261885
 31
0.0
  0
SPLINE
  5
84
100
AcDbEntity
  8
0
  6
HIDDEN
 62
     8
100
AcDbSpline
210
0.0
220
0.0
230
1.0
 70
     8
 71
     3
 72
    14
 73
    10
 74
     8
 42
0.0000001
 43
0.0000001
 44
0.0000000001
 40
0.0
 40
0.0
 40
0.0
 40
0.0
 40
0.0460290555255781
 40
0.0952078966689497
 40
0.1459439856900077
 40
0.2035104976416322
 40
0.2655805428355749
 40
0.3294841057326314
 40
0.3919280332876847
 40
0.3919280332876847
 40
0.3919280332876847
 40
0.3919280332876847
 10
-29.24987848741643
 20
-90.51753079141887
 30
0.0
 10
-29.26468706912968
 20
-90.51345259163824
 30
0.0
 10
-29.29531758938409
 20
-90.50501711932893
 30
0.0
 10
-29.33991269218921
 20
-90.48510937224927
 30
0.0
 10
-29.38505159806339
 20
-90.45809380653873
 30
0.0
 10
-29.42936024159346
 20
-90.42216919596119
 30
0.0
 10
-29.47024758586616
 20
-90.37637869684701
 30
0.0
 10
-29.50444161434464
 20
-90.32311612990161
 30
0.0
 10
-29.51894613359561
 20
-90.28346583989806
 30
0.0
 10
-29.52611461114977
 20
-90.26386972581887
 30
0.0
 11
-29.24987848741643
 21
-90.51753079141887
 31
0.0
 11
-29.29394463674977
 21
-90.50423235408553
 31
0.0
 11
-29.33897855568311
 21
-90.48447116581886
 31
0.0
 11
-29.38246248848311
 21
-90.4583311903522
 31
0.0
 11
-29.42715585594978
 21
-90.42204887781887
 31
0.0
 11
-29.46857633061644
 21
-90.37582080421888
 31
0.0
 11
-29.5025513044831
 21
-90.32169718181888
 31
0.0
 11
-29.52611461114977
 21
-90.26386972581887
 31
0.0
  0
SPLINE
  5
85
100
AcDbEntity
  8
0
  6
HIDDEN
 62
     8
100
AcDbSpline
210
-0.9571077265443507
220
-0.2897322898627356
230
0.0
 70
    24
 71
     3
 72
     9
 73
     5
 74
     3
 42
0.0000001
 43
0.0000001
 44
0.0000000001
 40
0.0
 40
0.0
 40
0.0
 40
0.0
 40
0.002617170039323
 40
0.0052342981940049
 40
0.0052342981940049
 40
0.0052342981940049
 40
0.0052342981940049
 10
-29.52611464101644
 20
-90.2638696383522
 30
0.0
 10
-29.52637136482632
 20
-90.26303587174369
 30
0.0
 10
-29.52688480833752
 20
-90.26136835187012
 30
0.0
 10
-29.52738238985068
 20
-90.25969603030869
 30
0.0
 10
-29.52763117861644
 20
-90.25885987621888
 30
0.0
 11
-29.52611464101644
 21
-90.2638696383522
 31
0.0
 11
-29.5268808468831
 21
-90.26136713808552
 31
0.0
 11
-29.52763117861644
 21
-90.25885987621888
 31
0.0
  0
SPLINE
  5
86
100
AcDbEntity
  8
0
  6
HIDDEN
 62
     8
100
AcDbSpline
210
-0.5233859638894262
220
0.8520957298352904
230
0.0
 70
    24
 71
     3
 72
     8
 73
     4
 74
     2
 42
0.0000001
 43
0.0000001
 44
0.0000000001
 40
0.0
 40
0.0
 40
0.0
 40
0.0
 40
0.0039924565760412
 40
0.0039924565760412
 40
0.0039924565760412
 40
0.0039924565760412
 10
-28.4340827220831
 20
-90.3519010943522
 30
0.0
 10
-28.43294873701644
 20
-90.3512045624411
 30
0.0
 10
-28.43181475194977
 20
-90.35050803052998
 30
0.0
 10
-28.43068076688311
 20
-90.34981149861886
 30
0.0
 11
-28.4340827220831
 21
-90.3519010943522
 31
0.0
 11
-28.43068076688311
 21
-90.34981149861886
 31
0.0
  0
SPLINE
  5
87
100
AcDbEntity
  8
0
  6
HIDDEN
 62
     8
100
AcDbSpline
210
0.0
220
0.0
230
1.0
 70
     8
 71
     3
 72
    13
 73
     9
 74
     7
 42
0.0000001
 43
0.0000001
 44
0.0000000001
 40
0.0
 40
0.0
 40
0.0
 40
0.0
 40
0.0277209657736444
 40
0.0639067671072357
 40
0.1047000892910687
 40
0.1487274052618379
 40
0.1954273309413634
 40
0.1977003737008549
 40
0.1977003737008549
 40
0.1977003737008549
 40
0.1977003737008549
 10
-29.05469070074977
 20
-90.5122383999522
 30
0.0
 10
-29.06350506699245
 20
-90.5150436221645
 30
0.0
 10
-29.08382534209646
 20
-90.52151066534293
 30
0.0
 10
-29.11843314774744
 20
-90.52694286114801
 30
0.0
 10
-29.15875705956558
 20
-90.52923267177126
 30
0.0
 10
-29.20262457377953
 20
-90.52673484990476
 30
0.0
 10
-29.23325930821866
 20
-90.52147941140663
 30
0.0
 10
-29.24914133531307
 20
-90.51770593445661
 30
0.0
 10
-29.24987848741643
 20
-90.51753079141887
 30
0.0
 11
-29.05469070074977
 21
-90.5122383999522
 31
0.0
 11
-29.08128500581644
 21
-90.52006111568553
 31
0.0
 11
-29.11695601701643
 21
-90.52614315301886
 31
0.0
 11
-29.15768532261644
 21
-90.5284276223522
 31
0.0
 11
-29.20164477434977
 21
-90.52598402768552
 31
0.0
 11
-29.24766649274977
 21
-90.51805405328554
 31
0.0
 11
-29.24987848741643
 21
-90.51753079141887
 31
0.0
  0
SPLINE
  5
88
100
AcDbEntity
  8
0
  6
HIDDEN
 62
     8
100
AcDbSpline
210
0.0
220
0.0
230
1.0
 70
     8
 71
     3
 72
    10
 73
     6
 74
     4
 42
0.0000001
 43
0.0000001
 44
0.0000000001
 40
0.0
 40
0.0
 40
0.0
 40
0.0
 40
0.0051516957076411
 40
0.006330169354893
 40
0.0063923207481392
 40
0.0063923207481392
 40
0.0063923207481392
 40
0.0063923207481392
 10
-28.42896983674977
 20
-90.34806539515219
 30
0.0
 10
-28.43030945429746
 20
-90.34914156374338
 30
0.0
 10
-28.43195551540607
 20
-90.3504639107575
 30
0.0
 10
-28.43374504952967
 20
-90.35162800206956
 30
0.0
 10
-28.4340666127806
 20
-90.35188806597265
 30
0.0
 10
-28.4340827220831
 20
-90.3519010943522
 30
0.0
 11
-28.42896983674977
 21
-90.34806539515219
 31
0.0
 11
-28.4330721908831
 21
-90.35118158821887
 31
0.0
 11
-28.43403432954977
 21
-90.35186209488553
 31
0.0
 11
-28.4340827220831
 21
-90.3519010943522
 31
0.0
  0
LWPOLYLINE
  5
89
100
AcDbEntity
  8
0
  6
HIDDEN
 62
     8
100
AcDbPolyline
 90
        6
 70
     0
 43
0.0
 10
-28.777242
 20
-89.731599
 10
-28.731779
 20
-89.747659
 10
-28.690215
 20
-89.773097
 10
-28.654843
 20
-89.806688
 10
-28.627208
 20
-89.846964
 10
-28.60852
 20
-89.892165
  0
LWPOLYLINE
  5
8A
100
AcDbEntity
  8
0
  6
HIDDEN
 62
     8
100
AcDbPolyline
 90
        6
 70
     0
 43
0.0
 10
-28.886544
 20
-90.187685
 10
-28.932007
 20
-90.171625
 10
-28.973571
 20
-90.146187
 10
-29.008944
 20
-90.112596
 10
-29.036578
 20
-90.07232
 10
-29.055266
 20
-90.027119
  0
LWPOLYLINE
  5
8B
100
AcDbEntity
  8
0
  6
HIDDEN
 62
     8
100
AcDbPolyline
 90
        6
 70
     0
 43
0.0
 10
-28.833049
 20
-89.718236
 10
-28.800321
 20
-89.728686
 10
-28.754436
 20
-89.753548
 10
-28.715233
 20
-89.788074
 10
-28.684676
 20
-89.830534
 10
-28.664298
 20
-89.878796
  0
LWPOLYLINE
  5
8C
100
AcDbEntity
  8
0
  6
HIDDEN
 62
     8
100
AcDbPolyline
 90
        6
 70
     0
 43
0.0
 10
-28.942293
 20
-90.174312
 10
-28.975021
 20
-90.163862
 10
-29.020905
 20
-90.139
 10
-29.060109
 20
-90.104473
 10
-29.090666
 20
-90.062014
 10
-29.111044
 20
-90.013751
  0
LWPOLYLINE
  5
8D
100
AcDbEntity
  8
0
  6
HIDDEN
 62
     8
100
AcDbPolyline
 90
        4
 70
     0
 43
0.0
 10
-28.930095
 20
-90.829026
 10
-29.160152
 20
-90.770595
 10
-29.365753
 20
-90.651676
 10
-29.531587
 20
-90.481086
  0
LINE
  5
8E
100
AcDbEntity
  8
0
  6
HIDDEN
 62
     8
100
AcDbLine
 10
-29.337888
 20
-89.554906
 30
0.0
 11
-29.271164
 21
-89.570898
 31
0.0
  0
LINE
  5
8F
100
AcDbEntity
  8
0
  6
HIDDEN
 62
     8
100
AcDbLine
 10
-28.777238
 20
-89.7316
 30
0.0
 11
-28.833016
 21
-89.718232
 31
0.0
  0
LINE
  5
90
100
AcDbEntity
  8
0
  6
HIDDEN
 62
     8
100
AcDbLine
 10
-28.886548
 20
-90.187684
 30
0.0
 11
-28.942326
 21
-90.174316
 31
0.0
  0
LINE
  5
91
100
AcDbEntity
  8
0
  6
HIDDEN
 62
     8
100
AcDbLine
 10
-29.598431
 20
-90.019527
 30
0.0
 11
-29.522172
 21
-90.037804
 31
0.0
  0
LINE
  5
92
100
AcDbEntity
  8
0
  6
HIDDEN
 62
     8
100
AcDbLine
 10
-29.527631
 20
-90.25886
 30
0.0
 11
-29.451373
 21
-90.277137
 31
0.0
  0
LINE
  5
93
100
AcDbEntity
  8
0
  6
HIDDEN
 62
     8
100
AcDbLine
 10
-29.054691
 20
-90.512238
 30
0.0
 11
-28.987967
 21
-90.52823
 31
0.0
  0
LINE
  5
94
100
AcDbEntity
  8
0
  6
HIDDEN
 62
     8
100
AcDbLine
 10
-29.249913
 20
-90.517522
 30
0.0
 11
-29.181567
 21
-90.533903
 31
0.0
  0
LWPOLYLINE
  5
95
100
AcDbEntity
  8
0
  6
HIDDEN
 62
     8
100
AcDbPolyline
 90
        4
 70
     0
 43
0.0
 10
-29.181514
 20
-90.533897
 10
-29.15347
 20
-90.539497
 10
-29.070115
 20
-90.543241
 10
-28.987967
 20
-90.52823
  0
LWPOLYLINE
  5
96
100
AcDbEntity
  8
0
  6
HIDDEN
 62
     8
100
AcDbPolyline
 90
       13
 70
     0
 43
0.0
 10
-28.860504
 20
-89.085481
 10
-28.624054
 20
-89.109685
 10
-28.403381
 20
-89.197251
 10
-28.214685
 20
-89.341658
 10
-28.072015
 20
-89.532137
 10
-27.986
 20
-89.754497
 10
-27.963057
 20
-89.992172
 10
-28.004919
 20
-90.227455
 10
-28.108491
 20
-90.442791
 10
-28.266017
 20
-90.622052
 10
-28.465726
 20
-90.751884
 10
-28.692725
 20
-90.82263
 10
-28.930095
 20
-90.829026
  0
LINE
  5
97
100
AcDbEntity
  8
0
  6
HIDDEN
 62
     8
100
AcDbLine
 10
-27.478377
 20
-89.20686
 30
0.0
 11
-27.332281
 21
-89.700725
 31
0.0
  0
LINE
  5
98
100
AcDbEntity
  8
0
  6
HIDDEN
 62
     8
100
AcDbLine
 10
-28.342104
 20
-90.080684
 30
0.0
 11
-28.488199
 21
-89.586819
 31
0.0
  0
LWPOLYLINE
  5
99
100
AcDbEntity
  8
0
  6
HIDDEN
 62
     8
100
AcDbPolyline
 90
        7
 70
     0
 43
0.0
 10
-27.478375
 20
-89.206859
 10
-27.496082
 20
-89.155043
 10
-27.517493
 20
-89.106398
 10
-27.541579
 20
-89.063262
 10
-27.567182
 20
-89.027708
 10
-27.593072
 20
-89.001446
 10
-27.618004
 20
-88.985738
  0
LINE
  5
9A
100
AcDbEntity
  8
0
  6
HIDDEN
 62
     8
100
AcDbLine
 10
-28.447915
 20
-91.085162
 30
0.0
 11
-28.718181
 21
-91.090975
 31
0.0
  0
LINE
  5
9B
100
AcDbEntity
  8
0
  6
HIDDEN
 62
     8
100
AcDbLine
 10
-28.440328
 20
-91.171751
 30
0.0
 11
-28.736682
 21
-91.183515
 31
0.0
  0
LWPOLYLINE
  5
9C
100
AcDbEntity
  8
0
  6
HIDDEN
 62
     8
100
AcDbPolyline
 90
       11
 70
     0
 43
0.0
 10
-28.664298
 20
-89.878796
 10
-28.65512
 20
-89.930443
 10
-28.657604
 20
-89.982883
 10
-28.671625
 20
-90.033488
 10
-28.696479
 20
-90.079719
 10
-28.73092
 20
-90.119259
 10
-28.773221
 20
-90.150125
 10
-28.821261
 20
-90.170768
 10
-28.872631
 20
-90.180155
 10
-28.924756
 20
-90.177814
 10
-28.942293
 20
-90.174312
  0
LWPOLYLINE
  5
9D
100
AcDbEntity
  8
0
  6
HIDDEN
 62
     8
100
AcDbPolyline
 90
       11
 70
     0
 43
0.0
 10
-29.111044
 20
-90.013751
 10
-29.120221
 20
-89.962105
 10
-29.117738
 20
-89.909664
 10
-29.103717
 20
-89.85906
 10
-29.078863
 20
-89.812828
 10
-29.044422
 20
-89.773289
 10
-29.002121
 20
-89.742423
 10
-28.954081
 20
-89.721779
 10
-28.90271
 20
-89.712393
 10
-28.850586
 20
-89.714734
 10
-28.833049
 20
-89.718236
  0
LWPOLYLINE
  5
9E
100
AcDbEntity
  8
0
  6
HIDDEN
 62
     8
100
AcDbPolyline
 90
       11
 70
     0
 43
0.0
 10
-28.60852
 20
-89.892165
 10
-28.599594
 20
-89.940314
 10
-28.60082
 20
-89.989309
 10
-28.612146
 20
-90.037006
 10
-28.633075
 20
-90.081323
 10
-28.662694
 20
-90.120321
 10
-28.699707
 20
-90.152297
 10
-28.742498
 20
-90.175853
 10
-28.789196
 20
-90.18996
 10
-28.83776
 20
-90.194001
 10
-28.886544
 20
-90.187685
  0
LWPOLYLINE
  5
9F
100
AcDbEntity
  8
0
  6
HIDDEN
 62
     8
100
AcDbPolyline
 90
       11
 70
     0
 43
0.0
 10
-29.055266
 20
-90.027119
 10
-29.064193
 20
-89.97897
 10
-29.062966
 20
-89.929976
 10
-29.051641
 20
-89.882278
 10
-29.030711
 20
-89.837961
 10
-29.001092
 20
-89.798963
 10
-28.964079
 20
-89.766987
 10
-28.921288
 20
-89.743431
 10
-28.87459
 20
-89.729324
 10
-28.826026
 20
-89.725284
 10
-28.777242
 20
-89.731599
  0
LINE
  5
A0
100
AcDbEntity
  8
0
  6
HIDDEN
 62
     8
100
AcDbLine
 10
-29.451373
 20
-90.277137
 30
0.0
 11
-29.522172
 21
-90.037804
 31
0.0
  0
LINE
  5
A1
100
AcDbEntity
  8
0
  6
HIDDEN
 62
     8
100
AcDbLine
 10
-29.527631
 20
-90.25886
 30
0.0
 11
-29.598431
 21
-90.019527
 31
0.0
  0
LWPOLYLINE
  5
A2
100
AcDbEntity
  8
0
  6
HIDDEN
 62
     8
100
AcDbPolyline
 90
        6
 70
     0
 43
0.0
 10
-29.451373
 20
-90.277137
 10
-29.418785
 20
-90.354316
 10
-29.36992
 20
-90.422215
 10
-29.307227
 20
-90.477428
 10
-29.233851
 20
-90.517186
 10
-29.181514
 20
-90.533897
  0
LWPOLYLINE
  5
A3
100
AcDbEntity
  8
0
  6
HIDDEN
 62
     8
100
AcDbPolyline
 90
        7
 70
     0
 43
0.0
 10
-27.334806
 20
-89.94307
 10
-27.320884
 20
-89.921561
 10
-27.312064
 20
-89.890117
 10
-27.308772
 20
-89.850249
 10
-27.311166
 20
-89.803874
 10
-27.319129
 20
-89.753221
 10
-27.33228
 20
-89.700725
  0
LINE
  5
A4
100
AcDbEntity
  8
0
  6
HIDDEN
 62
     8
100
AcDbLine
 10
-28.430665
 20
-90.349807
 30
0.0
 11
-28.457826
 21
-90.368083
 31
0.0
  0
LINE
  5
A5
100
AcDbEntity
  8
0
  6
HIDDEN
 62
     8
100
AcDbLine
 10
-28.457826
 20
-90.368083
 30
0.0
 11
-28.428974
 21
-90.34806
 31
0.0
  0
LINE
  5
A6
100
AcDbEntity
  8
0
  6
HIDDEN
 62
     8
100
AcDbLine
 10
-29.154288
 20
-89.075216
 30
0.0
 11
-29.571762
 21
-89.947495
 31
0.0
  0
LINE
  5
A7
100
AcDbEntity
  8
0
  6
HIDDEN
 62
     8
100
AcDbLine
 10
-28.987967
 20
-90.52823
 30
0.0
 11
-28.457826
 21
-90.368083
 31
0.0
  0
LINE
  5
A8
100
AcDbEntity
  8
0
  6
HIDDEN
 62
     8
100
AcDbLine
 10
-29.271164
 20
-89.570898
 30
0.0
 11
-28.741023
 21
-89.410751
 31
0.0
  0
LWPOLYLINE
  5
A9
100
AcDbEntity
  8
0
  6
HIDDEN
 62
     8
100
AcDbPolyline
 90
        8
 70
     0
 43
0.0
 10
-27.332281
 20
-89.700725
 10
-27.551665
 20
-89.772523
 10
-27.75219
 20
-89.840679
 10
-27.929613
 20
-89.90375
 10
-28.080179
 20
-89.960403
 10
-28.200702
 20
-90.009437
 10
-28.28863
 20
-90.049816
 10
-28.342104
 20
-90.080684
  0
LWPOLYLINE
  5
AA
100
AcDbEntity
  8
0
  6
HIDDEN
 62
     8
100
AcDbPolyline
 90
        8
 70
     0
 43
0.0
 10
-27.478377
 20
-89.20686
 10
-27.69776
 20
-89.278657
 10
-27.898285
 20
-89.346813
 10
-28.075708
 20
-89.409884
 10
-28.226274
 20
-89.466537
 10
-28.346797
 20
-89.515571
 10
-28.434725
 20
-89.55595
 10
-28.488199
 20
-89.586819
  0
LWPOLYLINE
  5
AB
100
AcDbEntity
  8
0
  6
HIDDEN
 62
     8
100
AcDbPolyline
 90
        8
 70
     0
 43
0.0
 10
-27.334807
 20
-89.943071
 10
-27.58324
 20
-90.024411
 10
-27.809634
 20
-90.101478
 10
-28.008953
 20
-90.172556
 10
-28.176765
 20
-90.236066
 10
-28.309339
 20
-90.290594
 10
-28.403727
 20
-90.33493
 10
-28.430665
 20
-90.349807
  0
LWPOLYLINE
  5
AC
100
AcDbEntity
  8
0
  6
HIDDEN
 62
     8
100
AcDbPolyline
 90
        8
 70
     0
 43
0.0
 10
-29.271164
 20
-89.570898
 10
-29.347988
 20
-89.60391
 10
-29.415633
 20
-89.653269
 10
-29.47071
 20
-89.716499
 10
-29.510455
 20
-89.790429
 10
-29.532875
 20
-89.871353
 10
-29.536848
 20
-89.955213
 10
-29.522172
 20
-90.037804
  0
LWPOLYLINE
  5
AD
100
AcDbEntity
  8
0
  6
HIDDEN
 62
     8
100
AcDbPolyline
 90
        8
 70
     0
 43
0.0
 10
-28.741023
 20
-89.410751
 10
-28.686924
 20
-89.377597
 10
-28.592536
 20
-89.333262
 10
-28.459962
 20
-89.278733
 10
-28.29215
 20
-89.215224
 10
-28.092831
 20
-89.144145
 10
-27.866438
 20
-89.067079
 10
-27.618005
 20
-88.985738
  0
LWPOLYLINE
  5
AE
100
AcDbEntity
  8
0
  6
HIDDEN
 62
     8
100
AcDbPolyline
 90
        7
 70
     0
 43
0.0
 10
-24.746642
 20
-88.919647
 10
-24.73022
 20
-88.971155
 10
-24.712601
 20
-89.018891
 10
-24.694633
 20
-89.060561
 10
-24.677179
 20
-89.094162
 10
-24.661077
 20
-89.118078
 10
-24.647103
 20
-89.13116
  0
SPLINE
  5
AF
100
AcDbEntity
  8
0
  6
HIDDEN
 62
     8
100
AcDbSpline
210
0.0
220
0.0
230
1.0
 70
     8
 71
     3
 72
     9
 73
     5
 74
     3
 42
0.0000001
 43
0.0000001
 44
0.0000000001
 40
0.0
 40
0.0
 40
0.0
 40
0.0
 40
0.2171558333579816
 40
1.319328726263803
 40
1.319328726263803
 40
1.319328726263803
 40
1.319328726263803
 10
-26.90993209274977
 20
-88.20972203941886
 30
0.0
 10
-26.84107349825798
 20
-88.18733266715211
 30
0.0
 10
-26.42272359552519
 20
-88.05130619465201
 30
0.0
 10
-26.02361706605776
 20
-87.86450955885456
 30
0.0
 10
-25.69020175461643
 20
-87.70845884581886
 30
0.0
 11
-26.90993209274977
 21
-88.20972203941886
 31
0.0
 11
-26.70387764581644
 21
-88.1411784703522
 31
0.0
 11
-25.69020175461643
 21
-87.70845884581886
 31
0.0
  0
SPLINE
  5
B0
100
AcDbEntity
  8
0
  6
HIDDEN
 62
     8
100
AcDbSpline
210
0.0
220
0.0
230
1.0
 70
     8
 71
     3
 72
     9
 73
     5
 74
     3
 42
0.0000001
 43
0.0000001
 44
0.0000000001
 40
0.0
 40
0.0
 40
0.0
 40
0.0
 40
0.146330693207145
 40
0.2924385185578448
 40
0.2924385185578448
 40
0.2924385185578448
 40
0.2924385185578448
 10
-27.1442852820831
 20
-88.28200175461887
 30
0.0
 10
-27.1917279418953
 20
-88.29333268168175
 30
0.0
 10
-27.2865410043352
 20
-88.31597727832468
 30
0.0
 10
-27.38147790686598
 20
-88.33809693090598
 30
0.0
 10
-27.42891018234976
 20
-88.34914832848554
 30
0.0
 11
-27.1442852820831
 21
-88.28200175461887
 31
0.0
 11
-27.28664426874976
 21
-88.31586309968555
 31
0.0
 11
-27.42891018234976
 21
-88.34914832848554
 31
0.0
  0
SPLINE
  5
B1
100
AcDbEntity
  8
0
  6
HIDDEN
 62
     8
100
AcDbSpline
210
0.0
220
0.0
230
-1.0
 70
     8
 71
     3
 72
     9
 73
     5
 74
     3
 42
0.0000001
 43
0.0000001
 44
0.0000000001
 40
0.0
 40
0.0
 40
0.0
 40
0.0
 40
0.1138362713970107
 40
0.2254211560562872
 40
0.2254211560562872
 40
0.2254211560562872
 40
0.2254211560562872
 10
-26.92881582714977
 20
-88.2157705567522
 30
0.0
 10
-26.96516148861579
 20
-88.22667401319852
 30
0.0
 10
-27.03713398845929
 20
-88.24826528395059
 30
0.0
 10
-27.10880679417612
 20
-88.27083139049028
 30
0.0
 10
-27.1442852820831
 20
-88.28200175461887
 30
0.0
 11
-26.92881582714977
 21
-88.2157705567522
 31
0.0
 11
-27.03777638394977
 21
-88.24872952741888
 31
0.0
 11
-27.1442852820831
 21
-88.28200175461887
 31
0.0
  0
SPLINE
  5
B2
100
AcDbEntity
  8
0
  6
HIDDEN
 62
     8
100
AcDbSpline
210
0.0
220
0.0
230
-1.0
 70
     8
 71
     3
 72
     9
 73
     5
 74
     3
 42
0.0000001
 43
0.0000001
 44
0.0000000001
 40
0.0
 40
0.0
 40
0.0
 40
0.0
 40
0.0116794260014429
 40
0.0232905592700342
 40
0.0232905592700342
 40
0.0232905592700342
 40
0.0232905592700342
 10
-26.9066465236831
 20
-88.20863110501887
 30
0.0
 10
-26.91035370644527
 20
-88.20981995461279
 30
0.0
 10
-26.91774639507879
 20
-88.21219070227853
 30
0.0
 10
-26.92513323637451
 20
-88.2145796068483
 30
0.0
 10
-26.92881582714977
 20
-88.2157705567522
 30
0.0
 11
-26.9066465236831
 21
-88.20863110501887
 31
0.0
 11
-26.91776660154977
 21
-88.21220221968554
 31
0.0
 11
-26.92881582714977
 21
-88.2157705567522
 31
0.0
  0
SPLINE
  5
B3
100
AcDbEntity
  8
0
  6
HIDDEN
 62
     8
100
AcDbSpline
210
0.0847176222246353
220
0.9964050002306311
230
0.0
 70
    24
 71
     3
 72
     8
 73
     4
 74
     2
 42
0.0000001
 43
0.0000001
 44
0.0000000001
 40
0.0
 40
0.0
 40
0.0
 40
0.0
 40
0.7471870267889794
 40
0.7471870267889794
 40
0.7471870267889794
 40
0.7471870267889794
 10
-28.85957347728311
 20
-88.48919568635219
 30
0.0
 10
-29.1077404404831
 20
-88.46809571692999
 30
0.0
 10
-29.3559074036831
 20
-88.44699574750775
 30
0.0
 10
-29.6040743668831
 20
-88.42589577808553
 30
0.0
 11
-28.85957347728311
 21
-88.48919568635219
 31
0.0
 11
-29.6040743668831
 21
-88.42589577808553
 31
0.0
  0
SPLINE
  5
B4
100
AcDbEntity
  8
0
  6
HIDDEN
 62
     8
100
AcDbSpline
210
0.0
220
0.0
230
1.0
 70
     8
 71
     3
 72
    10
 73
     6
 74
     4
 42
0.0000001
 43
0.0000001
 44
0.0000000001
 40
0.0
 40
0.0
 40
0.0
 40
0.0
 40
0.6330240282239222
 40
1.266042863041091
 40
1.44036538675682
 40
1.44036538675682
 40
1.44036538675682
 40
1.44036538675682
 10
-27.42891018234976
 20
-88.34914832848554
 30
0.0
 10
-27.63640798065348
 20
-88.38835461890587
 30
0.0
 10
-28.05140187492352
 20
-88.46676687809333
 30
0.0
 10
-28.53241036099756
 20
-88.49342906629695
 30
0.0
 10
-28.80147630051119
 20
-88.48994744414747
 30
0.0
 10
-28.85957347728311
 20
-88.48919568635219
 30
0.0
 11
-27.42891018234976
 21
-88.34914832848554
 31
0.0
 11
-28.05335353594977
 21
-88.4530228607522
 31
0.0
 11
-28.68525654501643
 21
-88.49059189541888
 31
0.0
 11
-28.85957347728311
 21
-88.48919568635219
 31
0.0
  0
SPLINE
  5
B5
100
AcDbEntity
  8
0
  6
HIDDEN
 62
     8
100
AcDbSpline
210
-0.2557973254498976
220
0.9667304320712569
230
0.0
 70
    24
 71
     3
 72
     8
 73
     4
 74
     2
 42
0.0000001
 43
0.0000001
 44
0.0000000001
 40
0.0
 40
0.0
 40
0.0
 40
0.0
 40
0.2864726329896456
 40
0.2864726329896456
 40
0.2864726329896456
 40
0.2864726329896456
 10
-27.14563432954977
 20
-88.28060015568553
 30
0.0
 10
-27.23794826697199
 20
-88.30502646679665
 30
0.0
 10
-27.33026220439422
 20
-88.32945277790777
 30
0.0
 10
-27.42257614181644
 20
-88.35387908901887
 30
0.0
 11
-27.14563432954977
 21
-88.28060015568553
 31
0.0
 11
-27.42257614181644
 21
-88.35387908901887
 31
0.0
  0
SPLINE
  5
B6
100
AcDbEntity
  8
0
  6
HIDDEN
 62
     8
100
AcDbSpline
210
0.0
220
0.0
230
1.0
 70
     8
 71
     3
 72
     9
 73
     5
 74
     3
 42
0.0000001
 43
0.0000001
 44
0.0000000001
 40
0.0
 40
0.0
 40
0.0
 40
0.0
 40
1.10432150537032
 40
1.453365627551102
 40
1.453365627551102
 40
1.453365627551102
 40
1.453365627551102
 10
-28.85857180581643
 20
-88.57071454181886
 30
0.0
 10
-28.49129135355005
 20
-88.53618533506125
 30
0.0
 10
-28.00792416165933
 20
-88.4907424436532
 30
0.0
 10
-27.53593121315175
 20
-88.38038324518214
 30
0.0
 10
-27.42257614181644
 20
-88.35387908901887
 30
0.0
 11
-28.85857180581643
 21
-88.57071454181886
 31
0.0
 11
-27.7632974004831
 21
-88.42964730875221
 31
0.0
 11
-27.42257614181644
 21
-88.35387908901887
 31
0.0
  0
SPLINE
  5
B7
100
AcDbEntity
  8
0
  6
HIDDEN
 62
     8
100
AcDbSpline
210
-0.0116671580903153
220
0.9999319363947208
230
0.0
 70
    24
 71
     3
 72
     8
 73
     4
 74
     2
 42
0.0000001
 43
0.0000001
 44
0.0000000001
 40
0.0
 40
0.0
 40
0.0
 40
0.0
 40
0.7572951869073544
 40
0.7572951869073544
 40
0.7572951869073544
 40
0.7572951869073544
 10
-29.61581544848311
 20
-88.57955002448553
 30
0.0
 10
-29.36340090092755
 20
-88.57660486359666
 30
0.0
 10
-29.110986353372
 20
-88.57365970270777
 30
0.0
 10
-28.85857180581643
 20
-88.57071454181886
 30
0.0
 11
-29.61581544848311
 21
-88.57955002448553
 31
0.0
 11
-28.85857180581643
 21
-88.57071454181886
 31
0.0
  0
LINE
  5
B8
100
AcDbEntity
  8
0
  6
HIDDEN
 62
     8
100
AcDbLine
 10
-27.422582
 20
-88.353877
 30
0.0
 11
-27.42891
 21
-88.349148
 31
0.0
  0
SPLINE
  5
B9
100
AcDbEntity
  8
0
  6
HIDDEN
 62
     8
100
AcDbSpline
210
0.0
220
0.0
230
-1.0
 70
     8
 71
     3
 72
    15
 73
    11
 74
     9
 42
0.0000001
 43
0.0000001
 44
0.0000000001
 40
0.0
 40
0.0
 40
0.0
 40
0.0
 40
0.0419978385799711
 40
0.0838861979434289
 40
0.1256341849995514
 40
0.1672576802979405
 40
0.2087904692995851
 40
0.2502624429740434
 40
0.2917055194479543
 40
0.3330395347630512
 40
0.3330395347630512
 40
0.3330395347630512
 40
0.3330395347630512
 10
-23.4906506836831
 20
-87.82470100048554
 30
0.0
 10
-23.502339397706
 20
-87.83245951386062
 30
0.0
 10
-23.52568635582058
 20
-87.84795631585646
 30
0.0
 10
-23.55539172632304
 20
-87.87785934821036
 30
0.0
 10
-23.58015068839257
 20
-87.91165830080242
 30
0.0
 10
-23.5989849221216
 20
-87.94900697137151
 30
0.0
 10
-23.61149189134565
 20
-87.98883302603519
 30
0.0
 10
-23.61708350218872
 20
-88.03009015975332
 30
0.0
 10
-23.61615409824906
 20
-88.07179913030315
 30
0.0
 10
-23.6096301172286
 20
-88.09867820413797
 30
0.0
 10
-23.6063724244831
 20
-88.11210003408552
 30
0.0
 11
-23.4906506836831
 21
-87.82470100048554
 31
0.0
 11
-23.5248363764831
 21
-87.84909683728555
 31
0.0
 11
-23.55461128421643
 21
-87.87856019621887
 31
0.0
 11
-23.57919543994977
 21
-87.91230206501888
 31
0.0
 11
-23.59794781114977
 21
-87.94946204261888
 31
0.0
 11
-23.61034621861644
 21
-87.98910106448554
 31
0.0
 11
-23.61599761701644
 21
-88.03018617488552
 31
0.0
 11
-23.61467319141643
 21
-88.0716080831522
 31
0.0
 11
-23.6063724244831
 21
-88.11210003408552
 31
0.0
  0
LINE
  5
BA
100
AcDbEntity
  8
0
  6
HIDDEN
 62
     8
100
AcDbLine
 10
-23.460277
 20
-88.605966
 30
0.0
 11
-23.606372
 21
-88.1121
 31
0.0
  0
LWPOLYLINE
  5
BB
100
AcDbEntity
  8
0
  6
HIDDEN
 62
     8
100
AcDbPolyline
 90
        8
 70
     0
 43
0.0
 10
-24.930299
 20
-88.173827
 10
-24.658633
 20
-88.098055
 10
-24.400208
 20
-88.028666
 10
-24.16077
 20
-87.967203
 10
-23.945643
 20
-87.915033
 10
-23.759612
 20
-87.873316
 10
-23.606813
 20
-87.84298
 10
-23.490651
 20
-87.824701
  0
LWPOLYLINE
  5
BC
100
AcDbEntity
  8
0
  6
HIDDEN
 62
     8
100
AcDbPolyline
 90
        8
 70
     0
 43
0.0
 10
-24.892736
 20
-88.425781
 10
-24.652954
 20
-88.358872
 10
-24.424444
 20
-88.297423
 10
-24.212042
 20
-88.242735
 10
-24.020243
 20
-88.195965
 10
-23.853107
 20
-88.158102
 10
-23.71417
 20
-88.129949
 10
-23.606372
 20
-88.1121
  0
LWPOLYLINE
  5
BD
100
AcDbEntity
  8
0
  6
HIDDEN
 62
     8
100
AcDbPolyline
 90
        7
 70
     0
 43
0.0
 10
-24.9303
 20
-88.173828
 10
-24.933265
 20
-88.197963
 10
-24.932296
 20
-88.231753
 10
-24.927439
 20
-88.273574
 10
-24.918929
 20
-88.321415
 10
-24.907173
 20
-88.372977
 10
-24.892737
 20
-88.425781
  0
SPLINE
  5
BE
100
AcDbEntity
  8
0
  6
HIDDEN
 62
     8
100
AcDbSpline
210
0.0
220
0.0
230
1.0
 70
     8
 71
     3
 72
    13
 73
     9
 74
     7
 42
0.0000001
 43
0.0000001
 44
0.0000000001
 40
0.0
 40
0.0
 40
0.0
 40
0.0
 40
0.2470311480064874
 40
0.4976518573311852
 40
0.7518389973399618
 40
1.008773863721609
 40
1.267029545929366
 40
1.524923245283519
 40
1.524923245283519
 40
1.524923245283519
 40
1.524923245283519
 10
-21.88121057701644
 20
-88.16731782075221
 30
0.0
 10
-21.88179993447909
 20
-88.25001310686912
 30
0.0
 10
-21.88298721324245
 20
-88.41660530813895
 30
0.0
 10
-21.95622853401634
 20
-88.65958464867983
 30
0.0
 10
-22.07877752541482
 20
-88.88400299367413
 30
0.0
 10
-22.25076643890181
 20
-89.07668984388861
 30
0.0
 10
-22.46041164007114
 20
-89.23183479185434
 30
0.0
 10
-22.62219504929821
 20
-89.29242032397167
 30
0.0
 10
-22.70303002341644
 20
-89.32269184528554
 30
0.0
 11
-21.88121057701644
 21
-88.16731782075221
 31
0.0
 11
-21.89463172794977
 21
-88.41398411515219
 31
0.0
 11
-21.96377755941644
 21
-88.6548774399522
 31
0.0
 11
-22.0862567380831
 21
-88.8776103583522
 31
0.0
 11
-22.2565753428831
 21
-89.0699826495522
 31
0.0
 11
-22.4659709236831
 21
-89.22114312101887
 31
0.0
 11
-22.70303002341644
 21
-89.32269184528554
 31
0.0
  0
SPLINE
  5
BF
100
AcDbEntity
  8
0
  6
HIDDEN
 62
     8
100
AcDbSpline
210
0.0
220
0.0
230
1.0
 70
     8
 71
     3
 72
    12
 73
     8
 74
     6
 42
0.0000001
 43
0.0000001
 44
0.0000000001
 40
0.0
 40
0.0
 40
0.0
 40
0.0
 40
0.20855743747178
 40
0.4204018559779186
 40
0.6352176103695714
 40
0.8517402212320321
 40
1.068442983393679
 40
1.068442983393679
 40
1.068442983393679
 40
1.068442983393679
 10
-22.03077508261644
 20
-88.48481609061886
 30
0.0
 10
-22.05127485532431
 20
-88.55148739829948
 30
0.0
 10
-22.09259748854223
 20
-88.68588079049485
 30
0.0
 10
-22.20569260492229
 20
-88.86766660131996
 30
0.0
 10
-22.35235427899476
 20
-89.02518295207725
 30
0.0
 10
-22.52909647829791
 20
-89.15348520792738
 30
0.0
 10
-22.66413964944461
 20
-89.20598748247471
 30
0.0
 10
-22.73168931301644
 20
-89.23224953595221
 30
0.0
 11
-22.03077508261644
 21
-88.48481609061886
 31
0.0
 11
-22.10052543674977
 21
-88.68136403088554
 31
0.0
 11
-22.21042105914977
 21
-88.8624745215522
 31
0.0
 11
-22.35674807568309
 21
-89.01974566501886
 31
0.0
 11
-22.53326591354976
 21
-89.14513902181885
 31
0.0
 11
-22.73168931301644
 21
-89.23224953595221
 31
0.0
  0
LINE
  5
C0
100
AcDbEntity
  8
0
  6
HIDDEN
 62
     8
100
AcDbLine
 10
-22.744036
 20
-88.605895
 30
0.0
 11
-22.677312
 21
-88.621887
 31
0.0
  0
LWPOLYLINE
  5
C1
100
AcDbEntity
  8
0
  6
HIDDEN
 62
     8
100
AcDbPolyline
 90
        8
 70
     0
 43
0.0
 10
-22.677312
 20
-88.621887
 10
-22.600489
 20
-88.588874
 10
-22.532843
 20
-88.539516
 10
-22.477767
 20
-88.476286
 10
-22.438022
 20
-88.402355
 10
-22.415601
 20
-88.321431
 10
-22.411629
 20
-88.237571
 10
-22.426305
 20
-88.154981
  0
SPLINE
  5
C2
100
AcDbEntity
  8
0
  6
HIDDEN
 62
     8
100
AcDbSpline
210
0.0
220
0.0
230
1.0
 70
     8
 71
     3
 72
    10
 73
     6
 74
     4
 42
0.0000001
 43
0.0000001
 44
0.0000000001
 40
0.0
 40
0.0
 40
0.0
 40
0.0
 40
0.0337887469968235
 40
0.065775875726662
 40
0.0948827960754286
 40
0.0948827960754286
 40
0.0948827960754286
 40
0.0948827960754286
 10
-22.70303002021644
 20
-89.32268803835219
 30
0.0
 10
-22.70635036081729
 20
-89.31192565695109
 30
0.0
 10
-22.71281400123436
 20
-89.29097474505047
 30
0.0
 10
-22.72235363202417
 20
-89.26081959066937
 30
0.0
 10
-22.72867855675385
 20
-89.24146193312218
 30
0.0
 10
-22.7316919284831
 20
-89.23223940155219
 30
0.0
 11
-22.70303002021644
 21
-89.32268803835219
 31
0.0
 11
-22.7130305044831
 21
-89.2904131295522
 31
0.0
 11
-22.7226932276831
 21
-89.25992037328553
 31
0.0
 11
-22.7316919284831
 21
-89.23223940155219
 31
0.0
  0
LINE
  5
C3
100
AcDbEntity
  8
0
  6
HIDDEN
 62
     8
100
AcDbLine
 10
-22.677312
 20
-88.621887
 30
0.0
 11
-23.207453
 21
-88.782033
 31
0.0
  0
SPLINE
  5
C4
100
AcDbEntity
  8
0
  6
HIDDEN
 62
     8
100
AcDbSpline
210
0.0
220
0.0
230
1.0
 70
     8
 71
     3
 72
    24
 73
    20
 74
    18
 42
0.0000001
 43
0.0000001
 44
0.0000000001
 40
0.0
 40
0.0
 40
0.0
 40
0.0
 40
0.0152839566439701
 40
0.0291983323360679
 40
0.0436348686080086
 40
0.0600522566897606
 40
0.0777099383013887
 40
0.0964870584520627
 40
0.1160332696617876
 40
0.13661126733171
 40
0.1583531917535086
 40
0.1813881732456339
 40
0.2058472063458734
 40
0.2318596406766511
 40
0.2595505512439991
 40
0.2890376581173397
 40
0.320429962316525
 40
0.3538302216439609
 40
0.3893219908460657
 40
0.3893219908460657
 40
0.3893219908460657
 40
0.3893219908460657
 10
-21.88113440421644
 20
-88.16742070395219
 30
0.0
 10
-21.88425143960805
 20
-88.16341662796842
 30
0.0
 10
-21.89020619578719
 20
-88.15576727747645
 30
0.0
 10
-21.90542364354695
 20
-88.14932651207952
 30
0.0
 10
-21.91859885169479
 20
-88.159741295698
 30
0.0
 10
-21.92641256848406
 20
-88.1736456437388
 30
0.0
 10
-21.93343536644073
 20
-88.18991311952402
 30
0.0
 10
-21.93956909663651
 20
-88.20752032440342
 30
0.0
 10
-21.94545027413413
 20
-88.22626041839637
 30
0.0
 10
-21.95127096284576
 20
-88.24604269885261
 30
0.0
 10
-21.95727063458777
 20
-88.26698570883543
 30
0.0
 10
-21.96361402306497
 20
-88.28917533048469
 30
0.0
 10
-21.97045846085031
 20
-88.31270232674018
 30
0.0
 10
-21.97795651257851
 20
-88.33765472786444
 30
0.0
 10
-21.9862667978336
 20
-88.36411124881854
 30
0.0
 10
-21.99555122117951
 20
-88.39213857176941
 30
0.0
 10
-22.00600332141323
 20
-88.42177764618849
 30
0.0
 10
-22.01774626777177
 20
-88.45308024225044
 30
0.0
 10
-22.02647033928639
 20
-88.47432386892824
 30
0.0
 10
-22.03096480314977
 20
-88.48526815248552
 30
0.0
 11
-21.88113440421644
 21
-88.16742070395219
 31
0.0
 11
-21.89164400101644
 21
-88.15632351035219
 31
0.0
 11
-21.90486971834977
 21
-88.15200028795221
 31
0.0
 11
-21.91711595194977
 21
-88.15964511248553
 31
0.0
 11
-21.92598979301644
 21
-88.17345762768553
 31
0.0
 11
-21.93308715834977
 21
-88.18962615035221
 31
0.0
 11
-21.93939540261644
 21
-88.20731191568553
 31
0.0
 11
-21.94529238074977
 21
-88.2259473663522
 31
0.0
 11
-21.95113860261643
 21
-88.24567743675221
 31
0.0
 11
-21.95715001381644
 21
-88.26657179515221
 31
0.0
 11
-21.96350023781644
 21
-88.28871417595221
 31
0.0
 11
-21.97034719354977
 21
-88.31219530661886
 31
0.0
 11
-21.97784546234977
 21
-88.33710359248554
 31
0.0
 11
-21.98615349114978
 21
-88.3635187999522
 31
0.0
 11
-21.99543773328311
 21
-88.39150615995221
 31
0.0
 11
-22.0058755284831
 21
-88.42111239568552
 31
0.0
 11
-22.0176558004831
 21
-88.45236623568553
 31
0.0
 11
-22.03096480314977
 21
-88.48526815248552
 31
0.0
  0
SPLINE
  5
C5
100
AcDbEntity
  8
0
  6
HIDDEN
 62
     8
100
AcDbSpline
210
0.0
220
0.0
230
-1.0
 70
     8
 71
     3
 72
    13
 73
     9
 74
     7
 42
0.0000001
 43
0.0000001
 44
0.0000000001
 40
0.0
 40
0.0
 40
0.0
 40
0.0
 40
0.03054346386252
 40
0.066997482933042
 40
0.1059747062678971
 40
0.1470684468876178
 40
0.1903831469443423
 40
0.1939664513047647
 40
0.1939664513047647
 40
0.1939664513047647
 40
0.1939664513047647
 10
-23.02723387301644
 20
-87.64856262181886
 30
0.0
 10
-23.01733425266549
 20
-87.64617762250979
 30
0.0
 10
-22.99561930741594
 20
-87.64094609568546
 30
0.0
 10
-22.96072894969195
 20
-87.63514745424906
 30
0.0
 10
-22.92192294519531
 20
-87.63229358202147
 30
0.0
 10
-22.88073710355436
 20
-87.63392894213856
 30
0.0
 10
-22.85168998568988
 20
-87.63862369136791
 30
0.0
 10
-22.83647526268323
 20
-87.64221307226721
 30
0.0
 10
-22.83531276154977
 20
-87.64248732368555
 30
0.0
 11
-23.02723387301644
 21
-87.64856262181886
 31
0.0
 11
-22.99746375994976
 21
-87.64173301328554
 31
0.0
 11
-22.96149282341644
 21
-87.6358180127522
 31
0.0
 11
-22.92261318821644
 21
-87.63306158288555
 31
0.0
 11
-22.88155219301644
 21
-87.63470176315221
 31
0.0
 11
-22.8388018228831
 21
-87.64167091621885
 31
0.0
 11
-22.83531276154977
 21
-87.64248732368555
 31
0.0
  0
SPLINE
  5
C6
100
AcDbEntity
  8
0
  6
HIDDEN
 62
     8
100
AcDbSpline
210
0.0
220
0.0
230
1.0
 70
     8
 71
     3
 72
    19
 73
    15
 74
    13
 42
0.0000001
 43
0.0000001
 44
0.0000000001
 40
0.0
 40
0.0
 40
0.0
 40
0.0
 40
0.0695734123243849
 40
0.1402268466577621
 40
0.2076627043263934
 40
0.2684430892323528
 40
0.3216131513088386
 40
0.3684813528816465
 40
0.4102772889282659
 40
0.4484460025101946
 40
0.4833141284952555
 40
0.515677563090652
 40
0.5484122570461466
 40
0.5807634690547677
 40
0.5807634690547677
 40
0.5807634690547677
 40
0.5807634690547677
 10
-22.5011165140831
 20
-88.14173487355219
 30
0.0
 10
-22.49601844469022
 20
-88.16441981558877
 30
0.0
 10
-22.48574316608706
 20
-88.21014184908014
 30
0.0
 10
-22.4859384524509
 20
-88.27991903955142
 30
0.0
 10
-22.49683850580376
 20
-88.34555796602494
 30
0.0
 10
-22.51656728047456
 20
-88.40299652515126
 30
0.0
 10
-22.54130284024668
 20
-88.45074350838165
 30
0.0
 10
-22.5684946147424
 20
-88.48957376125957
 30
0.0
 10
-22.59679855950361
 20
-88.52110529057243
 30
0.0
 10
-22.62544687431321
 20
-88.54660134390705
 30
0.0
 10
-22.65405386678025
 20
-88.56711431290552
 30
0.0
 10
-22.68303313938633
 20
-88.58364581348284
 30
0.0
 10
-22.71277718808276
 20
-88.59695231825083
 30
0.0
 10
-22.73365767789243
 20
-88.60292578198345
 30
0.0
 10
-22.74403640954977
 20
-88.60589491621885
 30
0.0
 11
-22.5011165140831
 21
-88.14173487355219
 31
0.0
 11
-22.48838416954977
 21
-88.21013331728554
 31
0.0
 11
-22.48788885754977
 21
-88.28078501541886
 31
0.0
 11
-22.49911703354978
 21
-88.34727954875219
 31
0.0
 11
-22.51885533754977
 21
-88.40476567355219
 31
0.0
 11
-22.54334331514976
 21
-88.4519609535522
 31
0.0
 11
-22.57024606608311
 21
-88.49033894608552
 31
0.0
 11
-22.59818297381644
 21
-88.52142639461886
 31
0.0
 11
-22.6267078196831
 21
-88.54678746448554
 31
0.0
 11
-22.65506781434977
 21
-88.5670728511522
 31
0.0
 11
-22.68317224954977
 21
-88.58312067408553
 31
0.0
 11
-22.71315088314977
 21
-88.59626760208554
 31
0.0
 11
-22.74403640954977
 21
-88.60589491621885
 31
0.0
  0
SPLINE
  5
C7
100
AcDbEntity
  8
0
  6
HIDDEN
 62
     8
100
AcDbSpline
210
0.0
220
0.0
230
-1.0
 70
     8
 71
     3
 72
    14
 73
    10
 74
     8
 42
0.0000001
 43
0.0000001
 44
0.0000000001
 40
0.0
 40
0.0
 40
0.0
 40
0.0
 40
0.041339225621257
 40
0.0874468077092878
 40
0.1355060292668879
 40
0.190670964529896
 40
0.2511489070161112
 40
0.3144232681194454
 40
0.3771293081502236
 40
0.3771293081502236
 40
0.3771293081502236
 40
0.3771293081502236
 10
-22.83531276154977
 20
-87.64248732368555
 30
0.0
 10
-22.82201727697386
 20
-87.64616944886077
 30
0.0
 10
-22.79389271330245
 20
-87.65395842137587
 30
0.0
 10
-22.75263953157075
 20
-87.67283503275507
 30
0.0
 10
-22.71023707746707
 20
-87.69912899606447
 30
0.0
 10
-22.6683681231499
 20
-87.73450724315242
 30
0.0
 10
-22.62941359762232
 20
-87.77993521465878
 30
0.0
 10
-22.59643953529643
 20
-87.8331276908201
 30
0.0
 10
-22.58204932502501
 20
-87.87267482605219
 30
0.0
 10
-22.57488667834977
 20
-87.89235919141887
 30
0.0
 11
-22.83531276154977
 21
-87.64248732368555
 31
0.0
 11
-22.79576207034977
 21
-87.65451539088553
 31
0.0
 11
-22.75369626554977
 21
-87.67339334608553
 31
0.0
 11
-22.71288538234977
 21
-87.69877366501887
 31
0.0
 11
-22.67072800954977
 21
-87.73435351888554
 31
0.0
 11
-22.63123066768311
 21
-87.78015244368551
 31
0.0
 11
-22.5983290356831
 21
-87.83419989861886
 31
0.0
 11
-22.57488667834977
 21
-87.89235919141887
 31
0.0
  0
SPLINE
  5
C8
100
AcDbEntity
  8
0
  6
HIDDEN
 62
     8
100
AcDbSpline
210
-0.9567361950521128
220
-0.2909567890206473
230
0.0
 70
    24
 71
     3
 72
     9
 73
     5
 74
     3
 42
0.0000001
 43
0.0000001
 44
0.0000000001
 40
0.0
 40
0.0
 40
0.0
 40
0.0
 40
0.002620161452897
 40
0.0052382333514574
 40
0.0052382333514574
 40
0.0052382333514574
 40
0.0052382333514574
 10
-22.57488664741643
 20
-87.89235927781886
 30
0.0
 10
-22.5746277649903
 20
-87.89319342337185
 30
0.0
 10
-22.57411020659437
 20
-87.89486104925451
 30
0.0
 10
-22.5736117085025
 20
-87.89653447160928
 30
0.0
 10
-22.5733625588831
 20
-87.89737084901886
 30
0.0
 11
-22.57488664741643
 21
-87.89235927781886
 31
0.0
 11
-22.57411476901644
 21
-87.89486316475219
 31
0.0
 11
-22.5733625588831
 21
-87.89737084901886
 31
0.0
  0
SPLINE
  5
C9
100
AcDbEntity
  8
0
  6
HIDDEN
 62
     8
100
AcDbSpline
210
-0.9610548436294489
220
-0.276357716621728
230
0.0
 70
    24
 71
     3
 72
     9
 73
     5
 74
     3
 42
0.0000001
 43
0.0000001
 44
0.0000000001
 40
0.0
 40
0.0
 40
0.0
 40
0.0
 40
0.0026176210350117
 40
0.0052347760520483
 40
0.0052347760520483
 40
0.0052347760520483
 40
0.0052347760520483
 10
-22.50256319354977
 20
-88.1367039231522
 30
0.0
 10
-22.5023172720866
 20
-88.13754109881498
 30
0.0
 10
-22.50182547294193
 20
-88.13921530109727
 30
0.0
 10
-22.50135283247735
 20
-88.14089501257848
 30
0.0
 10
-22.5011165332831
 20
-88.1417347935522
 30
0.0
 11
-22.50256319354977
 21
-88.1367039231522
 31
0.0
 11
-22.5018302196831
 21
-88.13921682768555
 31
0.0
 11
-22.5011165332831
 21
-88.1417347935522
 31
0.0
  0
LWPOLYLINE
  5
CA
100
AcDbEntity
  8
0
  6
HIDDEN
 62
     8
100
AcDbPolyline
 90
        4
 70
     0
 43
0.0
 10
-22.497104
 20
-87.915648
 10
-22.529691
 20
-87.838468
 10
-22.578557
 20
-87.77057
 10
-22.641249
 20
-87.715357
  0
LINE
  5
CB
100
AcDbEntity
  8
0
  6
HIDDEN
 62
     8
100
AcDbLine
 10
-21.881134
 20
-88.167421
 30
0.0
 11
-22.22006
 21
-87.709642
 31
0.0
  0
LWPOLYLINE
  5
CC
100
AcDbEntity
  8
0
  6
HIDDEN
 62
     8
100
AcDbPolyline
 90
        3
 70
     0
 43
0.0
 10
-22.641249
 20
-87.715357
 10
-22.714626
 20
-87.675598
 10
-22.766963
 20
-87.658887
  0
LINE
  5
CD
100
AcDbEntity
  8
0
  6
HIDDEN
 62
     8
100
AcDbLine
 10
-22.426305
 20
-88.154981
 30
0.0
 11
-22.497104
 21
-87.915648
 31
0.0
  0
LINE
  5
CE
100
AcDbEntity
  8
0
  6
HIDDEN
 62
     8
100
AcDbLine
 10
-22.502563
 20
-88.136704
 30
0.0
 11
-22.573363
 21
-87.897371
 31
0.0
  0
LWPOLYLINE
  5
CF
100
AcDbEntity
  8
0
  6
HIDDEN
 62
     8
100
AcDbPolyline
 90
        6
 70
     0
 43
0.0
 10
-22.89321
 20
-88.165665
 10
-22.911899
 20
-88.120464
 10
-22.939533
 20
-88.080189
 10
-22.974905
 20
-88.046597
 10
-23.01647
 20
-88.021159
 10
-23.061932
 20
-88.0051
  0
LWPOLYLINE
  5
D0
100
AcDbEntity
  8
0
  6
HIDDEN
 62
     8
100
AcDbPolyline
 90
        6
 70
     0
 43
0.0
 10
-22.948988
 20
-88.152297
 10
-22.969366
 20
-88.104034
 10
-22.999923
 20
-88.061575
 10
-23.039127
 20
-88.027048
 10
-23.085012
 20
-88.002186
 10
-23.11774
 20
-87.991736
  0
LINE
  5
D1
100
AcDbEntity
  8
0
  6
HIDDEN
 62
     8
100
AcDbLine
 10
-22.835256
 20
-87.642501
 30
0.0
 11
-22.76691
 21
-87.658881
 31
0.0
  0
LINE
  5
D2
100
AcDbEntity
  8
0
  6
HIDDEN
 62
     8
100
AcDbLine
 10
-23.027234
 20
-87.648563
 30
0.0
 11
-22.96051
 21
-87.664554
 31
0.0
  0
LINE
  5
D3
100
AcDbEntity
  8
0
  6
HIDDEN
 62
     8
100
AcDbLine
 10
-22.573363
 20
-87.897371
 30
0.0
 11
-22.497104
 21
-87.915648
 31
0.0
  0
LINE
  5
D4
100
AcDbEntity
  8
0
  6
HIDDEN
 62
     8
100
AcDbLine
 10
-22.502563
 20
-88.136704
 30
0.0
 11
-22.426305
 21
-88.154981
 31
0.0
  0
LINE
  5
D5
100
AcDbEntity
  8
0
  6
HIDDEN
 62
     8
100
AcDbLine
 10
-23.117707
 20
-87.991732
 30
0.0
 11
-23.061929
 21
-88.0051
 31
0.0
  0
LINE
  5
D6
100
AcDbEntity
  8
0
  6
HIDDEN
 62
     8
100
AcDbLine
 10
-23.227016
 20
-88.447816
 30
0.0
 11
-23.171238
 21
-88.461184
 31
0.0
  0
LWPOLYLINE
  5
D7
100
AcDbEntity
  8
0
  6
HIDDEN
 62
     8
100
AcDbPolyline
 90
        4
 70
     0
 43
0.0
 10
-22.766963
 20
-87.658887
 10
-22.795007
 20
-87.653288
 10
-22.878361
 20
-87.649544
 10
-22.96051
 20
-87.664554
  0
LWPOLYLINE
  5
D8
100
AcDbEntity
  8
0
  6
HIDDEN
 62
     8
100
AcDbPolyline
 90
       11
 70
     0
 43
0.0
 10
-23.226983
 20
-88.447812
 10
-23.209446
 20
-88.451314
 10
-23.157322
 20
-88.453655
 10
-23.105952
 20
-88.444269
 10
-23.057911
 20
-88.423625
 10
-23.01561
 20
-88.392759
 10
-22.981169
 20
-88.353219
 10
-22.956315
 20
-88.306988
 10
-22.942295
 20
-88.256384
 10
-22.939811
 20
-88.203943
 10
-22.948988
 20
-88.152297
  0
LWPOLYLINE
  5
D9
100
AcDbEntity
  8
0
  6
HIDDEN
 62
     8
100
AcDbPolyline
 90
       11
 70
     0
 43
0.0
 10
-23.171235
 20
-88.461185
 10
-23.12245
 20
-88.467501
 10
-23.073886
 20
-88.46346
 10
-23.027189
 20
-88.449354
 10
-22.984398
 20
-88.425798
 10
-22.947384
 20
-88.393822
 10
-22.917766
 20
-88.354823
 10
-22.896836
 20
-88.310506
 10
-22.885511
 20
-88.262809
 10
-22.884284
 20
-88.213815
 10
-22.89321
 20
-88.165665
  0
LINE
  5
DA
100
AcDbEntity
  8
0
100
AcDbLine
 10
1.213836
 20
-89.709642
 30
0.0
 11
-0.591663
 21
-102.321515
 31
0.0
  0
LINE
  5
DC
100
AcDbEntity
  8
0
100
AcDbLine
 10
-3.123993
 20
-105.709642
 30
0.0
 11
-2.77773
 21
-104.450505
 31
0.0
  0
LINE
  5
DD
100
AcDbEntity
  8
CENTER
  6
CENTER
 48
3.0
100
AcDbLine
 10
-0.778049
 20
-89.709642
 30
0.0
 11
3.20572
 21
-89.709642
 31
0.0
  0
SPLINE
  5
DE
100
AcDbEntity
  8
0
100
AcDbSpline
210
0.0
220
0.0
230
-1.0
 70
     8
 71
     3
 72
    13
 73
     9
 74
     7
 42
0.0000001
 43
0.0000001
 44
0.0000000001
 40
0.0
 40
0.0
 40
0.0
 40
0.0
 40
0.34360904372448
 40
0.6636337193736504
 40
0.9394478669774304
 40
1.150007575478607
 40
1.283386065303505
 40
1.328477360604746
 40
1.328477360604746
 40
1.328477360604746
 40
1.328477360604746
 10
1.213835813383552
 20
-89.70964208101888
 30
0.0
 10
1.230036997195778
 20
-89.59625673341975
 30
0.0
 10
1.261327360671149
 20
-89.37726849279002
 30
0.0
 10
1.308672221173703
 20
-89.06771434262514
 30
0.0
 10
1.350987444200697
 20
-88.80226511111761
 30
0.0
 10
1.384685362710601
 20
-88.59844700690713
 30
0.0
 10
1.40632413470249
 20
-88.47058844060809
 30
0.0
 10
1.416387748295798
 20
-88.41195589155651
 30
0.0
 10
1.418930371250225
 20
-88.39714208101886
 30
0.0
 11
1.213835813383552
 21
-89.70964208101888
 31
0.0
 11
1.263016936583553
 21
-89.36957092368553
 31
0.0
 11
1.311257428316891
 21
-89.05320302395219
 31
0.0
 11
1.354708628316884
 21
-88.78083298661886
 31
0.0
 11
1.3890429867169
 21
-88.57309145808555
 31
0.0
 11
1.411311227783555
 21
-88.44158500581887
 31
0.0
 11
1.418930371250225
 21
-88.39714208101886
 31
0.0
  0
LINE
  5
E0
100
AcDbEntity
  8
0
100
AcDbLine
 10
1.515552
 20
-87.709642
 30
0.0
 11
1.41893
 21
-88.397142
 31
0.0
  0
ARC
  5
E2
100
AcDbEntity
  8
0
100
AcDbCircle
 10
3.04989
 20
-86.459642
 30
0.0
 40
0.25
100
AcDbArc
 50
9.00087
 51
90.0
  0
LINE
  5
E3
100
AcDbEntity
  8
0
100
AcDbLine
 10
3.501007
 20
-87.709642
 30
0.0
 11
3.296811
 21
-86.42053
 31
0.0
  0
LINE
  5
1FE
100
AcDbEntity
  8
0
100
AcDbLine
 10
-62.248993
 20
-87.709642
 30
0.0
 11
3.501007
 21
-87.709642
 31
0.0
  0
ARC
  5
209
100
AcDbEntity
  8
0
100
AcDbCircle
 10
-3.066432
 20
-101.96723
 30
0.0
 40
2.5
100
AcDbArc
 50
269.875
 51
351.852969
  0
ENDSEC
  0
SECTION
  2
OBJECTS
  0
DICTIONARY
  5
7
102
{ACAD_XDICTIONARY
360
1D7
102
}
100
AcDbDictionary
  3
ACAD_GROUP
350
26
  3
ACAD_LAYOUT
350
B
  3
ACAD_MLINESTYLE
350
27
  3
ACAD_PLOTSETTINGS
350
28
  3
ACAD_PLOTSTYLENAME
350
6
  3
ACDBHEADERROUNDTRIPXREC
350
1B5
  3
ACDBVARIABLEDICTIONARY
350
E4
  0
DICTIONARY
  5
11
100
AcDbDictionary
280
     1
  3
ACAD_LAYERFILTERS
360
12
  0
DICTIONARY
  5
1B1
100
AcDbDictionary
280
     1
  3
ACAD_XREC_ROUNDTRIP
360
1B2
  0
DICTIONARY
  5
1DD
100
AcDbDictionary
280
     1
  3
ACAD_XREC_ROUNDTRIP
360
1DE
  0
DICTIONARY
  5
196
100
AcDbDictionary
280
     1
  3
ACAD_LAYOUTSELFREF
360
1D6
  0
DICTIONARY
  5
16F
100
AcDbDictionary
280
     1
  3
ACAD_LAYOUTSELFREF
360
1DF
  3
ACAD_XREC_ROUNDTRIP
360
1B0
  0
DICTIONARY
  5
1D7
100
AcDbDictionary
280
     1
  3
ACAD_XREC_ROUNDTRIP
360
1D8
  0
DICTIONARY
  5
26
102
{ACAD_REACTORS
330
7
102
}
100
AcDbDictionary
  0
DICTIONARY
  5
B
102
{ACAD_XDICTIONARY
360
1D9
102
}
102
{ACAD_REACTORS
330
7
102
}
100
AcDbDictionary
  3
LAYOUT1
350
132
  3
MODEL
350
A
  0
DICTIONARY
  5
27
102
{ACAD_REACTORS
330
7
102
}
100
AcDbDictionary
  3
STANDARD
350
29
  0
DICTIONARY
  5
28
102
{ACAD_REACTORS
330
7
102
}
100
AcDbDictionary
  0
ACAD_PROXY_OBJECT
  5
6
102
{ACAD_REACTORS
330
7
102
}
100
AcDbProxyObject
 90
      499
 91
      517
 93
       86
310
405010041939BDC9B585B0
350
5
340
5
 94
        0
  0
DICTIONARY
  5
1B5
102
{ACAD_REACTORS
330
7
102
}
100
AcDbDictionary
  3
CEPSNTYPE
350
1BF
  3
DIMSTYLEDATA
350
1C3
  3
FINGERPRINTGUID
350
1C0
  3
HYPERLINKBASE
350
1B8
  3
INSUNITS
350
1BE
  3
LAYOUTDICT
350
1BA
  3
LWETCUNION
350
1BD
  3
PLOTSETDICT
350
1BB
  3
PLOTSTYLNAMDICT
350
1BC
  3
PSVPSCALE
350
1C2
  3
PUCSBASE
350
1C6
  3
PUCSORGBACK
350
1CC
  3
PUCSORGBOTTOM
350
1C8
  3
PUCSORGFRONT
350
1CB
  3
PUCSORGLEFT
350
1C9
  3
PUCSORGRIGHT
350
1CA
  3
PUCSORGTOP
350
1C7
  3
PUCSORTHOREF
350
1C4
  3
PUCSORTHOVIEW
350
1C5
  3
STYLESHEET
350
1B9
  3
TSTACKALIGN
350
1B6
  3
TSTACKSIZE
350
1B7
  3
UCSBASE
350
1CF
  3
UCSORGBACK
350
1D5
  3
UCSORGBOTTOM
350
1D1
  3
UCSORGFRONT
350
1D4
  3
UCSORGLEFT
350
1D2
  3
UCSORGRIGHT
350
1D3
  3
UCSORGTOP
350
1D0
  3
UCSORTHOREF
350
1CD
  3
UCSORTHOVIEW
350
1CE
  3
VERSIONGUID
350
1C1
  0
DICTIONARY
  5
E4
102
{ACAD_REACTORS
330
7
102
}
100
AcDbDictionary
  3
DIMASSOC
350
E6
  3
HIDETEXT
350
E5
  0
DICTIONARY
  5
12
102
{ACAD_XDICTIONARY
360
1DB
102
}
102
{ACAD_REACTORS
330
11
102
}
100
AcDbDictionary
280
     1
  3
DIM-1_12
360
13
  3
DIM-1_16
360
14
  0
XRECORD
  5
1B2
102
{ACAD_REACTORS
330
1B1
102
}
100
AcDbXrecord
102
EXTNAMES
  1
DEFPOINTS
  2
Defpoints
102
PLOTBIT
280
     0
  0
XRECORD
  5
1DE
102
{ACAD_REACTORS
330
1DD
102
}
100
AcDbXrecord
102
ACADR14ROUNDTRIP
1000
DSTYLE
1002
{
1070
    79
 70
     1
1070
   276
 70
     1
1070
   277
 70
     5
1070
   289
 70
     0
1002
}
  0
XRECORD
  5
1D6
102
{ACAD_REACTORS
330
196
102
}
100
AcDbXrecord
340
2
  0
XRECORD
  5
1DF
102
{ACAD_REACTORS
330
16F
102
}
100
AcDbXrecord
340
131
  0
XRECORD
  5
1B0
102
{ACAD_REACTORS
330
16F
102
}
100
AcDbXrecord
102
EXTNAMES
  1
*PAPER_SPACE
  2
*Paper_Space
  0
XRECORD
  5
1D8
102
{ACAD_REACTORS
330
1D7
102
}
100
AcDbXrecord
102
EXTNAMES
  1
ACDBVARIABLEDICTIONARY
  2
AcDbVariableDictionary
  0
DICTIONARY
  5
1D9
100
AcDbDictionary
280
     1
  3
ACAD_XREC_ROUNDTRIP
360
1DA
  0
ACAD_PROXY_OBJECT
  5
132
102
{ACAD_REACTORS
330
B
102
}
100
AcDbProxyObject
 90
      499
 91
      515
 93
      604
310
9104850204465736B4A65742031313230432C00AAAAAA416AA591069074C61796F75743140501A800000000000000000000000000000000000000000000A1000000000000008902A6A6AAAA0
330
131
330
0
340
0
340
0
 94
        0
  0
ACAD_PROXY_OBJECT
  5
A
102
{ACAD_REACTORS
330
B
102
}
100
AcDbProxyObject
 90
      499
 91
      515
 93
      468
310
9044E6F6E652C01AAAAAAAAA5A69054D6F64656C901A800000000000000000000000000000000000000000000A1000000000000008902A6A6AAAA0
330
2
330
0
340
0
340
0
 94
        0
  0
MLINESTYLE
  5
29
102
{ACAD_REACTORS
330
27
102
}
100
AcDbMlineStyle
  2
STANDARD
 70
     0
  3

 62
     0
 51
90.0
 52
90.0
 71
     2
 49
0.5
 62
   256
  6
BYLAYER
 49
-0.5
 62
   256
  6
BYLAYER
  0
ACAD_PROXY_OBJECT
  5
5
102
{ACAD_REACTORS
330
6
102
}
100
AcDbProxyObject
 90
      499
 91
      518
 93
        0
 94
        0
  0
XRECORD
  5
1BF
102
{ACAD_REACTORS
330
1B5
102
}
100
AcDbXrecord
 90
        0
  0
XRECORD
  5
1C3
102
{ACAD_REACTORS
330
1B5
102
}
100
AcDbXrecord
1000
DSTYLE
1002
{
1070
    79
 70
     1
1070
   276
 70
     1
1070
   277
 70
     5
1070
   289
 70
     0
1002
}
  0
XRECORD
  5
1C0
102
{ACAD_REACTORS
330
1B5
102
}
100
AcDbXrecord
  1
{AE98BB68-3F44-45E5-9613-1524D8A29712}
  0
XRECORD
  5
1B8
102
{ACAD_REACTORS
330
1B5
102
}
100
AcDbXrecord
  1

  0
XRECORD
  5
1BE
102
{ACAD_REACTORS
330
1B5
102
}
100
AcDbXrecord
 90
        0
  0
XRECORD
  5
1BA
102
{ACAD_REACTORS
330
1B5
102
}
100
AcDbXrecord
340
B
  0
XRECORD
  5
1BD
102
{ACAD_REACTORS
330
1B5
102
}
100
AcDbXrecord
 90
    10781
  0
XRECORD
  5
1BB
102
{ACAD_REACTORS
330
1B5
102
}
100
AcDbXrecord
340
28
  0
XRECORD
  5
1BC
102
{ACAD_REACTORS
330
1B5
102
}
100
AcDbXrecord
340
6
  0
XRECORD
  5
1C2
102
{ACAD_REACTORS
330
1B5
102
}
100
AcDbXrecord
 40
0.0
  0
XRECORD
  5
1C6
102
{ACAD_REACTORS
330
1B5
102
}
100
AcDbXrecord
340
0
  0
XRECORD
  5
1CC
102
{ACAD_REACTORS
330
1B5
102
}
100
AcDbXrecord
 10
0.0
 20
0.0
 30
0.0
  0
XRECORD
  5
1C8
102
{ACAD_REACTORS
330
1B5
102
}
100
AcDbXrecord
 10
0.0
 20
0.0
 30
0.0
  0
XRECORD
  5
1CB
102
{ACAD_REACTORS
330
1B5
102
}
100
AcDbXrecord
 10
0.0
 20
0.0
 30
0.0
  0
XRECORD
  5
1C9
102
{ACAD_REACTORS
330
1B5
102
}
100
AcDbXrecord
 10
0.0
 20
0.0
 30
0.0
  0
XRECORD
  5
1CA
102
{ACAD_REACTORS
330
1B5
102
}
100
AcDbXrecord
 10
0.0
 20
0.0
 30
0.0
  0
XRECORD
  5
1C7
102
{ACAD_REACTORS
330
1B5
102
}
100
AcDbXrecord
 10
0.0
 20
0.0
 30
0.0
  0
XRECORD
  5
1C4
102
{ACAD_REACTORS
330
1B5
102
}
100
AcDbXrecord
340
0
  0
XRECORD
  5
1C5
102
{ACAD_REACTORS
330
1B5
102
}
100
AcDbXrecord
 70
     0
  0
XRECORD
  5
1B9
102
{ACAD_REACTORS
330
1B5
102
}
100
AcDbXrecord
  1

  0
XRECORD
  5
1B6
102
{ACAD_REACTORS
330
1B5
102
}
100
AcDbXrecord
 90
        1
  0
XRECORD
  5
1B7
102
{ACAD_REACTORS
330
1B5
102
}
100
AcDbXrecord
 90
       70
  0
XRECORD
  5
1CF
102
{ACAD_REACTORS
330
1B5
102
}
100
AcDbXrecord
340
0
  0
XRECORD
  5
1D5
102
{ACAD_REACTORS
330
1B5
102
}
100
AcDbXrecord
 10
0.0
 20
0.0
 30
0.0
  0
XRECORD
  5
1D1
102
{ACAD_REACTORS
330
1B5
102
}
100
AcDbXrecord
 10
0.0
 20
0.0
 30
0.0
  0
XRECORD
  5
1D4
102
{ACAD_REACTORS
330
1B5
102
}
100
AcDbXrecord
 10
0.0
 20
0.0
 30
0.0
  0
XRECORD
  5
1D2
102
{ACAD_REACTORS
330
1B5
102
}
100
AcDbXrecord
 10
0.0
 20
0.0
 30
0.0
  0
XRECORD
  5
1D3
102
{ACAD_REACTORS
330
1B5
102
}
100
AcDbXrecord
 10
0.0
 20
0.0
 30
0.0
  0
XRECORD
  5
1D0
102
{ACAD_REACTORS
330
1B5
102
}
100
AcDbXrecord
 10
0.0
 20
0.0
 30
0.0
  0
XRECORD
  5
1CD
102
{ACAD_REACTORS
330
1B5
102
}
100
AcDbXrecord
340
0
  0
XRECORD
  5
1CE
102
{ACAD_REACTORS
330
1B5
102
}
100
AcDbXrecord
 70
     0
  0
XRECORD
  5
1C1
102
{ACAD_REACTORS
330
1B5
102
}
100
AcDbXrecord
  1
{22FC5742-A9A7-4476-8175-34B563C94A0D}
  0
DICTIONARYVAR
  5
E6
102
{ACAD_REACTORS
330
E4
102
}
100
DictionaryVariables
280
     0
  1
1
  0
DICTIONARYVAR
  5
E5
102
{ACAD_REACTORS
330
E4
102
}
100
DictionaryVariables
280
     0
  1
1
  0
DICTIONARY
  5
1DB
100
AcDbDictionary
280
     1
  3
ACAD_XREC_ROUNDTRIP
360
1DC
  0
XRECORD
  5
13
102
{ACAD_REACTORS
330
12
102
}
100
AcDbXrecord
  1
DIM-1_12
  1
DIM-1_12
  1
*
  1
*
 70
     0
  1
*
  1
*
  0
XRECORD
  5
14
102
{ACAD_REACTORS
330
12
102
}
100
AcDbXrecord
  1
dim-1_16
  1
*
  1
*
  1
*
 70
     0
  1
*
  1
*
  0
XRECORD
  5
1DA
102
{ACAD_REACTORS
330
1D9
102
}
100
AcDbXrecord
102
EXTNAMES
  1
LAYOUT1
  2
Layout1
  1
MODEL
  2
Model
  0
XRECORD
  5
1DC
102
{ACAD_REACTORS
330
1DB
102
}
100
AcDbXrecord
102
EXTNAMES
  1
DIM-1_16
  2
dim-1_16
  0
ENDSEC
  0
EOF
