  0
SECTION
  2
HEADER
  9
$ACADVER
  1
AC1014
  9
$ACADMAINTVER
 70
     0
  9
$DWGCODEPAGE
  3
ANSI_1252
  9
$INSBASE
 10
-4.498993
 20
-21.765251
 30
0.0
  9
$EXTMIN
 10
-62.25296
 20
-38.204252
 30
-0.001526
  9
$EXTMAX
 10
4.225694
 20
-5.324088
 30
0.0
  9
$LIMMIN
 10
0.0
 20
0.0
  9
$LIMMAX
 10
17.0
 20
11.0
  9
$ORTHOMODE
 70
     1
  9
$REGENMODE
 70
     1
  9
$FILLMODE
 70
     1
  9
$QTEXTMODE
 70
     0
  9
$MIRRTEXT
 70
     1
  9
$DRAGMODE
 70
     2
  9
$LTSCALE
 40
2.0
  9
$OSMODE
 70
    53
  9
$ATTMODE
 70
     1
  9
$TEXTSIZE
 40
0.0
  9
$TRACEWID
 40
0.05
  9
$TEXTSTYLE
  7
ROMANS
  9
$CLAYER
  8
0
  9
$CELTYPE
  6
BYLAYER
  9
$CECOLOR
 62
   256
  9
$CELTSCALE
 40
1.0
  9
$DELOBJ
 70
     1
  9
$DISPSILH
 70
     0
  9
$DIMSCALE
 40
16.0
  9
$DIMASZ
 40
0.1
  9
$DIMEXO
 40
0.0625
  9
$DIMDLI
 40
0.25
  9
$DIMRND
 40
0.0
  9
$DIMDLE
 40
0.0
  9
$DIMEXE
 40
0.1
  9
$DIMTP
 40
0.1
  9
$DIMTM
 40
0.1
  9
$DIMTXT
 40
0.1
  9
$DIMCEN
 40
0.09
  9
$DIMTSZ
 40
0.0
  9
$DIMTOL
 70
     0
  9
$DIMLIM
 70
     0
  9
$DIMTIH
 70
     1
  9
$DIMTOH
 70
     1
  9
$DIMSE1
 70
     0
  9
$DIMSE2
 70
     0
  9
$DIMTAD
 70
     0
  9
$DIMZIN
 70
     4
  9
$DIMBLK
  1

  9
$DIMASO
 70
     1
  9
$DIMSHO
 70
     1
  9
$DIMPOST
  1

  9
$DIMAPOST
  1
cm
  9
$DIMALT
 70
     1
  9
$DIMALTD
 70
     2
  9
$DIMALTF
 40
2.54
  9
$DIMLFAC
 40
1.0
  9
$DIMTOFL
 70
     0
  9
$DIMTVP
 40
0.0
  9
$DIMTIX
 70
     0
  9
$DIMSOXD
 70
     0
  9
$DIMSAH
 70
     0
  9
$DIMBLK1
  1

  9
$DIMBLK2
  1

  9
$DIMSTYLE
  2
STANDARD
  9
$DIMCLRD
 70
     0
  9
$DIMCLRE
 70
     0
  9
$DIMCLRT
 70
     0
  9
$DIMTFAC
 40
1.0
  9
$DIMGAP
 40
0.08
  9
$DIMJUST
 70
     0
  9
$DIMSD1
 70
     0
  9
$DIMSD2
 70
     0
  9
$DIMTOLJ
 70
     1
  9
$DIMTZIN
 70
     0
  9
$DIMALTZ
 70
     0
  9
$DIMALTTZ
 70
     0
  9
$DIMFIT
 70
     0
  9
$DIMUPT
 70
     0
  9
$DIMUNIT
 70
     5
  9
$DIMDEC
 70
     4
  9
$DIMTDEC
 70
     4
  9
$DIMALTU
 70
     2
  9
$DIMALTTD
 70
     2
  9
$DIMTXSTY
  7
STANDARD
  9
$DIMAUNIT
 70
     0
  9
$LUNITS
 70
     2
  9
$LUPREC
 70
     4
  9
$SKETCHINC
 40
0.1
  9
$FILLETRAD
 40
0.0
  9
$AUNITS
 70
     0
  9
$AUPREC
 70
     0
  9
$MENU
  1
acad
  9
$ELEVATION
 40
0.0
  9
$PELEVATION
 40
0.0
  9
$THICKNESS
 40
0.0
  9
$LIMCHECK
 70
     0
  9
$BLIPMODE
 70
     0
  9
$CHAMFERA
 40
0.0
  9
$CHAMFERB
 40
0.0
  9
$CHAMFERC
 40
0.0
  9
$CHAMFERD
 40
0.0
  9
$SKPOLY
 70
     0
  9
$TDCREATE
 40
2444971.833333333
  9
$TDUPDATE
 40
2453690.334303923
  9
$TDINDWG
 40
0.4905059606
  9
$TDUSRTIMER
 40
0.4905059606
  9
$USRTIMER
 70
     1
  9
$ANGBASE
 50
0.0
  9
$ANGDIR
 70
     0
  9
$PDMODE
 70
    35
  9
$PDSIZE
 40
0.0
  9
$PLINEWID
 40
0.0
  9
$COORDS
 70
     1
  9
$SPLFRAME
 70
     0
  9
$SPLINETYPE
 70
     6
  9
$SPLINESEGS
 70
     8
  9
$ATTDIA
 70
     0
  9
$ATTREQ
 70
     1
  9
$HANDLING
 70
     1
  9
$HANDSEED
  5
26E
  9
$SURFTAB1
 70
     6
  9
$SURFTAB2
 70
     6
  9
$SURFTYPE
 70
     6
  9
$SURFU
 70
     6
  9
$SURFV
 70
     6
  9
$UCSNAME
  2

  9
$UCSORG
 10
0.0
 20
0.0
 30
0.0
  9
$UCSXDIR
 10
1.0
 20
0.0
 30
0.0
  9
$UCSYDIR
 10
0.0
 20
1.0
 30
0.0
  9
$PUCSNAME
  2

  9
$PUCSORG
 10
0.0
 20
0.0
 30
0.0
  9
$PUCSXDIR
 10
1.0
 20
0.0
 30
0.0
  9
$PUCSYDIR
 10
0.0
 20
1.0
 30
0.0
  9
$USERI1
 70
     0
  9
$USERI2
 70
     0
  9
$USERI3
 70
     0
  9
$USERI4
 70
     0
  9
$USERI5
 70
     0
  9
$USERR1
 40
0.0
  9
$USERR2
 40
0.0
  9
$USERR3
 40
0.0
  9
$USERR4
 40
0.0
  9
$USERR5
 40
0.0
  9
$WORLDVIEW
 70
     1
  9
$SHADEDGE
 70
     3
  9
$SHADEDIF
 70
    70
  9
$TILEMODE
 70
     1
  9
$MAXACTVP
 70
    16
  9
$PINSBASE
 10
0.0
 20
0.0
 30
0.0
  9
$PLIMCHECK
 70
     0
  9
$PEXTMIN
 10
0.0
 20
0.0
 30
0.0
  9
$PEXTMAX
 10
0.0
 20
0.0
 30
0.0
  9
$PLIMMIN
 10
0.0
 20
0.0
  9
$PLIMMAX
 10
12.0
 20
9.0
  9
$UNITMODE
 70
     0
  9
$VISRETAIN
 70
     0
  9
$PLINEGEN
 70
     1
  9
$PSLTSCALE
 70
     1
  9
$TREEDEPTH
 70
  3020
  9
$PICKSTYLE
 70
     1
  9
$CMLSTYLE
  2
STANDARD
  9
$CMLJUST
 70
     0
  9
$CMLSCALE
 40
1.0
  9
$PROXYGRAPHICS
 70
     1
  9
$MEASUREMENT
 70
     0
  0
ENDSEC
  0
SECTION
  2
CLASSES
  0
CLASS
  1
LWPOLYLINE
  2
AcDbPolyline
  3
"AutoCAD"
 90
        0
280
     0
281
     1
  0
CLASS
  1
IMAGE
  2
AcDbRasterImage
  3
ISM
 90
      127
280
     0
281
     1
  0
CLASS
  1
OLE2FRAME
  2
AcDbOle2Frame
  3
""
 90
        0
280
     0
281
     1
  0
CLASS
  1
HATCH
  2
AcDbHatch
  3
"ACAD_SEDONA"
 90
        0
280
     0
281
     1
  0
CLASS
  1
DICTIONARYVAR
  2
AcDbDictionaryVar
  3
"AutoCAD"
 90
        0
280
     0
281
     0
  0
CLASS
  1
RASTERVARIABLES
  2
AcDbRasterVariables
  3
ISM
 90
        0
280
     0
281
     0
  0
CLASS
  1
IMAGEDEF
  2
AcDbRasterImageDef
  3
ISM
 90
        0
280
     0
281
     0
  0
CLASS
  1
IMAGEDEF_REACTOR
  2
AcDbRasterImageDefReactor
  3
ISM
 90
        1
280
     0
281
     0
  0
CLASS
  1
IDBUFFER
  2
AcDbIdBuffer
  3
"Acad"
 90
        0
280
     0
281
     0
  0
CLASS
  1
SPATIAL_FILTER
  2
AcDbSpatialFilter
  3
"Acad"
 90
        0
280
     0
281
     0
  0
CLASS
  1
XRECORD
  2
AcDbXrecord
  3
"<Built In>"
 90
        0
280
     0
281
     0
  0
CLASS
  1
SORTENTSTABLE
  2
AcDbSortentsTable
  3
"AutoCAD"
 90
        0
280
     0
281
     0
  0
CLASS
  1
LAYER_INDEX
  2
AcDbLayerIndex
  3
"Acad"
 90
        0
280
     0
281
     0
  0
CLASS
  1
SPATIAL_INDEX
  2
AcDbSpatialIndex
  3
"Acad"
 90
        0
280
     0
281
     0
  0
CLASS
  1
OBJECT_PTR
  2
CAseDLPNTableRecord
  3
ASE-LPNTableRecord
 90
        1
280
     0
281
     0
  0
CLASS
  1
LAYOUT
  2
AcDbLayout
  3
AutoCAD 2000
 90
        0
280
     0
281
     0
  0
CLASS
  1
PLOTSETTINGS
  2
AcDbPlotSettings
  3
AutoCAD 2000
 90
        0
280
     0
281
     0
  0
CLASS
  1
ACDBDICTIONARYWDFLT
  2
AcDbDictionaryWithDefault
  3
AutoCAD 2000
 90
        0
280
     0
281
     0
  0
CLASS
  1
ACDBPLACEHOLDER
  2
AcDbPlaceHolder
  3
AutoCAD 2000
 90
        0
280
     0
281
     0
  0
CLASS
  1
VBA_PROJECT
  2
AcDbVbaProject
  3
acadvba
 90
        0
280
     0
281
     0
  0
CLASS
  1
WIPEOUT
  2
AcDbWipeout
  3
"WipeOut|Version(1.0.0.0) Product Desc: Object Enabler for WipeOut entity^I^I^I^I^I^I|Company: Autodesk, Inc.^I^I^I^I^I^I|WEB Address: www.autodesk.com"
 90
      127
280
     1
281
     1
  0
CLASS
  1
WIPEOUTVARIABLES
  2
AcDbWipeoutVariables
  3
WipeOut|AutoCAD Express Tool|expresstools@autodesk.com
 90
        0
280
     1
281
     0
  0
CLASS
  1
RTEXT
  2
RText
  3
RText|AutoCAD Express Tool|expresstools@autodesk.com
 90
        0
280
     1
281
     1
  0
CLASS
  1
ARCALIGNEDTEXT
  2
AcDbArcAlignedText
  3
ATEXT|AutoCAD Express Tool|expresstools@autodesk.com
 90
        0
280
     1
281
     1
  0
CLASS
  1
LONG_TRANSACTION
  2
AcDbLongTransaction
  3
AutoCAD 2000
 90
        0
280
     0
281
     0
  0
CLASS
  1
LWPOLYLINE
  2
AcDbPolyline
  3
"AutoCAD"
 90
        0
280
     0
281
     1
  0
CLASS
  1
HATCH
  2
AcDbHatch
  3
"ACAD_SEDONA"
 90
        0
280
     0
281
     1
  0
CLASS
  1
XRECORD
  2
AcDbXrecord
  3
"<Built In>"
 90
        0
280
     0
281
     0
  0
ENDSEC
  0
SECTION
  2
TABLES
  0
TABLE
  2
VPORT
  5
1D
100
AcDbSymbolTable
 70
     3
  0
VPORT
  5
26D
100
AcDbSymbolTableRecord
100
AcDbViewportTableRecord
  2
*ACTIVE
 70
     0
 10
0.0
 20
0.0
 11
1.0
 21
1.0
 12
-29.013633
 22
-21.76417
 13
0.0
 23
0.0
 14
1.0
 24
1.0
 15
0.0
 25
0.0
 16
0.0
 26
0.0
 36
1.0
 17
0.0
 27
0.0
 37
0.0
 40
48.485646
 41
1.487748
 42
50.0
 43
0.0
 44
0.0
 50
0.0
 51
0.0
 71
     0
 72
   100
 73
     1
 74
     1
 75
     0
 76
     0
 77
     0
 78
     0
  0
ENDTAB
  0
TABLE
  2
LTYPE
  5
18
100
AcDbSymbolTable
 70
     2
  0
LTYPE
  5
19
100
AcDbSymbolTableRecord
100
AcDbLinetypeTableRecord
  2
BYBLOCK
 70
     0
  3

 72
    65
 73
     0
 40
0.0
  0
LTYPE
  5
1A
100
AcDbSymbolTableRecord
100
AcDbLinetypeTableRecord
  2
BYLAYER
 70
     0
  3

 72
    65
 73
     0
 40
0.0
  0
LTYPE
  5
8
100
AcDbSymbolTableRecord
100
AcDbLinetypeTableRecord
  2
CONTINUOUS
 70
     0
  3
Solid line
 72
    65
 73
     0
 40
0.0
  0
LTYPE
  5
3F
100
AcDbSymbolTableRecord
100
AcDbLinetypeTableRecord
  2
CENTER
 70
     0
  3
____ _ ____ _ ____ _ ____ _ ____ _ ____ _ ____
 72
    65
 73
     4
 40
0.6
 49
0.375
 74
     0
 49
-0.075
 74
     0
 49
0.075
 74
     0
 49
-0.075
 74
     0
  0
ENDTAB
  0
TABLE
  2
LAYER
  5
10
102
{ACAD_XDICTIONARY
360
11
102
}
100
AcDbSymbolTable
 70
     2
  0
LAYER
  5
4
100
AcDbSymbolTableRecord
100
AcDbLayerTableRecord
  2
0
 70
     0
 62
     7
  6
CONTINUOUS
  0
LAYER
  5
3E
100
AcDbSymbolTableRecord
100
AcDbLayerTableRecord
  2
CENTER
 70
     0
 62
     1
  6
CENTER
  0
ENDTAB
  0
TABLE
  2
STYLE
  5
15
100
AcDbSymbolTable
 70
     2
  0
STYLE
  5
16
100
AcDbSymbolTableRecord
100
AcDbTextStyleTableRecord
  2
STANDARD
 70
     0
 40
0.0
 41
1.0
 50
0.0
 71
     0
 42
0.0
  3
txt
  4

  0
STYLE
  5
1EF
100
AcDbSymbolTableRecord
100
AcDbTextStyleTableRecord
  2
ROMANS
 70
     0
 40
0.0
 41
1.0
 50
0.0
 71
     0
 42
0.0
  3
romant.shx
  4

  0
ENDTAB
  0
TABLE
  2
VIEW
  5
1B
100
AcDbSymbolTable
 70
     0
  0
ENDTAB
  0
TABLE
  2
UCS
  5
1C
100
AcDbSymbolTable
 70
     0
  0
ENDTAB
  0
TABLE
  2
APPID
  5
1F
100
AcDbSymbolTable
 70
     2
  0
APPID
  5
20
100
AcDbSymbolTableRecord
100
AcDbRegAppTableRecord
  2
ACAD
 70
     0
  0
APPID
  5
1E9
100
AcDbSymbolTableRecord
100
AcDbRegAppTableRecord
  2
DCO15
 70
     0
  0
ENDTAB
  0
TABLE
  2
DIMSTYLE
  5
21
100
AcDbSymbolTable
 70
     1
  0
DIMSTYLE
105
22
102
{ACAD_XDICTIONARY
360
25F
102
}
100
AcDbSymbolTableRecord
100
AcDbDimStyleTableRecord
  2
STANDARD
 70
     0
  3

  4
cm
  5

  6

  7

 40
16.0
 41
0.1
 42
0.0625
 43
0.25
 44
0.1
 45
0.0
 46
0.0
 47
0.1
 48
0.1
140
0.1
141
0.09
142
0.0
143
2.54
144
1.0
145
0.0
146
1.0
147
0.08
 71
     0
 72
     0
 73
     1
 74
     1
 75
     0
 76
     0
 77
     0
 78
     4
170
     1
171
     2
172
     0
173
     0
174
     0
175
     0
176
     0
177
     0
178
     0
270
     5
271
     4
272
     4
273
     2
274
     2
340
16
275
     0
280
     0
281
     0
282
     0
283
     1
284
     0
285
     0
286
     0
287
     0
288
     0
  0
ENDTAB
  0
TABLE
  2
BLOCK_RECORD
  5
1
100
AcDbSymbolTable
 70
     0
  0
BLOCK_RECORD
  5
2
102
{ACAD_XDICTIONARY
360
257
102
}
100
AcDbSymbolTableRecord
100
AcDbBlockTableRecord
  2
*MODEL_SPACE
  0
BLOCK_RECORD
  5
1F6
102
{ACAD_XDICTIONARY
360
232
102
}
100
AcDbSymbolTableRecord
100
AcDbBlockTableRecord
  2
*PAPER_SPACE
  0
ENDTAB
  0
ENDSEC
  0
SECTION
  2
BLOCKS
  0
BLOCK
  5
3
100
AcDbEntity
  8
0
100
AcDbBlockBegin
  2
*MODEL_SPACE
 70
     0
 10
0.0
 20
0.0
 30
0.0
  3
*MODEL_SPACE
  1

  0
ENDBLK
  5
9
100
AcDbEntity
  8
0
100
AcDbBlockEnd
  0
BLOCK
  5
1F8
100
AcDbEntity
 67
     1
  8
0
100
AcDbBlockBegin
  2
*PAPER_SPACE
 70
     0
 10
0.0
 20
0.0
 30
0.0
  3
*PAPER_SPACE
  1

  0
ENDBLK
  5
1F9
100
AcDbEntity
 67
     1
  8
0
100
AcDbBlockEnd
  0
ENDSEC
  0
SECTION
  2
ENTITIES
  0
SPLINE
  5
2A
100
AcDbEntity
  8
0
100
AcDbSpline
210
0.0
220
0.0
230
-1.0
 70
     8
 71
     3
 72
    17
 73
    13
 74
    11
 42
0.0000001
 43
0.0000001
 44
0.0000000001
 40
0.0
 40
0.0
 40
0.0
 40
0.0
 40
0.3944132147925701
 40
0.8207101821485974
 40
1.288560488072943
 40
1.600943862757767
 40
2.184722361042377
 40
2.839912403202713
 40
3.573797282321319
 40
4.379338327622082
 40
5.229876213633238
 40
6.093832593715633
 40
6.093832593715633
 40
6.093832593715633
 40
6.093832593715633
 10
-52.77830093648334
 20
-35.22154745855397
 30
0.0
 10
-52.90893295768654
 20
-35.2021753459216
 30
0.0
 10
-53.18075709008153
 20
-35.16186510911708
 30
0.0
 10
-53.5852118336933
 20
-35.03548520170706
 30
0.0
 10
-54.00782278050874
 20
-34.96224138353459
 30
0.0
 10
-54.2802161415443
 20
-34.57146392147302
 30
0.0
 10
-54.77885549761781
 20
-34.37942674569326
 30
0.0
 10
-55.27263549692218
 20
-33.93811235231272
 30
0.0
 10
-55.7829457246737
 20
-33.41274477220568
 30
0.0
 10
-56.23141417154838
 20
-32.74972021421172
 30
0.0
 10
-56.59625944004377
 20
-31.9866909520252
 30
0.0
 10
-56.72521455736602
 20
-31.42837114456754
 30
0.0
 10
-56.79019674981667
 20
-31.1470263950873
 30
0.0
 11
-52.77830093648334
 21
-35.22154745855397
 31
0.0
 11
-53.16691314128334
 21
-35.15415058708731
 31
0.0
 11
-53.57956472848334
 21
-35.04715632575398
 31
0.0
 11
-54.02003790715
 21
-34.88946267455397
 31
0.0
 11
-54.23927290021667
 21
-34.66693314708731
 31
0.0
 11
-54.73633538128334
 21
-34.36078575615398
 31
0.0
 11
-55.24745102821667
 21
-33.95086529215397
 31
0.0
 11
-55.75058122341667
 21
-33.41659286868731
 31
0.0
 11
-56.20617355621668
 21
-32.7522646350873
 31
0.0
 11
-56.56496521488334
 21
-31.98110755562064
 31
0.0
 11
-56.79019674981667
 21
-31.1470263950873
 31
0.0
  0
LINE
  5
2B
100
AcDbEntity
  8
0
100
AcDbLine
 10
3.04989
 20
-37.998555
 30
0.0
 11
-61.797876
 21
-37.998555
 31
0.0
  0
LINE
  5
2C
100
AcDbEntity
  8
0
100
AcDbLine
 10
3.254085
 20
-38.202751
 30
0.0
 11
-62.002072
 21
-38.202751
 31
0.0
  0
LINE
  5
2D
100
AcDbEntity
  8
0
100
AcDbLine
 10
3.254085
 20
-5.327751
 30
0.0
 11
-62.002072
 21
-5.327751
 31
0.0
  0
LINE
  5
2E
100
AcDbEntity
  8
0
100
AcDbLine
 10
3.04989
 20
-5.531946
 30
0.0
 11
-61.797876
 21
-5.531946
 31
0.0
  0
LINE
  5
2F
100
AcDbEntity
  8
0
100
AcDbLine
 10
-40.387861
 20
-37.873555
 30
0.0
 11
-61.797876
 21
-37.873555
 31
0.0
  0
SPLINE
  5
30
100
AcDbEntity
  8
0
100
AcDbSpline
210
0.0
220
0.0
230
-1.0
 70
     8
 71
     3
 72
    17
 73
    13
 74
    11
 42
0.0000001
 43
0.0000001
 44
0.0000000001
 40
0.0
 40
0.0
 40
0.0
 40
0.0
 40
0.3944132147925701
 40
0.8207101821485974
 40
1.288560488432469
 40
1.600943863117303
 40
2.184722360842528
 40
2.839912403002855
 40
3.57379728289801
 40
4.379338328198763
 40
5.22987621420993
 40
6.09383259326253
 40
6.09383259326253
 40
6.09383259326253
 40
6.09383259326253
 10
-52.77830093648334
 20
-8.308953996153981
 30
0.0
 10
-52.90893295767877
 20
-8.328326108808621
 30
0.0
 10
-53.18075709005761
 20
-8.368636345659471
 30
0.0
 10
-53.58521183391527
 20
-8.495016252723374
 30
0.0
 10
-54.0078227803766
 20
-8.568260072326202
 30
0.0
 10
-54.28021614138147
 20
-8.959037534183881
 30
0.0
 10
-54.77885549792204
 20
-9.151074708863442
 30
0.0
 10
-55.27263549721885
 20
-9.592389102511344
 30
0.0
 10
-55.78294572431622
 20
-10.11775668353786
 30
0.0
 10
-56.2314141716228
 20
-10.78078124150564
 30
0.0
 10
-56.59625943982692
 20
-11.54381050346455
 30
0.0
 10
-56.72521455731891
 20
-12.10213031051297
 30
0.0
 10
-56.79019674981667
 20
-12.38347505962064
 30
0.0
 11
-52.77830093648334
 21
-8.308953996153981
 31
0.0
 11
-53.16691314128334
 21
-8.376350867620651
 31
0.0
 11
-53.57956472848334
 21
-8.483345128953978
 31
0.0
 11
-54.02003790715
 21
-8.641038781220636
 31
0.0
 11
-54.23927290021667
 21
-8.863568308687312
 31
0.0
 11
-54.73633538128334
 21
-9.169715698553979
 31
0.0
 11
-55.24745102821667
 21
-9.579636162553974
 31
0.0
 11
-55.75058122341667
 21
-10.11390858708731
 31
0.0
 11
-56.20617355621668
 21
-10.7782368206873
 31
0.0
 11
-56.56496521488334
 21
-11.54939390015398
 31
0.0
 11
-56.79019674981667
 21
-12.38347505962064
 31
0.0
  0
SPLINE
  5
31
100
AcDbEntity
  8
0
100
AcDbSpline
210
0.0
220
0.0
230
-1.0
 70
     8
 71
     3
 72
    11
 73
     7
 74
     5
 42
0.0000001
 43
0.0000001
 44
0.0000000001
 40
0.0
 40
0.0
 40
0.0
 40
0.0
 40
1.85211134240241
 40
3.94985723972463
 40
6.047603139124244
 40
8.145349201063913
 40
8.145349201063913
 40
8.145349201063913
 40
8.145349201063913
 10
-53.00354665595001
 20
-8.265250727887298
 30
0.0
 10
-53.62052713967597
 20
-8.349253566725122
 30
0.0
 10
-54.9363145735204
 20
-8.52840004325964
 30
0.0
 10
-56.70372499891319
 20
-9.601429670310754
 30
0.0
 10
-58.11234164067328
 20
-11.23308984059956
 30
0.0
 10
-58.48543499039524
 20
-12.59721958286409
 30
0.0
 10
-58.67198167248334
 20
-13.27928448042063
 30
0.0
 11
-53.00354665595001
 21
-8.265250727887298
 31
0.0
 11
-54.81899125968334
 21
-8.631962215887305
 31
0.0
 11
-56.63196158928334
 21
-9.687270907087317
 31
0.0
 11
-57.97084550928334
 21
-11.30217886335396
 31
0.0
 11
-58.67198167248334
 21
-13.27928448042063
 31
0.0
  0
SPLINE
  5
32
100
AcDbEntity
  8
0
100
AcDbSpline
210
0.0
220
0.0
230
1.0
 70
     8
 71
     3
 72
    11
 73
     7
 74
     5
 42
0.0000001
 43
0.0000001
 44
0.0000000001
 40
0.0
 40
0.0
 40
0.0
 40
0.0
 40
1.85211134240241
 40
3.949857240261229
 40
6.047603138839701
 40
8.145349200779371
 40
8.145349200779371
 40
8.145349200779371
 40
8.145349200779371
 10
-53.00354665595001
 20
-35.26525072788731
 30
0.0
 10
-53.62052713972891
 20
-35.18124788912814
 30
0.0
 10
-54.93631457386497
 20
-35.00210141273703
 30
0.0
 10
-56.703724998208
 20
-33.92907178424156
 30
0.0
 10
-58.11234164099832
 20
-32.29741161514871
 30
0.0
 10
-58.48543499047925
 20
-30.93328187299074
 30
0.0
 10
-58.67198167248334
 20
-30.25121697535397
 30
0.0
 11
-53.00354665595001
 21
-35.26525072788731
 31
0.0
 11
-54.81899125968334
 21
-34.8985392398873
 31
0.0
 11
-56.63196158928334
 21
-33.84323054762064
 31
0.0
 11
-57.97084550928334
 21
-32.22832259242064
 31
0.0
 11
-58.67198167248334
 21
-30.25121697535397
 31
0.0
  0
LINE
  5
33
100
AcDbEntity
  8
0
100
AcDbLine
 10
-62.044798
 20
-5.778868
 30
0.0
 11
-62.044798
 21
-37.751634
 31
0.0
  0
LINE
  5
34
100
AcDbEntity
  8
0
100
AcDbLine
 10
-62.248993
 20
-37.955829
 30
0.0
 11
-62.248993
 21
-5.574672
 31
0.0
  0
LWPOLYLINE
  5
35
100
AcDbEntity
  8
0
100
AcDbPolyline
 90
        5
 70
     0
 43
0.0
 10
-61.797876
 20
-37.998555
 10
-61.890999
 20
-37.978054
 10
-61.970378
 20
-37.924135
 10
-62.024297
 20
-37.844757
 10
-62.044798
 20
-37.751634
  0
SPLINE
  5
36
100
AcDbEntity
  8
0
100
AcDbSpline
210
0.0
220
0.0
230
-1.0
 70
     8
 71
     3
 72
    11
 73
     7
 74
     5
 42
0.0000001
 43
0.0000001
 44
0.0000000001
 40
0.0
 40
0.0
 40
0.0
 40
0.0
 40
0.0953528078612385
 40
0.1913122756948344
 40
0.2872717450101498
 40
0.3826245528713938
 40
0.3826245528713938
 40
0.3826245528713938
 40
0.3826245528713938
 10
-62.00207161808334
 20
-38.20275072788731
 30
0.0
 10
-62.03397705916369
 20
-38.19834578861134
 30
0.0
 10
-62.09799093224241
 20
-38.18950788466193
 30
0.0
 10
-62.17843660918862
 20
-38.13219422711934
 30
0.0
 10
-62.23575026705217
 20
-38.05174855027077
 30
0.0
 10
-62.2445881710727
 20
-37.98773467669941
 30
0.0
 10
-62.24899311035001
 20
-37.95582923562063
 30
0.0
 11
-62.00207161808334
 21
-38.20275072788731
 31
0.0
 11
-62.09519445541667
 21
-38.18224962708731
 31
0.0
 11
-62.17457313061667
 21
-38.12833074922064
 31
0.0
 11
-62.22849200955001
 21
-38.04895207295397
 31
0.0
 11
-62.24899311035001
 21
-37.95582923562063
 31
0.0
  0
SPLINE
  5
37
100
AcDbEntity
  8
0
100
AcDbSpline
210
0.0
220
0.0
230
-1.0
 70
     8
 71
     3
 72
    10
 73
     6
 74
     4
 42
0.0000001
 43
0.0000001
 44
0.0000000001
 40
0.0
 40
0.0
 40
0.0
 40
0.0
 40
2.84118487507406
 40
5.682370513785988
 40
8.523555521651505
 40
8.523555521651505
 40
8.523555521651505
 40
8.523555521651505
 10
-58.67198167248334
 20
-13.27928448042063
 30
0.0
 10
-58.81219874846422
 20
-14.21606365765238
 30
0.0
 10
-59.09263293811275
 20
-16.08962226389819
 30
0.0
 10
-59.32710951484004
 20
-18.92399245554464
 30
0.0
 10
-59.35836524633666
 20
-20.81816468444671
 30
0.0
 10
-59.37399311035001
 20
-21.76525069375397
 30
0.0
 11
-58.67198167248334
 21
-13.27928448042063
 31
0.0
 11
-59.06160379195
 21
-16.09362740522065
 31
0.0
 11
-59.29584402661667
 21
-18.92514066602064
 31
0.0
 11
-59.37399311035001
 21
-21.76525069375397
 31
0.0
  0
SPLINE
  5
38
100
AcDbEntity
  8
0
100
AcDbSpline
210
0.0
220
0.0
230
-1.0
 70
     8
 71
     3
 72
    12
 73
     8
 74
     6
 42
0.0000001
 43
0.0000001
 44
0.0000000001
 40
0.0
 40
0.0
 40
0.0
 40
0.0
 40
1.047883313023316
 40
3.143548282852989
 40
6.286791631749046
 40
8.38245660153662
 40
9.43033498983503
 40
9.43033498983503
 40
9.43033498983503
 40
9.43033498983503
 10
-56.79019674981667
 20
-12.38347505962064
 30
0.0
 10
-56.84973798071871
 20
-12.72766689310915
 30
0.0
 10
-57.02835589726994
 20
-13.76020900317782
 30
0.0
 10
-57.31373264252066
 20
-15.836962777395
 30
0.0
 10
-57.53028329582249
 20
-18.27356509987445
 30
0.0
 10
-57.61562538855347
 20
-20.36809511077043
 30
0.0
 10
-57.62190113408028
 20
-21.4159523257718
 30
0.0
 10
-57.62399311035
 20
-21.76524826495397
 30
0.0
 11
-56.79019674981667
 21
-12.38347505962064
 31
0.0
 11
-56.96482878181667
 21
-13.41670450708731
 31
0.0
 11
-57.25287724368334
 21
-15.49247900095398
 31
0.0
 11
-57.53113317008335
 21
-18.62338180842064
 31
0.0
 11
-57.61367279675001
 21
-20.7174206990873
 31
0.0
 11
-57.62399311035
 21
-21.76524826495397
 31
0.0
  0
SPLINE
  5
39
100
AcDbEntity
  8
0
100
AcDbSpline
210
0.0
220
0.0
230
-1.0
 70
     8
 71
     3
 72
    12
 73
     8
 74
     6
 42
0.0000001
 43
0.0000001
 44
0.0000000001
 40
0.0
 40
0.0
 40
0.0
 40
0.0
 40
1.047883313023302
 40
3.143548282852975
 40
6.286791630686567
 40
8.382456600474142
 40
9.430339914400308
 40
9.430339914400308
 40
9.430339914400308
 40
9.430339914400308
 10
-56.79019674981667
 20
-31.1470263950873
 30
0.0
 10
-56.84973798070425
 20
-30.80283456159895
 30
0.0
 10
-57.0283558972121
 20
-29.77029245153078
 30
0.0
 10
-57.31373264310869
 20
-27.69353867765666
 30
0.0
 10
-57.53028329265767
 20
-25.25693635557571
 30
0.0
 10
-57.61562546142826
 20
-23.16240470391208
 30
0.0
 10
-57.62190114738279
 20
-22.11454584627513
 30
0.0
 10
-57.62399311035
 20
-21.76524826495397
 30
0.0
 11
-56.79019674981667
 21
-31.1470263950873
 31
0.0
 11
-56.96482878181667
 21
-30.11379694762065
 31
0.0
 11
-57.25287724368334
 21
-28.03802245375397
 31
0.0
 11
-57.53113317008335
 21
-24.90711964735397
 31
0.0
 11
-57.61367279675001
 21
-22.8130807566873
 31
0.0
 11
-57.62399311035
 21
-21.76524826495397
 31
0.0
  0
SPLINE
  5
3A
100
AcDbEntity
  8
0
100
AcDbSpline
210
0.0
220
0.0
230
-1.0
 70
     8
 71
     3
 72
    10
 73
     6
 74
     4
 42
0.0000001
 43
0.0000001
 44
0.0000000001
 40
0.0
 40
0.0
 40
0.0
 40
0.0
 40
2.841184876130635
 40
5.682370514842563
 40
8.523555589882661
 40
8.523555589882661
 40
8.523555589882661
 40
8.523555589882661
 10
-58.67198167248334
 20
-30.25121697535397
 30
0.0
 10
-58.81219874844877
 20
-29.31443779776568
 30
0.0
 10
-59.09263293801428
 20
-27.44087919115519
 30
0.0
 10
-59.32710951679764
 20
-24.60650897682612
 30
0.0
 10
-59.35836524686603
 20
-22.71233672547954
 30
0.0
 10
-59.37399311035001
 20
-21.76525069375397
 30
0.0
 11
-58.67198167248334
 21
-30.25121697535397
 31
0.0
 11
-59.06160379195
 21
-27.4368740494873
 31
0.0
 11
-59.29584402661667
 21
-24.60536078868731
 31
0.0
 11
-59.37399311035001
 21
-21.76525069375397
 31
0.0
  0
LWPOLYLINE
  5
3B
100
AcDbEntity
  8
0
100
AcDbPolyline
 90
        5
 70
     0
 43
0.0
 10
-61.797876
 20
-5.531946
 10
-61.890999
 20
-5.552447
 10
-61.970378
 20
-5.606366
 10
-62.024297
 20
-5.685745
 10
-62.044798
 20
-5.778868
  0
SPLINE
  5
3C
100
AcDbEntity
  8
0
100
AcDbSpline
210
0.0
220
0.0
230
-1.0
 70
     8
 71
     3
 72
    11
 73
     7
 74
     5
 42
0.0000001
 43
0.0000001
 44
0.0000000001
 40
0.0
 40
0.0
 40
0.0
 40
0.0
 40
0.0953528076319024
 40
0.191312276064858
 40
0.2872717453801734
 40
0.3826245521996684
 40
0.3826245521996684
 40
0.3826245521996684
 40
0.3826245521996684
 10
-62.00207161808334
 20
-5.327750727887298
 30
0.0
 10
-62.03397705923223
 20
-5.332155666651937
 30
0.0
 10
-62.09799093272625
 20
-5.340993569613774
 30
0.0
 10
-62.178436608865
 20
-5.398307228843493
 30
0.0
 10
-62.23575026687866
 20
-5.478752905121918
 30
0.0
 10
-62.2445881710311
 20
-5.542766778352971
 30
0.0
 10
-62.24899311035001
 20
-5.574672219087297
 30
0.0
 11
-62.00207161808334
 21
-5.327750727887298
 31
0.0
 11
-62.09519445541667
 21
-5.348251827620636
 31
0.0
 11
-62.17457313061667
 21
-5.402170706553981
 31
0.0
 11
-62.22849200955001
 21
-5.481549382820652
 31
0.0
 11
-62.24899311035001
 21
-5.574672219087297
 31
0.0
  0
LINE
  5
3D
100
AcDbEntity
  8
CENTER
  6
CENTER
 48
3.0
100
AcDbLine
 10
-7.303597
 20
-21.765251
 30
0.0
 11
-1.694389
 21
-21.765251
 31
0.0
  0
SPLINE
  5
40
100
AcDbEntity
  8
0
100
AcDbSpline
210
0.0
220
0.0
230
1.0
 70
     8
 71
     3
 72
    14
 73
    10
 74
     8
 42
0.0000001
 43
0.0000001
 44
0.0000000001
 40
0.0
 40
0.0
 40
0.0
 40
0.0
 40
0.9024465869937793
 40
1.803040608204721
 40
2.691628023107674
 40
3.575226730783877
 40
4.464321863865926
 40
5.36402543905475
 40
6.25716094761913
 40
6.25716094761913
 40
6.25716094761913
 40
6.25716094761913
 10
-5.373316443683343
 20
-31.6612653550873
 30
0.0
 10
-5.071951350676924
 20
-31.64419975528273
 30
0.0
 10
-4.469839814750959
 20
-31.61010358837991
 30
0.0
 10
-3.607345570271223
 20
-31.33077757919046
 30
0.0
 10
-2.822115141059826
 20
-30.90036334866694
 30
0.0
 10
-2.141701358928915
 20
-30.3201499102691
 30
0.0
 10
-1.594032764541237
 20
-29.61194964701874
 30
0.0
 10
-1.183193962526552
 20
-28.80711593152649
 30
0.0
 10
-1.059028721896593
 20
-28.22031471191886
 30
0.0
 10
-0.9971735412833382
 20
-27.92798897535397
 30
0.0
 11
-5.373316443683343
 21
-31.6612653550873
 31
0.0
 11
-4.475321831416671
 21
-31.57173592575397
 31
0.0
 11
-3.615578267683339
 21
-31.30357441535398
 31
0.0
 11
-2.837632059683336
 21
-30.87417100202063
 31
0.0
 11
-2.165452355150002
 21
-30.30065454975398
 31
0.0
 11
-1.619074744483334
 21
-29.59925476202064
 31
0.0
 11
-1.220082779683345
 21
-28.79286035775397
 31
0.0
 11
-0.9971735412833382
 21
-27.92798897535397
 31
0.0
  0
SPLINE
  5
41
100
AcDbEntity
  8
0
100
AcDbSpline
210
0.0
220
0.0
230
-1.0
 70
     8
 71
     3
 72
    14
 73
    10
 74
     8
 42
0.0000001
 43
0.0000001
 44
0.0000000001
 40
0.0
 40
0.0
 40
0.0
 40
0.0
 40
0.9024465870996007
 40
1.803040608310547
 40
2.691628023213493
 40
3.575226730889705
 40
4.464321863971743
 40
5.364025438204538
 40
6.257160946768918
 40
6.257160946768918
 40
6.257160946768918
 40
6.257160946768918
 10
-5.373316443683343
 20
-11.86923609962064
 30
0.0
 10
-5.071951350686205
 20
-11.88630169987314
 30
0.0
 10
-4.469839814814053
 20
-11.9203978676689
 30
0.0
 10
-3.607345570261146
 20
-12.19972387650778
 30
0.0
 10
-2.822115141071228
 20
-12.63013810713211
 30
0.0
 10
-2.141701358893341
 20
-13.21035154548317
 30
0.0
 10
-1.594032764869707
 20
-13.91855180856819
 30
0.0
 10
-1.183193962295646
 20
-14.72338552341514
 30
0.0
 10
-1.059028721841829
 20
-15.31018674276275
 30
0.0
 10
-0.9971735412833382
 20
-15.60251247935398
 30
0.0
 11
-5.373316443683343
 21
-11.86923609962064
 31
0.0
 11
-4.475321831416671
 21
-11.95876553002063
 31
0.0
 11
-3.615578267683339
 21
-12.22692704042064
 31
0.0
 11
-2.837632059683336
 21
-12.65633045375397
 31
0.0
 11
-2.165452355150002
 21
-13.22984690602064
 31
0.0
 11
-1.619074744483334
 21
-13.93124669375397
 31
0.0
 11
-1.220082779683345
 21
-14.73764109695398
 31
0.0
 11
-0.9971735412833382
 21
-15.60251247935398
 31
0.0
  0
CIRCLE
  5
42
100
AcDbEntity
  8
0
100
AcDbCircle
 10
-4.498993
 20
-21.765251
 30
0.0
 40
1.375
  0
CIRCLE
  5
43
100
AcDbEntity
  8
0
100
AcDbCircle
 10
-4.498993
 20
-21.765251
 30
0.0
 40
1.71875
  0
SPLINE
  5
44
100
AcDbEntity
  8
0
100
AcDbSpline
210
0.0
220
0.0
230
-1.0
 70
     8
 71
     3
 72
    15
 73
    11
 74
     9
 42
0.0000001
 43
0.0000001
 44
0.0000000001
 40
0.0
 40
0.0
 40
0.0
 40
0.0
 40
1.147862826568203
 40
2.298516310273127
 40
3.448117264072593
 40
4.598810634265248
 40
5.74896281122149
 40
6.899257446242806
 40
8.049594395650547
 40
9.203954609375198
 40
9.203954609375198
 40
9.203954609375198
 40
9.203954609375198
 10
1.650251529649999
 20
-15.59777118655397
 30
0.0
 10
1.571968811220802
 20
-15.22223969152458
 30
0.0
 10
1.415213055256493
 20
-14.4702637181176
 30
0.0
 10
0.9338892492059592
 20
-13.41648086034197
 30
0.0
 10
0.2866252939125837
 20
-12.4598210599372
 30
0.0
 10
-0.5216243877561789
 20
-11.6326174744893
 30
0.0
 10
-1.463205023431747
 20
-10.96070575117322
 30
0.0
 10
-2.507793162503042
 20
-10.46785673549798
 30
0.0
 10
-3.625188796141372
 20
-10.15342241738163
 30
0.0
 10
-4.394395270408478
 20
-10.11397161432576
 30
0.0
 10
-4.779669901816681
 20
-10.09421177855397
 30
0.0
 11
1.650251529649999
 21
-15.59777118655397
 31
0.0
 11
1.374479208583316
 21
-14.4835276334873
 31
0.0
 11
0.9061307627166641
 21
-13.43250281322064
 31
0.0
 11
0.2600090955166578
 21
-12.48165627242064
 31
0.0
 11
-0.5439571700833384
 21
-11.65841057642064
 31
0.0
 11
-1.480347587150014
 21
-10.99056102975396
 31
0.0
 11
-2.51968823888334
 21
-10.49766270655397
 31
0.0
 11
-3.629825128483339
 21
-10.19621423082065
 31
0.0
 11
-4.779669901816681
 21
-10.09421177855397
 31
0.0
  0
SPLINE
  5
45
100
AcDbEntity
  8
0
100
AcDbSpline
210
0.0
220
0.0
230
1.0
 70
     8
 71
     3
 72
    15
 73
    11
 74
     9
 42
0.0000001
 43
0.0000001
 44
0.0000000001
 40
0.0
 40
0.0
 40
0.0
 40
0.0
 40
1.147862825532778
 40
2.298516310212011
 40
3.448117263129227
 40
4.598810633321892
 40
5.748962810897499
 40
6.899257445461756
 40
8.04959439514902
 40
9.203954608873669
 40
9.203954608873669
 40
9.203954608873669
 40
9.203954608873669
 10
1.650251529649999
 20
-27.93273026922063
 30
0.0
 10
1.571968811114806
 20
-28.30826176385276
 30
0.0
 10
1.415213054801015
 20
-29.06023773712257
 30
0.0
 10
0.9338892498268283
 20
-30.1140205950547
 30
0.0
 10
0.2866252935649773
 20
-31.07068039495549
 30
0.0
 10
-0.5216243880867316
 20
-31.89788398002033
 30
0.0
 10
-1.463205022774656
 20
-32.56979570508612
 30
0.0
 10
-2.507793163024644
 20
-33.06264471855644
 30
0.0
 10
-3.625188795909226
 20
-33.3770790388151
 30
0.0
 10
-4.394395270362141
 20
-33.41652984159132
 30
0.0
 10
-4.779669901816681
 20
-33.43628967722063
 30
0.0
 11
1.650251529649999
 21
-27.93273026922063
 31
0.0
 11
1.374479208583316
 21
-29.04697382122064
 31
0.0
 11
0.9061307627166641
 21
-30.09799864255397
 31
0.0
 11
0.2600090955166578
 21
-31.0488451822873
 31
0.0
 11
-0.5439571700833384
 21
-31.87209087828732
 31
0.0
 11
-1.480347587150014
 21
-32.53994042602064
 31
0.0
 11
-2.51968823888334
 21
-33.03283874815398
 31
0.0
 11
-3.629825128483339
 21
-33.33428722495397
 31
0.0
 11
-4.779669901816681
 21
-33.43628967722063
 31
0.0
  0
SPLINE
  5
46
100
AcDbEntity
  8
0
100
AcDbSpline
210
0.0
220
0.0
230
-1.0
 70
     8
 71
     3
 72
    10
 73
     6
 74
     4
 42
0.0000001
 43
0.0000001
 44
0.0000000001
 40
0.0
 40
0.0
 40
0.0
 40
0.0
 40
0.2080564890086714
 40
0.7252819846675941
 40
1.227114238894321
 40
1.227114238894321
 40
1.227114238894321
 40
1.227114238894321
 10
-26.90994501008334
 20
-33.5874155022873
 30
0.0
 10
-26.84127716827436
 20
-33.5777003444681
 30
0.0
 10
-26.60190204074357
 20
-33.5438334414071
 30
0.0
 10
-26.19558753244911
 20
-33.49567330041277
 30
0.0
 10
-25.85695864266118
 20
-33.4686290148194
 30
0.0
 10
-25.69020175461667
 20
-33.45531112895397
 30
0.0
 11
-26.90994501008334
 21
-33.5874155022873
 31
0.0
 11
-26.70387764581667
 21
-33.55871456148731
 31
0.0
 11
-26.19018025808333
 21
-33.49840529855397
 31
0.0
 11
-25.69020175461667
 21
-33.45531112895397
 31
0.0
  0
SPLINE
  5
47
100
AcDbEntity
  8
0
100
AcDbSpline
210
0.0
220
0.0
230
-1.0
 70
     8
 71
     3
 72
    14
 73
    10
 74
     8
 42
0.0000001
 43
0.0000001
 44
0.0000000001
 40
0.0
 40
0.0
 40
0.0
 40
0.0
 40
0.1269162772438465
 40
0.3869356162244814
 40
0.645402377681298
 40
0.9022491519217863
 40
1.15755087976923
 40
1.411520187105695
 40
1.66036837417157
 40
1.66036837417157
 40
1.66036837417157
 40
1.66036837417157
 10
-28.31716799675001
 20
-33.80092504788731
 30
0.0
 10
-28.3083480323564
 20
-33.75953616746648
 30
0.0
 10
-28.28145819259882
 20
-33.63335194351778
 30
0.0
 10
-28.21016401576702
 20
-33.42931394934116
 30
0.0
 10
-28.0913777497402
 20
-33.1989037658987
 30
0.0
 10
-27.94028695662482
 20
-32.98981366545312
 30
0.0
 10
-27.76030947250951
 20
-32.80759266717589
 30
0.0
 10
-27.55772283658046
 20
-32.65397389777923
 30
0.0
 10
-27.40676361881256
 20
-32.5804010419749
 30
0.0
 10
-27.33205275835
 20
-32.5439892782873
 30
0.0
 11
-28.31716799675001
 21
-33.80092504788731
 31
0.0
 11
-28.28900254928333
 21
-33.67717348628731
 31
0.0
 11
-28.20441898448334
 21
-33.43129612415396
 31
0.0
 11
-28.08557341541666
 21
-33.20177314602063
 31
0.0
 11
-27.93497891835
 21
-32.99370689962064
 31
0.0
 11
-27.75586238928334
 21
-32.81178317588731
 31
0.0
 11
-27.55212067088334
 21
-32.66015955882064
 31
0.0
 11
-27.33205275835
 21
-32.5439892782873
 31
0.0
  0
ARC
  5
48
100
AcDbEntity
  8
0
100
AcDbCircle
 10
-35.384503
 20
-6.373437
 30
0.0
 40
27.117442
100
AcDbArc
 50
253.0
 51
270.0
  0
LWPOLYLINE
  5
49
100
AcDbEntity
  8
0
100
AcDbPolyline
 90
        8
 70
     0
 43
0.0
 10
-27.332281
 20
-32.543607
 10
-27.551665
 20
-32.658347
 10
-27.75219
 20
-32.805295
 10
-27.929613
 20
-32.981341
 10
-28.080179
 20
-33.182759
 10
-28.200702
 20
-33.405288
 10
-28.28863
 20
-33.644218
 10
-28.322761
 20
-33.803959
  0
LWPOLYLINE
  5
4A
100
AcDbEntity
  8
0
100
AcDbPolyline
 90
        8
 70
     0
 43
0.0
 10
-27.478377
 20
-32.573306
 10
-27.69776
 20
-32.688045
 10
-27.898285
 20
-32.834993
 10
-28.075708
 20
-33.011039
 10
-28.226274
 20
-33.212457
 10
-28.346797
 20
-33.434986
 10
-28.434725
 20
-33.673916
 10
-28.471166
 20
-33.844467
  0
LWPOLYLINE
  5
4B
100
AcDbEntity
  8
0
100
AcDbPolyline
 90
        8
 70
     0
 43
0.0
 10
-28.732606
 20
-33.912944
 10
-28.686924
 20
-33.672119
 10
-28.592536
 20
-33.399169
 10
-28.459962
 20
-33.144558
 10
-28.29215
 20
-32.913948
 10
-28.092831
 20
-32.712466
 10
-27.866438
 20
-32.544592
 10
-27.618005
 20
-32.414059
  0
LINE
  5
4C
100
AcDbEntity
  8
0
100
AcDbLine
 10
-29.337888
 20
-33.418368
 30
0.0
 11
-29.271164
 21
-34.012542
 31
0.0
  0
LINE
  5
4D
100
AcDbEntity
  8
0
100
AcDbLine
 10
-29.613262
 20
-33.359241
 30
0.0
 11
-29.537623
 21
-34.032803
 31
0.0
  0
SPLINE
  5
4E
100
AcDbEntity
  8
0
100
AcDbSpline
210
0.0
220
0.0
230
-1.0
 70
     8
 71
     3
 72
     9
 73
     5
 74
     3
 42
0.0000001
 43
0.0000001
 44
0.0000000001
 40
0.0
 40
0.0
 40
0.0
 40
0.0
 40
0.7979399574354642
 40
1.595832948258117
 40
1.595832948258117
 40
1.595832948258117
 40
1.595832948258117
 10
-23.50548109221667
 20
-33.44752002282064
 30
0.0
 10
-23.7708581465975
 20
-33.47074906736211
 30
0.0
 10
-24.30159663531
 20
-33.51720578918735
 30
0.0
 10
-24.81952410447362
 20
-33.6420763027552
 30
0.0
 10
-25.07848021755
 20
-33.70450972202064
 30
0.0
 11
-23.50548109221667
 21
-33.44752002282064
 31
0.0
 11
-24.29840931195
 21
-33.53681175828731
 31
0.0
 11
-25.07848021755
 21
-33.70450972202064
 31
0.0
  0
SPLINE
  5
4F
100
AcDbEntity
  8
0
100
AcDbSpline
210
0.0
220
0.0
230
-1.0
 70
     8
 71
     3
 72
    10
 73
     6
 74
     4
 42
0.0000001
 43
0.0000001
 44
0.0000000001
 40
0.0
 40
0.0
 40
0.0
 40
0.0
 40
0.1759603666233359
 40
0.4172770992144354
 40
0.5095273228444945
 40
0.5095273228444945
 40
0.5095273228444945
 40
0.5095273228444945
 10
-27.74914838821667
 20
-33.49366967188731
 30
0.0
 10
-27.80754990781021
 20
-33.49925785522243
 30
0.0
 10
-27.94604482659991
 20
-33.51250982199601
 30
0.0
 10
-28.11353479369987
 20
-33.54170339576671
 30
0.0
 10
-28.22256351569732
 20
-33.5634717125631
 30
0.0
 10
-28.25271615461668
 20
-33.5694918894873
 30
0.0
 11
-27.74914838821667
 21
-33.49366967188731
 31
0.0
 11
-27.92411660475
 21
-33.51232908842065
 31
0.0
 11
-28.16221080315001
 21
-33.55163453482064
 31
0.0
 11
-28.25271615461668
 21
-33.5694918894873
 31
0.0
  0
SPLINE
  5
50
100
AcDbEntity
  8
0
100
AcDbSpline
210
0.0
220
0.0
230
-1.0
 70
     8
 71
     3
 72
    10
 73
     6
 74
     4
 42
0.0000001
 43
0.0000001
 44
0.0000000001
 40
0.0
 40
0.0
 40
0.0
 40
0.0
 40
0.0205104100288693
 40
0.0814735155598878
 40
0.1922310496576569
 40
0.1922310496576569
 40
0.1922310496576569
 40
0.1922310496576569
 10
-27.55886465915
 20
-33.50591023615397
 30
0.0
 10
-27.565156165452
 20
-33.50316867347437
 30
0.0
 10
-27.59014792016921
 20
-33.49227836219734
 30
0.0
 10
-27.65556601909509
 20
-33.48960141390046
 30
0.0
 10
-27.71245545614976
 20
-33.49207453900765
 30
0.0
 10
-27.74914838821667
 20
-33.49366967188731
 30
0.0
 11
-27.55886465915
 21
-33.50591023615397
 31
0.0
 11
-27.57791247461667
 21
-33.49830381482065
 31
0.0
 11
-27.63842529168334
 21
-33.49090792362064
 31
0.0
 11
-27.74914838821667
 21
-33.49366967188731
 31
0.0
  0
SPLINE
  5
51
100
AcDbEntity
  8
0
100
AcDbSpline
210
0.0
220
0.0
230
1.0
 70
     8
 71
     3
 72
    35
 73
    31
 74
    29
 42
0.0000001
 43
0.0000001
 44
0.0000000001
 40
0.0
 40
0.0
 40
0.0
 40
0.0
 40
0.353920115145206
 40
0.6939641288646401
 40
1.011113749344676
 40
1.297647403244763
 40
1.553674900547184
 40
1.785052172378304
 40
1.998934054086267
 40
2.205238239461161
 40
2.414603295694292
 40
2.638410215258594
 40
2.885468419107675
 40
3.152564853143893
 40
3.426916619981341
 40
3.706394173195469
 40
3.989186654457362
 40
4.273392968075198
 40
4.557042471436838
 40
4.835081975921455
 40
5.086243800707545
 40
5.312072552948025
 40
5.513882187935217
 40
5.697963463430172
 40
5.872021883695837
 40
6.043069158314656
 40
6.216675220763294
 40
6.398169677579105
 40
6.593103281401834
 40
6.807860724501962
 40
6.807860724501962
 40
6.807860724501962
 40
6.807860724501962
 10
-52.51030101648334
 20
-30.76661418175397
 30
0.0
 10
-52.46960382089758
 20
-30.87740639852375
 30
0.0
 10
-52.38980503955304
 20
-31.09464701555983
 30
0.0
 10
-52.24404274747306
 20
-31.39904091196581
 30
0.0
 10
-52.09025263955968
 20
-31.67365907681023
 30
0.0
 10
-51.93413997598355
 20
-31.91420455365156
 30
0.0
 10
-51.78172864556216
 20
-32.12248868982961
 30
0.0
 10
-51.63449576994388
 20
-32.30416580990569
 30
0.0
 10
-51.49044209860754
 20
-32.46678863585085
 30
0.0
 10
-51.3449463415918
 20
-32.61808974602728
 30
0.0
 10
-51.19099847529462
 20
-32.76561002645966
 30
0.0
 10
-51.02074609415535
 20
-32.91547273313432
 30
0.0
 10
-50.82890123319402
 20
-33.06957974479546
 30
0.0
 10
-50.61632223323644
 20
-33.22432874445424
 30
0.0
 10
-50.387448772269
 20
-33.37451457720808
 30
0.0
 10
-50.14703558528196
 20
-33.51605499521172
 30
0.0
 10
-49.89710720432847
 20
-33.6472517916093
 30
0.0
 10
-49.6398144790411
 20
-33.76668676950056
 30
0.0
 10
-49.37846806389378
 20
-33.87282725077939
 30
0.0
 10
-49.12267034919241
 20
-33.96248919451874
 30
0.0
 10
-48.88154340580355
 20
-34.03485426981728
 30
0.0
 10
-48.66238717267925
 20
-34.09133581850393
 30
0.0
 10
-48.46325609539141
 20
-34.1353728898213
 30
0.0
 10
-48.279824792272
 20
-34.1700297133085
 30
0.0
 10
-48.10560556116942
 20
-34.19780060970908
 30
0.0
 10
-47.9341454114899
 20
-34.22026301095096
 30
0.0
 10
-47.75965246383774
 20
-34.23816425078271
 30
0.0
 10
-47.57676796487047
 20
-34.25142743165202
 30
0.0
 10
-47.37984482642221
 20
-34.2600853651464
 30
0.0
 10
-47.24326761464523
 20
-34.26031747253564
 30
0.0
 10
-47.17167470821667
 20
-34.26043914175398
 30
0.0
 11
-52.51030101648334
 21
-30.76661418175397
 31
0.0
 11
-52.38294422608334
 21
-31.09682577428731
 31
0.0
 11
-52.23743448848334
 21
-31.40416410175397
 31
0.0
 11
-52.08215986128333
 21
-31.68070283668731
 31
0.0
 11
-51.92627884048334
 21
-31.92112463722063
 31
0.0
 11
-51.77512362448334
 21
-32.12776969535398
 31
0.0
 11
-51.62948295781667
 21
-32.30755912255397
 31
0.0
 11
-51.48767576635001
 21
-32.46767214442064
 31
0.0
 11
-51.34466767248333
 21
-32.61636680468731
 31
0.0
 11
-51.19350925115001
 21
-32.76122831935396
 31
0.0
 11
-51.02553589221667
 21
-32.90912858282065
 31
0.0
 11
-50.83296713381667
 21
-33.06390270655397
 31
0.0
 11
-50.61706578341667
 21
-33.22115127402063
 31
0.0
 11
-50.38771412261668
 21
-33.37170594068731
 31
0.0
 11
-50.14689136315001
 21
-33.51352308095398
 31
0.0
 11
-49.89650782821668
 21
-33.64497525055397
 31
0.0
 11
-49.63872266555
 21
-33.7646416142873
 31
0.0
 11
-49.37591350075001
 21
-33.87135798442063
 31
0.0
 11
-49.11353015995
 21
-33.96334139882064
 31
0.0
 11
-48.87299046928334
 21
-34.03561116735398
 31
0.0
 11
-48.65431417168334
 21
-34.0919964686873
 31
0.0
 11
-48.45726774928333
 21
-34.1355835790873
 31
0.0
 11
-48.27638674981667
 21
-34.16975930175397
 31
0.0
 11
-48.10449752421668
 21
-34.19715323882064
 31
0.0
 11
-47.93489847781667
 21
-34.2193643534873
 31
0.0
 11
-47.76219609168334
 21
-34.23705476735397
 31
0.0
 11
-47.58118374928334
 21
-34.25027481855398
 31
0.0
 11
-47.38642329915001
 21
-34.25848925482064
 31
0.0
 11
-47.17167470821667
 21
-34.26043914175398
 31
0.0
  0
SPLINE
  5
52
100
AcDbEntity
  8
0
100
AcDbSpline
210
0.0
220
0.0
230
1.0
 70
     8
 71
     3
 72
    35
 73
    31
 74
    29
 42
0.0000001
 43
0.0000001
 44
0.0000000001
 40
0.0
 40
0.0
 40
0.0
 40
0.0
 40
0.351667568432921
 40
0.6897122013798894
 40
1.004997155799963
 40
1.289864280156395
 40
1.544433493842503
 40
1.774521180428154
 40
1.987225304004715
 40
2.192386853374822
 40
2.400582399037126
 40
2.623146717031118
 40
2.868861436848193
 40
3.134550629086217
 40
3.407488767742014
 40
3.685544545352839
 40
3.966905879929445
 40
4.24967215928039
 40
4.531874904973822
 40
4.808485762611331
 40
5.058387649859303
 40
5.28310950848676
 40
5.483940858589908
 40
5.667131324394476
 40
5.840342942341749
 40
6.010548092859519
 40
6.183286876582917
 40
6.363874219182537
 40
6.557842141964977
 40
6.771641309463992
 40
6.771641309463992
 40
6.771641309463992
 40
6.771641309463992
 10
-52.48380118075001
 20
-30.75764064042064
 30
0.0
 10
-52.44334412560506
 20
-30.86772086136158
 30
0.0
 10
-52.36399724499928
 20
-31.08361700399393
 30
0.0
 10
-52.21903799554215
 20
-31.3861329379329
 30
0.0
 10
-52.0660572107138
 20
-31.6590907614856
 30
0.0
 10
-51.91075036254207
 20
-31.89817561529658
 30
0.0
 10
-51.75911153786029
 20
-32.10520108831823
 30
0.0
 10
-51.61261055154263
 20
-32.28578655641276
 30
0.0
 10
-51.46926818113556
 20
-32.44743154490644
 30
0.0
 10
-51.32449214999538
 20
-32.59781053275936
 30
0.0
 10
-51.17131061502811
 20
-32.74441748339419
 30
0.0
 10
-51.00190434132462
 20
-32.89334615075036
 30
0.0
 10
-50.81099985482946
 20
-33.04649748160662
 30
0.0
 10
-50.59944547330843
 20
-33.2002943852826
 30
0.0
 10
-50.37165932324597
 20
-33.34955836793183
 30
0.0
 10
-50.13238209632801
 20
-33.49022383625399
 30
0.0
 10
-49.88363792985927
 20
-33.62059641923438
 30
0.0
 10
-49.62757582093781
 20
-33.73926244276849
 30
0.0
 10
-49.36749670968956
 20
-33.84469877824392
 30
0.0
 10
-49.11294519432955
 20
-33.93374670501982
 30
0.0
 10
-48.8729890140906
 20
-34.00560945755408
 30
0.0
 10
-48.65488266623589
 20
-34.06169532798077
 30
0.0
 10
-48.45669820480273
 20
-34.10541761115396
 30
0.0
 10
-48.27414005186163
 20
-34.13981845062716
 30
0.0
 10
-48.1007575097398
 20
-34.16737451155741
 30
0.0
 10
-47.93013260817963
 20
-34.18965167967703
 30
0.0
 10
-47.75650008151142
 20
-34.20739220897111
 30
0.0
 10
-47.57452167331541
 20
-34.22051838296543
 30
0.0
 10
-47.37853879717891
 20
-34.22907428536123
 30
0.0
 10
-47.24260276461092
 20
-34.22924590102939
 30
0.0
 10
-47.17132920848334
 20
-34.22933588202064
 30
0.0
 11
-52.48380118075001
 21
-30.75764064042064
 31
0.0
 11
-52.35719515301667
 21
-31.08572750762064
 31
0.0
 11
-52.21246338448334
 21
-31.39122200682065
 31
0.0
 11
-52.05800889275001
 21
-31.6660827214873
 31
0.0
 11
-51.90293583461667
 21
-31.90504218495398
 31
0.0
 11
-51.75254586021668
 21
-32.11044018922065
 31
0.0
 11
-51.60762622715001
 21
-32.28915404842064
 31
0.0
 11
-51.46651408635001
 21
-32.44830934335397
 31
0.0
 11
-51.32421292901668
 21
-32.59609852415398
 31
0.0
 11
-51.17381141861667
 21
-32.74005952895397
 31
0.0
 11
-51.00667847035001
 21
-32.8870338574873
 31
0.0
 11
-50.81505911995001
 21
-33.04084461162063
 31
0.0
 11
-50.60019572475001
 21
-33.19712790655398
 31
0.0
 11
-50.37193021861668
 21
-33.34676107882064
 31
0.0
 11
-50.13224241915001
 21
-33.48770352895398
 31
0.0
 11
-49.88304258875
 21
-33.61833141695397
 31
0.0
 11
-49.62648810128334
 21
-33.7372286990873
 31
0.0
 11
-49.36495293115001
 21
-33.84323692735398
 31
0.0
 11
-49.10386172901668
 21
-33.93458762922064
 31
0.0
 11
-48.86448729168334
 21
-34.00635692628731
 31
0.0
 11
-48.64685266341667
 21
-34.06234873215397
 31
0.0
 11
-48.45073945061667
 21
-34.1056250414873
 31
0.0
 11
-48.27071741541668
 21
-34.13954868522063
 31
0.0
 11
-48.09965195515001
 21
-34.16673090175397
 31
0.0
 11
-47.93087826661667
 21
-34.18875895935398
 31
0.0
 11
-47.75903138448334
 21
-34.20628997482064
 31
0.0
 11
-47.57891875301667
 21
-34.21937539775397
 31
0.0
 11
-47.38512034661667
 21
-34.2274829710873
 31
0.0
 11
-47.17132920848334
 21
-34.22933588202064
 31
0.0
  0
SPLINE
  5
53
100
AcDbEntity
  8
0
100
AcDbSpline
210
0.0
220
0.0
230
1.0
 70
     8
 71
     3
 72
    10
 73
     6
 74
     4
 42
0.0000001
 43
0.0000001
 44
0.0000000001
 40
0.0
 40
0.0
 40
0.0
 40
0.0
 40
1.544071635697439
 40
3.093909218911466
 40
4.639834596590039
 40
4.639834596590039
 40
4.639834596590039
 40
4.639834596590039
 10
-40.60678094288333
 20
-33.36715897428731
 30
0.0
 10
-40.11130458992835
 20
-33.50696347969931
 30
0.0
 10
-39.11850165208562
 20
-33.78709455531756
 30
0.0
 10
-37.59784000713883
 20
-34.08249148178482
 30
0.0
 10
-36.57176826034945
 20
-34.19464804693348
 30
0.0
 10
-36.05938072528334
 20
-34.25065546175397
 30
0.0
 11
-40.60678094288333
 21
-33.36715897428731
 31
0.0
 11
-39.11507252368334
 21
-33.7658608782873
 31
0.0
 11
-37.59368434768334
 21
-34.06145274602064
 31
0.0
 11
-36.05938072528334
 21
-34.25065546175397
 31
0.0
  0
SPLINE
  5
54
100
AcDbEntity
  8
0
100
AcDbSpline
210
0.0
220
0.0
230
1.0
 70
     8
 71
     3
 72
    10
 73
     6
 74
     4
 42
0.0000001
 43
0.0000001
 44
0.0000000001
 40
0.0
 40
0.0
 40
0.0
 40
0.0
 40
1.943280308706578
 40
3.894229806163582
 40
4.626501266469011
 40
4.626501266469011
 40
4.626501266469011
 40
4.626501266469011
 10
-40.58757508155
 20
-33.30749031722064
 30
0.0
 10
-39.96298765754152
 20
-33.4804305640884
 30
0.0
 10
-38.71134786464535
 20
-33.82699356944608
 30
0.0
 10
-37.18581343341077
 20
-34.07635086237312
 30
0.0
 10
-36.29581710221148
 20
-34.16459221369326
 30
0.0
 10
-36.05293031675
 20
-34.18867395135396
 30
0.0
 11
-40.58757508155
 21
-33.30749031722064
 31
0.0
 11
-38.70573553595
 21
-33.79227715988731
 31
0.0
 11
-36.78120072208335
 21
-34.11222979988731
 31
0.0
 11
-36.05293031675
 21
-34.18867395135396
 31
0.0
  0
SPLINE
  5
55
100
AcDbEntity
  8
0
100
AcDbSpline
210
0.0
220
0.0
230
1.0
 70
     8
 71
     3
 72
     9
 73
     5
 74
     3
 42
0.0000001
 43
0.0000001
 44
0.0000000001
 40
0.0
 40
0.0
 40
0.0
 40
0.0
 40
0.1193911913252653
 40
1.321268570344249
 40
1.321268570344249
 40
1.321268570344249
 40
1.321268570344249
 10
-30.89736759888334
 20
-34.50812816682065
 30
0.0
 10
-30.85859657039041
 20
-34.49914815294824
 30
0.0
 10
-30.42952855608382
 20
-34.39976887748282
 30
0.0
 10
-30.0034202072501
 20
-34.28818784249183
 30
0.0
 10
-29.61581544848334
 20
-34.18668938495397
 30
0.0
 11
-30.89736759888334
 21
-34.50812816682065
 31
0.0
 11
-30.78107867941667
 21
-34.48108849642064
 31
0.0
 11
-29.61581544848334
 21
-34.18668938495397
 31
0.0
  0
LINE
  5
56
100
AcDbEntity
  8
0
100
AcDbLine
 10
-25.07848
 20
-33.70451
 30
0.0
 11
-29.885913
 21
-34.992657
 31
0.0
  0
LINE
  5
57
100
AcDbEntity
  8
0
100
AcDbLine
 10
-29.604078
 20
-34.321395
 30
0.0
 11
-29.943349
 21
-34.418456
 31
0.0
  0
SPLINE
  5
58
100
AcDbEntity
  8
0
100
AcDbSpline
210
0.0
220
0.0
230
1.0
 70
     8
 71
     3
 72
    16
 73
    12
 74
    10
 42
0.0000001
 43
0.0000001
 44
0.0000000001
 40
0.0
 40
0.0
 40
0.0
 40
0.0
 40
0.0130541863393074
 40
0.0253983447548571
 40
0.0373688065381978
 40
0.0493728445292991
 40
0.0619930642760737
 40
0.0755309125248037
 40
0.0906375358047029
 40
0.1052171275683137
 40
0.1155789555464166
 40
0.1155789555464166
 40
0.1155789555464166
 40
0.1155789555464166
 10
-29.61758206821667
 20
-34.03033074388731
 30
0.0
 10
-29.62188333464507
 20
-34.03098934059608
 30
0.0
 10
-29.63025191808577
 20
-34.03227071239733
 30
0.0
 10
-29.64256637621009
 20
-34.03414497244211
 30
0.0
 10
-29.65453775930603
 20
-34.03594682443634
 30
0.0
 10
-29.66660514262493
 20
-34.03772900703986
 30
0.0
 10
-29.67919763262493
 20
-34.03953065668956
 30
0.0
 10
-29.69282745591687
 20
-34.04138395620432
 30
0.0
 10
-29.70712746912152
 20
-34.04314425808245
 30
0.0
 10
-29.72040340104887
 20
-34.04456741467191
 30
0.0
 10
-29.72869699826782
 20
-34.04515373657905
 30
0.0
 10
-29.73214254501667
 20
-34.04539732202064
 30
0.0
 11
-29.61758206821667
 21
-34.03033074388731
 31
0.0
 11
-29.63048617061668
 21
-34.03230455295398
 31
0.0
 11
-29.64269003941667
 21
-34.03416030975398
 31
0.0
 11
-29.65452750928335
 21
-34.03593970922063
 31
0.0
 11
-29.66640321701667
 21
-34.03769027882064
 31
0.0
 11
-29.67889684048333
 21
-34.03947334335397
 31
0.0
 11
-29.69231269115001
 21
-34.04128670655397
 31
0.0
 11
-29.70730694608334
 21
-34.04312583295396
 31
0.0
 11
-29.72181030821667
 21
-34.04461478655397
 31
0.0
 11
-29.73214254501667
 21
-34.04539732202064
 31
0.0
  0
SPLINE
  5
59
100
AcDbEntity
  8
0
100
AcDbSpline
210
0.0
220
0.0
230
-1.0
 70
     8
 71
     3
 72
     9
 73
     5
 74
     3
 42
0.0000001
 43
0.0000001
 44
0.0000000001
 40
0.0
 40
0.0
 40
0.0
 40
0.0
 40
0.1023089128730041
 40
0.1831552847746357
 40
0.1831552847746357
 40
0.1831552847746357
 40
0.1831552847746357
 10
-29.56941095248334
 20
-33.96189222975397
 30
0.0
 10
-29.60091085814709
 20
-33.97513665088203
 30
0.0
 10
-29.65730256469744
 20
-33.99884705553072
 30
0.0
 10
-29.70921971087897
 20
-34.03114496848132
 30
0.0
 10
-29.73213640101667
 20
-34.04540155455396
 30
0.0
 11
-29.56941095248334
 21
-33.96189222975397
 31
0.0
 11
-29.66251449915001
 21
-34.00430500202063
 31
0.0
 11
-29.73213640101667
 21
-34.04540155455396
 31
0.0
  0
SPLINE
  5
5A
100
AcDbEntity
  8
0
100
AcDbSpline
210
0.0
220
0.0
230
-1.0
 70
     8
 71
     3
 72
    10
 73
     6
 74
     4
 42
0.0000001
 43
0.0000001
 44
0.0000000001
 40
0.0
 40
0.0
 40
0.0
 40
0.0
 40
0.0531420464699266
 40
0.1066877444365675
 40
0.1606461400461978
 40
0.1606461400461978
 40
0.1606461400461978
 40
0.1606461400461978
 10
-29.57176210128334
 20
-34.03616270335397
 30
0.0
 10
-29.58944804588297
 20
-34.03715956948836
 30
0.0
 10
-29.62495427236281
 20
-34.03916087366174
 30
0.0
 10
-29.67841446989087
 20
-34.04223884613969
 30
0.0
 10
-29.71418741037457
 20
-34.04434180570866
 30
0.0
 10
-29.73214254501667
 20
-34.04539732202064
 30
0.0
 11
-29.57176210128334
 21
-34.03616270335397
 31
0.0
 11
-29.62481933221667
 21
-34.03916392788731
 31
0.0
 11
-29.67827650555001
 21
-34.0422416526873
 31
0.0
 11
-29.73214254501667
 21
-34.04539732202064
 31
0.0
  0
LINE
  5
5B
100
AcDbEntity
  8
0
100
AcDbLine
 10
-47.171329
 20
-34.229336
 30
0.0
 11
-36.059381
 21
-34.250655
 31
0.0
  0
LINE
  5
5C
100
AcDbEntity
  8
0
100
AcDbLine
 10
-47.171671
 20
-34.260373
 30
0.0
 11
-36.059926
 21
-34.281718
 31
0.0
  0
LINE
  5
5D
100
AcDbEntity
  8
0
100
AcDbLine
 10
-52.119525
 20
-35.265398
 30
0.0
 11
-35.903794
 21
-35.265398
 31
0.0
  0
SPLINE
  5
5E
100
AcDbEntity
  8
0
100
AcDbSpline
210
0.0
220
0.0
230
1.0
 70
     8
 71
     3
 72
    27
 73
    23
 74
    21
 42
0.0000001
 43
0.0000001
 44
0.0000000001
 40
0.0
 40
0.0
 40
0.0
 40
0.0
 40
0.0167525859473551
 40
0.0349399019328829
 40
0.0573713899781352
 40
0.0835702989002385
 40
0.1094340755864695
 40
0.1370836877333942
 40
0.1666812835719879
 40
0.1982177515920549
 40
0.2319716219105689
 40
0.2683620049200434
 40
0.3078073678210959
 40
0.3507078375714721
 40
0.3974571294412094
 40
0.4484309598427257
 40
0.5039909365012792
 40
0.5645165755706565
 40
0.6306145091721819
 40
0.7030021729712069
 40
0.7824024121950366
 40
0.8695384994284635
 40
0.8695384994284635
 40
0.8695384994284635
 40
0.8695384994284635
 10
-52.13400821008335
 20
-35.26525925802064
 30
0.0
 10
-52.13959240459419
 20
-35.26526225747471
 30
0.0
 10
-52.15123903689301
 20
-35.26526851326302
 30
0.0
 10
-52.17036283032527
 20
-35.26527963122802
 30
0.0
 10
-52.1926353981465
 20
-35.26529151369072
 30
0.0
 10
-52.21746678620352
 20
-35.26530405023949
 30
0.0
 10
-52.24403754923596
 20
-35.2653164486611
 30
0.0
 10
-52.27174120824713
 20
-35.26532834158089
 30
0.0
 10
-52.30133576468618
 20
-35.26533985126131
 30
0.0
 10
-52.33296507419657
 20
-35.26535079243126
 30
0.0
 10
-52.36685864646724
 20
-35.26536095889054
 30
0.0
 10
-52.40338851741238
 20
-35.26537011379208
 30
0.0
 10
-52.44296725521604
 20
-35.26537792197276
 30
0.0
 10
-52.48599896299737
 20
-35.26538392302398
 30
0.0
 10
-52.53287349356837
 20
-35.26538750296255
 30
0.0
 10
-52.5839678599202
 20
-35.26538789735734
 30
0.0
 10
-52.63965434189537
 20
-35.26538416034807
 30
0.0
 10
-52.70038219106937
 20
-35.26537512246531
 30
0.0
 10
-52.76671926813112
 20
-35.2653593793227
 30
0.0
 10
-52.83934787630908
 20
-35.2653349147595
 30
0.0
 10
-52.91898919911096
 20
-35.26530024522082
 30
0.0
 10
-52.97450129848222
 20
-35.26526773701586
 30
0.0
 10
-53.00354665595001
 20
-35.26525072788731
 30
0.0
 11
-52.13400821008335
 21
-35.26525925802064
 31
0.0
 11
-52.15076079355
 21
-35.26526837482064
 31
0.0
 11
-52.16894810661667
 21
-35.26527867882064
 31
0.0
 11
-52.19137959141668
 21
-35.26529074495398
 31
0.0
 11
-52.21757849701667
 21
-35.26530393855397
 31
0.0
 11
-52.24344227088334
 21
-35.26531601535396
 31
0.0
 11
-52.27109188048334
 21
-35.26532788308731
 31
0.0
 11
-52.30068947408334
 21
-35.26533939455397
 31
0.0
 11
-52.33222594021667
 21
-35.26535030335397
 31
0.0
 11
-52.36597980901667
 21
-35.26536042815397
 31
0.0
 11
-52.40237019088334
 21
-35.26536954815397
 31
0.0
 11
-52.44181555301667
 21
-35.26537733055398
 31
0.0
 11
-52.48471602235
 21
-35.26538331242064
 31
0.0
 11
-52.53146531408334
 21
-35.26538688362064
 31
0.0
 11
-52.58243914448334
 21
-35.26538727722064
 31
0.0
 11
-52.63799912101667
 21
-35.26538354708732
 31
0.0
 11
-52.69852475941668
 21
-35.26537454548731
 31
0.0
 11
-52.76462269115
 21
-35.2653588302873
 31
0.0
 11
-52.83701035088334
 21
-35.26533456895396
 31
0.0
 11
-52.91641058235001
 21
-35.26529947135397
 31
0.0
 11
-53.00354665595001
 21
-35.26525072788731
 31
0.0
  0
SPLINE
  5
5F
100
AcDbEntity
  8
0
100
AcDbSpline
210
0.0
220
0.0
230
1.0
 70
     8
 71
     3
 72
     9
 73
     5
 74
     3
 42
0.0000001
 43
0.0000001
 44
0.0000000001
 40
0.0
 40
0.0
 40
0.0
 40
0.0
 40
0.3772506113975215
 40
0.4582817443205817
 40
0.4582817443205817
 40
0.4582817443205817
 40
0.4582817443205817
 10
-52.32180115941667
 20
-35.26111994922064
 30
0.0
 10
-52.44740558938994
 20
-35.25363767869925
 30
0.0
 10
-52.59998908567457
 20
-35.2445482620557
 30
0.0
 10
-52.75150916909218
 20
-35.22499865361263
 30
0.0
 10
-52.77830020795001
 20
-35.22154198762065
 30
0.0
 11
-52.32180115941667
 21
-35.26111994922064
 31
0.0
 11
-52.69789384528333
 21
-35.23158496255397
 31
0.0
 11
-52.77830020795001
 21
-35.22154198762065
 31
0.0
  0
LINE
  5
60
100
AcDbEntity
  8
0
100
AcDbLine
 10
-53.003547
 20
-35.265251
 30
0.0
 11
-52.778333
 21
-35.221543
 31
0.0
  0
SPLINE
  5
61
100
AcDbEntity
  8
0
100
AcDbSpline
210
0.0
220
0.0
230
1.0
 70
     8
 71
     3
 72
     9
 73
     5
 74
     3
 42
0.0000001
 43
0.0000001
 44
0.0000000001
 40
0.0
 40
0.0
 40
0.0
 40
0.0
 40
0.1160732216910713
 40
0.4697787878902561
 40
0.4697787878902561
 40
0.4697787878902561
 40
0.4697787878902561
 10
-32.97065069968334
 20
-34.92633946602064
 30
0.0
 10
-32.93254491666637
 20
-34.91963467542465
 30
0.0
 10
-32.77832081315208
 20
-34.89249862842471
 30
0.0
 10
-32.62431418341788
 20
-34.86414985234804
 30
0.0
 10
-32.50835960315001
 20
-34.84280550868731
 30
0.0
 11
-32.97065069968334
 21
-34.92633946602064
 31
0.0
 11
-32.85634662715001
 21
-34.90615105855398
 31
0.0
 11
-32.50835960315001
 21
-34.84280550868731
 31
0.0
  0
LINE
  5
62
100
AcDbEntity
  8
0
100
AcDbLine
 10
-31.956465
 20
-35.265251
 30
0.0
 11
-33.467821
 21
-35.265251
 31
0.0
  0
SPLINE
  5
63
100
AcDbEntity
  8
0
100
AcDbSpline
210
0.0
220
0.0
230
1.0
 70
     8
 71
     3
 72
     9
 73
     5
 74
     3
 42
0.0000001
 43
0.0000001
 44
0.0000000001
 40
0.0
 40
0.0
 40
0.0
 40
0.0
 40
0.1585221052674907
 40
0.6338343221584904
 40
0.6338343221584904
 40
0.6338343221584904
 40
0.6338343221584904
 10
-32.83315721381667
 20
-35.21503114495397
 30
0.0
 10
-32.88543858381784
 20
-35.22285784589886
 30
0.0
 10
-33.09448026075171
 20
-35.25415210407038
 30
0.0
 10
-33.30600396424996
 20
-35.26049453805564
 30
0.0
 10
-33.46462554235
 20
-35.26525072788731
 30
0.0
 11
-32.83315721381667
 21
-35.21503114495397
 31
0.0
 11
-32.99015657488334
 21
-35.23695050815397
 31
0.0
 11
-33.46462554235
 21
-35.26525072788731
 31
0.0
  0
SPLINE
  5
64
100
AcDbEntity
  8
0
100
AcDbSpline
210
-0.1608206112810055
220
0.9869836528469983
230
0.0
 70
    24
 71
     3
 72
     8
 73
     4
 74
     2
 42
0.0000001
 43
0.0000001
 44
0.0000000001
 40
0.0
 40
0.0
 40
0.0
 40
0.0
 40
0.610310135528366
 40
0.610310135528366
 40
0.610310135528366
 40
0.610310135528366
 10
-33.57301682661667
 20
-35.0244899150873
 30
0.0
 10
-33.37222811763889
 20
-34.99177309873175
 30
0.0
 10
-33.17143940866111
 20
-34.95905628237619
 30
0.0
 10
-32.97065069968334
 20
-34.92633946602064
 30
0.0
 11
-33.57301682661667
 21
-35.0244899150873
 31
0.0
 11
-32.97065069968334
 21
-34.92633946602064
 31
0.0
  0
SPLINE
  5
65
100
AcDbEntity
  8
0
100
AcDbSpline
210
0.0
220
0.0
230
1.0
 70
     8
 71
     3
 72
    10
 73
     6
 74
     4
 42
0.0000001
 43
0.0000001
 44
0.0000000001
 40
0.0
 40
0.0
 40
0.0
 40
0.0
 40
0.7790342378127164
 40
1.560279115153435
 40
2.343933643062264
 40
2.343933643062264
 40
2.343933643062264
 40
2.343933643062264
 10
-35.90379311035
 20
-35.26525072788731
 30
0.0
 10
-35.64465913503651
 20
-35.24824194750459
 30
0.0
 10
-35.12565584855256
 20
-35.21417612148916
 30
0.0
 10
-34.34822916697292
 20
-35.13387366534776
 30
0.0
 10
-33.83168599111657
 20
-35.0609890724706
 30
0.0
 10
-33.57301671355
 20
-35.02449066175397
 30
0.0
 11
-35.90379311035
 21
-35.26525072788731
 31
0.0
 11
-35.12676413861667
 21
-35.20939089642065
 31
0.0
 11
-34.34965059408333
 21
-35.12915314175396
 31
0.0
 11
-33.57301671355
 21
-35.02449066175397
 31
0.0
  0
SPLINE
  5
66
100
AcDbEntity
  8
0
100
AcDbSpline
210
0.0
220
0.0
230
1.0
 70
     8
 71
     3
 72
    10
 73
     6
 74
     4
 42
0.0000001
 43
0.0000001
 44
0.0000000001
 40
0.0
 40
0.0
 40
0.0
 40
0.0
 40
0.188830656853552
 40
0.3767666558154838
 40
0.56421374071864
 40
0.56421374071864
 40
0.56421374071864
 40
0.56421374071864
 10
-35.05186869435001
 20
-34.2718495438873
 30
0.0
 10
-35.11478887967913
 20
-34.27357328914229
 30
0.0
 10
-35.2403311417501
 20
-34.27701261274588
 30
0.0
 10
-35.42837747023386
 20
-34.28031155304287
 30
0.0
 10
-35.55350136649099
 20
-34.28133417615212
 30
0.0
 10
-35.61598183141667
 20
-34.28184482175397
 30
0.0
 11
-35.05186869435001
 21
-34.2718495438873
 31
0.0
 11
-35.24063678181667
 21
-34.27671021482064
 31
0.0
 11
-35.42854362341667
 21
-34.28002059028731
 31
0.0
 11
-35.61598183141667
 21
-34.28184482175397
 31
0.0
  0
SPLINE
  5
67
100
AcDbEntity
  8
0
100
AcDbSpline
210
0.0
220
0.0
230
1.0
 70
     8
 71
     3
 72
     9
 73
     5
 74
     3
 42
0.0000001
 43
0.0000001
 44
0.0000000001
 40
0.0
 40
0.0
 40
0.0
 40
0.0
 40
0.1488058409175155
 40
0.3085665299421576
 40
0.3085665299421576
 40
0.3085665299421576
 40
0.3085665299421576
 10
-35.92454738448334
 20
-34.28190250815397
 30
0.0
 10
-35.87494543798595
 20
-34.28192962796428
 30
0.0
 10
-35.77208992899046
 20
-34.281985864102
 30
0.0
 10
-35.66923444533058
 20
-34.28189292505595
 30
0.0
 10
-35.61598089595001
 20
-34.28184480575397
 30
0.0
 11
-35.92454738448334
 21
-34.28190250815397
 31
0.0
 11
-35.77574155088333
 21
-34.28194917482064
 31
0.0
 11
-35.61598089595001
 21
-34.28184480575397
 31
0.0
  0
SPLINE
  5
68
100
AcDbEntity
  8
0
100
AcDbSpline
210
0.0013634030739882
220
0.9999990705655969
230
0.0
 70
    24
 71
     3
 72
     8
 73
     4
 74
     2
 42
0.0000001
 43
0.0000001
 44
0.0000000001
 40
0.0
 40
0.0
 40
0.0
 40
0.0
 40
0.1353788938258038
 40
0.1353788938258038
 40
0.1353788938258038
 40
0.1353788938258038
 10
-36.05992615248334
 20
-34.28171793215397
 30
0.0
 10
-36.01479989648334
 20
-34.2817794574873
 30
0.0
 10
-35.96967364048334
 20
-34.28184098282064
 30
0.0
 10
-35.92454738448334
 20
-34.28190250815397
 30
0.0
 11
-36.05992615248334
 21
-34.28171793215397
 31
0.0
 11
-35.92454738448334
 21
-34.28190250815397
 31
0.0
  0
SPLINE
  5
69
100
AcDbEntity
  8
0
100
AcDbSpline
210
0.0
220
0.0
230
1.0
 70
     8
 71
     3
 72
    10
 73
     6
 74
     4
 42
0.0000001
 43
0.0000001
 44
0.0000000001
 40
0.0
 40
0.0
 40
0.0
 40
0.0
 40
0.014626457996769
 40
0.0258525325037994
 40
0.0310708094005787
 40
0.0310708094005787
 40
0.0310708094005787
 40
0.0310708094005787
 10
-36.05938076475001
 20
-34.25065546175397
 30
0.0
 10
-36.05941053348164
 20
-34.25553051501732
 30
0.0
 10
-36.05946315026026
 20
-34.26414726098387
 30
0.0
 10
-36.05953465978347
 20
-34.27450707775739
 30
0.0
 10
-36.05983184641472
 20
-34.27998092063433
 30
0.0
 10
-36.05992615248334
 20
-34.28171793215397
 30
0.0
 11
-36.05938076475001
 21
-34.25065546175397
 31
0.0
 11
-36.05947227408334
 21
-34.26528163348731
 31
0.0
 11
-36.05966934928334
 21
-34.27650597802064
 31
0.0
 11
-36.05992615248334
 21
-34.28171793215397
 31
0.0
  0
SPLINE
  5
6A
100
AcDbEntity
  8
0
100
AcDbSpline
210
0.0
220
0.0
230
1.0
 70
     8
 71
     3
 72
    11
 73
     7
 74
     5
 42
0.0000001
 43
0.0000001
 44
0.0000000001
 40
0.0
 40
0.0
 40
0.0
 40
0.0
 40
0.1616535934887133
 40
0.3337676967531403
 40
0.5189356181080518
 40
0.7206015052458275
 40
0.7206015052458275
 40
0.7206015052458275
 40
0.7206015052458275
 10
-35.77234394875
 20
-34.25860941375398
 30
0.0
 10
-35.71847492761886
 20
-34.25990410607266
 30
0.0
 10
-35.60725105240979
 20
-34.26257726949505
 30
0.0
 10
-35.43430705961098
 20
-34.26605205082006
 30
0.0
 10
-35.24801874355447
 20
-34.26928722432992
 30
0.0
 10
-35.11908499705779
 20
-34.27097149339636
 30
0.0
 10
-35.05186869435001
 20
-34.2718495438873
 30
0.0
 11
-35.77234394875
 21
-34.25860941375398
 31
0.0
 11
-35.61073458555
 21
-34.26239068522064
 31
0.0
 11
-35.43865604581668
 21
-34.26588935722064
 31
0.0
 11
-35.25351535141667
 21
-34.26906463295397
 31
0.0
 11
-35.05186869435001
 21
-34.2718495438873
 31
0.0
  0
SPLINE
  5
6B
100
AcDbEntity
  8
0
100
AcDbSpline
210
0.0263531314928764
220
0.9996526959201977
230
0.0
 70
    24
 71
     3
 72
     8
 73
     4
 74
     2
 42
0.0000001
 43
0.0000001
 44
0.0000000001
 40
0.0
 40
0.0
 40
0.0
 40
0.0
 40
0.1504402111657673
 40
0.1504402111657673
 40
0.1504402111657673
 40
0.1504402111657673
 10
-35.92273191141666
 20
-34.25464484308731
 30
0.0
 10
-35.87260259052778
 20
-34.25596636664286
 30
0.0
 10
-35.82247326963889
 20
-34.25728789019842
 30
0.0
 10
-35.77234394875
 20
-34.25860941375398
 30
0.0
 11
-35.92273191141666
 21
-34.25464484308731
 31
0.0
 11
-35.77234394875
 21
-34.25860941375398
 31
0.0
  0
SPLINE
  5
6C
100
AcDbEntity
  8
0
100
AcDbSpline
210
0.0291819664713345
220
0.9995741157277262
230
0.0
 70
    24
 71
     3
 72
     8
 73
     4
 74
     2
 42
0.0000001
 43
0.0000001
 44
0.0000000001
 40
0.0
 40
0.0
 40
0.0
 40
0.0
 40
0.136707076860618
 40
0.136707076860618
 40
0.136707076860618
 40
0.136707076860618
 10
-36.05938076688334
 20
-34.25065546175397
 30
0.0
 10
-36.01383114839445
 20
-34.25198525553175
 30
0.0
 10
-35.96828152990556
 20
-34.25331504930953
 30
0.0
 10
-35.92273191141666
 20
-34.25464484308731
 30
0.0
 11
-36.05938076688334
 21
-34.25065546175397
 31
0.0
 11
-35.92273191141666
 21
-34.25464484308731
 31
0.0
  0
SPLINE
  5
6D
100
AcDbEntity
  8
0
100
AcDbSpline
210
0.0382434017332229
220
0.9992684535318183
230
0.0
 70
    24
 71
     3
 72
     8
 73
     4
 74
     2
 42
0.0000001
 43
0.0000001
 44
0.0000000001
 40
0.0
 40
0.0
 40
0.0
 40
0.0
 40
0.2067401584327342
 40
0.2067401584327342
 40
0.2067401584327342
 40
0.2067401584327342
 10
-35.05024478501667
 20
-34.25450089962064
 30
0.0
 10
-34.98138181221667
 20
-34.25713638193176
 30
0.0
 10
-34.91251883941667
 20
-34.25977186424286
 30
0.0
 10
-34.84365586661667
 20
-34.26240734655397
 30
0.0
 11
-35.05024478501667
 21
-34.25450089962064
 31
0.0
 11
-34.84365586661667
 21
-34.26240734655397
 31
0.0
  0
SPLINE
  5
6E
100
AcDbEntity
  8
0
100
AcDbSpline
210
0.0555593582762245
220
0.9984553859376664
230
0.0
 70
    24
 71
     3
 72
     8
 73
     4
 74
     2
 42
0.0000001
 43
0.0000001
 44
0.0000000001
 40
0.0
 40
0.0
 40
0.0
 40
0.0
 40
0.561879261542048
 40
0.561879261542048
 40
0.561879261542048
 40
0.561879261542048
 10
-35.61125615995001
 20
-34.22328324842065
 30
0.0
 10
-35.42425236830556
 20
-34.23368913215398
 30
0.0
 10
-35.23724857666111
 20
-34.24409501588732
 30
0.0
 10
-35.05024478501667
 20
-34.25450089962064
 30
0.0
 11
-35.61125615995001
 21
-34.22328324842065
 31
0.0
 11
-35.05024478501667
 21
-34.25450089962064
 31
0.0
  0
SPLINE
  5
6F
100
AcDbEntity
  8
0
100
AcDbSpline
210
0.0781198754443847
220
0.9969439728793961
230
0.0
 70
    24
 71
     3
 72
     8
 73
     4
 74
     2
 42
0.0000001
 43
0.0000001
 44
0.0000000001
 40
0.0
 40
0.0
 40
0.0
 40
0.0
 40
0.4430280625744139
 40
0.4430280625744139
 40
0.4430280625744139
 40
0.4430280625744139
 10
-36.05293031675
 20
-34.18867395135396
 30
0.0
 10
-35.90570559781667
 20
-34.20021038370953
 30
0.0
 10
-35.75848087888334
 20
-34.21174681606508
 30
0.0
 10
-35.61125615995001
 20
-34.22328324842065
 30
0.0
 11
-36.05293031675
 21
-34.18867395135396
 31
0.0
 11
-35.61125615995001
 21
-34.22328324842065
 31
0.0
  0
SPLINE
  5
70
100
AcDbEntity
  8
0
100
AcDbSpline
210
0.0
220
0.0
230
1.0
 70
     8
 71
     3
 72
    24
 73
    20
 74
    18
 42
0.0000001
 43
0.0000001
 44
0.0000000001
 40
0.0
 40
0.0
 40
0.0
 40
0.0
 40
0.0041636133863636
 40
0.0114237581967648
 40
0.0197237325736921
 40
0.0288135501310944
 40
0.0385834401177317
 40
0.0489106695083283
 40
0.059722704375415
 40
0.0710770887912787
 40
0.0830372556159185
 40
0.0956674343881866
 40
0.1090336340558901
 40
0.1232029749335748
 40
0.1382432381958263
 40
0.1542224187293311
 40
0.1712082364033829
 40
0.189267581202717
 40
0.2084227190205209
 40
0.2084227190205209
 40
0.2084227190205209
 40
0.2084227190205209
 10
-34.84365586661667
 20
-34.26240734655397
 30
0.0
 10
-34.84501611257793
 20
-34.26269050332774
 30
0.0
 10
-34.84874823645871
 20
-34.2634674041144
 30
0.0
 10
-34.85533477829277
 20
-34.26378047223872
 30
0.0
 10
-34.86352184164768
 20
-34.26440011770685
 30
0.0
 10
-34.87256327115151
 20
-34.26490567413245
 30
0.0
 10
-34.88227726879667
 20
-34.2654330676701
 30
0.0
 10
-34.8925678481848
 20
-34.26594454250235
 30
0.0
 10
-34.90338701508493
 20
-34.26645420657218
 30
0.0
 10
-34.914751234911
 20
-34.2669619345547
 30
0.0
 10
-34.92672192659432
 20
-34.26747258436011
 30
0.0
 10
-34.93936358357418
 20
-34.26798873724065
 30
0.0
 10
-34.95274190988638
 20
-34.26851258565898
 30
0.0
 10
-34.96692383663272
 20
-34.26904561795451
 30
0.0
 10
-34.98197697331853
 20
-34.26958879468628
 30
0.0
 10
-34.99796914253977
 20
-34.27014272425665
 30
0.0
 10
-35.01496790220552
 20
-34.27070688305231
 30
0.0
 10
-35.03302550691823
 20
-34.27128246589286
 30
0.0
 10
-35.04542472257419
 20
-34.27165562718019
 30
0.0
 10
-35.05180687995001
 20
-34.27184770175397
 30
0.0
 11
-34.84365586661667
 21
-34.26240734655397
 31
0.0
 11
-34.84774759355
 21
-34.26317770175396
 31
0.0
 11
-34.85498141755001
 21
-34.26379535295397
 31
0.0
 11
-34.86326254181667
 21
-34.26435441962065
 31
0.0
 11
-34.87233653008334
 21
-34.26489062868732
 31
0.0
 11
-34.88209229648334
 21
-34.26541576895397
 31
0.0
 11
-34.89240660688334
 21
-34.2659321678873
 31
0.0
 11
-34.90320664101667
 21
-34.26644144255397
 31
0.0
 11
-34.91454966608333
 21
-34.26694921002065
 31
0.0
 11
-34.92649894075
 21
-34.26745952895397
 31
0.0
 11
-34.93911858341667
 21
-34.26797531455397
 31
0.0
 11
-34.95247453115001
 21
-34.26849872042064
 31
0.0
 11
-34.96663386021668
 21
-34.2690312814873
 31
0.0
 11
-34.98166432848334
 21
-34.26957399935397
 31
0.0
 11
-34.99763392421667
 21
-34.27012737322064
 31
0.0
 11
-35.01461037435
 21
-34.27069141482064
 31
0.0
 11
-35.03266058768334
 21
-34.27126563882064
 31
0.0
 11
-35.05180687995001
 21
-34.27184770175397
 31
0.0
  0
SPLINE
  5
71
100
AcDbEntity
  8
0
100
AcDbSpline
210
0.0
220
0.0
230
1.0
 70
     8
 71
     3
 72
     9
 73
     5
 74
     3
 42
0.0000001
 43
0.0000001
 44
0.0000000001
 40
0.0
 40
0.0
 40
0.0
 40
0.0
 40
0.6126589743579921
 40
1.645475612646888
 40
1.645475612646888
 40
1.645475612646888
 40
1.645475612646888
 10
-32.50835960315001
 20
-34.84280550868731
 30
0.0
 10
-32.30771058901825
 20
-34.80472924314801
 30
0.0
 10
-31.76880873125726
 20
-34.70246424910097
 30
0.0
 10
-31.23341714705742
 20
-34.58306903226536
 30
0.0
 10
-30.89736759888334
 20
-34.50812816682065
 30
0.0
 11
-32.50835960315001
 21
-34.84280550868731
 31
0.0
 11
-31.90689918715001
 21
-34.72620196308731
 31
0.0
 11
-30.89736759888334
 21
-34.50812816682065
 31
0.0
  0
LINE
  5
72
100
AcDbEntity
  8
0
100
AcDbLine
 10
-29.943349
 20
-34.418456
 30
0.0
 11
-32.364586
 21
-35.111016
 31
0.0
  0
SPLINE
  5
73
100
AcDbEntity
  8
0
100
AcDbSpline
210
-0.0747654294205773
220
0.9972011484969101
230
0.0
 70
    24
 71
     3
 72
     8
 73
     4
 74
     2
 42
0.0000001
 43
0.0000001
 44
0.0000000001
 40
0.0
 40
0.0
 40
0.0
 40
0.0
 40
1.196246862930376
 40
1.196246862930376
 40
1.196246862930376
 40
1.196246862930376
 10
-30.76356618448334
 20
-35.1758128174873
 30
0.0
 10
-31.16119909968334
 20
-35.20562545428731
 30
0.0
 10
-31.55883201488334
 20
-35.23543809108731
 30
0.0
 10
-31.95646493008334
 20
-35.26525072788731
 30
0.0
 11
-30.76356618448334
 21
-35.1758128174873
 31
0.0
 11
-31.95646493008334
 21
-35.26525072788731
 31
0.0
  0
SPLINE
  5
74
100
AcDbEntity
  8
0
100
AcDbSpline
210
-0.2042866685043553
220
0.978911107849631
230
0.0
 70
    24
 71
     3
 72
     8
 73
     4
 74
     2
 42
0.0000001
 43
0.0000001
 44
0.0000000001
 40
0.0
 40
0.0
 40
0.0
 40
0.0
 40
0.8965610962653602
 40
0.8965610962653602
 40
0.8965610962653602
 40
0.8965610962653602
 10
-29.88591256848334
 20
-34.99265733802064
 30
0.0
 10
-30.17846377381667
 20
-35.05370916450953
 30
0.0
 10
-30.47101497915001
 20
-35.11476099099842
 30
0.0
 10
-30.76356618448334
 20
-35.1758128174873
 30
0.0
 11
-29.88591256848334
 21
-34.99265733802064
 31
0.0
 11
-30.76356618448334
 21
-35.1758128174873
 31
0.0
  0
SPLINE
  5
75
100
AcDbEntity
  8
0
100
AcDbSpline
210
-0.2167079137776883
220
0.9762364877969488
230
0.0
 70
    24
 71
     3
 72
     8
 73
     4
 74
     2
 42
0.0000001
 43
0.0000001
 44
0.0000000001
 40
0.0
 40
0.0
 40
0.0
 40
0.0
 40
0.4799775589800098
 40
0.4799775589800098
 40
0.4799775589800098
 40
0.4799775589800098
 10
-32.36458560741667
 20
-35.11101620948731
 30
0.0
 10
-32.52077614288334
 20
-35.14568785464286
 30
0.0
 10
-32.67696667835
 20
-35.18035949979842
 30
0.0
 10
-32.83315721381667
 20
-35.21503114495397
 30
0.0
 11
-32.36458560741667
 21
-35.11101620948731
 31
0.0
 11
-32.83315721381667
 21
-35.21503114495397
 31
0.0
  0
SPLINE
  5
76
100
AcDbEntity
  8
0
100
AcDbSpline
210
0.0
220
0.0
230
-1.0
 70
     8
 71
     3
 72
     9
 73
     5
 74
     3
 42
0.0000001
 43
0.0000001
 44
0.0000000001
 40
0.0
 40
0.0
 40
0.0
 40
0.0
 40
0.0698650269470987
 40
0.2808281538769636
 40
0.2808281538769636
 40
0.2808281538769636
 40
0.2808281538769636
 10
-27.14563804048334
 20
-33.62339213802064
 30
0.0
 10
-27.16863114179427
 20
-33.62708932102702
 30
0.0
 10
-27.26105378120647
 20
-33.64195044859824
 30
0.0
 10
-27.35329007725008
 20
-33.65793418917458
 30
0.0
 10
-27.42257963088334
 20
-33.6699414606873
 30
0.0
 11
-27.14563804048334
 21
-33.62339213802064
 31
0.0
 11
-27.21460581115
 21
-33.63455316842064
 31
0.0
 11
-27.42257963088334
 21
-33.6699414606873
 31
0.0
  0
SPLINE
  5
77
100
AcDbEntity
  8
0
100
AcDbSpline
210
0.0
220
0.0
230
-1.0
 70
     8
 71
     3
 72
     9
 73
     5
 74
     3
 42
0.0000001
 43
0.0000001
 44
0.0000000001
 40
0.0
 40
0.0
 40
0.0
 40
0.0
 40
1.123703040032459
 40
1.470302034953218
 40
1.470302034953218
 40
1.470302034953218
 40
1.470302034953218
 10
-28.85857180581667
 20
-33.98468256468731
 30
0.0
 10
-28.4946727475198
 20
-33.89522540805467
 30
0.0
 10
-28.01853135885186
 20
-33.77817576526445
 30
0.0
 10
-27.5362656636055
 20
-33.69058865091152
 30
0.0
 10
-27.42257963088334
 20
-33.6699414606873
 30
0.0
 11
-28.85857180581667
 21
-33.98468256468731
 31
0.0
 11
-27.76329740048334
 21
-33.73352026815397
 31
0.0
 11
-27.42257963088334
 21
-33.6699414606873
 31
0.0
  0
SPLINE
  5
78
100
AcDbEntity
  8
0
100
AcDbSpline
210
0.0
220
0.0
230
-1.0
 70
     8
 71
     3
 72
     9
 73
     5
 74
     3
 42
0.0000001
 43
0.0000001
 44
0.0000000001
 40
0.0
 40
0.0
 40
0.0
 40
0.0
 40
0.1961343403920993
 40
0.783726357195666
 40
0.783726357195666
 40
0.783726357195666
 40
0.783726357195666
 10
-29.61581544848334
 20
-34.18668938495397
 30
0.0
 10
-29.55271283779438
 20
-34.16959054515078
 30
0.0
 10
-29.30056332075455
 20
-34.10126588867081
 30
0.0
 10
-29.04795939851334
 20
-34.03463699668792
 30
0.0
 10
-28.85857180581667
 20
-33.98468256468731
 30
0.0
 11
-29.61581544848334
 21
-34.18668938495397
 31
0.0
 11
-29.42647915728334
 21
-34.1354990702873
 31
0.0
 11
-28.85857180581667
 21
-33.98468256468731
 31
0.0
  0
SPLINE
  5
79
100
AcDbEntity
  8
0
100
AcDbSpline
210
-0.2437558150376586
220
0.9698366370865388
230
0.0
 70
    24
 71
     3
 72
     8
 73
     4
 74
     2
 42
0.0000001
 43
0.0000001
 44
0.0000000001
 40
0.0
 40
0.0
 40
0.0
 40
0.0
 40
0.0799881274503896
 40
0.0799881274503896
 40
0.0799881274503896
 40
0.0799881274503896
 10
-28.76026110288334
 20
-33.92008578282064
 30
0.0
 10
-28.78611957506111
 20
-33.92658497322064
 30
0.0
 10
-28.81197804723889
 20
-33.93308416362065
 30
0.0
 10
-28.83783651941667
 20
-33.93958335402064
 30
0.0
 11
-28.76026110288334
 21
-33.92008578282064
 31
0.0
 11
-28.83783651941667
 21
-33.93958335402064
 31
0.0
  0
SPLINE
  5
7A
100
AcDbEntity
  8
0
100
AcDbSpline
210
-0.2500338738086053
220
0.9682370897400399
230
0.0
 70
    24
 71
     3
 72
     8
 73
     4
 74
     2
 42
0.0000001
 43
0.0000001
 44
0.0000000001
 40
0.0
 40
0.0
 40
0.0
 40
0.0
 40
0.1964891526562121
 40
0.1964891526562121
 40
0.1964891526562121
 40
0.1964891526562121
 10
-28.57001301755
 20
-33.87095683882064
 30
0.0
 10
-28.63342904599445
 20
-33.8873331534873
 30
0.0
 10
-28.69684507443889
 20
-33.90370946815397
 30
0.0
 10
-28.76026110288334
 20
-33.92008578282064
 30
0.0
 11
-28.57001301755
 21
-33.87095683882064
 31
0.0
 11
-28.76026110288334
 21
-33.92008578282064
 31
0.0
  0
SPLINE
  5
7B
100
AcDbEntity
  8
0
100
AcDbSpline
210
0.0
220
0.0
230
1.0
 70
     8
 71
     3
 72
     9
 73
     5
 74
     3
 42
0.0000001
 43
0.0000001
 44
0.0000000001
 40
0.0
 40
0.0
 40
0.0
 40
0.0
 40
0.0395534711629181
 40
0.2236305847336502
 40
0.2236305847336502
 40
0.2236305847336502
 40
0.2236305847336502
 10
-28.35406512741667
 20
-33.8128457678873
 30
0.0
 10
-28.36677822089892
 20
-33.81633985100302
 30
0.0
 10
-28.43865652754615
 20
-33.83609497810824
 30
0.0
 10
-28.51070650057901
 20
-33.85521695772363
 30
0.0
 10
-28.57001301755
 20
-33.87095683882064
 30
0.0
 11
-28.35406512741667
 21
-33.8128457678873
 31
0.0
 11
-28.39220977808334
 21
-33.82330821055397
 31
0.0
 11
-28.57001301755
 21
-33.87095683882064
 31
0.0
  0
SPLINE
  5
7C
100
AcDbEntity
  8
0
100
AcDbSpline
210
0.0
220
0.0
230
1.0
 70
     8
 71
     3
 72
     9
 73
     5
 74
     3
 42
0.0000001
 43
0.0000001
 44
0.0000000001
 40
0.0
 40
0.0
 40
0.0
 40
0.0
 40
0.1481680500980296
 40
0.2761109507775347
 40
0.2761109507775347
 40
0.2761109507775347
 40
0.2761109507775347
 10
-28.08859755941668
 20
-33.73693663828731
 30
0.0
 10
-28.13598036147348
 20
-33.75087460527859
 30
0.0
 10
-28.22427814576471
 20
-33.77684798695785
 30
0.0
 10
-28.31296832103031
 20
-33.80144713749798
 30
0.0
 10
-28.35406512741667
 20
-33.8128457678873
 30
0.0
 11
-28.08859755941668
 21
-33.73693663828731
 31
0.0
 11
-28.23085896101668
 21
-33.77835480682064
 31
0.0
 11
-28.35406512741667
 21
-33.8128457678873
 31
0.0
  0
SPLINE
  5
7D
100
AcDbEntity
  8
0
100
AcDbSpline
210
-0.2931815038394956
220
0.9560568005126116
230
0.0
 70
    24
 71
     3
 72
     8
 73
     4
 74
     2
 42
0.0000001
 43
0.0000001
 44
0.0000000001
 40
0.0
 40
0.0
 40
0.0
 40
0.0
 40
0.1274650559827225
 40
0.1274650559827225
 40
0.1274650559827225
 40
0.1274650559827225
 10
-27.96673372581667
 20
-33.69956624148731
 30
0.0
 10
-28.00735500368334
 20
-33.71202304042064
 30
0.0
 10
-28.04797628155
 20
-33.72447983935397
 30
0.0
 10
-28.08859755941668
 20
-33.73693663828731
 30
0.0
 11
-27.96673372581667
 21
-33.69956624148731
 31
0.0
 11
-28.08859755941668
 21
-33.73693663828731
 31
0.0
  0
SPLINE
  5
7E
100
AcDbEntity
  8
0
100
AcDbSpline
210
0.0
220
0.0
230
1.0
 70
     8
 71
     3
 72
    12
 73
     8
 74
     6
 42
0.0000001
 43
0.0000001
 44
0.0000000001
 40
0.0
 40
0.0
 40
0.0
 40
0.0
 40
0.0279676982721516
 40
0.0773084242329246
 40
0.1460159974418573
 40
0.2336459208044287
 40
0.3407554156996366
 40
0.3407554156996366
 40
0.3407554156996366
 40
0.3407554156996366
 10
-27.64869079995001
 20
-33.57866146602064
 30
0.0
 10
-27.65678035466464
 20
-33.58330792814119
 30
0.0
 10
-27.67914153439595
 20
-33.5961516974533
 30
0.0
 10
-27.72419211647749
 20
-33.61485080225627
 30
0.0
 10
-27.78801254711404
 20
-33.63980080986326
 30
0.0
 10
-27.87094680334853
 20
-33.66877920651929
 30
0.0
 10
-27.93274424155462
 20
-33.68864162449829
 30
0.0
 10
-27.96673372581667
 20
-33.69956624148731
 30
0.0
 11
-27.64869079995001
 21
-33.57866146602064
 31
0.0
 11
-27.67315459088334
 21
-33.59221561962064
 31
0.0
 11
-27.71825314021668
 21
-33.61223131562064
 31
0.0
 11
-27.78227731728334
 21
-33.63716393215397
 31
0.0
 11
-27.86491429968334
 21
-33.66632096575397
 31
0.0
 11
-27.96673372581667
 21
-33.69956624148731
 31
0.0
  0
SPLINE
  5
7F
100
AcDbEntity
  8
0
100
AcDbSpline
210
-0.2127202882074054
220
0.9771131352023463
230
0.0
 70
    24
 71
     3
 72
     8
 73
     4
 74
     2
 42
0.0000001
 43
0.0000001
 44
0.0000000001
 40
0.0
 40
0.0
 40
0.0
 40
0.0
 40
0.0476898137870389
 40
0.0476898137870389
 40
0.0476898137870389
 40
0.0476898137870389
 10
-29.10233991675
 20
-34.00188982122063
 30
0.0
 10
-29.11787269790556
 20
-34.00527135153174
 30
0.0
 10
-29.13340547906111
 20
-34.00865288184286
 30
0.0
 10
-29.14893826021667
 20
-34.01203441215397
 30
0.0
 11
-29.10233991675
 21
-34.00188982122063
 31
0.0
 11
-29.14893826021667
 21
-34.01203441215397
 31
0.0
  0
SPLINE
  5
80
100
AcDbEntity
  8
0
100
AcDbSpline
210
-0.2252894660262016
220
0.974291874387562
230
0.0
 70
    24
 71
     3
 72
     8
 73
     4
 74
     2
 42
0.0000001
 43
0.0000001
 44
0.0000000001
 40
0.0
 40
0.0
 40
0.0
 40
0.0
 40
0.1873810184941651
 40
0.1873810184941651
 40
0.1873810184941651
 40
0.1873810184941651
 10
-28.91977611301667
 20
-33.95967485162064
 30
0.0
 10
-28.98063071426111
 20
-33.97374650815397
 30
0.0
 10
-29.04148531550556
 20
-33.9878181646873
 30
0.0
 10
-29.10233991675
 20
-34.00188982122063
 30
0.0
 11
-28.91977611301667
 21
-33.95967485162064
 31
0.0
 11
-29.10233991675
 21
-34.00188982122063
 31
0.0
  0
SPLINE
  5
81
100
AcDbEntity
  8
0
100
AcDbSpline
210
-0.2381615059226336
220
0.9712255644785425
230
0.0
 70
    24
 71
     3
 72
     8
 73
     4
 74
     2
 42
0.0000001
 43
0.0000001
 44
0.0000000001
 40
0.0
 40
0.0
 40
0.0
 40
0.0
 40
0.0843569898313538
 40
0.0843569898313538
 40
0.0843569898313538
 40
0.0843569898313538
 10
-28.83784644795
 20
-33.9395842638873
 30
0.0
 10
-28.86515633630556
 20
-33.94628112646508
 30
0.0
 10
-28.89246622466112
 20
-33.95297798904286
 30
0.0
 10
-28.91977611301667
 20
-33.95967485162064
 30
0.0
 11
-28.83784644795
 21
-33.9395842638873
 31
0.0
 11
-28.91977611301667
 21
-33.95967485162064
 31
0.0
  0
LINE
  5
82
100
AcDbEntity
  8
0
100
AcDbLine
 10
-29.529514
 20
-34.033794
 30
0.0
 11
-29.571762
 21
-34.036163
 31
0.0
  0
LINE
  5
83
100
AcDbEntity
  8
0
100
AcDbLine
 10
-29.154288
 20
-34.012758
 30
0.0
 11
-29.449618
 21
-34.029315
 31
0.0
  0
LWPOLYLINE
  5
84
100
AcDbEntity
  8
0
100
AcDbPolyline
 90
        7
 70
     0
 43
0.0
 10
-29.271164
 20
-34.012542
 10
-29.347988
 20
-34.020281
 10
-29.415633
 20
-34.026549
 10
-29.47071
 20
-34.031032
 10
-29.510455
 20
-34.033505
 10
-29.532875
 20
-34.033845
 10
-29.537607
 20
-34.032799
  0
LINE
  5
85
100
AcDbEntity
  8
0
100
AcDbLine
 10
-29.271164
 20
-34.012542
 30
0.0
 11
-29.047775
 21
-33.989273
 31
0.0
  0
LINE
  5
86
100
AcDbEntity
  8
0
100
AcDbLine
 10
-29.154288
 20
-34.012758
 30
0.0
 11
-29.151448
 21
-34.01227
 31
0.0
  0
LINE
  5
87
100
AcDbEntity
  8
0
100
AcDbLine
 10
-27.42891
 20
-33.699219
 30
0.0
 11
-29.604078
 21
-34.321395
 31
0.0
  0
LINE
  5
88
100
AcDbEntity
  8
0
100
AcDbLine
 10
-27.651511
 20
-33.581755
 30
0.0
 11
-27.648228
 21
-33.578891
 31
0.0
  0
LINE
  5
89
100
AcDbEntity
  8
0
100
AcDbLine
 10
-27.65151
 20
-33.581755
 30
0.0
 11
-27.65144
 21
-33.581693
 31
0.0
  0
LINE
  5
8A
100
AcDbEntity
  8
0
100
AcDbLine
 10
-27.422582
 20
-33.669958
 30
0.0
 11
-27.42891
 21
-33.699219
 31
0.0
  0
SPLINE
  5
8B
100
AcDbEntity
  8
0
100
AcDbSpline
210
0.0
220
0.0
230
-1.0
 70
     8
 71
     3
 72
    15
 73
    11
 74
     9
 42
0.0000001
 43
0.0000001
 44
0.0000000001
 40
0.0
 40
0.0
 40
0.0
 40
0.0
 40
0.0048312831405887
 40
0.0273009699126785
 40
0.0529044289137153
 40
0.1078704248329877
 40
0.2087372809522216
 40
0.3699539096520576
 40
0.5916512875446634
 40
0.6645640724176671
 40
0.6645640724176671
 40
0.6645640724176671
 40
0.6645640724176671
 10
-27.64872141755001
 20
-33.57980481322064
 30
0.0
 10
-27.64769564757384
 20
-33.57860032647367
 30
0.0
 10
-27.6418991511894
 20
-33.57179392422358
 30
0.0
 10
-27.63091765622519
 20
-33.55152969312742
 30
0.0
 10
-27.67105723415034
 20
-33.53440938468463
 30
0.0
 10
-27.72676654206877
 20
-33.53166565497814
 30
0.0
 10
-27.83547977188385
 20
-33.53391763467796
 30
0.0
 10
-27.99424385630944
 20
-33.55340633125727
 30
0.0
 10
-28.14455381412954
 20
-33.57907849612409
 30
0.0
 10
-28.24069682059485
 20
-33.59895760121829
 30
0.0
 10
-28.26449116048334
 20
-33.60387746175397
 30
0.0
 11
-27.64872141755001
 21
-33.57980481322064
 31
0.0
 11
-27.64564816528334
 21
-33.57607702335398
 31
0.0
 11
-27.63783946981667
 21
-33.55500782548731
 31
0.0
 11
-27.65894753381667
 21
-33.54051690602063
 31
0.0
 11
-27.71336780688335
 21
-33.53279067882064
 31
0.0
 11
-27.81421510181667
 21
-33.53477707455398
 31
0.0
 11
-27.97450283728334
 21
-33.55205837162063
 31
0.0
 11
-28.19304655995
 21
-33.58931919082063
 31
0.0
 11
-28.26449116048334
 21
-33.60387746175397
 31
0.0
  0
SPLINE
  5
8C
100
AcDbEntity
  8
0
100
AcDbSpline
210
-0.7327838366547173
220
0.6804614968810454
230
0.0
 70
    24
 71
     3
 72
     8
 73
     4
 74
     2
 42
0.0000001
 43
0.0000001
 44
0.0000000001
 40
0.0
 40
0.0
 40
0.0
 40
0.0
 40
0.0032502114277983
 40
0.0032502114277983
 40
0.0032502114277983
 40
0.0032502114277983
 10
-27.65093306128334
 20
-33.58218651562064
 30
0.0
 10
-27.65019584670556
 20
-33.58139261482064
 30
0.0
 10
-27.64945863212778
 20
-33.58059871402064
 30
0.0
 10
-27.64872141755001
 20
-33.57980481322064
 30
0.0
 11
-27.65093306128334
 21
-33.58218651562064
 31
0.0
 11
-27.64872141755001
 21
-33.57980481322064
 31
0.0
  0
SPLINE
  5
8D
100
AcDbEntity
  8
0
100
AcDbSpline
210
-0.2413434524835658
220
0.9704397652318833
230
0.0
 70
    24
 71
     3
 72
     8
 73
     4
 74
     2
 42
0.0000001
 43
0.0000001
 44
0.0000000001
 40
0.0
 40
0.0
 40
0.0
 40
0.0
 40
0.0281041563943067
 40
0.0281041563943067
 40
0.0281041563943067
 40
0.0281041563943067
 10
-28.86806523941667
 20
-33.94805072255397
 30
0.0
 10
-28.85897410910556
 20
-33.94578980450953
 30
0.0
 10
-28.84988297879445
 20
-33.94352888646508
 30
0.0
 10
-28.84079184848334
 20
-33.94126796842064
 30
0.0
 11
-28.86806523941667
 21
-33.94805072255397
 31
0.0
 11
-28.84079184848334
 21
-33.94126796842064
 31
0.0
  0
SPLINE
  5
8E
100
AcDbEntity
  8
0
100
AcDbSpline
210
-0.2324871413611793
220
0.972599470029522
230
0.0
 70
    24
 71
     3
 72
     8
 73
     4
 74
     2
 42
0.0000001
 43
0.0000001
 44
0.0000000001
 40
0.0
 40
0.0
 40
0.0
 40
0.0
 40
0.1530214797760668
 40
0.1530214797760668
 40
0.1530214797760668
 40
0.1530214797760668
 10
-29.01689384955
 20
-33.98362624895397
 30
0.0
 10
-28.96728431283889
 20
-33.97176774015397
 30
0.0
 10
-28.91767477612778
 20
-33.95990923135398
 30
0.0
 10
-28.86806523941667
 20
-33.94805072255397
 30
0.0
 11
-29.01689384955
 21
-33.98362624895397
 31
0.0
 11
-28.86806523941667
 21
-33.94805072255397
 31
0.0
  0
SPLINE
  5
8F
100
AcDbEntity
  8
0
100
AcDbSpline
210
-0.2114401420110594
220
0.9773909485698869
230
0.0
 70
    24
 71
     3
 72
     8
 73
     4
 74
     2
 42
0.0000001
 43
0.0000001
 44
0.0000000001
 40
0.0
 40
0.0
 40
0.0
 40
0.0
 40
0.132644425982291
 40
0.132644425982291
 40
0.132644425982291
 40
0.132644425982291
 10
-29.14653931088334
 20
-34.01167260522064
 30
0.0
 10
-29.10332415710557
 20
-34.00232381979842
 30
0.0
 10
-29.06010900332778
 20
-33.99297503437619
 30
0.0
 10
-29.01689384955
 20
-33.98362624895397
 30
0.0
 11
-29.14653931088334
 21
-34.01167260522064
 31
0.0
 11
-29.01689384955
 21
-33.98362624895397
 31
0.0
  0
SPLINE
  5
90
100
AcDbEntity
  8
0
100
AcDbSpline
210
-0.2078985556784845
220
0.9781503926016695
230
0.0
 70
    24
 71
     3
 72
     8
 73
     4
 74
     2
 42
0.0000001
 43
0.0000001
 44
0.0000000001
 40
0.0
 40
0.0
 40
0.0
 40
0.0
 40
0.0229515168319697
 40
0.0229515168319697
 40
0.0229515168319697
 40
0.0229515168319697
 10
-29.16898934608334
 20
-34.01644419242064
 30
0.0
 10
-29.16150600101667
 20
-34.01485366335397
 30
0.0
 10
-29.15402265595
 20
-34.01326313428731
 30
0.0
 10
-29.14653931088334
 20
-34.01167260522064
 30
0.0
 11
-29.16898934608334
 21
-34.01644419242064
 31
0.0
 11
-29.14653931088334
 21
-34.01167260522064
 31
0.0
  0
SPLINE
  5
91
100
AcDbEntity
  8
0
100
AcDbSpline
210
0.0
220
0.0
230
1.0
 70
     8
 71
     3
 72
    12
 73
     8
 74
     6
 42
0.0000001
 43
0.0000001
 44
0.0000000001
 40
0.0
 40
0.0
 40
0.0
 40
0.0
 40
0.1088155469750517
 40
0.1875814008770121
 40
0.2355319931162995
 40
0.2579353913981147
 40
0.2667116681087815
 40
0.2667116681087815
 40
0.2667116681087815
 40
0.2667116681087815
 10
-27.77135105061668
 20
-33.63598553002064
 30
0.0
 10
-27.73730774363311
 20
-33.62361915462262
 30
0.0
 10
-27.67862227641831
 20
-33.60230141018796
 30
0.0
 10
-27.60775070462605
 20
-33.56640578896627
 30
0.0
 10
-27.56454483974846
 20
-33.54527747762397
 30
0.0
 10
-27.54891771358114
 20
-33.51589196878066
 30
0.0
 10
-27.55667982452544
 20
-33.50810271171393
 30
0.0
 10
-27.55886465915
 20
-33.50591023615397
 30
0.0
 11
-27.77135105061668
 21
-33.63598553002064
 31
0.0
 11
-27.66997566928333
 21
-33.59643991935397
 31
0.0
 11
-27.59902482661667
 21
-33.56223410602064
 31
0.0
 11
-27.56015776741667
 21
-33.53415188735398
 31
0.0
 11
-27.55341297915001
 21
-33.51278789695397
 31
0.0
 11
-27.55886465915
 21
-33.50591023615397
 31
0.0
  0
SPLINE
  5
92
100
AcDbEntity
  8
0
100
AcDbSpline
210
-0.3231942057307466
220
0.9463326610563919
230
0.0
 70
    24
 71
     3
 72
     8
 73
     4
 74
     2
 42
0.0000001
 43
0.0000001
 44
0.0000000001
 40
0.0
 40
0.0
 40
0.0
 40
0.0
 40
0.1362815818446244
 40
0.1362815818446244
 40
0.1362815818446244
 40
0.1362815818446244
 10
-27.90031876261668
 20
-33.68003094762064
 30
0.0
 10
-27.85732952528334
 20
-33.66534914175398
 30
0.0
 10
-27.81434028795001
 20
-33.65066733588731
 30
0.0
 10
-27.77135105061668
 20
-33.63598553002064
 30
0.0
 11
-27.90031876261668
 21
-33.68003094762064
 31
0.0
 11
-27.77135105061668
 21
-33.63598553002064
 31
0.0
  0
SPLINE
  5
93
100
AcDbEntity
  8
0
100
AcDbSpline
210
0.0
220
0.0
230
1.0
 70
     8
 71
     3
 72
    10
 73
     6
 74
     4
 42
0.0000001
 43
0.0000001
 44
0.0000000001
 40
0.0
 40
0.0
 40
0.0
 40
0.0
 40
0.1346398457934943
 40
0.3128623872846454
 40
0.4727523841442782
 40
0.4727523841442782
 40
0.4727523841442782
 40
0.4727523841442782
 10
-28.35372062288334
 20
-33.81378379135397
 30
0.0
 10
-28.31047750802451
 20
-33.80177475373336
 30
0.0
 10
-28.20999355345203
 20
-33.77386937284978
 30
0.0
 10
-28.05861092405679
 20
-33.7300460292278
 30
0.0
 10
-27.95114045810236
 20
-33.69608892057398
 30
0.0
 10
-27.90031876261668
 20
-33.68003094762064
 30
0.0
 11
-28.35372062288334
 21
-33.81378379135397
 31
0.0
 11
-28.22404694501667
 21
-33.77755361962064
 31
0.0
 11
-28.05296239141668
 21
-33.72762016575396
 31
0.0
 11
-27.90031876261668
 21
-33.68003094762064
 31
0.0
  0
SPLINE
  5
94
100
AcDbEntity
  8
0
100
AcDbSpline
210
0.0
220
0.0
230
1.0
 70
     8
 71
     3
 72
    10
 73
     6
 74
     4
 42
0.0000001
 43
0.0000001
 44
0.0000000001
 40
0.0
 40
0.0
 40
0.0
 40
0.0
 40
0.2359100111291544
 40
0.4459300472132445
 40
0.5034879637942091
 40
0.5034879637942091
 40
0.5034879637942091
 40
0.5034879637942091
 10
-28.84079063568334
 20
-33.94127249535397
 30
0.0
 10
-28.76455162537071
 20
-33.92199998268241
 30
0.0
 10
-28.62044046490967
 20
-33.88557002176461
 30
0.0
 10
-28.45825354035243
 20
-33.84239814321307
 30
0.0
 10
-28.37222580029611
 20
-33.81884931205811
 30
0.0
 10
-28.35372062288334
 20
-33.81378379135397
 30
0.0
 11
-28.84079063568334
 21
-33.94127249535397
 31
0.0
 11
-28.61220379515001
 21
-33.88294934655398
 31
0.0
 11
-28.40924384848333
 21
-33.8289523502873
 31
0.0
 11
-28.35372062288334
 21
-33.81378379135397
 31
0.0
  0
SPLINE
  5
95
100
AcDbEntity
  8
0
100
AcDbSpline
210
0.0
220
0.0
230
-1.0
 70
     8
 71
     3
 72
    12
 73
     8
 74
     6
 42
0.0000001
 43
0.0000001
 44
0.0000000001
 40
0.0
 40
0.0
 40
0.0
 40
0.0
 40
0.0216237746224347
 40
0.040519297419662
 40
0.0575167261362431
 40
0.0729054308852699
 40
0.086978083830611
 40
0.086978083830611
 40
0.086978083830611
 40
0.086978083830611
 10
-29.53158721595
 20
-34.01729003135397
 30
0.0
 10
-29.53871599600661
 20
-34.01835525212805
 30
0.0
 10
-29.55207412447387
 20
-34.02035129574746
 30
0.0
 10
-29.57103083226074
 20
-34.02321807076605
 30
0.0
 10
-29.5879300492743
 20
-34.02579050679646
 30
0.0
 10
-29.60323817141454
 20
-34.02813267199782
 30
0.0
 10
-29.61294530999904
 20
-34.0296202028093
 30
0.0
 10
-29.61758206821667
 20
-34.03033074388731
 30
0.0
 11
-29.53158721595
 21
-34.01729003135397
 31
0.0
 11
-29.55297254928334
 21
-34.02049239722064
 31
0.0
 11
-29.57165593275001
 21
-34.02331586388731
 31
0.0
 11
-29.58845984208334
 21
-34.02587344362064
 31
0.0
 11
-29.60367171408334
 21
-34.02819963882064
 31
0.0
 11
-29.61758206821667
 21
-34.03033074388731
 31
0.0
  0
SPLINE
  5
96
100
AcDbEntity
  8
0
100
AcDbSpline
210
-0.3861977654205318
220
0.9224160048395669
230
0.0
 70
    24
 71
     3
 72
     8
 73
     4
 74
     2
 42
0.0000001
 43
0.0000001
 44
0.0000000001
 40
0.0
 40
0.0
 40
0.0
 40
0.0
 40
0.0239508073191377
 40
0.0239508073191377
 40
0.0239508073191377
 40
0.0239508073191377
 10
-29.54731834448333
 20
-33.9526424814873
 30
0.0
 10
-29.55468254715
 20
-33.95572573090953
 30
0.0
 10
-29.56204674981666
 20
-33.95880898033176
 30
0.0
 10
-29.56941095248334
 20
-33.96189222975397
 30
0.0
 11
-29.54731834448333
 21
-33.9526424814873
 31
0.0
 11
-29.56941095248334
 21
-33.96189222975397
 31
0.0
  0
SPLINE
  5
97
100
AcDbEntity
  8
0
100
AcDbSpline
210
0.0
220
0.0
230
-1.0
 70
     8
 71
     3
 72
     9
 73
     5
 74
     3
 42
0.0000001
 43
0.0000001
 44
0.0000000001
 40
0.0
 40
0.0
 40
0.0
 40
0.0
 40
0.1461998080533573
 40
0.2934227406794083
 40
0.2934227406794083
 40
0.2934227406794083
 40
0.2934227406794083
 10
-27.14428528208333
 20
-33.62804663508731
 30
0.0
 10
-27.19182810905281
 20
-33.63878437150155
 30
0.0
 10
-27.28724647365107
 20
-33.6603349883547
 30
0.0
 10
-27.38157930426627
 20
-33.68622772364577
 30
0.0
 10
-27.42891018235
 20
-33.6992192334873
 30
0.0
 11
-27.14428528208333
 21
-33.62804663508731
 31
0.0
 11
-27.28664426875
 21
-33.66133781695396
 31
0.0
 11
-27.42891018235
 21
-33.6992192334873
 31
0.0
  0
SPLINE
  5
98
100
AcDbEntity
  8
0
100
AcDbSpline
210
0.0
220
0.0
230
-1.0
 70
     8
 71
     3
 72
     9
 73
     5
 74
     3
 42
0.0000001
 43
0.0000001
 44
0.0000000001
 40
0.0
 40
0.0
 40
0.0
 40
0.0
 40
0.1104520568644397
 40
0.2187790047715661
 40
0.2187790047715661
 40
0.2187790047715661
 40
0.2187790047715661
 10
-26.92881582715
 20
-33.59019331988731
 30
0.0
 10
-26.96516649056361
 20
-33.59604998072256
 30
0.0
 10
-27.03716842688044
 20
-33.60765061963501
 30
0.0
 10
-27.10881163234228
 20
-33.62129213219513
 30
0.0
 10
-27.14428528208333
 20
-33.62804663508731
 30
0.0
 11
-26.92881582715
 21
-33.59019331988731
 31
0.0
 11
-27.03777638395001
 21
-33.60828348095397
 31
0.0
 11
-27.14428528208333
 21
-33.62804663508731
 31
0.0
  0
SPLINE
  5
99
100
AcDbEntity
  8
0
100
AcDbSpline
210
0.0
220
0.0
230
-1.0
 70
     8
 71
     3
 72
     9
 73
     5
 74
     3
 42
0.0000001
 43
0.0000001
 44
0.0000000001
 40
0.0
 40
0.0
 40
0.0
 40
0.0
 40
0.0112372432959879
 40
0.0224055852109329
 40
0.0224055852109329
 40
0.0224055852109329
 40
0.0224055852109329
 10
-26.90664652368334
 20
-33.58694803242064
 30
0.0
 10
-26.91035344080679
 20
-33.58748599500614
 30
0.0
 10
-26.91774454601753
 20
-33.58855862164886
 30
0.0
 10
-26.92513297370661
 20
-33.58964953873278
 30
0.0
 10
-26.92881582715
 20
-33.59019331988731
 30
0.0
 11
-26.90664652368334
 21
-33.58694803242064
 31
0.0
 11
-26.91776660155
 21
-33.58856652095398
 31
0.0
 11
-26.92881582715
 21
-33.59019331988731
 31
0.0
  0
SPLINE
  5
9A
100
AcDbEntity
  8
0
100
AcDbSpline
210
0.0
220
0.0
230
-1.0
 70
     8
 71
     3
 72
    16
 73
    12
 74
    10
 42
0.0000001
 43
0.0000001
 44
0.0000000001
 40
0.0
 40
0.0
 40
0.0
 40
0.0
 40
0.0130541865005887
 40
0.0253983447557813
 40
0.0373688065391242
 40
0.0493728446857794
 40
0.0619930642818506
 40
0.0755309125305787
 40
0.0906375358104779
 40
0.1052171275740886
 40
0.1155789556327474
 40
0.1155789556327474
 40
0.1155789556327474
 40
0.1155789556327474
 10
-29.61758206821667
 20
-9.500170711887314
 30
0.0
 10
-29.62188333461263
 20
-9.499512114610666
 30
0.0
 10
-29.63025191788713
 20
-9.498230741720313
 30
0.0
 10
-29.64256637630873
 20
-9.49635648362058
 30
0.0
 10
-29.65453775940914
 20
-9.494554631688608
 30
0.0
 10
-29.66660514241842
 20
-9.492772446955594
 30
0.0
 10
-29.67919763274922
 20
-9.490970799593656
 30
0.0
 10
-29.69282745589586
 20
-9.489117499439069
 30
0.0
 10
-29.70712746911785
 20
-9.487357197604055
 30
0.0
 10
-29.72040340110599
 20
-9.48593404150791
 30
0.0
 10
-29.72869699827353
 20
-9.485347718561683
 30
0.0
 10
-29.73214254501667
 20
-9.485104132687304
 30
0.0
 11
-29.61758206821667
 21
-9.500170711887314
 31
0.0
 11
-29.63048617061668
 21
-9.498196901753978
 31
0.0
 11
-29.64269003941667
 21
-9.496341146020647
 31
0.0
 11
-29.65452750928335
 21
-9.494561746553976
 31
0.0
 11
-29.66640321701667
 21
-9.492811175887304
 31
0.0
 11
-29.67889684048333
 21
-9.491028112420629
 31
0.0
 11
-29.69231269115001
 21
-9.489214749220643
 31
0.0
 11
-29.70730694608334
 21
-9.487375622820643
 31
0.0
 11
-29.72181030821667
 21
-9.48588666922064
 31
0.0
 11
-29.73214254501667
 21
-9.485104132687304
 31
0.0
  0
SPLINE
  5
9B
100
AcDbEntity
  8
0
100
AcDbSpline
210
0.0
220
0.0
230
1.0
 70
     8
 71
     3
 72
     9
 73
     5
 74
     3
 42
0.0000001
 43
0.0000001
 44
0.0000000001
 40
0.0
 40
0.0
 40
0.0
 40
0.0
 40
0.10230891287301
 40
0.1831552853168664
 40
0.1831552853168664
 40
0.1831552853168664
 40
0.1831552853168664
 10
-29.56941095248334
 20
-9.568609226020647
 30
0.0
 10
-29.60091085820073
 20
-9.555364804983129
 30
0.0
 10
-29.65730256501403
 20
-9.531654400426354
 30
0.0
 10
-29.70921971091636
 20
-9.499356486646197
 30
0.0
 10
-29.73213640101667
 20
-9.485099900153961
 30
0.0
 11
-29.56941095248334
 21
-9.568609226020647
 31
0.0
 11
-29.66251449915001
 21
-9.526196453753975
 31
0.0
 11
-29.73213640101667
 21
-9.485099900153961
 31
0.0
  0
SPLINE
  5
9C
100
AcDbEntity
  8
0
100
AcDbSpline
210
0.0
220
0.0
230
1.0
 70
     8
 71
     3
 72
    10
 73
     6
 74
     4
 42
0.0000001
 43
0.0000001
 44
0.0000000001
 40
0.0
 40
0.0
 40
0.0
 40
0.0
 40
0.0531420464699275
 40
0.106687744375258
 40
0.1606461400472706
 40
0.1606461400472706
 40
0.1606461400472706
 40
0.1606461400472706
 10
-29.57176210128334
 20
-9.494338751353986
 30
0.0
 10
-29.5894480458749
 20
-9.493341885079807
 30
0.0
 10
-29.62495427231814
 20
-9.491340580626918
 30
0.0
 10
-29.67841446996909
 20
-9.48826261027149
 30
0.0
 10
-29.714187410387
 20
-9.48615964956928
 30
0.0
 10
-29.73214254501667
 20
-9.485104132687304
 30
0.0
 11
-29.57176210128334
 21
-9.494338751353986
 31
0.0
 11
-29.62481933221667
 21
-9.491337526820636
 31
0.0
 11
-29.67827650555001
 21
-9.488259803087309
 31
0.0
 11
-29.73214254501667
 21
-9.485104132687304
 31
0.0
  0
SPLINE
  5
9D
100
AcDbEntity
  8
0
100
AcDbSpline
210
0.0
220
0.0
230
-1.0
 70
     8
 71
     3
 72
     9
 73
     5
 74
     3
 42
0.0000001
 43
0.0000001
 44
0.0000000001
 40
0.0
 40
0.0
 40
0.0
 40
0.0
 40
0.119391191325262
 40
1.321268570344246
 40
1.321268570344246
 40
1.321268570344246
 40
1.321268570344246
 10
-30.89736759888334
 20
-9.022373287887312
 30
0.0
 10
-30.85859657039041
 20
-9.031353301759708
 30
0.0
 10
-30.42952855608381
 20
-9.130732577225071
 30
0.0
 10
-30.0034202072501
 20
-9.242313612216088
 30
0.0
 10
-29.61581544848334
 20
-9.343812069753973
 30
0.0
 11
-30.89736759888334
 21
-9.022373287887312
 31
0.0
 11
-30.78107867941667
 21
-9.049412958287298
 31
0.0
 11
-29.61581544848334
 21
-9.343812069753973
 31
0.0
  0
SPLINE
  5
9E
100
AcDbEntity
  8
0
100
AcDbSpline
210
0.0
220
0.0
230
1.0
 70
     8
 71
     3
 72
    10
 73
     6
 74
     4
 42
0.0000001
 43
0.0000001
 44
0.0000000001
 40
0.0
 40
0.0
 40
0.0
 40
0.0
 40
2.094041562333035
 40
4.18789859257385
 40
6.281196412289631
 40
6.281196412289631
 40
6.281196412289631
 40
6.281196412289631
 10
-35.38450276795001
 20
-33.4908795214873
 30
0.0
 10
-34.68644247930559
 20
-33.47262029372615
 30
0.0
 10
-33.29038341680608
 20
-33.43610344725191
 30
0.0
 10
-31.20929974975273
 20
-33.16208869655713
 30
0.0
 10
-29.85160353800132
 20
-32.83608128693228
 30
0.0
 10
-29.17284609488334
 20
-32.6730993518873
 30
0.0
 11
-35.38450276795001
 21
-33.4908795214873
 31
0.0
 11
-33.29245360315
 21
-33.39955396735397
 31
0.0
 11
-31.21651404368334
 21
-33.12621862655397
 31
0.0
 11
-29.17284609488334
 21
-32.6730993518873
 31
0.0
  0
SPLINE
  5
9F
100
AcDbEntity
  8
0
100
AcDbSpline
210
0.0
220
0.0
230
-1.0
 70
     8
 71
     3
 72
    10
 73
     6
 74
     4
 42
0.0000001
 43
0.0000001
 44
0.0000000001
 40
0.0
 40
0.0
 40
0.0
 40
0.0
 40
2.094041562286515
 40
4.187898592666577
 40
6.281196412151462
 40
6.281196412151462
 40
6.281196412151462
 40
6.281196412151462
 10
-35.38450276795001
 20
-10.0396219342873
 30
0.0
 10
-34.68644247928121
 20
-10.05788116146019
 30
0.0
 10
-33.29038341667101
 20
-10.09439800675958
 30
0.0
 10
-31.20929974998343
 20
-10.36841275988755
 30
0.0
 10
-29.8516035380382
 20
-10.69442016836412
 30
0.0
 10
-29.17284609488334
 20
-10.85740210282063
 30
0.0
 11
-35.38450276795001
 21
-10.0396219342873
 31
0.0
 11
-33.29245360315
 21
-10.13094748735397
 31
0.0
 11
-31.21651404368334
 21
-10.40428282922065
 31
0.0
 11
-29.17284609488334
 21
-10.85740210282063
 31
0.0
  0
LINE
  5
A0
100
AcDbEntity
  8
0
100
AcDbLine
 10
-25.07848
 20
-9.825992
 30
0.0
 11
-29.885913
 21
-8.537844
 31
0.0
  0
LINE
  5
A1
100
AcDbEntity
  8
0
100
AcDbLine
 10
-27.42891
 20
-9.831282
 30
0.0
 11
-32.364586
 21
-8.419485
 31
0.0
  0
SPLINE
  5
A2
100
AcDbEntity
  8
0
100
AcDbSpline
210
0.0
220
0.0
230
-1.0
 70
     8
 71
     3
 72
    13
 73
     9
 74
     7
 42
0.0000001
 43
0.0000001
 44
0.0000000001
 40
0.0
 40
0.0
 40
0.0
 40
0.0
 40
0.898025990046014
 40
1.804059533830143
 40
2.701604118903789
 40
3.598411678779346
 40
4.501261389874417
 40
5.39327221426965
 40
5.39327221426965
 40
5.39327221426965
 40
5.39327221426965
 10
-49.23550734395001
 20
-15.79991204628731
 30
0.0
 10
-49.16241179139724
 20
-15.50879033758412
 30
0.0
 10
-49.01556890497181
 20
-14.92395103458799
 30
0.0
 10
-48.60074156555771
 20
-14.11636205496181
 30
0.0
 10
-48.05916371731442
 20
-13.39217514212298
 30
0.0
 10
-47.39394161370621
 20
-12.78118243201149
 30
0.0
 10
-46.63522163919971
 20
-12.28877918349462
 30
0.0
 10
-46.07136538258716
 20
-12.08398513085069
 30
0.0
 10
-45.79113977488334
 20
-11.98220646442063
 30
0.0
 11
-49.23550734395001
 21
-15.79991204628731
 31
0.0
 11
-48.98396697808333
 21
-14.93783425215398
 31
0.0
 11
-48.57804281381667
 21
-14.1278204526873
 31
0.0
 11
-48.03832869221667
 21
-13.41067684842065
 31
0.0
 11
-47.37968173968334
 21
-12.80203246015398
 31
0.0
 11
-46.61750949221667
 21
-12.31805821908731
 31
0.0
 11
-45.79113977488334
 21
-11.98220646442063
 31
0.0
  0
SPLINE
  5
A3
100
AcDbEntity
  8
0
100
AcDbSpline
210
0.2608465123099407
220
0.9653802862166497
230
0.0
 70
    24
 71
     3
 72
     8
 73
     4
 74
     2
 42
0.0000001
 43
0.0000001
 44
0.0000000001
 40
0.0
 40
0.0
 40
0.0
 40
0.0
 40
0.5172474857795157
 40
0.5172474857795157
 40
0.5172474857795157
 40
0.5172474857795157
 10
-42.90626127248334
 20
-32.61767158442064
 30
0.0
 10
-42.73981443052778
 20
-32.66264565197619
 30
0.0
 10
-42.57336758857222
 20
-32.70761971953175
 30
0.0
 10
-42.40692074661667
 20
-32.75259378708731
 30
0.0
 11
-42.90626127248334
 21
-32.61767158442064
 31
0.0
 11
-42.40692074661667
 21
-32.75259378708731
 31
0.0
  0
SPLINE
  5
A4
100
AcDbEntity
  8
0
100
AcDbSpline
210
0.2619766354378849
220
0.9650742160500641
230
0.0
 70
    24
 71
     3
 72
     8
 73
     4
 74
     2
 42
0.0000001
 43
0.0000001
 44
0.0000000001
 40
0.0
 40
0.0
 40
0.0
 40
0.0
 40
0.4932412258215826
 40
0.4932412258215826
 40
0.4932412258215826
 40
0.4932412258215826
 10
-42.90220074555
 20
-32.68310967508731
 30
0.0
 10
-42.7435292824389
 20
-32.72618223402064
 30
0.0
 10
-42.58485781932779
 20
-32.76925479295398
 30
0.0
 10
-42.42618635621667
 20
-32.81232735188731
 30
0.0
 11
-42.90220074555
 21
-32.68310967508731
 31
0.0
 11
-42.42618635621667
 21
-32.81232735188731
 31
0.0
  0
SPLINE
  5
A5
100
AcDbEntity
  8
0
100
AcDbSpline
210
0.0
220
0.0
230
-1.0
 70
     8
 71
     3
 72
    10
 73
     6
 74
     4
 42
0.0000001
 43
0.0000001
 44
0.0000000001
 40
0.0
 40
0.0
 40
0.0
 40
0.0
 40
1.9923980367385
 40
3.986193499068634
 40
5.981262770891635
 40
5.981262770891635
 40
5.981262770891635
 40
5.981262770891635
 10
-49.61498954981667
 20
-21.7652482350873
 30
0.0
 10
-49.60655329153647
 20
-22.42939124518373
 30
0.0
 10
-49.58967485796399
 20
-23.7581430811532
 30
0.0
 10
-49.46295304184097
 20
-25.74905886824678
 30
0.0
 10
-49.31131403260508
 20
-27.07013242006514
 30
0.0
 10
-49.23547031568334
 20
-27.73088013268731
 30
0.0
 11
-49.61498954981667
 21
-21.7652482350873
 31
0.0
 11
-49.57279888848334
 21
-23.75719951082064
 31
0.0
 11
-49.44620847995
 21
-25.74697216468731
 31
0.0
 11
-49.23547031568334
 21
-27.73088013268731
 31
0.0
  0
SPLINE
  5
A6
100
AcDbEntity
  8
0
100
AcDbSpline
210
0.0
220
0.0
230
-1.0
 70
     8
 71
     3
 72
    13
 73
     9
 74
     7
 42
0.0000001
 43
0.0000001
 44
0.0000000001
 40
0.0
 40
0.0
 40
0.0
 40
0.0
 40
0.8980259890220597
 40
1.804059532806189
 40
2.701604118732109
 40
3.598411677883742
 40
4.501261389550601
 40
5.393272213945829
 40
5.393272213945829
 40
5.393272213945829
 40
5.393272213945829
 10
-49.23550734395001
 20
-27.7305894094873
 30
0.0
 10
-49.16241179137596
 20
-28.02171111784022
 30
0.0
 10
-49.01556890482371
 20
-28.6065504204676
 30
0.0
 10
-48.60074156517299
 20
-29.41413939977472
 30
0.0
 10
-48.05916371809208
 20
-30.13832631368807
 30
0.0
 10
-47.3939416129503
 20
-30.74931902244228
 30
0.0
 10
-46.63522163959316
 20
-31.24172227251742
 30
0.0
 10
-46.07136538265814
 20
-31.4465163250244
 30
0.0
 10
-45.79113977488334
 20
-31.54829499135397
 30
0.0
 11
-49.23550734395001
 21
-27.7305894094873
 31
0.0
 11
-48.98396697808333
 21
-28.59266720255397
 31
0.0
 11
-48.57804281381667
 21
-29.40268100202064
 31
0.0
 11
-48.03832869221667
 21
-30.11982460735397
 31
0.0
 11
-47.37968173968334
 21
-30.72846899455397
 31
0.0
 11
-46.61750949221667
 21
-31.21244323668731
 31
0.0
 11
-45.79113977488334
 21
-31.54829499135397
 31
0.0
  0
LINE
  5
A7
100
AcDbEntity
  8
0
100
AcDbLine
 10
-50.729413
 20
-31.842297
 30
0.0
 11
-46.81461
 21
-32.189042
 31
0.0
  0
SPLINE
  5
A8
100
AcDbEntity
  8
0
100
AcDbSpline
210
0.0
220
0.0
230
-1.0
 70
     8
 71
     3
 72
     9
 73
     5
 74
     3
 42
0.0000001
 43
0.0000001
 44
0.0000000001
 40
0.0
 40
0.0
 40
0.0
 40
0.0
 40
1.958435226810563
 40
3.918341176379486
 40
3.918341176379486
 40
3.918341176379486
 40
3.918341176379486
 10
-50.72422394555001
 20
-31.90525525375398
 30
0.0
 10
-50.07396084609375
 20
-31.9628840013919
 30
0.0
 10
-48.77294632021171
 20
-32.07818477402994
 30
0.0
 10
-47.471938874719
 20
-32.19356541148853
 30
0.0
 10
-46.82119098981668
 20
-32.2512773838873
 30
0.0
 11
-50.72422394555001
 21
-31.90525525375398
 31
0.0
 11
-48.77343641595
 21
-32.07816144788731
 31
0.0
 11
-46.82119098981668
 21
-32.2512773838873
 31
0.0
  0
SPLINE
  5
A9
100
AcDbEntity
  8
0
100
AcDbSpline
210
0.0
220
0.0
230
1.0
 70
     8
 71
     3
 72
    14
 73
    10
 74
     8
 42
0.0000001
 43
0.0000001
 44
0.0000000001
 40
0.0
 40
0.0
 40
0.0
 40
0.0
 40
0.4253765951427897
 40
0.8186972815124146
 40
1.171069404958239
 40
1.502887105588825
 40
1.850925186654295
 40
2.240184454839937
 40
2.657257643442636
 40
2.657257643442636
 40
2.657257643442636
 40
2.657257643442636
 10
-50.72948900048334
 20
-31.8422971438873
 30
0.0
 10
-50.87023341134901
 20
-31.82174790287653
 30
0.0
 10
-51.14111589026186
 20
-31.78219798888324
 30
0.0
 10
-51.5063540614834
 20
-31.63538819786064
 30
0.0
 10
-51.81539369734021
 20
-31.45016358320003
 30
0.0
 10
-52.07887011993336
 20
-31.22616964513555
 30
0.0
 10
-52.30916808446323
 20
-30.95275891674598
 30
0.0
 10
-52.50953129724123
 20
-30.62032659942154
 30
0.0
 10
-52.58915702668617
 20
-30.3626902044995
 30
0.0
 10
-52.63034321061667
 20
-30.22942850602064
 30
0.0
 11
-50.72948900048334
 21
-31.8422971438873
 31
0.0
 11
-51.14752606075001
 21
-31.76361891348731
 31
0.0
 11
-51.51392314661667
 21
-31.6206002510873
 31
0.0
 11
-51.81556164901667
 21
-31.43844557162064
 31
0.0
 11
-52.06827770021668
 21
-31.22341630868731
 31
0.0
 11
-52.29341463461667
 21
-30.95800367402063
 31
0.0
 11
-52.49064401701667
 21
-30.62240965055398
 31
0.0
 11
-52.63034321061667
 21
-30.22942850602064
 31
0.0
  0
SPLINE
  5
AA
100
AcDbEntity
  8
0
100
AcDbSpline
210
0.0
220
0.0
230
1.0
 70
     8
 71
     3
 72
    13
 73
     9
 74
     7
 42
0.0000001
 43
0.0000001
 44
0.0000000001
 40
0.0
 40
0.0
 40
0.0
 40
0.0
 40
0.4229731798961659
 40
0.810738701681557
 40
1.159529781402089
 40
1.485030561569811
 40
1.819055793429156
 40
2.186353722874481
 40
2.186353722874481
 40
2.186353722874481
 40
2.186353722874481
 10
-50.72422394555001
 20
-31.90525525375398
 30
0.0
 10
-50.8642374743641
 20
-31.88535849956639
 30
0.0
 10
-51.13261001419382
 20
-31.84722116740342
 30
0.0
 10
-51.49541659521126
 20
-31.70554810294292
 30
0.0
 10
-51.80320488776137
 20
-31.52829763882364
 30
0.0
 10
-52.06502229118532
 20
-31.31577852902149
 30
0.0
 10
-52.29876780914149
 20
-31.06297696914051
 30
0.0
 10
-52.42020298410352
 20
-30.86258841123858
 30
0.0
 10
-52.48380118075001
 20
-30.75764064042064
 30
0.0
 11
-50.72422394555001
 21
-31.90525525375398
 31
0.0
 11
-51.14026352635001
 21
-31.82898351508731
 31
0.0
 11
-51.50289826555001
 21
-31.69165855082064
 31
0.0
 11
-51.80451558395001
 21
-31.51649516842064
 31
0.0
 11
-52.05766518501667
 21
-31.3118832494873
 31
0.0
 11
-52.28252521915001
 21
-31.06487956415397
 31
0.0
 11
-52.48380118075001
 21
-30.75764064042064
 31
0.0
  0
SPLINE
  5
AB
100
AcDbEntity
  8
0
100
AcDbSpline
210
0.0
220
0.0
230
-1.0
 70
     8
 71
     3
 72
    20
 73
    16
 74
    14
 42
0.0000001
 43
0.0000001
 44
0.0000000001
 40
0.0
 40
0.0
 40
0.0
 40
0.0
 40
0.0366902090488127
 40
0.0709749906286279
 40
0.1017414970856246
 40
0.1326111931206781
 40
0.1667596322949974
 40
0.2046418468433741
 40
0.2433954294299309
 40
0.2806048170588759
 40
0.3166728115843238
 40
0.353587431855074
 40
0.3930704878899402
 40
0.43614959588865
 40
0.4833951392852855
 40
0.4833951392852855
 40
0.4833951392852855
 40
0.4833951392852855
 10
-52.62142492795001
 20
-30.29503736255398
 30
0.0
 10
-52.6191368005959
 20
-30.30705216071829
 30
0.0
 10
-52.61471055659988
 20
-30.33029406119325
 30
0.0
 10
-52.60739013529089
 20
-30.36341169937193
 30
0.0
 10
-52.60019529233913
 20
-30.39456546710372
 30
0.0
 10
-52.59256447385044
 20
-30.42556960464559
 30
0.0
 10
-52.58394760914754
 20
-30.4587706605518
 30
0.0
 10
-52.57415610015788
 20
-30.49437846850721
 30
0.0
 10
-52.56354785391677
 20
-30.5308154562264
 30
0.0
 10
-52.55257897364792
 20
-30.56651323382244
 30
0.0
 10
-52.5412898379875
 20
-30.60146723125235
 30
0.0
 10
-52.52926427270284
 20
-30.63697618610256
 30
0.0
 10
-52.51591414797599
 20
-30.6744987454817
 30
0.0
 10
-52.50080153051772
 20
-30.71504652882539
 30
0.0
 10
-52.48964039435914
 20
-30.74301057627749
 30
0.0
 10
-52.48380240955
 20
-30.7576375534873
 30
0.0
 11
-52.62142492795001
 21
-30.29503736255398
 31
0.0
 11
-52.61437869648334
 21
-30.3310446126873
 31
0.0
 11
-52.60708175568335
 21
-30.3645438798873
 31
0.0
 11
-52.60013149115001
 21
-30.39451506175397
 31
0.0
 11
-52.59276597648334
 21
-30.42449317588731
 31
0.0
 11
-52.58418509755001
 21
-30.45754592788731
 31
0.0
 11
-52.57414327355
 21
-30.49407295828731
 31
0.0
 11
-52.56331048741667
 21
-30.53128170602064
 31
0.0
 11
-52.55238143355001
 21
-30.5668498702873
 31
0.0
 11
-52.54129677541667
 21
-30.60117232042063
 31
0.0
 11
-52.52945308155001
 21
-30.63613538815398
 31
0.0
 11
-52.51622750608333
 21
-30.6733374830873
 31
0.0
 11
-52.50113982395
 21
-30.71368808895398
 31
0.0
 11
-52.48380240955
 21
-30.7576375534873
 31
0.0
  0
SPLINE
  5
AC
100
AcDbEntity
  8
0
100
AcDbSpline
210
0.0
220
0.0
230
-1.0
 70
     8
 71
     3
 72
     9
 73
     5
 74
     3
 42
0.0000001
 43
0.0000001
 44
0.0000000001
 40
0.0
 40
0.0
 40
0.0
 40
0.0
 40
0.0123264667691676
 40
0.0538857531178408
 40
0.0538857531178408
 40
0.0538857531178408
 40
0.0538857531178408
 10
-52.62539162021667
 20
-30.24227328042064
 30
0.0
 10
-52.62672584925824
 20
-30.2462151888813
 30
0.0
 10
-52.63255849685168
 20
-30.26344743475533
 30
0.0
 10
-52.62627277735794
 20
-30.2812822752026
 30
0.0
 10
-52.62142492795001
 20
-30.29503736255398
 30
0.0
 11
-52.62539162021667
 21
-30.24227328042064
 31
0.0
 11
-52.62876018448334
 21
-30.25413053802064
 31
0.0
 11
-52.62142492795001
 21
-30.29503736255398
 31
0.0
  0
SPLINE
  5
AD
100
AcDbEntity
  8
0
100
AcDbSpline
210
0.0
220
0.0
230
-1.0
 70
     8
 71
     3
 72
    22
 73
    18
 74
    16
 42
0.0000001
 43
0.0000001
 44
0.0000000001
 40
0.0
 40
0.0
 40
0.0
 40
0.0
 40
0.0106922878343074
 40
0.0533222383453252
 40
0.0897706249639078
 40
0.1247510054027122
 40
0.1557993120308315
 40
0.1868506781044539
 40
0.2210676300664176
 40
0.2592090107383299
 40
0.2984361076430893
 40
0.336160180706094
 40
0.3727151759696689
 40
0.4101350483302836
 40
0.450203166055344
 40
0.4939930511828556
 40
0.5421106134364282
 40
0.5421106134364282
 40
0.5421106134364282
 40
0.5421106134364282
 10
-52.62539162021667
 20
-30.24227328042064
 30
0.0
 10
-52.62807788150241
 20
-30.24485833990787
 30
0.0
 10
-52.64147421601528
 20
-30.25774998295487
 30
0.0
 10
-52.62182651819067
 20
-30.29129740480065
 30
0.0
 10
-52.6226034598566
 20
-30.32791984573489
 30
0.0
 10
-52.61481415499538
 20
-30.36173645575857
 30
0.0
 10
-52.60955291019175
 20
-30.39355075575628
 30
0.0
 10
-52.60311920651179
 20
-30.4250406594331
 30
0.0
 10
-52.59610014040785
 20
-30.45877830264081
 30
0.0
 10
-52.58793632526402
 20
-30.49507142693212
 30
0.0
 10
-52.57903574230489
 20
-30.53238897225426
 30
0.0
 10
-52.56974323523191
 20
-30.56906699869798
 30
0.0
 10
-52.56012432333306
 20
-30.60503697743974
 30
0.0
 10
-52.54982065110164
 20
-30.64162963390169
 30
0.0
 10
-52.53830874530661
 20
-30.68038288061194
 30
0.0
 10
-52.52519055047202
 20
-30.72237648377557
 30
0.0
 10
-52.51541894136951
 20
-30.75141300728642
 30
0.0
 10
-52.51030307728334
 20
-30.76661489535397
 30
0.0
 11
-52.62539162021667
 21
-30.24227328042064
 31
0.0
 11
-52.63244249275
 21
-30.25031132842064
 31
0.0
 11
-52.62565991568334
 21
-30.29239825428731
 31
0.0
 11
-52.62107307515001
 21
-30.32855687402064
 31
0.0
 11
-52.61491955301668
 21
-30.36299175722064
 31
0.0
 11
-52.60935744208334
 21
-30.39353779242063
 31
0.0
 11
-52.60331472208334
 21
-30.4239955150873
 31
0.0
 11
-52.59628098981668
 21
-30.45748172735397
 31
0.0
 11
-52.58793730981667
 21
-30.49469930282064
 31
0.0
 11
-52.57882884795001
 21
-30.53285426388731
 31
0.0
 11
-52.56956616208334
 21
-30.56942349055398
 31
0.0
 11
-52.56012231248334
 21
-30.60473753002063
 31
0.0
 11
-52.54997728635
 21
-30.64075593215397
 31
0.0
 11
-52.53857631141667
 21
-30.6791678030873
 31
0.0
 11
-52.52547630715
 21
-30.72095229695397
 31
0.0
 11
-52.51030307728334
 21
-30.76661489535397
 31
0.0
  0
SPLINE
  5
AE
100
AcDbEntity
  8
0
100
AcDbSpline
210
0.0
220
0.0
230
1.0
 70
     8
 71
     3
 72
    10
 73
     6
 74
     4
 42
0.0000001
 43
0.0000001
 44
0.0000000001
 40
0.0
 40
0.0
 40
0.0
 40
0.0
 40
0.0111372532611952
 40
0.0208874846155809
 40
0.0279778925292859
 40
0.0279778925292859
 40
0.0279778925292859
 40
0.0279778925292859
 10
-52.48380236901668
 20
-30.75763756095397
 30
0.0
 10
-52.48731525902281
 20
-30.75883824313727
 30
0.0
 10
-52.49390354737709
 20
-30.7610900757969
 30
0.0
 10
-52.50273453387549
 20
-30.76408806381135
 30
0.0
 10
-52.50805918194288
 20
-30.76586573115274
 30
0.0
 10
-52.51030101648334
 20
-30.76661418175397
 30
0.0
 11
-52.48380236901668
 21
-30.75763756095397
 31
0.0
 11
-52.49434236688333
 21
-30.76123573482065
 31
0.0
 11
-52.50357711568334
 21
-30.76436406122064
 31
0.0
 11
-52.51030101648334
 21
-30.76661418175397
 31
0.0
  0
SPLINE
  5
AF
100
AcDbEntity
  8
0
100
AcDbSpline
210
0.0
220
0.0
230
1.0
 70
     8
 71
     3
 72
     9
 73
     5
 74
     3
 42
0.0000001
 43
0.0000001
 44
0.0000000001
 40
0.0
 40
0.0
 40
0.0
 40
0.0
 40
0.9215266503442732
 40
1.509924097527738
 40
1.509924097527738
 40
1.509924097527738
 40
1.509924097527738
 10
-46.81460992528334
 20
-32.18904225642064
 30
0.0
 10
-46.50863411843563
 20
-32.21616465356573
 30
0.0
 10
-46.00729186875978
 20
-32.26060478019341
 30
0.0
 10
-45.50594458406027
 20
-32.30498806589503
 30
0.0
 10
-45.31057617915001
 20
-32.32228364522064
 30
0.0
 11
-46.81460992528334
 21
-32.18904225642064
 31
0.0
 11
-45.89668062928335
 21
-32.27038827562064
 31
0.0
 11
-45.31057617915001
 21
-32.32228364522064
 31
0.0
  0
SPLINE
  5
B0
100
AcDbEntity
  8
0
100
AcDbSpline
210
0.0
220
0.0
230
1.0
 70
     8
 71
     3
 72
     9
 73
     5
 74
     3
 42
0.0000001
 43
0.0000001
 44
0.0000000001
 40
0.0
 40
0.0
 40
0.0
 40
0.0
 40
0.9215147819235285
 40
1.51099152537705
 40
1.51099152537705
 40
1.51099152537705
 40
1.51099152537705
 10
-46.82119098981668
 20
-32.2512773838873
 30
0.0
 10
-46.51521985007739
 20
-32.2784076273445
 30
0.0
 10
-46.01352437190935
 20
-32.32289260875704
 30
0.0
 10
-45.51182275240549
 20
-32.36730827061171
 30
0.0
 10
-45.31609601808334
 20
-32.38463596522064
 30
0.0
 11
-46.82119098981668
 21
-32.2512773838873
 31
0.0
 11
-45.90327528635
 21
-32.3326423310873
 31
0.0
 11
-45.31609601808334
 21
-32.38463596522064
 31
0.0
  0
SPLINE
  5
B1
100
AcDbEntity
  8
0
100
AcDbSpline
210
0.2272325770919465
220
0.9738405187237553
230
0.0
 70
    24
 71
     3
 72
     8
 73
     4
 74
     2
 42
0.0000001
 43
0.0000001
 44
0.0000000001
 40
0.0
 40
0.0
 40
0.0
 40
0.0
 40
0.0384507684232913
 40
0.0384507684232913
 40
0.0384507684232913
 40
0.0384507684232913
 10
-42.94370618875
 20
-32.60893431722065
 30
0.0
 10
-42.93122454999444
 20
-32.61184673962064
 30
0.0
 10
-42.91874291123889
 20
-32.61475916202064
 30
0.0
 10
-42.90626127248334
 20
-32.61767158442064
 30
0.0
 11
-42.94370618875
 21
-32.60893431722065
 31
0.0
 11
-42.90626127248334
 21
-32.61767158442064
 31
0.0
  0
SPLINE
  5
B2
100
AcDbEntity
  8
0
100
AcDbSpline
210
0.1910801498127741
220
0.9815744374969877
230
0.0
 70
    24
 71
     3
 72
     8
 73
     4
 74
     2
 42
0.0000001
 43
0.0000001
 44
0.0000000001
 40
0.0
 40
0.0
 40
0.0
 40
0.0
 40
0.5552242552176995
 40
0.5552242552176995
 40
0.5552242552176995
 40
0.5552242552176995
 10
-43.48870012475
 20
-32.50284198335396
 30
0.0
 10
-43.30703547941666
 20
-32.53820609464286
 30
0.0
 10
-43.12537083408333
 20
-32.57357020593175
 30
0.0
 10
-42.94370618875
 20
-32.60893431722065
 30
0.0
 11
-43.48870012475
 21
-32.50284198335396
 31
0.0
 11
-42.94370618875
 21
-32.60893431722065
 31
0.0
  0
SPLINE
  5
B3
100
AcDbEntity
  8
0
100
AcDbSpline
210
0.0
220
0.0
230
1.0
 70
     8
 71
     3
 72
    11
 73
     7
 74
     5
 42
0.0000001
 43
0.0000001
 44
0.0000000001
 40
0.0
 40
0.0
 40
0.0
 40
0.0
 40
0.1013016767923285
 40
0.2136183906568206
 40
0.3350687061794054
 40
0.4337891774084215
 40
0.4337891774084215
 40
0.4337891774084215
 40
0.4337891774084215
 10
-43.06017789861668
 20
-32.57023279508731
 30
0.0
 10
-43.09354518531479
 20
-32.56505109129554
 30
0.0
 10
-43.16390795038183
 20
-32.55412425118875
 30
0.0
 10
-43.27424571330879
 20
-32.53679949807769
 30
0.0
 10
-43.38371911872702
 20
-32.51951712630283
 30
0.0
 10
-43.45620072453074
 20
-32.50800417998877
 30
0.0
 10
-43.48870012368333
 20
-32.50284198975396
 30
0.0
 11
-43.06017789861668
 21
-32.57023279508731
 31
0.0
 11
-43.16027560741667
 21
-32.5546610766873
 31
0.0
 11
-43.27123569595
 21
-32.53725696895397
 31
0.0
 11
-43.39119973861667
 21
-32.51831475135397
 31
0.0
 11
-43.48870012368333
 21
-32.50284198975396
 31
0.0
  0
SPLINE
  5
B4
100
AcDbEntity
  8
0
100
AcDbSpline
210
0.0
220
0.0
230
1.0
 70
     8
 71
     3
 72
    11
 73
     7
 74
     5
 42
0.0000001
 43
0.0000001
 44
0.0000000001
 40
0.0
 40
0.0
 40
0.0
 40
0.0
 40
0.0016792553961705
 40
0.03273752787673
 40
0.0991500676756761
 40
0.1863033413322526
 40
0.1863033413322526
 40
0.1863033413322526
 40
0.1863033413322526
 10
-42.87932189648334
 20
-32.5978006958873
 30
0.0
 10
-42.87873562760371
 20
-32.59787541597152
 30
0.0
 10
-42.86730616080919
 20
-32.59933210376633
 30
0.0
 10
-42.93963616961178
 20
-32.58903923819165
 30
0.0
 10
-42.97230752160095
 20
-32.58364580347576
 30
0.0
 10
-43.02836408980644
 20
-32.57508902649239
 30
0.0
 10
-43.06017789861668
 20
-32.57023279508731
 30
0.0
 11
-42.87932189648334
 21
-32.5978006958873
 31
0.0
 11
-42.87765599888333
 21
-32.5980120814873
 31
0.0
 11
-42.90837703888334
 21
-32.59344765482064
 31
0.0
 11
-42.97403888421667
 21
-32.58349037055396
 31
0.0
 11
-43.06017789861668
 21
-32.57023279508731
 31
0.0
  0
SPLINE
  5
B5
100
AcDbEntity
  8
0
100
AcDbSpline
210
0.0
220
0.0
230
1.0
 70
     8
 71
     3
 72
     9
 73
     5
 74
     3
 42
0.0000001
 43
0.0000001
 44
0.0000000001
 40
0.0
 40
0.0
 40
0.0
 40
0.0
 40
0.0016792553961705
 40
0.0250311947108094
 40
0.0250311947108094
 40
0.0250311947108094
 40
0.0250311947108094
 10
-42.87932189648334
 20
-32.5978006958873
 30
0.0
 10
-42.87872939915501
 20
-32.59787628360014
 30
0.0
 10
-42.86989755855185
 20
-32.59900300367035
 30
0.0
 10
-42.88586116797456
 20
-32.59671294799517
 30
0.0
 10
-42.90075383461667
 20
-32.59457652415397
 30
0.0
 11
-42.87932189648334
 21
-32.5978006958873
 31
0.0
 11
-42.87765599888333
 21
-32.5980120814873
 31
0.0
 11
-42.90075383461667
 21
-32.59457652415397
 31
0.0
  0
SPLINE
  5
B6
100
AcDbEntity
  8
0
100
AcDbSpline
210
0.1463849777330892
220
0.9892276979007831
230
0.0
 70
    24
 71
     3
 72
     8
 73
     4
 74
     2
 42
0.0000001
 43
0.0000001
 44
0.0000000001
 40
0.0
 40
0.0
 40
0.0
 40
0.0
 40
0.004012878068173
 40
0.004012878068173
 40
0.004012878068173
 40
0.004012878068173
 10
-42.90075383461667
 20
-32.59457652415397
 30
0.0
 10
-42.90207705132778
 20
-32.59438071579842
 30
0.0
 10
-42.90340026803889
 20
-32.59418490744286
 30
0.0
 10
-42.90472348475001
 20
-32.59398909908731
 30
0.0
 11
-42.90075383461667
 21
-32.59457652415397
 31
0.0
 11
-42.90472348475001
 21
-32.59398909908731
 31
0.0
  0
SPLINE
  5
B7
100
AcDbEntity
  8
0
100
AcDbSpline
210
0.0
220
0.0
230
1.0
 70
     8
 71
     3
 72
     9
 73
     5
 74
     3
 42
0.0000001
 43
0.0000001
 44
0.0000000001
 40
0.0
 40
0.0
 40
0.0
 40
0.0
 40
0.3392592457443311
 40
1.273051647827245
 40
1.273051647827245
 40
1.273051647827245
 40
1.273051647827245
 10
-45.31057617915001
 20
-32.32228364522064
 30
0.0
 10
-45.19793005817178
 20
-32.33225303602781
 30
0.0
 10
-44.7752316889113
 20
-32.36966262634584
 30
0.0
 10
-44.35252911794592
 20
-32.4070247151058
 30
0.0
 10
-44.04247378768334
 20
-32.43443007188731
 30
0.0
 11
-45.31057617915001
 21
-32.32228364522064
 31
0.0
 11
-44.97263751781667
 21
-32.35218844415397
 31
0.0
 11
-44.04247378768334
 21
-32.43443007188731
 31
0.0
  0
SPLINE
  5
B8
100
AcDbEntity
  8
0
100
AcDbSpline
210
0.1341003715329557
220
0.9909677544475014
230
0.0
 70
    24
 71
     3
 72
     8
 73
     4
 74
     2
 42
0.0000001
 43
0.0000001
 44
0.0000000001
 40
0.0
 40
0.0
 40
0.0
 40
0.0
 40
0.3572314835451277
 40
0.3572314835451277
 40
0.3572314835451277
 40
0.3572314835451277
 10
-43.25411605541667
 20
-32.54693012415396
 30
0.0
 10
-43.13611442839445
 20
-32.56289841570952
 30
0.0
 10
-43.01811280137223
 20
-32.57886670726508
 30
0.0
 10
-42.90011117435001
 20
-32.59483499882064
 30
0.0
 11
-43.25411605541667
 21
-32.54693012415396
 31
0.0
 11
-42.90011117435001
 21
-32.59483499882064
 31
0.0
  0
LINE
  5
B9
100
AcDbEntity
  8
0
100
AcDbLine
 10
-45.79114
 20
-31.548295
 30
0.0
 11
-43.312876
 21
-32.305976
 31
0.0
  0
LINE
  5
BA
100
AcDbEntity
  8
0
100
AcDbLine
 10
-44.042474
 20
-32.43443
 30
0.0
 11
-43.4887
 21
-32.502842
 31
0.0
  0
SPLINE
  5
BB
100
AcDbEntity
  8
0
100
AcDbSpline
210
0.2306821786963141
220
0.9730291529198506
230
0.0
 70
    24
 71
     3
 72
     8
 73
     4
 74
     2
 42
0.0000001
 43
0.0000001
 44
0.0000000001
 40
0.0
 40
0.0
 40
0.0
 40
0.0
 40
0.0208411279413477
 40
0.0208411279413477
 40
0.0208411279413477
 40
0.0208411279413477
 10
-42.92247977061667
 20
-32.67830199828731
 30
0.0
 10
-42.91572009559446
 20
-32.67990455722065
 30
0.0
 10
-42.90896042057223
 20
-32.68150711615398
 30
0.0
 10
-42.90220074555
 20
-32.68310967508731
 30
0.0
 11
-42.92247977061667
 21
-32.67830199828731
 31
0.0
 11
-42.90220074555
 21
-32.68310967508731
 31
0.0
  0
SPLINE
  5
BC
100
AcDbEntity
  8
0
100
AcDbSpline
210
0.2271373219787002
220
0.9738627403101244
230
0.0
 70
    24
 71
     3
 72
     8
 73
     4
 74
     2
 42
0.0000001
 43
0.0000001
 44
0.0000000001
 40
0.0
 40
0.0
 40
0.0
 40
0.0
 40
0.0372130218834823
 40
0.0372130218834823
 40
0.0372130218834823
 40
0.0372130218834823
 10
-42.95872014608334
 20
-32.66984953215397
 30
0.0
 10
-42.94664002092778
 20
-32.67266702086508
 30
0.0
 10
-42.93455989577222
 20
-32.6754845095762
 30
0.0
 10
-42.92247977061667
 20
-32.67830199828731
 30
0.0
 11
-42.95872014608334
 21
-32.66984953215397
 31
0.0
 11
-42.92247977061667
 21
-32.67830199828731
 31
0.0
  0
SPLINE
  5
BD
100
AcDbEntity
  8
0
100
AcDbSpline
210
0.1909481366358658
220
0.9816001268924587
230
0.0
 70
    24
 71
     3
 72
     8
 73
     4
 74
     2
 42
0.0000001
 43
0.0000001
 44
0.0000000001
 40
0.0
 40
0.0
 40
0.0
 40
0.0
 40
0.5529091825319114
 40
0.5529091825319114
 40
0.5529091825319114
 40
0.5529091825319114
 10
-43.50145586981667
 20
-32.56427255402064
 30
0.0
 10
-43.32054396190556
 20
-32.59946488006508
 30
0.0
 10
-43.13963205399445
 20
-32.63465720610953
 30
0.0
 10
-42.95872014608334
 20
-32.66984953215397
 30
0.0
 11
-43.50145586981667
 21
-32.56427255402064
 31
0.0
 11
-42.95872014608334
 21
-32.66984953215397
 31
0.0
  0
SPLINE
  5
BE
100
AcDbEntity
  8
0
100
AcDbSpline
210
0.1225077360531513
220
0.9924675584658329
230
0.0
 70
    24
 71
     3
 72
     8
 73
     4
 74
     2
 42
0.0000001
 43
0.0000001
 44
0.0000000001
 40
0.0
 40
0.0
 40
0.0
 40
0.0
 40
0.551784421494371
 40
0.551784421494371
 40
0.551784421494371
 40
0.551784421494371
 10
-44.04908400741667
 20
-32.49667469375396
 30
0.0
 10
-43.86654129488333
 20
-32.51920731384285
 30
0.0
 10
-43.68399858235
 20
-32.54173993393175
 30
0.0
 10
-43.50145586981667
 20
-32.56427255402064
 30
0.0
 11
-44.04908400741667
 21
-32.49667469375396
 31
0.0
 11
-43.50145586981667
 21
-32.56427255402064
 31
0.0
  0
SPLINE
  5
BF
100
AcDbEntity
  8
0
100
AcDbSpline
210
0.0
220
0.0
230
1.0
 70
     8
 71
     3
 72
     9
 73
     5
 74
     3
 42
0.0000001
 43
0.0000001
 44
0.0000000001
 40
0.0
 40
0.0
 40
0.0
 40
0.0
 40
0.3381705459869738
 40
1.271956018912037
 40
1.271956018912037
 40
1.271956018912037
 40
1.271956018912037
 10
-45.31609601808334
 20
-32.38463596522064
 30
0.0
 10
-45.20381136728271
 20
-32.39457317387948
 30
0.0
 10
-44.78147672249439
 20
-32.43194985412201
 30
0.0
 10
-44.35913742045109
 20
-32.46927387855897
 30
0.0
 10
-44.04908400741667
 20
-32.49667469375396
 30
0.0
 11
-45.31609601808334
 21
-32.38463596522064
 31
0.0
 11
-44.97924173648334
 21
-32.41444386922064
 31
0.0
 11
-44.04908400741667
 21
-32.49667469375396
 31
0.0
  0
SPLINE
  5
C0
100
AcDbEntity
  8
0
100
AcDbSpline
210
0.0
220
0.0
230
-1.0
 70
     8
 71
     3
 72
    10
 73
     6
 74
     4
 42
0.0000001
 43
0.0000001
 44
0.0000000001
 40
0.0
 40
0.0
 40
0.0
 40
0.0
 40
1.992392638030802
 40
3.986188306944475
 40
5.981257786345893
 40
5.981257786345893
 40
5.981257786345893
 40
5.981257786345893
 10
-49.61498954661667
 20
-21.7652482350873
 30
0.0
 10
-49.60655326331674
 20
-21.10110702570239
 30
0.0
 10
-49.58967475593705
 20
-19.77235692269727
 30
0.0
 10
-49.46295306321186
 20
-17.78144279388793
 30
0.0
 10
-49.31131403974116
 20
-16.46036910460602
 30
0.0
 10
-49.23547031568334
 20
-15.7996213230873
 30
0.0
 11
-49.61498954661667
 21
-21.7652482350873
 31
0.0
 11
-49.57279890661667
 21
-19.77330235882065
 31
0.0
 11
-49.44620849701667
 21
-17.78352949802064
 31
0.0
 11
-49.23547031568334
 21
-15.7996213230873
 31
0.0
  0
SPLINE
  5
C1
100
AcDbEntity
  8
0
100
AcDbSpline
210
0.0
220
0.0
230
1.0
 70
     8
 71
     3
 72
    10
 73
     6
 74
     4
 42
0.0000001
 43
0.0000001
 44
0.0000000001
 40
0.0
 40
0.0
 40
0.0
 40
0.0
 40
0.6361601112081536
 40
1.270187992893851
 40
1.902085387212885
 40
1.902085387212885
 40
1.902085387212885
 40
1.902085387212885
 10
-42.40692067301668
 20
-32.75259354495397
 30
0.0
 10
-42.20409656955768
 20
-32.81447258003203
 30
0.0
 10
-41.7991281719104
 20
-32.93802324909038
 30
0.0
 10
-41.1926790688158
 20
-33.12298696902447
 30
0.0
 10
-40.78905000367221
 20
-33.24605831461117
 30
0.0
 10
-40.58757511461667
 20
-33.30749042602064
 30
0.0
 11
-42.40692067301668
 21
-32.75259354495397
 31
0.0
 11
-41.79844573861667
 21
-32.93822204842065
 31
0.0
 11
-41.19199746341667
 21
-33.12318648895397
 31
0.0
 11
-40.58757511461667
 21
-33.30749042602064
 31
0.0
  0
SPLINE
  5
C2
100
AcDbEntity
  8
0
100
AcDbSpline
210
0.0
220
0.0
230
1.0
 70
     8
 71
     3
 72
    10
 73
     6
 74
     4
 42
0.0000001
 43
0.0000001
 44
0.0000000001
 40
0.0
 40
0.0
 40
0.0
 40
0.0
 40
0.6361721214081513
 40
1.270212752861504
 40
1.90212360316081
 40
1.90212360316081
 40
1.90212360316081
 40
1.90212360316081
 10
-42.42618635621667
 20
-32.81232735188731
 30
0.0
 10
-42.22335656652445
 20
-32.87420146788036
 30
0.0
 10
-41.81837656683978
 20
-32.99774239110166
 30
0.0
 10
-41.21190774353683
 20
-33.18268511898712
 30
0.0
 10
-40.80826351866448
 20
-33.30573669470885
 30
0.0
 10
-40.60678094288333
 20
-33.36715897428731
 30
0.0
 11
-42.42618635621667
 21
-32.81232735188731
 31
0.0
 11
-41.81769403088334
 21
-32.99794000788731
 31
0.0
 11
-41.21122590608334
 21
-33.18288306922064
 31
0.0
 11
-40.60678094288333
 21
-33.36715897428731
 31
0.0
  0
SPLINE
  5
C3
100
AcDbEntity
  8
0
100
AcDbSpline
210
-0.2607132308500824
220
0.9654162891000503
230
0.0
 70
    24
 71
     3
 72
     8
 73
     4
 74
     2
 42
0.0000001
 43
0.0000001
 44
0.0000000001
 40
0.0
 40
0.0
 40
0.0
 40
0.0
 40
0.5140719293877246
 40
0.5140719293877246
 40
0.5140719293877246
 40
0.5140719293877246
 10
-42.92247977061667
 20
-10.85219945748731
 30
0.0
 10
-42.75704863248334
 20
-10.80752433962063
 30
0.0
 10
-42.59161749435
 20
-10.76284922175396
 30
0.0
 10
-42.42618635621667
 20
-10.7181741038873
 30
0.0
 11
-42.92247977061667
 21
-10.85219945748731
 31
0.0
 11
-42.42618635621667
 21
-10.7181741038873
 31
0.0
  0
SPLINE
  5
C4
100
AcDbEntity
  8
0
100
AcDbSpline
210
-0.2608465123099407
220
0.9653802862166497
230
0.0
 70
    24
 71
     3
 72
     8
 73
     4
 74
     2
 42
0.0000001
 43
0.0000001
 44
0.0000000001
 40
0.0
 40
0.0
 40
0.0
 40
0.0
 40
0.5172474857795157
 40
0.5172474857795157
 40
0.5172474857795157
 40
0.5172474857795157
 10
-42.90626127248334
 20
-10.91282987135398
 30
0.0
 10
-42.73981443052778
 20
-10.86785580379842
 30
0.0
 10
-42.57336758857222
 20
-10.82288173624287
 30
0.0
 10
-42.40692074661667
 20
-10.77790766868731
 30
0.0
 11
-42.90626127248334
 21
-10.91282987135398
 31
0.0
 11
-42.40692074661667
 21
-10.77790766868731
 31
0.0
  0
ARC
  5
C5
100
AcDbEntity
  8
0
100
AcDbCircle
 10
-35.384503
 20
-37.157064
 30
0.0
 40
27.117442
100
AcDbArc
 50
90.0
 51
107.0
  0
LINE
  5
C6
100
AcDbEntity
  8
0
100
AcDbLine
 10
-52.119525
 20
-8.265104
 30
0.0
 11
-35.903794
 21
-8.265104
 31
0.0
  0
LINE
  5
C7
100
AcDbEntity
  8
0
100
AcDbLine
 10
-47.171671
 20
-9.270128
 30
0.0
 11
-36.059926
 21
-9.248784
 31
0.0
  0
LINE
  5
C8
100
AcDbEntity
  8
0
100
AcDbLine
 10
-47.171329
 20
-9.301166
 30
0.0
 11
-36.059381
 21
-9.279846
 31
0.0
  0
SPLINE
  5
C9
100
AcDbEntity
  8
0
100
AcDbSpline
210
0.0
220
0.0
230
-1.0
 70
     8
 71
     3
 72
    35
 73
    31
 74
    29
 42
0.0000001
 43
0.0000001
 44
0.0000000001
 40
0.0
 40
0.0
 40
0.0
 40
0.0
 40
0.3539201141499802
 40
0.6939641288334883
 40
1.011113748383444
 40
1.297647402283543
 40
1.55367490044688
 40
1.785052172278
 40
1.998934053985974
 40
2.205238239360868
 40
2.414603294855973
 40
2.638410214420256
 40
2.885468418937588
 40
3.152564852973798
 40
3.426916619225888
 40
3.706394172440016
 40
3.989186653701916
 40
4.273392967768877
 40
4.557042470729214
 40
4.835081975566711
 40
5.086243800352796
 40
5.312072552593281
 40
5.513882187350092
 40
5.697963462845044
 40
5.872021883110712
 40
6.043069157729531
 40
6.216675220286861
 40
6.398169677024976
 40
6.593103280892654
 40
6.807860723992781
 40
6.807860723992781
 40
6.807860723992781
 40
6.807860723992781
 10
-52.51030101648334
 20
-12.76388727295397
 30
0.0
 10
-52.4696038207899
 20
-12.65309505658832
 30
0.0
 10
-52.38980503901341
 20
-12.43585443974353
 30
0.0
 10
-52.24404274808244
 20
-12.13146054314282
 30
0.0
 10
-52.09025263927959
 20
-11.85684237875159
 30
0.0
 10
-51.93413997565263
 20
-11.61629690201706
 30
0.0
 10
-51.7817286458902
 20
-11.40801276499333
 30
0.0
 10
-51.63449576992306
 20
-11.22633564481339
 30
0.0
 10
-51.49044209856608
 20
-11.06371281890252
 30
0.0
 10
-51.34494634194211
 20
-10.91241170867159
 30
0.0
 10
-51.19099847494234
 20
-10.76489142932032
 30
0.0
 10
-51.02074609388957
 20
-10.61502872262527
 30
0.0
 10
-50.82890123351916
 20
-10.46092170987228
 30
0.0
 10
-50.61632223351974
 20
-10.306172710161
 30
0.0
 10
-50.38744877192034
 20
-10.15598687875594
 30
0.0
 10
-50.14703558537925
 20
-10.01444646037627
 30
0.0
 10
-49.89710720398793
 20
-9.88324966455421
 30
0.0
 10
-49.63981447962549
 20
-9.763814684555566
 30
0.0
 10
-49.37846806335612
 20
-9.657674205693194
 30
0.0
 10
-49.12267034946438
 20
-9.568012259772673
 30
0.0
 10
-48.88154340573979
 20
-9.495647185116625
 30
0.0
 10
-48.662387172855
 20
-9.439165635780966
 30
0.0
 10
-48.46325609524189
 20
-9.395128566263922
 30
0.0
 10
-48.27982479228656
 20
-9.360471742423083
 30
0.0
 10
-48.10560556117738
 20
-9.33270084595237
 30
0.0
 10
-47.93414541140868
 20
-9.310238445307971
 30
0.0
 10
-47.75965246397113
 20
-9.292337203074925
 30
0.0
 10
-47.57676796477229
 20
-9.279074025006657
 30
0.0
 10
-47.37984482646664
 20
-9.270416088999791
 30
0.0
 10
-47.24326761465537
 20
-9.270183981979103
 30
0.0
 10
-47.17167470821667
 20
-9.270062312953974
 30
0.0
 11
-52.51030101648334
 21
-12.76388727295397
 31
0.0
 11
-52.38294422608334
 21
-12.4336756814873
 31
0.0
 11
-52.23743448848334
 21
-12.12633735295399
 31
0.0
 11
-52.08215986128333
 21
-11.84979861908731
 31
0.0
 11
-51.92627884048334
 21
-11.60937681855397
 31
0.0
 11
-51.77512362448334
 21
-11.40273175935397
 31
0.0
 11
-51.62948295781667
 21
-11.22294233215398
 31
0.0
 11
-51.48767576635001
 21
-11.0628293102873
 31
0.0
 11
-51.34466767248333
 21
-10.91413465002063
 31
0.0
 11
-51.19350925115001
 21
-10.76927313642062
 31
0.0
 11
-51.02553589221667
 21
-10.62137287295397
 31
0.0
 11
-50.83296713381667
 21
-10.46659874815396
 31
0.0
 11
-50.61706578341667
 21
-10.30935018068731
 31
0.0
 11
-50.38771412261668
 21
-10.15879551508731
 31
0.0
 11
-50.14689136315001
 21
-10.01697837482064
 31
0.0
 11
-49.89650782821668
 21
-9.885526205220635
 31
0.0
 11
-49.63872266555
 21
-9.765859840420638
 31
0.0
 11
-49.37591350075001
 21
-9.659143471353964
 31
0.0
 11
-49.11353015995
 21
-9.567160055887306
 31
0.0
 11
-48.87299046928334
 21
-9.494890287353975
 31
0.0
 11
-48.65431417168334
 21
-9.438504986020639
 31
0.0
 11
-48.45726774928333
 21
-9.394917876687308
 31
0.0
 11
-48.27638674981667
 21
-9.360742154020648
 31
0.0
 11
-48.10449752421668
 21
-9.333348216953972
 31
0.0
 11
-47.93489847781667
 21
-9.311137102287311
 31
0.0
 11
-47.76219609168334
 21
-9.293446687353984
 31
0.0
 11
-47.58118374928334
 21
-9.280226637220643
 31
0.0
 11
-47.38642329915001
 21
-9.272012199887321
 31
0.0
 11
-47.17167470821667
 21
-9.270062312953974
 31
0.0
  0
SPLINE
  5
CA
100
AcDbEntity
  8
0
100
AcDbSpline
210
0.0
220
0.0
230
-1.0
 70
     8
 71
     3
 72
    35
 73
    31
 74
    29
 42
0.0000001
 43
0.0000001
 44
0.0000000001
 40
0.0
 40
0.0
 40
0.0
 40
0.0
 40
0.351667568432921
 40
0.6897122023438345
 40
1.004997156763921
 40
1.289864281120341
 40
1.544433494806449
 40
1.774521180563598
 40
1.987225304938289
 40
2.192386853540017
 40
2.40058239993989
 40
2.623146717229499
 40
2.868861437046582
 40
3.134550629912023
 40
3.40748876798304
 40
3.685544545593865
 40
3.966905880170477
 40
4.249672159969932
 40
4.53187490526267
 40
4.808485763252445
 40
5.058387650194081
 40
5.283109509087309
 40
5.483940859190457
 40
5.667131324797497
 40
5.840342942912163
 40
6.010548093429933
 40
6.183286877045078
 40
6.363874219721989
 40
6.557842142459844
 40
6.771641309968104
 40
6.771641309968104
 40
6.771641309968104
 40
6.771641309968104
 10
-52.48380118075001
 20
-12.77286081535397
 30
0.0
 10
-52.44334412555323
 20
-12.66278059443716
 30
0.0
 10
-52.3639972447349
 20
-12.4468844515504
 30
0.0
 10
-52.21903799582114
 20
-12.14436851700131
 30
0.0
 10
-52.06605721071376
 20
-11.87141069321116
 30
0.0
 10
-51.9107503624517
 20
-11.63232583948988
 30
0.0
 10
-51.75911153833045
 20
-11.42530036635403
 30
0.0
 10
-51.61261055072823
 20
-11.24471489935441
 30
0.0
 10
-51.46926818198298
 20
-11.08306990972452
 30
0.0
 10
-51.3244921491508
 20
-10.93269092314853
 30
0.0
 10
-51.17131061583059
 20
-10.78608397116585
 30
0.0
 10
-51.00190434089126
 20
-10.63715530513773
 30
0.0
 10
-50.81099985454144
 20
-10.4840039742407
 30
0.0
 10
-50.59944547398567
 20
-10.33020706914449
 30
0.0
 10
-50.37165932283674
 20
-10.18094308811694
 30
0.0
 10
-50.13238209644259
 20
-10.04027761930838
 30
0.0
 10
-49.88363792951165
 20
-9.909905036945666
 30
0.0
 10
-49.62757582153381
 20
-9.791239011248137
 30
0.0
 10
-49.36749670911137
 20
-9.685802678366719
 30
0.0
 10
-49.11294519484098
 20
-9.596754748825439
 30
0.0
 10
-48.87298901368034
 20
-9.524891998942919
 30
0.0
 10
-48.65488266640333
 20
-9.468806126500215
 30
0.0
 10
-48.45669820493855
 20
-9.425083843134199
 30
0.0
 10
-48.2741400516214
 20
-9.390683005819333
 30
0.0
 10
-48.10075750985663
 20
-9.363126942839308
 30
0.0
 10
-47.93013260824182
 20
-9.340849774659403
 30
0.0
 10
-47.75650008138381
 20
-9.323109247636013
 30
0.0
 10
-47.57452167341199
 20
-9.309983070807003
 30
0.0
 10
-47.37853879712991
 20
-9.301427171229736
 30
0.0
 10
-47.24260276460014
 20
-9.301255554326262
 30
0.0
 10
-47.17132920848334
 20
-9.301165572687303
 30
0.0
 11
-52.48380118075001
 21
-12.77286081535397
 31
0.0
 11
-52.35719515301667
 21
-12.44477394815397
 31
0.0
 11
-52.21246338448334
 21
-12.13927944788731
 31
0.0
 11
-52.05800889275001
 21
-11.86441873322063
 31
0.0
 11
-51.90293583461667
 21
-11.62545926975398
 31
0.0
 11
-51.75254586021668
 21
-11.42006126548731
 31
0.0
 11
-51.60762622715001
 21
-11.24134740735397
 31
0.0
 11
-51.46651408635001
 21
-11.08219211135398
 31
0.0
 11
-51.32421292901668
 21
-10.93440293162064
 31
0.0
 11
-51.17381141861667
 21
-10.79044192575398
 31
0.0
 11
-51.00667847035001
 21
-10.6434675982873
 31
0.0
 11
-50.81505911995001
 21
-10.48965684415396
 31
0.0
 11
-50.60019572475001
 21
-10.33337354815397
 31
0.0
 11
-50.37193021861668
 21
-10.18374037695398
 31
0.0
 11
-50.13224241915001
 21
-10.04279792682064
 31
0.0
 11
-49.88304258875
 21
-9.91217003882064
 31
0.0
 11
-49.62648810128334
 21
-9.793272755620641
 31
0.0
 11
-49.36495293115001
 21
-9.687264528420648
 31
0.0
 11
-49.10386172901668
 21
-9.595913825487322
 31
0.0
 11
-48.86448729168334
 21
-9.524144529487308
 31
0.0
 11
-48.64685266341667
 21
-9.468152722553988
 31
0.0
 11
-48.45073945061667
 21
-9.424876413220651
 31
0.0
 11
-48.27071741541668
 21
-9.390952770553987
 31
0.0
 11
-48.09965195515001
 21
-9.363770552953987
 31
0.0
 11
-47.93087826661667
 21
-9.341742495353976
 31
0.0
 11
-47.75903138448334
 21
-9.32421148095397
 31
0.0
 11
-47.57891875301667
 21
-9.311126056953973
 31
0.0
 11
-47.38512034661667
 21
-9.303018484687306
 31
0.0
 11
-47.17132920848334
 21
-9.301165572687303
 31
0.0
  0
SPLINE
  5
CB
100
AcDbEntity
  8
0
100
AcDbSpline
210
0.0
220
0.0
230
1.0
 70
     8
 71
     3
 72
     9
 73
     5
 74
     3
 42
0.0000001
 43
0.0000001
 44
0.0000000001
 40
0.0
 40
0.0
 40
0.0
 40
0.0
 40
1.958435226810563
 40
3.918341176379487
 40
3.918341176379487
 40
3.918341176379487
 40
3.918341176379487
 10
-50.72422394555001
 20
-11.62524620095397
 30
0.0
 10
-50.07396084609375
 20
-11.56761745331606
 30
0.0
 10
-48.77294632021172
 20
-11.45231668067802
 30
0.0
 10
-47.471938874719
 20
-11.3369360432194
 30
0.0
 10
-46.82119098981668
 20
-11.27922407082063
 30
0.0
 11
-50.72422394555001
 21
-11.62524620095397
 31
0.0
 11
-48.77343641595
 21
-11.45234000682064
 31
0.0
 11
-46.82119098981668
 21
-11.27922407082063
 31
0.0
  0
LINE
  5
CC
100
AcDbEntity
  8
0
100
AcDbLine
 10
-50.729413
 20
-11.688204
 30
0.0
 11
-46.81461
 21
-11.341459
 31
0.0
  0
SPLINE
  5
CD
100
AcDbEntity
  8
0
100
AcDbSpline
210
0.0
220
0.0
230
-1.0
 70
     8
 71
     3
 72
    13
 73
     9
 74
     7
 42
0.0000001
 43
0.0000001
 44
0.0000000001
 40
0.0
 40
0.0
 40
0.0
 40
0.0
 40
0.4229731800885104
 40
0.8107387014961474
 40
1.159529781752354
 40
1.485030561249562
 40
1.819055793108907
 40
2.186353723446482
 40
2.186353723446482
 40
2.186353723446482
 40
2.186353723446482
 10
-50.72422394555001
 20
-11.62524620095397
 30
0.0
 10
-50.8642374742779
 20
-11.6451429557474
 30
0.0
 10
-51.13261001375901
 20
-11.68328028904554
 30
0.0
 10
-51.49541659585777
 20
-11.8249533511404
 30
0.0
 10
-51.80320488704981
 20
-12.00220381732234
 30
0.0
 10
-52.06502229156121
 20
-12.21472292552703
 30
0.0
 10
-52.29876780937983
 20
-12.46752448581513
 30
0.0
 10
-52.42020298413716
 20
-12.66791304417485
 30
0.0
 10
-52.48380118075001
 20
-12.77286081535397
 30
0.0
 11
-50.72422394555001
 21
-11.62524620095397
 31
0.0
 11
-51.14026352635001
 21
-11.70151794068731
 31
0.0
 11
-51.50289826555001
 21
-11.83884290388731
 31
0.0
 11
-51.80451558395001
 21
-12.01400628735397
 31
0.0
 11
-52.05766518501667
 21
-12.21861820522064
 31
0.0
 11
-52.28252521915001
 21
-12.46562189055397
 31
0.0
 11
-52.48380118075001
 21
-12.77286081535397
 31
0.0
  0
SPLINE
  5
CE
100
AcDbEntity
  8
0
100
AcDbSpline
210
0.0
220
0.0
230
-1.0
 70
     8
 71
     3
 72
    14
 73
    10
 74
     8
 42
0.0000001
 43
0.0000001
 44
0.0000000001
 40
0.0
 40
0.0
 40
0.0
 40
0.0
 40
0.4253765953400845
 40
0.8186972817097096
 40
1.171069405155526
 40
1.502887105094885
 40
1.850925186973792
 40
2.240184454239823
 40
2.657257642842522
 40
2.657257642842522
 40
2.657257642842522
 40
2.657257642842522
 10
-50.72948900048334
 20
-11.68820431082064
 30
0.0
 10
-50.87023341132433
 20
-11.70875355228712
 30
0.0
 10
-51.14111589012935
 20
-11.7483034671487
 30
0.0
 10
-51.50635406157224
 20
-11.89511325777033
 30
0.0
 10
-51.8153936968874
 20
-12.08033787274381
 30
0.0
 10
-52.07887012070083
 20
-12.30433180951607
 30
0.0
 10
-52.30916808369759
 20
-12.57774253890642
 30
0.0
 10
-52.50953129760787
 20
-12.91017485539278
 30
0.0
 10
-52.58915702678021
 20
-13.16781125014455
 30
0.0
 10
-52.63034321061667
 20
-13.30107294868731
 30
0.0
 11
-50.72948900048334
 21
-11.68820431082064
 31
0.0
 11
-51.14752606075001
 21
-11.76688254228731
 31
0.0
 11
-51.51392314661667
 21
-11.90990120468732
 31
0.0
 11
-51.81556164901667
 21
-12.09205588415397
 31
0.0
 11
-52.06827770021668
 21
-12.30708514602064
 31
0.0
 11
-52.29341463461667
 21
-12.57249778175398
 31
0.0
 11
-52.49064401701667
 21
-12.90809180415397
 31
0.0
 11
-52.63034321061667
 21
-13.30107294868731
 31
0.0
  0
SPLINE
  5
CF
100
AcDbEntity
  8
0
100
AcDbSpline
210
0.0
220
0.0
230
-1.0
 70
     8
 71
     3
 72
    22
 73
    18
 74
    16
 42
0.0000001
 43
0.0000001
 44
0.0000000001
 40
0.0
 40
0.0
 40
0.0
 40
0.0
 40
0.0106922878342967
 40
0.0533222383453145
 40
0.0897706249638971
 40
0.1247510054027016
 40
0.155799313080246
 40
0.1868506791538684
 40
0.2210676300719452
 40
0.2592090117846889
 40
0.2984361086894344
 40
0.33616018071844
 40
0.3727151770124708
 40
0.4101350493730857
 40
0.4502031660755571
 40
0.4939930512030824
 40
0.542110613456655
 40
0.542110613456655
 40
0.542110613456655
 40
0.542110613456655
 10
-52.62539162021667
 20
-13.28822817535397
 30
0.0
 10
-52.62807788150247
 20
-13.28564311586672
 30
0.0
 10
-52.64147421601563
 20
-13.27275147281969
 30
0.0
 10
-52.62182651818415
 20
-13.23920405097529
 30
0.0
 10
-52.62260345987606
 20
-13.20258161003577
 30
0.0
 10
-52.6148141548494
 20
-13.16876499968322
 30
0.0
 10
-52.60955291030551
 20
-13.13695069928753
 30
0.0
 10
-52.60311920664784
 20
-13.10546079560139
 30
0.0
 10
-52.59610014011132
 20
-13.07172315248694
 30
0.0
 10
-52.58793632542066
 20
-13.03543002809758
 30
0.0
 10
-52.57903574248227
 20
-12.99811248276307
 30
0.0
 10
-52.569743234883
 20
-12.96143445645648
 30
0.0
 10
-52.56012432352072
 20
-12.92546447757453
 30
0.0
 10
-52.54982065125825
 20
-12.88887182111422
 30
0.0
 10
-52.53830874509969
 20
-12.85011857486888
 30
0.0
 10
-52.52519055050248
 20
-12.80812497198991
 30
0.0
 10
-52.51541894137996
 20
-12.77908844848504
 30
0.0
 10
-52.51030307728334
 20
-12.76388656042063
 30
0.0
 11
-52.62539162021667
 21
-13.28822817535397
 31
0.0
 11
-52.63244249275
 21
-13.28019012735398
 31
0.0
 11
-52.62565991568334
 21
-13.23810320148731
 31
0.0
 11
-52.62107307515001
 21
-13.20194458175398
 31
0.0
 11
-52.61491955301668
 21
-13.16750969855397
 31
0.0
 11
-52.60935744208334
 21
-13.1369636622873
 31
0.0
 11
-52.60331472208334
 21
-13.10650593962064
 31
0.0
 11
-52.59628098981668
 21
-13.07301972842064
 31
0.0
 11
-52.58793730981667
 21
-13.0358021518873
 31
0.0
 11
-52.57882884795001
 21
-12.99764719082065
 31
0.0
 11
-52.56956616208334
 21
-12.96107796522063
 31
0.0
 11
-52.56012231248334
 21
-12.92576392468731
 31
0.0
 11
-52.54997728635
 21
-12.88974552255397
 31
0.0
 11
-52.53857631141667
 21
-12.85133365268732
 31
0.0
 11
-52.52547630715
 21
-12.80954915882063
 31
0.0
 11
-52.51030307728334
 21
-12.76388656042063
 31
0.0
  0
SPLINE
  5
D0
100
AcDbEntity
  8
0
100
AcDbSpline
210
0.0
220
0.0
230
-1.0
 70
     8
 71
     3
 72
    20
 73
    16
 74
    14
 42
0.0000001
 43
0.0000001
 44
0.0000000001
 40
0.0
 40
0.0
 40
0.0
 40
0.0
 40
0.0366902100956243
 40
0.0709749916754395
 40
0.1017414970933293
 40
0.132611194164242
 40
0.1667596333385613
 40
0.2046418468584434
 40
0.2433954304691328
 40
0.2806048170784728
 40
0.3166728126189517
 40
0.3535874318794263
 40
0.3930704889193505
 40
0.4361495959189397
 40
0.4833951403078393
 40
0.4833951403078393
 40
0.4833951403078393
 40
0.4833951403078393
 10
-52.62142492795001
 20
-13.23546409322063
 30
0.0
 10
-52.61913680060526
 20
-13.22344929469935
 30
0.0
 10
-52.61471055668837
 20
-13.2002073938542
 30
0.0
 10
-52.6073901354764
 20
-13.16708975564789
 30
0.0
 10
-52.60019529201581
 20
-13.13593598803686
 30
0.0
 10
-52.59256447403134
 20
-13.10493185037477
 30
0.0
 10
-52.58394760932106
 20
-13.07173079446196
 30
0.0
 10
-52.5741560997321
 20
-13.03612298667856
 30
0.0
 10
-52.56354785439743
 20
-12.99968599904786
 30
0.0
 10
-52.55257897314797
 20
-12.9639882213991
 30
0.0
 10
-52.54128983850399
 20
-12.92903422399576
 30
0.0
 10
-52.52926427216554
 20
-12.89352526914706
 30
0.0
 10
-52.51591414852558
 20
-12.85600270973808
 30
0.0
 10
-52.5008015300038
 20
-12.81545492643328
 30
0.0
 10
-52.48964039426343
 20
-12.78749087882201
 30
0.0
 10
-52.48380240955
 20
-12.77286390122063
 30
0.0
 11
-52.62142492795001
 21
-13.23546409322063
 31
0.0
 11
-52.61437869648334
 21
-13.19945684202064
 31
0.0
 11
-52.60708175568335
 21
-13.16595757482064
 31
0.0
 11
-52.60013149115001
 21
-13.13598639402065
 31
0.0
 11
-52.59276597648334
 21
-13.10600827882064
 31
0.0
 11
-52.58418509755001
 21
-13.07295552682064
 31
0.0
 11
-52.57414327355
 21
-13.0364284974873
 31
0.0
 11
-52.56331048741667
 21
-12.99921974868731
 31
0.0
 11
-52.55238143355001
 21
-12.9636515854873
 31
0.0
 11
-52.54129677541667
 21
-12.92932913428732
 31
0.0
 11
-52.52945308155001
 21
-12.89436606762064
 31
0.0
 11
-52.51622750608333
 21
-12.85716397162064
 31
0.0
 11
-52.50113982395
 21
-12.81681336682064
 31
0.0
 11
-52.48380240955
 21
-12.77286390122063
 31
0.0
  0
SPLINE
  5
D1
100
AcDbEntity
  8
0
100
AcDbSpline
210
0.0
220
0.0
230
-1.0
 70
     8
 71
     3
 72
     9
 73
     5
 74
     3
 42
0.0000001
 43
0.0000001
 44
0.0000000001
 40
0.0
 40
0.0
 40
0.0
 40
0.0
 40
0.0123264667691676
 40
0.0538857531178408
 40
0.0538857531178408
 40
0.0538857531178408
 40
0.0538857531178408
 10
-52.62539162021667
 20
-13.28822817535397
 30
0.0
 10
-52.62672584925824
 20
-13.28428626689331
 30
0.0
 10
-52.63255849685168
 20
-13.26705402101929
 30
0.0
 10
-52.62627277735794
 20
-13.24921918057202
 30
0.0
 10
-52.62142492795001
 20
-13.23546409322063
 30
0.0
 11
-52.62539162021667
 21
-13.28822817535397
 31
0.0
 11
-52.62876018448334
 21
-13.27637091775397
 31
0.0
 11
-52.62142492795001
 21
-13.23546409322063
 31
0.0
  0
SPLINE
  5
D2
100
AcDbEntity
  8
0
100
AcDbSpline
210
-0.020320594414871
220
0.999793515403369
230
0.0
 70
    24
 71
     3
 72
     8
 73
     4
 74
     2
 42
0.0000001
 43
0.0000001
 44
0.0000000001
 40
0.0
 40
0.0
 40
0.0
 40
0.0
 40
0.2032804052058043
 40
0.2032804052058043
 40
0.2032804052058043
 40
0.2032804052058043
 10
-52.32180115941667
 20
-8.269381506553976
 30
0.0
 10
-52.25405501577223
 20
-8.268004580331751
 30
0.0
 10
-52.18630887212778
 20
-8.266627654109525
 30
0.0
 10
-52.11856272848334
 20
-8.265250727887298
 30
0.0
 11
-52.32180115941667
 21
-8.269381506553976
 31
0.0
 11
-52.11856272848334
 21
-8.265250727887298
 31
0.0
  0
SPLINE
  5
D3
100
AcDbEntity
  8
0
100
AcDbSpline
210
0.0
220
0.0
230
-1.0
 70
     8
 71
     3
 72
    27
 73
    23
 74
    21
 42
0.0000001
 43
0.0000001
 44
0.0000000001
 40
0.0
 40
0.0
 40
0.0
 40
0.0
 40
0.0167525859479356
 40
0.0349399019334634
 40
0.0573713899781419
 40
0.0835702989007825
 40
0.1094340755870135
 40
0.1370836877339381
 40
0.1666812835725318
 40
0.1982177515922299
 40
0.2319716219107439
 40
0.2683620049204858
 40
0.3078073678215383
 40
0.3507078375717657
 40
0.3974571294415845
 40
0.448430959843101
 40
0.5039909365016543
 40
0.5645165755711903
 40
0.6306145091724621
 40
0.7030021729718447
 40
0.7824024121952028
 40
0.8695384994292265
 40
0.8695384994292265
 40
0.8695384994292265
 40
0.8695384994292265
 10
-52.13400821008335
 20
-8.265242197753984
 30
0.0
 10
-52.13959240459414
 20
-8.265239197878198
 30
0.0
 10
-52.15123903689266
 20
-8.26523294121036
 30
0.0
 10
-52.17036283032498
 20
-8.26522182321862
 30
0.0
 10
-52.19263539814726
 20
-8.265209942852507
 30
0.0
 10
-52.21746678620311
 20
-8.265197403958547
 30
0.0
 10
-52.244037549236
 20
-8.265185006174345
 30
0.0
 10
-52.27174120824714
 20
-8.265173113166309
 30
0.0
 10
-52.30133576468596
 20
-8.26516160311697
 30
0.0
 10
-52.3329650741968
 20
-8.265150663682236
 30
0.0
 10
-52.36685864646738
 20
-8.265140497090943
 30
0.0
 10
-52.40338851741219
 20
-8.265131340628217
 30
0.0
 10
-52.44296725521597
 20
-8.265123532415987
 30
0.0
 10
-52.48599896299754
 20
-8.265117533505115
 30
0.0
 10
-52.53287349356829
 20
-8.26511395116692
 30
0.0
 10
-52.58396785992019
 20
-8.265113557627278
 30
0.0
 10
-52.63965434189553
 20
-8.26511729384879
 30
0.0
 10
-52.70038219106904
 20
-8.265126334213604
 30
0.0
 10
-52.7667192681316
 20
-8.265142074369283
 30
0.0
 10
-52.83934787630844
 20
-8.265166542026999
 30
0.0
 10
-52.91898919911169
 20
-8.265201208644903
 30
0.0
 10
-52.97450129848235
 20
-8.265233718103058
 30
0.0
 10
-53.00354665595001
 20
-8.265250727887298
 30
0.0
 11
-52.13400821008335
 21
-8.265242197753984
 31
0.0
 11
-52.15076079355
 21
-8.265233079887302
 31
0.0
 11
-52.16894810661667
 21
-8.265222775887302
 31
0.0
 11
-52.19137959141668
 21
-8.265210710820646
 31
0.0
 11
-52.21757849701667
 21
-8.265197516153982
 31
0.0
 11
-52.24344227088334
 21
-8.265185439353963
 31
0.0
 11
-52.27109188048334
 21
-8.265173571620643
 31
0.0
 11
-52.30068947408334
 21
-8.265162060153961
 31
0.0
 11
-52.33222594021667
 21
-8.265151152420635
 31
0.0
 11
-52.36597980901667
 21
-8.265141027620636
 31
0.0
 11
-52.40237019088334
 21
-8.265131906553968
 31
0.0
 11
-52.44181555301667
 21
-8.265124124153977
 31
0.0
 11
-52.48471602235
 21
-8.265118143353966
 31
0.0
 11
-52.53146531408334
 21
-8.265114571087316
 31
0.0
 11
-52.58243914448334
 21
-8.265114177487312
 31
0.0
 11
-52.63799912101667
 21
-8.265117907620641
 31
0.0
 11
-52.69852475941668
 21
-8.265126910287314
 31
0.0
 11
-52.76462269115
 21
-8.26514262442064
 31
0.0
 11
-52.83701035088334
 21
-8.26516688682063
 31
0.0
 11
-52.91641058235001
 21
-8.265201983353968
 31
0.0
 11
-53.00354665595001
 21
-8.265250727887298
 31
0.0
  0
LINE
  5
D4
100
AcDbEntity
  8
0
100
AcDbLine
 10
-53.003547
 20
-8.265251
 30
0.0
 11
-52.778333
 21
-8.308958
 31
0.0
  0
SPLINE
  5
D5
100
AcDbEntity
  8
0
100
AcDbSpline
210
0.0
220
0.0
230
-1.0
 70
     8
 71
     3
 72
     9
 73
     5
 74
     3
 42
0.0000001
 43
0.0000001
 44
0.0000000001
 40
0.0
 40
0.0
 40
0.0
 40
0.0
 40
0.377250611314011
 40
0.4582817443692753
 40
0.4582817443692753
 40
0.4582817443692753
 40
0.4582817443692753
 10
-52.32180115941667
 20
-8.269381506553976
 30
0.0
 10
-52.44740558948503
 20
-8.2768637759048
 30
0.0
 10
-52.59998908593517
 20
-8.285953191129319
 30
0.0
 10
-52.7515091690966
 20
-8.305502801768421
 30
0.0
 10
-52.77830020795001
 20
-8.308959468153979
 30
0.0
 11
-52.32180115941667
 21
-8.269381506553976
 31
0.0
 11
-52.69789384528333
 21
-8.298916492153971
 31
0.0
 11
-52.77830020795001
 21
-8.308959468153979
 31
0.0
  0
SPLINE
  5
D6
100
AcDbEntity
  8
0
100
AcDbSpline
210
0.0
220
0.0
230
1.0
 70
     8
 71
     3
 72
     9
 73
     5
 74
     3
 42
0.0000001
 43
0.0000001
 44
0.0000000001
 40
0.0
 40
0.0
 40
0.0
 40
0.0
 40
0.0077229992282098
 40
0.0154448123761351
 40
0.0154448123761351
 40
0.0154448123761351
 40
0.0154448123761351
 10
-52.11856372048334
 20
-8.265177287887304
 30
0.0
 10
-52.12113792004131
 20
-8.265207076620894
 30
0.0
 10
-52.12628592381764
 20
-8.265266649513188
 30
0.0
 10
-52.13143424644946
 20
-8.265250347923094
 30
0.0
 10
-52.13400821008335
 20
-8.265242197753984
 30
0.0
 11
-52.11856372048334
 21
-8.265177287887304
 31
0.0
 11
-52.12628639888334
 21
-8.265247682553983
 31
0.0
 11
-52.13400821008335
 21
-8.265242197753984
 31
0.0
  0
SPLINE
  5
D7
100
AcDbEntity
  8
0
100
AcDbSpline
210
0.0
220
0.0
230
-1.0
 70
     8
 71
     3
 72
     9
 73
     5
 74
     3
 42
0.0000001
 43
0.0000001
 44
0.0000000001
 40
0.0
 40
0.0
 40
0.0
 40
0.0
 40
0.9215147818293461
 40
1.510991525376951
 40
1.510991525376951
 40
1.510991525376951
 40
1.510991525376951
 10
-46.82119098981668
 20
-11.27922407082063
 30
0.0
 10
-46.51521985005294
 20
-11.25209382799475
 30
0.0
 10
-46.01352437179362
 20
-11.20760884761282
 30
0.0
 10
-45.5118227523955
 20
-11.16319318456464
 30
0.0
 10
-45.31609601808334
 20
-11.14586548948731
 30
0.0
 11
-46.82119098981668
 21
-11.27922407082063
 31
0.0
 11
-45.90327528635
 21
-11.19785912468731
 31
0.0
 11
-45.31609601808334
 21
-11.14586548948731
 31
0.0
  0
SPLINE
  5
D8
100
AcDbEntity
  8
0
100
AcDbSpline
210
0.0
220
0.0
230
-1.0
 70
     8
 71
     3
 72
     9
 73
     5
 74
     3
 42
0.0000001
 43
0.0000001
 44
0.0000000001
 40
0.0
 40
0.0
 40
0.0
 40
0.0
 40
0.9215266502501153
 40
1.50992409743358
 40
1.50992409743358
 40
1.50992409743358
 40
1.50992409743358
 10
-46.81460992528334
 20
-11.34145919828731
 30
0.0
 10
-46.5086341184261
 20
-11.31433680160544
 30
0.0
 10
-46.00729186871467
 20
-11.26989667573495
 30
0.0
 10
-45.50594458405637
 20
-11.22551338992348
 30
0.0
 10
-45.31057617915001
 20
-11.20821781055398
 30
0.0
 11
-46.81460992528334
 21
-11.34145919828731
 31
0.0
 11
-45.89668062928335
 21
-11.26011318015398
 31
0.0
 11
-45.31057617915001
 21
-11.20821781055398
 31
0.0
  0
SPLINE
  5
D9
100
AcDbEntity
  8
0
100
AcDbSpline
210
0.0
220
0.0
230
1.0
 70
     8
 71
     3
 72
    10
 73
     6
 74
     4
 42
0.0000001
 43
0.0000001
 44
0.0000000001
 40
0.0
 40
0.0
 40
0.0
 40
0.0
 40
0.0146264086108182
 40
0.0258524928089022
 40
0.0310708152378184
 40
0.0310708152378184
 40
0.0310708152378184
 40
0.0310708152378184
 10
-47.17112641275
 20
-9.301190692687306
 30
0.0
 10
-47.1711561960179
 20
-9.296315656901207
 30
0.0
 10
-47.17120883858656
 20
-9.287698925962208
 30
0.0
 10
-47.17128002327697
 20
-9.277339096747388
 30
0.0
 10
-47.17157742549587
 20
-9.271865245717272
 30
0.0
 10
-47.17167180048334
 20
-9.270128222287304
 30
0.0
 11
-47.17112641275
 21
-9.301190692687306
 31
0.0
 11
-47.17121787088333
 21
-9.286564570020637
 31
0.0
 11
-47.17141482981667
 21
-9.27534021375397
 31
0.0
 11
-47.17167180048334
 21
-9.270128222287304
 31
0.0
  0
SPLINE
  5
DA
100
AcDbEntity
  8
0
100
AcDbSpline
210
-0.227137321978338
220
0.9738627403102087
230
0.0
 70
    24
 71
     3
 72
     8
 73
     4
 74
     2
 42
0.0000001
 43
0.0000001
 44
0.0000000001
 40
0.0
 40
0.0
 40
0.0
 40
0.0
 40
0.0372130218834791
 40
0.0372130218834791
 40
0.0372130218834791
 40
0.0372130218834791
 10
-42.95872014608334
 20
-10.86065192362064
 30
0.0
 10
-42.94664002092779
 20
-10.85783443490953
 30
0.0
 10
-42.93455989577223
 20
-10.85501694619842
 30
0.0
 10
-42.92247977061667
 20
-10.85219945748731
 30
0.0
 11
-42.95872014608334
 21
-10.86065192362064
 31
0.0
 11
-42.92247977061667
 21
-10.85219945748731
 31
0.0
  0
SPLINE
  5
DB
100
AcDbEntity
  8
0
100
AcDbSpline
210
-0.1909481347770165
220
0.9816001272540558
230
0.0
 70
    24
 71
     3
 72
     8
 73
     4
 74
     2
 42
0.0000001
 43
0.0000001
 44
0.0000000001
 40
0.0
 40
0.0
 40
0.0
 40
0.0
 40
0.5529091823282333
 40
0.5529091823282333
 40
0.5529091823282333
 40
0.5529091823282333
 10
-43.50145586981667
 20
-10.9662289006873
 30
0.0
 10
-43.32054396190556
 20
-10.93103657499841
 30
0.0
 10
-43.13963205399445
 20
-10.89584424930952
 30
0.0
 10
-42.95872014608334
 20
-10.86065192362064
 30
0.0
 11
-43.50145586981667
 21
-10.9662289006873
 31
0.0
 11
-42.95872014608334
 21
-10.86065192362064
 31
0.0
  0
SPLINE
  5
DC
100
AcDbEntity
  8
0
100
AcDbSpline
210
-0.1225077360531259
220
0.9924675584658361
230
0.0
 70
    24
 71
     3
 72
     8
 73
     4
 74
     2
 42
0.0000001
 43
0.0000001
 44
0.0000000001
 40
0.0
 40
0.0
 40
0.0
 40
0.0
 40
0.5517844214943692
 40
0.5517844214943692
 40
0.5517844214943692
 40
0.5517844214943692
 10
-44.04908400741667
 20
-11.03382676095396
 30
0.0
 10
-43.86654129488333
 20
-11.01129414086507
 30
0.0
 10
-43.68399858235
 20
-10.98876152077619
 30
0.0
 10
-43.50145586981667
 20
-10.9662289006873
 30
0.0
 11
-44.04908400741667
 21
-11.03382676095396
 31
0.0
 11
-43.50145586981667
 21
-10.9662289006873
 31
0.0
  0
SPLINE
  5
DD
100
AcDbEntity
  8
0
100
AcDbSpline
210
0.0
220
0.0
230
-1.0
 70
     8
 71
     3
 72
     9
 73
     5
 74
     3
 42
0.0000001
 43
0.0000001
 44
0.0000000001
 40
0.0
 40
0.0
 40
0.0
 40
0.0
 40
0.3381705459869738
 40
1.271956018912039
 40
1.271956018912039
 40
1.271956018912039
 40
1.271956018912039
 10
-45.31609601808334
 20
-11.14586548948731
 30
0.0
 10
-45.20381136728273
 20
-11.13592828082847
 30
0.0
 10
-44.7814767224944
 20
-11.09855160058595
 30
0.0
 10
-44.35913742045109
 20
-11.06122757614895
 30
0.0
 10
-44.04908400741667
 20
-11.03382676095396
 30
0.0
 11
-45.31609601808334
 21
-11.14586548948731
 31
0.0
 11
-44.97924173648334
 21
-11.11605758548732
 31
0.0
 11
-44.04908400741667
 21
-11.03382676095396
 31
0.0
  0
SPLINE
  5
DE
100
AcDbEntity
  8
0
100
AcDbSpline
210
-0.1463879830261688
220
0.9892272531756947
230
0.0
 70
    24
 71
     3
 72
     8
 73
     4
 74
     2
 42
0.0000001
 43
0.0000001
 44
0.0000000001
 40
0.0
 40
0.0
 40
0.0
 40
0.0
 40
0.0039373213662509
 40
0.0039373213662509
 40
0.0039373213662509
 40
0.0039373213662509
 10
-42.90474200421668
 20
-10.93651477375397
 30
0.0
 10
-42.90344370235001
 20
-10.93632264824286
 30
0.0
 10
-42.90214540048334
 20
-10.93613052273175
 30
0.0
 10
-42.90084709861667
 20
-10.93593839722064
 30
0.0
 11
-42.90474200421668
 21
-10.93651477375397
 31
0.0
 11
-42.90084709861667
 21
-10.93593839722064
 31
0.0
  0
SPLINE
  5
DF
100
AcDbEntity
  8
0
100
AcDbSpline
210
-0.146264945752382
220
0.9892454526779756
230
0.0
 70
    24
 71
     3
 72
     8
 73
     4
 74
     2
 42
0.0000001
 43
0.0000001
 44
0.0000000001
 40
0.0
 40
0.0
 40
0.0
 40
0.0
 40
0.0033678937729586
 40
0.0033678937729586
 40
0.0033678937729586
 40
0.0033678937729586
 10
-42.90084709861667
 20
-10.93593839722064
 30
0.0
 10
-42.89973654075001
 20
-10.93577419562064
 30
0.0
 10
-42.89862598288333
 20
-10.93560999402064
 30
0.0
 10
-42.89751542501667
 20
-10.93544579242064
 30
0.0
 11
-42.90084709861667
 21
-10.93593839722064
 31
0.0
 11
-42.89751542501667
 21
-10.93544579242064
 31
0.0
  0
SPLINE
  5
E0
100
AcDbEntity
  8
0
100
AcDbSpline
210
-0.2272325507832445
220
0.9738405248625364
230
0.0
 70
    24
 71
     3
 72
     8
 73
     4
 74
     2
 42
0.0000001
 43
0.0000001
 44
0.0000000001
 40
0.0
 40
0.0
 40
0.0
 40
0.0
 40
0.0384507681809099
 40
0.0384507681809099
 40
0.0384507681809099
 40
0.0384507681809099
 10
-42.94370618875
 20
-10.9215671374873
 30
0.0
 10
-42.93122454999444
 20
-10.91865471544286
 30
0.0
 10
-42.91874291123889
 20
-10.91574229339842
 30
0.0
 10
-42.90626127248334
 20
-10.91282987135398
 30
0.0
 11
-42.94370618875
 21
-10.9215671374873
 31
0.0
 11
-42.90626127248334
 21
-10.91282987135398
 31
0.0
  0
SPLINE
  5
E1
100
AcDbEntity
  8
0
100
AcDbSpline
210
-0.1910801614519743
220
0.9815744352312194
230
0.0
 70
    24
 71
     3
 72
     8
 73
     4
 74
     2
 42
0.0000001
 43
0.0000001
 44
0.0000000001
 40
0.0
 40
0.0
 40
0.0
 40
0.0
 40
0.5552240706754195
 40
0.5552240706754195
 40
0.5552240706754195
 40
0.5552240706754195
 10
-43.48869994235001
 20
-11.02765944255398
 30
0.0
 10
-43.30703535781668
 20
-10.99229534086509
 30
0.0
 10
-43.12537077328334
 20
-10.9569312391762
 30
0.0
 10
-42.94370618875
 20
-10.9215671374873
 30
0.0
 11
-43.48869994235001
 21
-11.02765944255398
 31
0.0
 11
-42.94370618875
 21
-10.9215671374873
 31
0.0
  0
SPLINE
  5
E2
100
AcDbEntity
  8
0
100
AcDbSpline
210
0.0
220
0.0
230
-1.0
 70
     8
 71
     3
 72
    14
 73
    10
 74
     8
 42
0.0000001
 43
0.0000001
 44
0.0000000001
 40
0.0
 40
0.0
 40
0.0
 40
0.0
 40
0.0988913323531364
 40
0.2204828280245905
 40
0.332893330289497
 40
0.4342227676290248
 40
0.5214003272434549
 40
0.5875346424463252
 40
0.5983348039301444
 40
0.5983348039301444
 40
0.5983348039301444
 40
0.5983348039301444
 10
-43.48869994128334
 20
-11.02765943615398
 30
0.0
 10
-43.45614426048436
 20
-11.02248852653069
 30
0.0
 10
-43.38355985495535
 20
-11.01095974286407
 30
0.0
 10
-43.27395339947023
 20
-10.99365254798452
 30
0.0
 10
-43.16352691951864
 20
-10.9763285313961
 30
0.0
 10
-43.06441580887128
 20
-10.96089259627633
 30
0.0
 10
-42.98052077277914
 20
-10.94799710771106
 30
0.0
 10
-42.92644617990891
 20
-10.93972072227836
 30
0.0
 10
-42.90107681002036
 20
-10.9359720376273
 30
0.0
 10
-42.89751542501667
 20
-10.93544579242064
 30
0.0
 11
-43.48869994128334
 21
-11.02765943615398
 31
0.0
 11
-43.39103079781668
 21
-11.01215995135397
 31
0.0
 11
-43.27092726715
 21
-10.99319593962064
 31
0.0
 11
-43.15987445968334
 21
-10.97577770282064
 31
0.0
 11
-43.05974922875001
 21
-10.9602023054873
 31
0.0
 11
-42.97358608208334
 21
-10.94694187348731
 31
0.0
 11
-42.90819919355
 21
-10.93702711402062
 31
0.0
 11
-42.89751542501667
 21
-10.93544579242064
 31
0.0
  0
SPLINE
  5
E3
100
AcDbEntity
  8
0
100
AcDbSpline
210
0.0
220
0.0
230
-1.0
 70
     8
 71
     3
 72
     9
 73
     5
 74
     3
 42
0.0000001
 43
0.0000001
 44
0.0000000001
 40
0.0
 40
0.0
 40
0.0
 40
0.0
 40
0.3392592457443311
 40
1.273051647827245
 40
1.273051647827245
 40
1.273051647827245
 40
1.273051647827245
 10
-45.31057617915001
 20
-11.20821781055398
 30
0.0
 10
-45.19793005817178
 20
-11.19824841974681
 30
0.0
 10
-44.7752316889113
 20
-11.16083882942877
 30
0.0
 10
-44.35252911794592
 20
-11.12347674066882
 30
0.0
 10
-44.04247378768334
 20
-11.09607138388731
 30
0.0
 11
-45.31057617915001
 21
-11.20821781055398
 31
0.0
 11
-44.97263751781667
 21
-11.17831301162065
 31
0.0
 11
-44.04247378768334
 21
-11.09607138388731
 31
0.0
  0
SPLINE
  5
E4
100
AcDbEntity
  8
0
100
AcDbSpline
210
-0.134100369502117
220
0.9909677547223198
230
0.0
 70
    24
 71
     3
 72
     8
 73
     4
 74
     2
 42
0.0000001
 43
0.0000001
 44
0.0000000001
 40
0.0
 40
0.0
 40
0.0
 40
0.0
 40
0.3572314253210622
 40
0.3572314253210622
 40
0.3572314253210622
 40
0.3572314253210622
 10
-42.90011117435001
 20
-10.93566645695397
 30
0.0
 10
-43.01811278217223
 20
-10.95163474566508
 30
0.0
 10
-43.13611438999445
 20
-10.96760303437618
 30
0.0
 10
-43.25411599781667
 20
-10.98357132308729
 30
0.0
 11
-42.90011117435001
 21
-10.93566645695397
 31
0.0
 11
-43.25411599781667
 21
-10.98357132308729
 31
0.0
  0
LINE
  5
E5
100
AcDbEntity
  8
0
100
AcDbLine
 10
-45.79114
 20
-11.982206
 30
0.0
 11
-43.312876
 21
-11.224525
 31
0.0
  0
LINE
  5
E6
100
AcDbEntity
  8
0
100
AcDbLine
 10
-44.042474
 20
-11.096071
 30
0.0
 11
-43.4887
 21
-11.027659
 31
0.0
  0
SPLINE
  5
E7
100
AcDbEntity
  8
0
100
AcDbSpline
210
0.0
220
0.0
230
-1.0
 70
     8
 71
     3
 72
    10
 73
     6
 74
     4
 42
0.0000001
 43
0.0000001
 44
0.0000000001
 40
0.0
 40
0.0
 40
0.0
 40
0.0
 40
1.943280308972678
 40
3.894229806429681
 40
4.62650126673511
 40
4.62650126673511
 40
4.62650126673511
 40
4.62650126673511
 10
-40.58757508155
 20
-10.22301113855397
 30
0.0
 10
-39.96298765756565
 20
-10.05007089123687
 30
0.0
 10
-38.71134786480365
 20
-9.703507885002537
 30
0.0
 10
-37.18581343340514
 20
-9.454150592356674
 30
0.0
 10
-36.29581710221027
 20
-9.365909241019371
 30
0.0
 10
-36.05293031675
 20
-9.341827503353989
 30
0.0
 11
-40.58757508155
 21
-10.22301113855397
 31
0.0
 11
-38.70573553595
 21
-9.738224294820646
 31
0.0
 11
-36.78120072208335
 21
-9.418271654820649
 31
0.0
 11
-36.05293031675
 21
-9.341827503353989
 31
0.0
  0
SPLINE
  5
E8
100
AcDbEntity
  8
0
100
AcDbSpline
210
0.0
220
0.0
230
-1.0
 70
     8
 71
     3
 72
    10
 73
     6
 74
     4
 42
0.0000001
 43
0.0000001
 44
0.0000000001
 40
0.0
 40
0.0
 40
0.0
 40
0.0
 40
1.544071635697435
 40
3.093909218911464
 40
4.639834596590038
 40
4.639834596590038
 40
4.639834596590038
 40
4.639834596590038
 10
-40.60678094288333
 20
-10.16334248042063
 30
0.0
 10
-40.11130458992835
 20
-10.02353797500863
 30
0.0
 10
-39.11850165208561
 20
-9.743406899390397
 30
0.0
 10
-37.59784000713885
 20
-9.448009972923113
 30
0.0
 10
-36.57176826034945
 20
-9.33585340777445
 30
0.0
 10
-36.05938072528334
 20
-9.279845992953973
 30
0.0
 11
-40.60678094288333
 21
-10.16334248042063
 31
0.0
 11
-39.11507252368334
 21
-9.764640576420653
 31
0.0
 11
-37.59368434768334
 21
-9.469048708687303
 31
0.0
 11
-36.05938072528334
 21
-9.279845992953973
 31
0.0
  0
SPLINE
  5
E9
100
AcDbEntity
  8
0
100
AcDbSpline
210
0.0
220
0.0
230
-1.0
 70
     8
 71
     3
 72
    10
 73
     6
 74
     4
 42
0.0000001
 43
0.0000001
 44
0.0000000001
 40
0.0
 40
0.0
 40
0.0
 40
0.0
 40
0.6361601112081536
 40
1.270187993205033
 40
1.902085387524063
 40
1.902085387524063
 40
1.902085387524063
 40
1.902085387524063
 10
-42.40692067301668
 20
-10.77790791082065
 30
0.0
 10
-42.20409656952443
 20
-10.71602887585161
 30
0.0
 10
-41.79912817171153
 20
-10.59247820698065
 30
0.0
 10
-41.19267906901383
 20
-10.40751448538981
 30
0.0
 10
-40.78905000370511
 20
-10.28444313998892
 30
0.0
 10
-40.58757511461667
 20
-10.22301102868731
 30
0.0
 11
-42.40692067301668
 21
-10.77790791082065
 31
0.0
 11
-41.79844573861667
 21
-10.59227940735397
 31
0.0
 11
-41.19199746341667
 21
-10.40731496575397
 31
0.0
 11
-40.58757511461667
 21
-10.22301102868731
 31
0.0
  0
SPLINE
  5
EA
100
AcDbEntity
  8
0
100
AcDbSpline
210
0.0
220
0.0
230
-1.0
 70
     8
 71
     3
 72
    10
 73
     6
 74
     4
 42
0.0000001
 43
0.0000001
 44
0.0000000001
 40
0.0
 40
0.0
 40
0.0
 40
0.0
 40
0.636172121719363
 40
1.27021275317272
 40
1.902123603472026
 40
1.902123603472026
 40
1.902123603472026
 40
1.902123603472026
 10
-42.42618635621667
 20
-10.7181741038873
 30
0.0
 10
-42.22335656655095
 20
-10.6562999874518
 30
0.0
 10
-41.81837656701809
 20
-10.53275906337727
 30
0.0
 10
-41.21190774351718
 20
-10.34781633578528
 30
0.0
 10
-40.80826351865794
 20
-10.22476476002056
 30
0.0
 10
-40.60678094288333
 20
-10.16334248042063
 30
0.0
 11
-42.42618635621667
 21
-10.7181741038873
 31
0.0
 11
-41.81769403088334
 21
-10.53256144682064
 31
0.0
 11
-41.21122590608334
 21
-10.3476183854873
 31
0.0
 11
-40.60678094288333
 21
-10.16334248042063
 31
0.0
  0
SPLINE
  5
EB
100
AcDbEntity
  8
0
100
AcDbSpline
210
0.0
220
0.0
230
-1.0
 70
     8
 71
     3
 72
    10
 73
     6
 74
     4
 42
0.0000001
 43
0.0000001
 44
0.0000000001
 40
0.0
 40
0.0
 40
0.0
 40
0.0
 40
0.7790342378127173
 40
1.560279115043883
 40
2.343933642952714
 40
2.343933642952714
 40
2.343933642952714
 40
2.343933642952714
 10
-35.90379311035
 20
-8.265250727887298
 30
0.0
 10
-35.64465913504855
 20
-8.282259508386626
 30
0.0
 10
-35.12565584862516
 20
-8.316325334633205
 30
0.0
 10
-34.34822916690025
 20
-8.396627789011686
 30
0.0
 10
-33.83168599110438
 20
-8.46951238211937
 30
0.0
 10
-33.57301671355
 20
-8.506010792953979
 30
0.0
 11
-35.90379311035
 21
-8.265250727887298
 31
0.0
 11
-35.12676413861667
 21
-8.321110559353975
 31
0.0
 11
-34.34965059408333
 21
-8.401348312953977
 31
0.0
 11
-33.57301671355
 21
-8.506010792953979
 31
0.0
  0
SPLINE
  5
EC
100
AcDbEntity
  8
0
100
AcDbSpline
210
0.2042866696444506
220
0.9789111076117071
230
0.0
 70
    24
 71
     3
 72
     8
 73
     4
 74
     2
 42
0.0000001
 43
0.0000001
 44
0.0000000001
 40
0.0
 40
0.0
 40
0.0
 40
0.0
 40
0.896561096483269
 40
0.896561096483269
 40
0.896561096483269
 40
0.896561096483269
 10
-29.88591256848334
 20
-8.537844117753984
 30
0.0
 10
-30.17846377381667
 20
-8.476792290909536
 30
0.0
 10
-30.47101497915001
 20
-8.415740464065088
 30
0.0
 10
-30.76356618448334
 20
-8.35468863722064
 30
0.0
 11
-29.88591256848334
 21
-8.537844117753984
 31
0.0
 11
-30.76356618448334
 21
-8.35468863722064
 31
0.0
  0
SPLINE
  5
ED
100
AcDbEntity
  8
0
100
AcDbSpline
210
0.0
220
0.0
230
-1.0
 70
     8
 71
     3
 72
     9
 73
     5
 74
     3
 42
0.0000001
 43
0.0000001
 44
0.0000000001
 40
0.0
 40
0.0
 40
0.0
 40
0.0
 40
0.1160732218765948
 40
0.4697787880757795
 40
0.4697787880757795
 40
0.4697787880757795
 40
0.4697787880757795
 10
-32.97065069968334
 20
-8.604161988687316
 30
0.0
 10
-32.93254491667388
 20
-8.610866779681391
 30
0.0
 10
-32.77832081337558
 20
-8.638002828259818
 30
0.0
 10
-32.62431418348775
 20
-8.666351603822215
 30
0.0
 10
-32.50835960315001
 20
-8.687695947087313
 30
0.0
 11
-32.97065069968334
 21
-8.604161988687316
 31
0.0
 11
-32.85634662715001
 21
-8.624350397220645
 31
0.0
 11
-32.50835960315001
 21
-8.687695947087313
 31
0.0
  0
SPLINE
  5
EE
100
AcDbEntity
  8
0
100
AcDbSpline
210
0.0
220
0.0
230
-1.0
 70
     8
 71
     3
 72
    11
 73
     7
 74
     5
 42
0.0000001
 43
0.0000001
 44
0.0000000001
 40
0.0
 40
0.0
 40
0.0
 40
0.0
 40
0.1616535934887133
 40
0.3337676967531403
 40
0.5189356181080516
 40
0.7206015052310972
 40
0.7206015052310972
 40
0.7206015052310972
 40
0.7206015052310972
 10
-35.77234394875
 20
-9.271892040953964
 30
0.0
 10
-35.71847492761893
 20
-9.27059734863074
 30
0.0
 10
-35.60725105240999
 20
-9.267924185198982
 30
0.0
 10
-35.43430705961013
 20
-9.264449403949683
 30
0.0
 10
-35.24801874356298
 20
-9.261214230117658
 30
0.0
 10
-35.11908499705917
 20
-9.259529961923497
 30
0.0
 10
-35.05186869435001
 20
-9.258651911887319
 30
0.0
 11
-35.77234394875
 21
-9.271892040953964
 31
0.0
 11
-35.61073458555
 21
-9.2681107694873
 31
0.0
 11
-35.43865604581668
 21
-9.264612097487308
 31
0.0
 11
-35.25351535141667
 21
-9.261436821753981
 31
0.0
 11
-35.05186869435001
 21
-9.258651911887319
 31
0.0
  0
SPLINE
  5
EF
100
AcDbEntity
  8
0
100
AcDbSpline
210
-0.0263531385783502
220
0.9996526957334085
230
0.0
 70
    24
 71
     3
 72
     8
 73
     4
 74
     2
 42
0.0000001
 43
0.0000001
 44
0.0000000001
 40
0.0
 40
0.0
 40
0.0
 40
0.0
 40
0.1504402111938777
 40
0.1504402111938777
 40
0.1504402111938777
 40
0.1504402111938777
 10
-35.92273191141666
 20
-9.275856612687313
 30
0.0
 10
-35.87260259052778
 20
-9.274535088776197
 30
0.0
 10
-35.82247326963889
 20
-9.273213564865081
 30
0.0
 10
-35.77234394875
 20
-9.271892040953964
 30
0.0
 11
-35.92273191141666
 21
-9.275856612687313
 31
0.0
 11
-35.77234394875
 21
-9.271892040953964
 31
0.0
  0
SPLINE
  5
F0
100
AcDbEntity
  8
0
100
AcDbSpline
210
-0.0291819586753036
220
0.9995741159553267
230
0.0
 70
    24
 71
     3
 72
     8
 73
     4
 74
     2
 42
0.0000001
 43
0.0000001
 44
0.0000000001
 40
0.0
 40
0.0
 40
0.0
 40
0.0
 40
0.1367070768294901
 40
0.1367070768294901
 40
0.1367070768294901
 40
0.1367070768294901
 10
-36.05938076688334
 20
-9.279845992953973
 30
0.0
 10
-36.01383114839445
 20
-9.278516199531754
 30
0.0
 10
-35.96828152990557
 20
-9.277186406109533
 30
0.0
 10
-35.92273191141666
 20
-9.275856612687313
 30
0.0
 11
-36.05938076688334
 21
-9.279845992953973
 31
0.0
 11
-35.92273191141666
 21
-9.275856612687313
 31
0.0
  0
SPLINE
  5
F1
100
AcDbEntity
  8
0
100
AcDbSpline
210
0.0
220
0.0
230
-1.0
 70
     8
 71
     3
 72
    24
 73
    20
 74
    18
 42
0.0000001
 43
0.0000001
 44
0.0000000001
 40
0.0
 40
0.0
 40
0.0
 40
0.0
 40
0.0041636131890108
 40
0.011423757999412
 40
0.0197237323763383
 40
0.0288135499337406
 40
0.0385834399777122
 40
0.0489106693149724
 40
0.0597227041820585
 40
0.0710770886456235
 40
0.0830372554702633
 40
0.095667434242532
 40
0.109033633868466
 40
0.1232029747862419
 40
0.1382432380100035
 40
0.1542224185435083
 40
0.1712082362175601
 40
0.1892675810168937
 40
0.2084227188346976
 40
0.2084227188346976
 40
0.2084227188346976
 40
0.2084227188346976
 10
-34.84365586661667
 20
-9.268094108153981
 30
0.0
 10
-34.84501611259096
 20
-9.267810951804991
 30
0.0
 10
-34.84874823661994
 20
-9.267034052160376
 30
0.0
 10
-34.85533477825802
 20
-9.266720983368445
 30
0.0
 10
-34.86352184165337
 20
-9.266101338023144
 30
0.0
 10
-34.8725632711907
 20
-9.265595782064789
 30
0.0
 10
-34.88227726872112
 20
-9.265068386285836
 30
0.0
 10
-34.89256784822517
 20
-9.264556913708101
 30
0.0
 10
-34.90338701510983
 20
-9.264047249423786
 30
0.0
 10
-34.91475123487768
 20
-9.263539519754946
 30
0.0
 10
-34.92672192660359
 20
-9.263028870572554
 30
0.0
 10
-34.93936358354047
 20
-9.262512716960822
 30
0.0
 10
-34.9527419099473
 20
-9.261988870994116
 30
0.0
 10
-34.96692383657279
 20
-9.26145583584795
 30
0.0
 10
-34.98197697335252
 20
-9.260912661665891
 30
0.0
 10
-34.99796914253357
 20
-9.260358731348391
 30
0.0
 10
-35.01496790220732
 20
-9.259794572771848
 30
0.0
 10
-35.03302550691774
 20
-9.259218989868172
 30
0.0
 10
-35.04542472257401
 20
-9.25884582858981
 30
0.0
 10
-35.05180687995001
 20
-9.258653754020649
 30
0.0
 11
-34.84365586661667
 21
-9.268094108153981
 31
0.0
 11
-34.84774759355
 21
-9.267323754020644
 31
0.0
 11
-34.85498141755001
 21
-9.266706102820641
 31
0.0
 11
-34.86326254181667
 21
-9.266147036153974
 31
0.0
 11
-34.87233653008334
 21
-9.265610827087307
 31
0.0
 11
-34.88209229648334
 21
-9.26508568575398
 31
0.0
 11
-34.89240660688334
 21
-9.264569287887304
 31
0.0
 11
-34.90320664101667
 21
-9.26406001322065
 31
0.0
 11
-34.91454966608333
 21
-9.263552244687311
 31
0.0
 11
-34.92649894075
 21
-9.263041925753988
 31
0.0
 11
-34.93911858341667
 21
-9.262526140153973
 31
0.0
 11
-34.95247453115001
 21
-9.262002735353966
 31
0.0
 11
-34.96663386021668
 21
-9.261470173220637
 31
0.0
 11
-34.98166432848334
 21
-9.260927456420638
 31
0.0
 11
-34.99763392421667
 21
-9.260374082553973
 31
0.0
 11
-35.01461037435
 21
-9.259810040953972
 31
0.0
 11
-35.03266058768334
 21
-9.259235816953982
 31
0.0
 11
-35.05180687995001
 21
-9.258653754020649
 31
0.0
  0
SPLINE
  5
F2
100
AcDbEntity
  8
0
100
AcDbSpline
210
-0.0382434017331543
220
0.9992684535318208
230
0.0
 70
    24
 71
     3
 72
     8
 73
     4
 74
     2
 42
0.0000001
 43
0.0000001
 44
0.0000000001
 40
0.0
 40
0.0
 40
0.0
 40
0.0
 40
0.2067401584327337
 40
0.2067401584327337
 40
0.2067401584327337
 40
0.2067401584327337
 10
-35.05024478501667
 20
-9.2760005550873
 30
0.0
 10
-34.98138181221667
 20
-9.273365072776194
 30
0.0
 10
-34.91251883941667
 20
-9.270729590465087
 30
0.0
 10
-34.84365586661667
 20
-9.268094108153981
 30
0.0
 11
-35.05024478501667
 21
-9.2760005550873
 31
0.0
 11
-34.84365586661667
 21
-9.268094108153981
 31
0.0
  0
SPLINE
  5
F3
100
AcDbEntity
  8
0
100
AcDbSpline
210
-0.055559381889857
220
0.9984553846236781
230
0.0
 70
    24
 71
     3
 72
     8
 73
     4
 74
     2
 42
0.0000001
 43
0.0000001
 44
0.0000000001
 40
0.0
 40
0.0
 40
0.0
 40
0.0
 40
0.5618801938537459
 40
0.5618801938537459
 40
0.5618801938537459
 40
0.5618801938537459
 10
-35.61125709008334
 20
-9.307218271353967
 30
0.0
 10
-35.42425298839445
 20
-9.296812365931746
 30
0.0
 10
-35.23724888670556
 20
-9.286406460509523
 30
0.0
 10
-35.05024478501667
 20
-9.2760005550873
 30
0.0
 11
-35.61125709008334
 21
-9.307218271353967
 31
0.0
 11
-35.05024478501667
 21
-9.2760005550873
 31
0.0
  0
SPLINE
  5
F4
100
AcDbEntity
  8
0
100
AcDbSpline
210
-0.0781198929834206
220
0.9969439715050484
230
0.0
 70
    24
 71
     3
 72
     8
 73
     4
 74
     2
 42
0.0000001
 43
0.0000001
 44
0.0000000001
 40
0.0
 40
0.0
 40
0.0
 40
0.0
 40
0.4430271302005952
 40
0.4430271302005952
 40
0.4430271302005952
 40
0.4430271302005952
 10
-36.05293031675
 20
-9.341827503353989
 30
0.0
 10
-35.90570590786112
 20
-9.330291092687316
 30
0.0
 10
-35.75848149897223
 20
-9.318754682020642
 30
0.0
 10
-35.61125709008334
 20
-9.307218271353967
 30
0.0
 11
-36.05293031675
 21
-9.341827503353989
 31
0.0
 11
-35.61125709008334
 21
-9.307218271353967
 31
0.0
  0
SPLINE
  5
F5
100
AcDbEntity
  8
0
100
AcDbSpline
210
0.1608206095784625
220
0.986983653124413
230
0.0
 70
    24
 71
     3
 72
     8
 73
     4
 74
     2
 42
0.0000001
 43
0.0000001
 44
0.0000000001
 40
0.0
 40
0.0
 40
0.0
 40
0.0
 40
0.6103101353568241
 40
0.6103101353568241
 40
0.6103101353568241
 40
0.6103101353568241
 10
-33.57301682661667
 20
-8.506011540687318
 30
0.0
 10
-33.37222811763889
 20
-8.538728356687318
 30
0.0
 10
-33.17143940866111
 20
-8.571445172687317
 30
0.0
 10
-32.97065069968334
 20
-8.604161988687316
 30
0.0
 11
-33.57301682661667
 21
-8.506011540687318
 31
0.0
 11
-32.97065069968334
 21
-8.604161988687316
 31
0.0
  0
SPLINE
  5
F6
100
AcDbEntity
  8
0
100
AcDbSpline
210
0.0
220
0.0
230
-1.0
 70
     8
 71
     3
 72
     9
 73
     5
 74
     3
 42
0.0000001
 43
0.0000001
 44
0.0000000001
 40
0.0
 40
0.0
 40
0.0
 40
0.0
 40
0.1488058409175155
 40
0.3085665299421576
 40
0.3085665299421576
 40
0.3085665299421576
 40
0.3085665299421576
 10
-35.92454738448334
 20
-9.24859894655399
 30
0.0
 10
-35.87494543798595
 20
-9.248571826743665
 30
0.0
 10
-35.77208992899046
 20
-9.24851559060594
 30
0.0
 10
-35.66923444533058
 20
-9.248608529652004
 30
0.0
 10
-35.61598089595001
 20
-9.248656648953989
 30
0.0
 11
-35.92454738448334
 21
-9.24859894655399
 31
0.0
 11
-35.77574155088333
 21
-9.248552279887299
 31
0.0
 11
-35.61598089595001
 21
-9.248656648953989
 31
0.0
  0
SPLINE
  5
F7
100
AcDbEntity
  8
0
100
AcDbSpline
210
-0.0013634030739882
220
0.9999990705655969
230
0.0
 70
    24
 71
     3
 72
     8
 73
     4
 74
     2
 42
0.0000001
 43
0.0000001
 44
0.0000000001
 40
0.0
 40
0.0
 40
0.0
 40
0.0
 40
0.1353788938258038
 40
0.1353788938258038
 40
0.1353788938258038
 40
0.1353788938258038
 10
-36.05992615248334
 20
-9.248783522553985
 30
0.0
 10
-36.01479989648334
 20
-9.248721997220652
 30
0.0
 10
-35.96967364048334
 20
-9.248660471887321
 30
0.0
 10
-35.92454738448334
 20
-9.24859894655399
 30
0.0
 11
-36.05992615248334
 21
-9.248783522553985
 31
0.0
 11
-35.92454738448334
 21
-9.24859894655399
 31
0.0
  0
SPLINE
  5
F8
100
AcDbEntity
  8
0
100
AcDbSpline
210
0.0
220
0.0
230
-1.0
 70
     8
 71
     3
 72
    10
 73
     6
 74
     4
 42
0.0000001
 43
0.0000001
 44
0.0000000001
 40
0.0
 40
0.0
 40
0.0
 40
0.0
 40
0.1888306568810089
 40
0.3767666558241522
 40
0.5642137407273085
 40
0.5642137407273085
 40
0.5642137407273085
 40
0.5642137407273085
 10
-35.05186869435001
 20
-9.258651911887319
 30
0.0
 10
-35.11478887967458
 20
-9.256928166062429
 30
0.0
 10
-35.24033114172111
 20
-9.25348884132215
 30
0.0
 10
-35.42837747024817
 20
-9.250189903156195
 30
0.0
 10
-35.55350136649368
 20
-9.249167279763875
 30
0.0
 10
-35.61598183141667
 20
-9.248656634020655
 30
0.0
 11
-35.05186869435001
 21
-9.258651911887319
 31
0.0
 11
-35.24063678181667
 21
-9.253791239887313
 31
0.0
 11
-35.42854362341667
 21
-9.250480865487311
 31
0.0
 11
-35.61598183141667
 21
-9.248656634020655
 31
0.0
  0
SPLINE
  5
F9
100
AcDbEntity
  8
0
100
AcDbSpline
210
0.0
220
0.0
230
-1.0
 70
     8
 71
     3
 72
     9
 73
     5
 74
     3
 42
0.0000001
 43
0.0000001
 44
0.0000000001
 40
0.0
 40
0.0
 40
0.0
 40
0.0
 40
0.61265897415498
 40
1.645475612443876
 40
1.645475612443876
 40
1.645475612443876
 40
1.645475612443876
 10
-32.50835960315001
 20
-8.687695947087313
 30
0.0
 10
-32.30771058900596
 20
-8.72577221220769
 30
0.0
 10
-31.76880873109992
 20
-8.828037205150856
 30
0.0
 10
-31.23341714702221
 20
-8.947432422261021
 30
0.0
 10
-30.89736759888334
 20
-9.022373287887312
 30
0.0
 11
-32.50835960315001
 21
-8.687695947087313
 31
0.0
 11
-31.90689918715001
 21
-8.804299491620646
 31
0.0
 11
-30.89736759888334
 21
-9.022373287887312
 31
0.0
  0
SPLINE
  5
FA
100
AcDbEntity
  8
0
100
AcDbSpline
210
0.0
220
0.0
230
-1.0
 70
     8
 71
     3
 72
     9
 73
     5
 74
     3
 42
0.0000001
 43
0.0000001
 44
0.0000000001
 40
0.0
 40
0.0
 40
0.0
 40
0.0
 40
0.1585221052674926
 40
0.6338343220949826
 40
0.6338343220949826
 40
0.6338343220949826
 40
0.6338343220949826
 10
-32.83315721381667
 20
-8.315470309753983
 30
0.0
 10
-32.88543858381694
 20
-8.30764360879427
 30
0.0
 10
-33.09448026072633
 20
-8.276349350566569
 30
0.0
 10
-33.30600396424212
 20
-8.270006917231352
 30
0.0
 10
-33.46462554235
 20
-8.265250727887298
 30
0.0
 11
-32.83315721381667
 21
-8.315470309753983
 31
0.0
 11
-32.99015657488334
 21
-8.29355094655397
 31
0.0
 11
-33.46462554235
 21
-8.265250727887298
 31
0.0
  0
LINE
  5
FB
100
AcDbEntity
  8
0
100
AcDbLine
 10
-31.956465
 20
-8.265251
 30
0.0
 11
-33.467821
 21
-8.265251
 31
0.0
  0
SPLINE
  5
FC
100
AcDbEntity
  8
0
100
AcDbSpline
210
0.2167079158956208
220
0.9762364873268037
230
0.0
 70
    24
 71
     3
 72
     8
 73
     4
 74
     2
 42
0.0000001
 43
0.0000001
 44
0.0000000001
 40
0.0
 40
0.0
 40
0.0
 40
0.0
 40
0.4799775592111619
 40
0.4799775592111619
 40
0.4799775592111619
 40
0.4799775592111619
 10
-32.36458560741667
 20
-8.419485246287301
 30
0.0
 10
-32.52077614288333
 20
-8.384813600776194
 30
0.0
 10
-32.67696667835
 20
-8.350141955265089
 30
0.0
 10
-32.83315721381667
 20
-8.315470309753983
 30
0.0
 11
-32.36458560741667
 21
-8.419485246287301
 31
0.0
 11
-32.83315721381667
 21
-8.315470309753983
 31
0.0
  0
SPLINE
  5
FD
100
AcDbEntity
  8
0
100
AcDbSpline
210
0.0747654285338839
220
0.9972011485633903
230
0.0
 70
    24
 71
     3
 72
     8
 73
     4
 74
     2
 42
0.0000001
 43
0.0000001
 44
0.0000000001
 40
0.0
 40
0.0
 40
0.0
 40
0.0
 40
1.196246862850626
 40
1.196246862850626
 40
1.196246862850626
 40
1.196246862850626
 10
-30.76356618448334
 20
-8.35468863722064
 30
0.0
 10
-31.16119909968334
 20
-8.324876000776193
 30
0.0
 10
-31.55883201488334
 20
-8.295063364331747
 30
0.0
 10
-31.95646493008334
 20
-8.265250727887298
 30
0.0
 11
-30.76356618448334
 21
-8.35468863722064
 31
0.0
 11
-31.95646493008334
 21
-8.265250727887298
 31
0.0
  0
LINE
  5
FE
100
AcDbEntity
  8
0
100
AcDbLine
 10
-5.373316
 20
-31.661259
 30
0.0
 11
-22.477203
 21
-31.661259
 31
0.0
  0
LINE
  5
FF
100
AcDbEntity
  8
0
100
AcDbLine
 10
-22.75706
 20
-33.435902
 30
0.0
 11
-4.772105
 21
-33.435902
 31
0.0
  0
SPLINE
  5
100
100
AcDbEntity
  8
0
100
AcDbSpline
210
0.0
220
0.0
230
1.0
 70
     8
 71
     3
 72
     9
 73
     5
 74
     3
 42
0.0000001
 43
0.0000001
 44
0.0000000001
 40
0.0
 40
0.0
 40
0.0
 40
0.0
 40
0.1503202069446669
 40
0.2917836750684203
 40
0.2917836750684203
 40
0.2917836750684203
 40
0.2917836750684203
 10
-23.10099746661666
 20
-33.33244046442064
 30
0.0
 10
-23.15110505243588
 20
-33.33235570876626
 30
0.0
 10
-23.24836792770932
 20
-33.3321911911886
 30
0.0
 10
-23.34561561880345
 20
-33.33047186353173
 30
0.0
 10
-23.39276354661667
 20
-33.32963829375398
 30
0.0
 11
-23.10099746661666
 21
-33.33244046442064
 31
0.0
 11
-23.25131619408333
 21
-33.33177353962063
 31
0.0
 11
-23.39276354661667
 21
-33.32963829375398
 31
0.0
  0
SPLINE
  5
101
100
AcDbEntity
  8
0
100
AcDbSpline
210
-0.0383746928298006
220
0.9992634202002085
230
0.0
 70
    24
 71
     3
 72
     8
 73
     4
 74
     2
 42
0.0000001
 43
0.0000001
 44
0.0000000001
 40
0.0
 40
0.0
 40
0.0
 40
0.0
 40
1.702430165537155
 40
1.702430165537155
 40
1.702430165537155
 40
1.702430165537155
 10
-24.17837879675
 20
-31.72658191082065
 30
0.0
 10
-23.61132006679445
 20
-31.70480516593176
 30
0.0
 10
-23.04426133683889
 20
-31.68302842104286
 30
0.0
 10
-22.47720260688333
 20
-31.66125167615397
 30
0.0
 11
-24.17837879675
 21
-31.72658191082065
 31
0.0
 11
-22.47720260688333
 21
-31.66125167615397
 31
0.0
  0
SPLINE
  5
102
100
AcDbEntity
  8
0
100
AcDbSpline
210
0.0
220
0.0
230
-1.0
 70
     8
 71
     3
 72
    15
 73
    11
 74
     9
 42
0.0000001
 43
0.0000001
 44
0.0000000001
 40
0.0
 40
0.0
 40
0.0
 40
0.0
 40
0.5430774032334473
 40
1.09993270499726
 40
1.654448596522002
 40
2.206825044999142
 40
2.75736024381111
 40
3.306437974903301
 40
3.854510748729494
 40
4.402078918099872
 40
4.402078918099872
 40
4.402078918099872
 40
4.402078918099872
 10
-22.49591964795001
 20
-32.59513331775398
 30
0.0
 10
-22.64267636087038
 20
-32.48888176503325
 30
0.0
 10
-22.93991301122246
 20
-32.27368305284522
 30
0.0
 10
-23.42633984424629
 20
-32.01059129738582
 30
0.0
 10
-23.93859025541833
 20
-31.79590087232344
 30
0.0
 10
-24.46940885267484
 20
-31.6387547073308
 30
0.0
 10
-25.01218957567779
 20
-31.53939535858633
 30
0.0
 10
-25.56089683337964
 20
-31.5006395987129
 30
0.0
 10
-26.1105275079304
 20
-31.51748337145879
 30
0.0
 10
-26.47089782338488
 20
-31.57896493920999
 30
0.0
 10
-26.65099999568334
 20
-31.60969156522063
 30
0.0
 11
-22.49591964795001
 21
-32.59513331775398
 31
0.0
 11
-22.94256603515
 21
-32.28619955348731
 31
0.0
 11
-23.43089982075
 21
-32.01858426815398
 31
0.0
 11
-23.94268723835
 21
-31.80513283775398
 31
0.0
 11
-24.47229343888334
 21
-31.64817101695397
 31
0.0
 11
-25.01389640635
 21
-31.54940244522064
 31
0.0
 11
-25.56155086181667
 21
-31.50989355775397
 31
0.0
 11
-26.10925229861667
 21
-31.53006535828731
 31
0.0
 11
-26.65099999568334
 21
-31.60969156522063
 31
0.0
  0
LWPOLYLINE
  5
103
100
AcDbEntity
  8
0
100
AcDbPolyline
 90
        9
 70
     0
 43
0.0
 10
-26.72477
 20
-31.624687
 10
-26.248179
 20
-31.551605
 10
-25.694356
 20
-31.524856
 10
-25.139934
 20
-31.559577
 10
-24.591194
 20
-31.655376
 10
-24.054348
 20
-31.811166
 10
-23.535477
 20
-32.025184
 10
-23.040454
 20
-32.295007
 10
-22.574887
 20
-32.617578
  0
LWPOLYLINE
  5
104
100
AcDbEntity
  8
0
100
AcDbPolyline
 90
        5
 70
     0
 43
0.0
 10
-22.501117
 20
-32.602582
 10
-22.966684
 20
-32.280011
 10
-23.461706
 20
-32.010188
 10
-23.980578
 20
-31.79617
 10
-24.517424
 20
-31.64038
  0
LWPOLYLINE
  5
105
100
AcDbEntity
  8
0
100
AcDbPolyline
 90
       15
 70
     0
 43
0.0
 10
-23.027234
 20
-32.761008
 10
-23.45134
 20
-32.491291
 10
-23.898558
 20
-32.26673
 10
-24.364376
 20
-32.089589
 10
-24.844102
 20
-31.961647
 10
-25.332907
 20
-31.88419
 10
-25.825871
 20
-31.857996
 10
-26.318032
 20
-31.883328
 10
-26.804435
 20
-31.95993
 10
-27.280184
 20
-32.087031
 10
-27.740491
 20
-32.263354
 10
-28.180721
 20
-32.487125
 10
-28.596441
 20
-32.756093
 10
-28.983466
 20
-33.067555
 10
-29.337888
 20
-33.418368
  0
SPLINE
  5
106
100
AcDbEntity
  8
0
100
AcDbSpline
210
0.0
220
0.0
230
1.0
 70
     8
 71
     3
 72
    12
 73
     8
 74
     6
 42
0.0000001
 43
0.0000001
 44
0.0000000001
 40
0.0
 40
0.0
 40
0.0
 40
0.0
 40
0.1500836656706091
 40
0.3065924741799342
 40
0.4602747181971833
 40
0.6052773158668009
 40
0.7385232720507667
 40
0.7385232720507667
 40
0.7385232720507667
 40
0.7385232720507667
 10
-23.80366389968333
 20
-33.31238613482063
 30
0.0
 10
-23.75375999366905
 20
-33.31595873038468
 30
0.0
 10
-23.65181577510403
 20
-33.32325686578359
 30
0.0
 10
-23.4984626964722
 20
-33.32869507680495
 30
0.0
 10
-23.34677076831621
 20
-33.33208595063319
 30
0.0
 10
-23.20279674468674
 20
-33.33359253320938
 30
0.0
 10
-23.1100469484669
 20
-33.33353913078063
 30
0.0
 10
-23.06563149648334
 20
-33.33351355775398
 30
0.0
 11
-23.80366389968333
 21
-33.31238613482063
 31
0.0
 11
-23.65390295461667
 21
-33.32222310762063
 31
0.0
 11
-23.49751544208334
 21
-33.3283837134873
 31
0.0
 11
-23.34387200955001
 21
-33.33183737322064
 31
0.0
 11
-23.19887735888334
 21
-33.33335546708731
 31
0.0
 11
-23.06563149648334
 21
-33.33351355775398
 31
0.0
  0
SPLINE
  5
107
100
AcDbEntity
  8
0
100
AcDbSpline
210
-0.0155899783201305
220
0.9998784689030852
230
0.0
 70
    24
 71
     3
 72
     8
 73
     4
 74
     2
 42
0.0000001
 43
0.0000001
 44
0.0000000001
 40
0.0
 40
0.0
 40
0.0
 40
0.0
 40
0.7485125824885394
 40
0.7485125824885394
 40
0.7485125824885394
 40
0.7485125824885394
 10
-22.75705947728334
 20
-33.4358507278873
 30
0.0
 10
-23.00653334892778
 20
-33.43974049286508
 30
0.0
 10
-23.25600722057223
 20
-33.44363025784286
 30
0.0
 10
-23.50548109221667
 20
-33.44752002282064
 30
0.0
 11
-22.75705947728334
 21
-33.4358507278873
 31
0.0
 11
-23.50548109221667
 21
-33.44752002282064
 31
0.0
  0
SPLINE
  5
108
100
AcDbEntity
  8
0
100
AcDbSpline
210
0.0
220
0.0
230
-1.0
 70
     8
 71
     3
 72
    11
 73
     7
 74
     5
 42
0.0000001
 43
0.0000001
 44
0.0000000001
 40
0.0
 40
0.0
 40
0.0
 40
0.0
 40
0.4347988053011301
 40
0.8685645520210087
 40
1.301612321971
 40
1.734292003998691
 40
1.734292003998691
 40
1.734292003998691
 40
1.734292003998691
 10
-24.90040242555
 20
-32.30403841322064
 30
0.0
 10
-25.04340117827707
 20
-32.27963030989768
 30
0.0
 10
-25.32905892638412
 20
-32.2308720955928
 30
0.0
 10
-25.76347126680139
 20
-32.21265585691348
 30
0.0
 10
-26.19715994283696
 20
-32.2316356687069
 30
0.0
 10
-26.48174661891696
 20
-32.28105862484961
 30
0.0
 10
-26.62397945701667
 20
-32.30575959615396
 30
0.0
 11
-24.90040242555
 21
-32.30403841322064
 31
0.0
 11
-25.33045748688333
 21
-32.23998651775398
 31
0.0
 11
-25.76370815035
 21
-32.21885394495397
 31
0.0
 11
-26.19619726075001
 21
-32.24084349802064
 31
0.0
 11
-26.62397945701667
 21
-32.30575959615396
 31
0.0
  0
LWPOLYLINE
  5
109
100
AcDbEntity
  8
0
100
AcDbPolyline
 90
        7
 70
     0
 43
0.0
 10
-24.930299
 20
-32.13409
 10
-25.383947
 20
-32.066772
 10
-25.840972
 20
-32.045205
 10
-26.297115
 20
-32.06959
 10
-26.748123
 20
-32.1397
 10
-27.189792
 20
-32.254881
 10
-27.618005
 20
-32.414059
  0
LWPOLYLINE
  5
10A
100
AcDbEntity
  8
0
100
AcDbPolyline
 90
        3
 70
     0
 43
0.0
 10
-25.620585
 20
-31.50986
 10
-26.174409
 20
-31.536609
 10
-26.651
 20
-31.609692
  0
SPLINE
  5
10B
100
AcDbEntity
  8
0
100
AcDbSpline
210
0.0
220
0.0
230
1.0
 70
     8
 71
     3
 72
    18
 73
    14
 74
    12
 42
0.0000001
 43
0.0000001
 44
0.0000000001
 40
0.0
 40
0.0
 40
0.0
 40
0.0
 40
0.0056385019590715
 40
0.0243526933371168
 40
0.0511244951766959
 40
0.0820494987671209
 40
0.1146805883882974
 40
0.1475191132933253
 40
0.1800016658815861
 40
0.2110518530757416
 40
0.2402845045497229
 40
0.2700704988087458
 40
0.303488229594359
 40
0.303488229594359
 40
0.303488229594359
 40
0.303488229594359
 10
-29.61270812048334
 20
-33.35853320042064
 30
0.0
 10
-29.61222021161058
 20
-33.36038028755448
 30
0.0
 10
-29.61011293289706
 20
-33.36835785799136
 30
0.0
 10
-29.59407508564366
 20
-33.3778772607798
 30
0.0
 10
-29.57307053703317
 20
-33.39090656212428
 30
0.0
 10
-29.54539924693817
 20
-33.40357349019615
 30
0.0
 10
-29.51575636836343
 20
-33.41575526451114
 30
0.0
 10
-29.48493514641113
 20
-33.42665999246162
 30
0.0
 10
-29.45414789057619
 20
-33.43582046271164
 30
0.0
 10
-29.42385588252149
 20
-33.44246718925005
 30
0.0
 10
-29.39400837834135
 20
-33.44525974679704
 30
0.0
 10
-29.36232409255625
 20
-33.44041554851202
 30
0.0
 10
-29.34633963358993
 20
-33.42599358139023
 30
0.0
 10
-29.33788816421667
 20
-33.41836824895397
 30
0.0
 11
-29.61270812048334
 21
-33.35853320042064
 31
0.0
 11
-29.61094782075
 21
-33.3638898830873
 31
0.0
 11
-29.59690161275
 21
-33.37625616788731
 31
0.0
 11
-29.57382147941667
 21
-33.38982218495397
 31
0.0
 11
-29.54590423995
 21
-33.40312570282064
 31
0.0
 11
-29.51570403515001
 21
-33.41548432895397
 31
0.0
 11
-29.48474374288334
 21
-33.42643097322063
 31
0.0
 11
-29.45357273275001
 21
-33.4355679502873
 31
0.0
 11
-29.42318495035001
 21
-33.44194735508731
 31
0.0
 11
-29.39402692901667
 21
-33.44403486655398
 31
0.0
 11
-29.36483039141668
 21
-33.43813845695397
 31
0.0
 11
-29.33788816421667
 21
-33.41836824895397
 31
0.0
  0
SPLINE
  5
10C
100
AcDbEntity
  8
0
100
AcDbSpline
210
0.0
220
0.0
230
-1.0
 70
     8
 71
     3
 72
    14
 73
    10
 74
     8
 42
0.0000001
 43
0.0000001
 44
0.0000000001
 40
0.0
 40
0.0
 40
0.0
 40
0.0
 40
0.4876508085918195
 40
0.9756861169930353
 40
1.464460748357704
 40
1.954301602838445
 40
2.44549573497658
 40
2.938280266406393
 40
3.428935657548503
 40
3.428935657548503
 40
3.428935657548503
 40
3.428935657548503
 10
-26.72477011088334
 20
-31.6246874574873
 30
0.0
 10
-26.88321388186349
 20
-31.66156133353271
 30
0.0
 10
-27.20022635256104
 20
-31.7353381597029
 30
0.0
 10
-27.65957566802183
 20
-31.90397783298312
 30
0.0
 10
-28.10196874577094
 20
-32.11339168230729
 30
0.0
 10
-28.52291001470646
 20
-32.36581148991759
 30
0.0
 10
-28.91809392869569
 20
-32.65862222139443
 30
0.0
 10
-29.28624684735713
 20
-32.98602363138481
 30
0.0
 10
-29.50360858034331
 20
-33.23173320362164
 30
0.0
 10
-29.61205415355001
 20
-33.35432201002064
 30
0.0
 11
-26.72477011088334
 21
-31.6246874574873
 31
0.0
 11
-27.19735998715
 21
-31.74494601215398
 31
0.0
 11
-27.65641056315001
 21
-31.91062953855396
 31
0.0
 11
-28.09792594661667
 21
-32.12030740202065
 31
0.0
 11
-28.51805739621667
 21
-32.3721677358873
 31
0.0
 11
-28.91313649275
 21
-32.66403103082064
 31
0.0
 11
-29.27970761915
 21
-32.99336703508731
 31
0.0
 11
-29.61205415355001
 21
-33.35432201002064
 31
0.0
  0
SPLINE
  5
10D
100
AcDbEntity
  8
0
100
AcDbSpline
210
0.0
220
0.0
230
-1.0
 70
     8
 71
     3
 72
    10
 73
     6
 74
     4
 42
0.0000001
 43
0.0000001
 44
0.0000000001
 40
0.0
 40
0.0
 40
0.0
 40
0.0
 40
0.1483703047875781
 40
0.4458315359947122
 40
0.7435269149068447
 40
0.7435269149068447
 40
0.7435269149068447
 40
0.7435269149068447
 10
-26.62338275728334
 20
-32.3082541614873
 30
0.0
 10
-26.67135241192302
 20
-32.32028960125134
 30
0.0
 10
-26.81549436027154
 20
-32.35645437562487
 30
0.0
 10
-27.05246738807022
 20
-32.43026862836141
 30
0.0
 10
-27.23630979948468
 20
-32.50498322014613
 30
0.0
 10
-27.32826716901668
 20
-32.54235521322064
 30
0.0
 11
-26.62338275728334
 21
-32.3082541614873
 31
0.0
 11
-26.76706480741668
 21
-32.34525707775397
 31
0.0
 11
-27.05093320955
 21
-32.43414979028731
 31
0.0
 11
-27.32826716901668
 21
-32.54235521322064
 31
0.0
  0
SPLINE
  5
10E
100
AcDbEntity
  8
0
100
AcDbSpline
210
-0.225984668821372
220
0.9741308584875518
230
0.0
 70
    24
 71
     3
 72
     8
 73
     4
 74
     2
 42
0.0000001
 43
0.0000001
 44
0.0000000001
 40
0.0
 40
0.0
 40
0.0
 40
0.0
 40
0.060594477513663
 40
0.060594477513663
 40
0.060594477513663
 40
0.060594477513663
 10
-26.56435580688334
 20
-32.29456073855397
 30
0.0
 10
-26.58403145701667
 20
-32.29912521286509
 30
0.0
 10
-26.60370710715001
 20
-32.3036896871762
 30
0.0
 10
-26.62338275728334
 20
-32.3082541614873
 30
0.0
 11
-26.56435580688334
 21
-32.29456073855397
 31
0.0
 11
-26.62338275728334
 21
-32.3082541614873
 31
0.0
  0
SPLINE
  5
10F
100
AcDbEntity
  8
0
100
AcDbSpline
210
-0.3963090235838387
220
0.9181171808794475
230
0.0
 70
    24
 71
     3
 72
     8
 73
     4
 74
     2
 42
0.0000001
 43
0.0000001
 44
0.0000000001
 40
0.0
 40
0.0
 40
0.0
 40
0.0
 40
0.0041232093377305
 40
0.0041232093377305
 40
0.0041232093377305
 40
0.0041232093377305
 10
-27.33205275835
 20
-32.5439892782873
 30
0.0
 10
-27.3307908952389
 20
-32.54344458993175
 30
0.0
 10
-27.32952903212778
 20
-32.54289990157619
 30
0.0
 10
-27.32826716901668
 20
-32.54235521322064
 30
0.0
 11
-27.33205275835
 21
-32.5439892782873
 31
0.0
 11
-27.32826716901668
 21
-32.54235521322064
 31
0.0
  0
LINE
  5
110
100
AcDbEntity
  8
0
100
AcDbLine
 10
-26.651
 20
-31.609692
 30
0.0
 11
-26.72477
 21
-31.624687
 31
0.0
  0
LWPOLYLINE
  5
111
100
AcDbEntity
  8
0
100
AcDbPolyline
 90
        3
 70
     0
 43
0.0
 10
-26.623979
 20
-32.30576
 10
-27.066424
 20
-32.420171
 10
-27.478377
 20
-32.573306
  0
LINE
  5
112
100
AcDbEntity
  8
0
100
AcDbLine
 10
-26.548345
 20
-32.294282
 30
0.0
 11
-26.920329
 21
-32.390473
 31
0.0
  0
LINE
  5
113
100
AcDbEntity
  8
0
100
AcDbLine
 10
-28.784587
 20
-32.569066
 30
0.0
 11
-29.172846
 21
-32.673099
 31
0.0
  0
LINE
  5
114
100
AcDbEntity
  8
0
100
AcDbLine
 10
-27.328267
 20
-32.542355
 30
0.0
 11
-27.33228
 21
-32.543607
 31
0.0
  0
LINE
  5
115
100
AcDbEntity
  8
0
100
AcDbLine
 10
-26.920329
 20
-32.390473
 30
0.0
 11
-27.332281
 21
-32.543607
 31
0.0
  0
LINE
  5
116
100
AcDbEntity
  8
0
100
AcDbLine
 10
-29.612054
 20
-33.354323
 30
0.0
 11
-29.613332
 21
-33.358613
 31
0.0
  0
SPLINE
  5
117
100
AcDbEntity
  8
0
100
AcDbSpline
210
0.0210770287170523
220
0.9997778547559756
230
0.0
 70
    24
 71
     3
 72
     8
 73
     4
 74
     2
 42
0.0000001
 43
0.0000001
 44
0.0000000001
 40
0.0
 40
0.0
 40
0.0
 40
0.0
 40
0.2340193740242859
 40
0.2340193740242859
 40
0.2340193740242859
 40
0.2340193740242859
 10
-23.46633851515
 20
-33.40664648575397
 30
0.0
 10
-23.54432764439445
 20
-33.40500234139842
 30
0.0
 10
-23.6223167736389
 20
-33.40335819704287
 30
0.0
 10
-23.70030590288334
 20
-33.40171405268732
 30
0.0
 11
-23.46633851515
 21
-33.40664648575397
 31
0.0
 11
-23.70030590288334
 21
-33.40171405268732
 31
0.0
  0
SPLINE
  5
118
100
AcDbEntity
  8
0
100
AcDbSpline
210
-0.0547558875026019
220
0.9984997710484476
230
0.0
 70
    24
 71
     3
 72
     8
 73
     4
 74
     2
 42
0.0000001
 43
0.0000001
 44
0.0000000001
 40
0.0
 40
0.0
 40
0.0
 40
0.0
 40
0.7096637172544888
 40
0.7096637172544888
 40
0.7096637172544888
 40
0.7096637172544888
 10
-25.69020175461667
 20
-33.45531112895397
 30
0.0
 10
-25.45400206821667
 20
-33.44235837339842
 30
0.0
 10
-25.21780238181667
 20
-33.42940561784286
 30
0.0
 10
-24.98160269541667
 20
-33.41645286228731
 30
0.0
 11
-25.69020175461667
 21
-33.45531112895397
 31
0.0
 11
-24.98160269541667
 21
-33.41645286228731
 31
0.0
  0
SPLINE
  5
119
100
AcDbEntity
  8
0
100
AcDbSpline
210
-0.9502694064098367
220
0.3114290533034721
230
0.0
 70
    24
 71
     3
 72
     8
 73
     4
 74
     2
 42
0.0000001
 43
0.0000001
 44
0.0000000001
 40
0.0
 40
0.0
 40
0.0
 40
0.0
 40
0.0000427140623465
 40
0.0000427140623465
 40
0.0000427140623465
 40
0.0000427140623465
 10
-23.95713608635
 20
-33.28649838335397
 30
0.0
 10
-23.95714052048333
 20
-33.28651191330953
 30
0.0
 10
-23.95714495461667
 20
-33.2865254432651
 30
0.0
 10
-23.95714938875
 20
-33.28653897322065
 30
0.0
 11
-23.95713608635
 21
-33.28649838335397
 31
0.0
 11
-23.95714938875
 21
-33.28653897322065
 31
0.0
  0
SPLINE
  5
11A
100
AcDbEntity
  8
0
100
AcDbSpline
210
0.0
220
0.0
230
1.0
 70
     8
 71
     3
 72
    11
 73
     7
 74
     5
 42
0.0000001
 43
0.0000001
 44
0.0000000001
 40
0.0
 40
0.0
 40
0.0
 40
0.0
 40
0.0654153473383294
 40
0.1121307005682842
 40
0.138156702511724
 40
0.1384198234258824
 40
0.1384198234258824
 40
0.1384198234258824
 40
0.1384198234258824
 10
-23.82064391248334
 20
-33.30792047402064
 30
0.0
 10
-23.84267982563658
 20
-33.30430657760536
 30
0.0
 10
-23.88045234355588
 20
-33.29811187325363
 30
0.0
 10
-23.92280365401322
 20
-33.30155601440266
 30
0.0
 10
-23.95131351366601
 20
-33.2798494167655
 30
0.0
 10
-23.95709155782618
 20
-33.28647268269451
 30
0.0
 10
-23.95714938875
 20
-33.28653897322065
 30
0.0
 11
-23.82064391248334
 21
-33.30792047402064
 31
0.0
 11
-23.88559472101667
 21
-33.30013843455398
 31
0.0
 11
-23.93166527568334
 21
-33.29240356415398
 31
0.0
 11
-23.95697544635
 21
-33.28634154815397
 31
0.0
 11
-23.95714938875
 21
-33.28653897322065
 31
0.0
  0
SPLINE
  5
11B
100
AcDbEntity
  8
0
100
AcDbSpline
210
0.0
220
0.0
230
1.0
 70
     8
 71
     3
 72
    11
 73
     7
 74
     5
 42
0.0000001
 43
0.0000001
 44
0.0000000001
 40
0.0
 40
0.0
 40
0.0
 40
0.0
 40
0.1297355719547964
 40
0.2454564664308419
 40
0.3454270043905321
 40
0.4285274525890656
 40
0.4285274525890656
 40
0.4285274525890656
 40
0.4285274525890656
 10
-23.39276354661667
 20
-33.32963829375398
 30
0.0
 10
-23.43599718095294
 20
-33.32859313040484
 30
0.0
 10
-23.51779413883617
 20
-33.32661570741546
 30
0.0
 10
-23.63283455880403
 20
-33.32170564163555
 30
0.0
 10
-23.73228200953419
 20
-33.3159836783562
 30
0.0
 10
-23.79305675326584
 20
-33.31043785871228
 30
0.0
 10
-23.82064391248334
 20
-33.30792047402064
 30
0.0
 11
-23.39276354661667
 21
-33.32963829375398
 31
0.0
 11
-23.52245032635
 21
-33.32608051455397
 31
0.0
 11
-23.63806721275
 21
-33.32117531348731
 31
0.0
 11
-23.73785006288334
 21
-33.31505230122064
 31
0.0
 11
-23.82064391248334
 21
-33.30792047402064
 31
0.0
  0
SPLINE
  5
11C
100
AcDbEntity
  8
0
100
AcDbSpline
210
0.6989612083974598
220
0.7151595829991813
230
0.0
 70
    24
 71
     3
 72
     8
 73
     4
 74
     2
 42
0.0000001
 43
0.0000001
 44
0.0000000001
 40
0.0
 40
0.0
 40
0.0
 40
0.0
 40
0.0044433100092148
 40
0.0044433100092148
 40
0.0044433100092148
 40
0.0044433100092148
 10
-23.95713608635
 20
-33.28649838335397
 30
0.0
 10
-23.95607686110556
 20
-33.28753361713175
 30
0.0
 10
-23.95501763586111
 20
-33.28856885090953
 30
0.0
 10
-23.95395841061668
 20
-33.2896040846873
 30
0.0
 11
-23.95713608635
 21
-33.28649838335397
 31
0.0
 11
-23.95395841061668
 21
-33.2896040846873
 31
0.0
  0
SPLINE
  5
11D
100
AcDbEntity
  8
0
100
AcDbSpline
210
0.0
220
0.0
230
-1.0
 70
     8
 71
     3
 72
    14
 73
    10
 74
     8
 42
0.0000001
 43
0.0000001
 44
0.0000000001
 40
0.0
 40
0.0
 40
0.0
 40
0.0
 40
0.112392441957002
 40
0.3748351614446031
 40
0.6360046267940719
 40
0.8956536092052759
 40
1.153674533931176
 40
1.410110824429902
 40
1.66514539554208
 40
1.66514539554208
 40
1.66514539554208
 40
1.66514539554208
 10
-23.65758377915001
 20
-33.3184517742873
 30
0.0
 10
-23.67348341982637
 20
-33.28452029846664
 30
0.0
 10
-23.72650962226545
 20
-33.17135690423987
 30
0.0
 10
-23.83904495231542
 20
-32.99056867146795
 30
0.0
 10
-24.006777001808
 20
-32.78947835084959
 30
0.0
 10
-24.2013078803835
 20
-32.61594652035816
 30
0.0
 10
-24.41811002877066
 20
-32.47469143975375
 30
0.0
 10
-24.6518720164314
 20
-32.36545925472337
 30
0.0
 10
-24.8177104528751
 20
-32.32447458666608
 30
0.0
 10
-24.90040242555
 20
-32.30403841322064
 30
0.0
 11
-23.65758377915001
 21
-33.3184517742873
 31
0.0
 11
-23.70647824208334
 21
-33.21725200895398
 31
0.0
 11
-23.84416416528333
 21
-32.9938269262873
 31
0.0
 11
-24.01176819941667
 21
-32.7935312014873
 31
0.0
 11
-24.20566024741668
 21
-32.62083647722064
 31
0.0
 11
-24.42162336101667
 21
-32.47964606975397
 31
0.0
 11
-24.65492718928334
 21
-32.3732087886873
 31
0.0
 11
-24.90040242555
 21
-32.30403841322064
 31
0.0
  0
LINE
  5
11E
100
AcDbEntity
  8
0
100
AcDbLine
 10
-23.953649
 20
-33.288507
 30
0.0
 11
-23.95332
 21
-33.288686
 31
0.0
  0
LWPOLYLINE
  5
11F
100
AcDbEntity
  8
0
100
AcDbPolyline
 90
        8
 70
     0
 43
0.0
 10
-24.930299
 20
-32.13409
 10
-24.658633
 20
-32.210446
 10
-24.400208
 20
-32.327817
 10
-24.16077
 20
-32.483595
 10
-23.945643
 20
-32.674316
 10
-23.759612
 20
-32.895739
 10
-23.606813
 20
-33.142941
 10
-23.527364
 20
-33.325872
  0
LINE
  5
120
100
AcDbEntity
  8
0
100
AcDbLine
 10
-24.517424
 20
-31.64038
 30
0.0
 11
-25.066164
 21
-31.544581
 31
0.0
  0
LINE
  5
121
100
AcDbEntity
  8
0
100
AcDbLine
 10
-25.066164
 20
-31.544581
 30
0.0
 11
-25.620585
 21
-31.50986
 31
0.0
  0
LINE
  5
122
100
AcDbEntity
  8
0
100
AcDbLine
 10
-23.505481
 20
-33.44752
 30
0.0
 11
-23.466339
 21
-33.406654
 31
0.0
  0
SPLINE
  5
123
100
AcDbEntity
  8
0
100
AcDbSpline
210
0.4924955984158533
220
0.8703149346880188
230
0.0
 70
    24
 71
     3
 72
     8
 73
     4
 74
     2
 42
0.0000001
 43
0.0000001
 44
0.0000000001
 40
0.0
 40
0.0
 40
0.0
 40
0.0
 40
0.0034902381642898
 40
0.0034902381642898
 40
0.0034902381642898
 40
0.0034902381642898
 10
-23.95812343035
 20
-33.2895780174873
 30
0.0
 10
-23.95711089488334
 20
-33.29015099313175
 30
0.0
 10
-23.95609835941667
 20
-33.2907239687762
 30
0.0
 10
-23.95508582395
 20
-33.29129694442064
 30
0.0
 11
-23.95812343035
 21
-33.2895780174873
 31
0.0
 11
-23.95508582395
 21
-33.29129694442064
 31
0.0
  0
SPLINE
  5
124
100
AcDbEntity
  8
0
100
AcDbSpline
210
0.0
220
0.0
230
-1.0
 70
     8
 71
     3
 72
    12
 73
     8
 74
     6
 42
0.0000001
 43
0.0000001
 44
0.0000000001
 40
0.0
 40
0.0
 40
0.0
 40
0.0
 40
0.0923333982660633
 40
0.1886026258511366
 40
0.2467231259107577
 40
0.2735810543359773
 40
0.2899603506656034
 40
0.2899603506656034
 40
0.2899603506656034
 40
0.2899603506656034
 10
-23.72972834661667
 20
-33.17855523562064
 30
0.0
 10
-23.7602877530934
 20
-33.18402095769343
 30
0.0
 10
-23.82270919987428
 20
-33.19518538524032
 30
0.0
 10
-23.89784025725374
 20
-33.22069469009678
 30
0.0
 10
-23.96309420352902
 20
-33.23554428990058
 30
0.0
 10
-23.97361055059377
 20
-33.27553194373807
 30
0.0
 10
-23.96237842757478
 20
-33.28571893949983
 30
0.0
 10
-23.95812343035
 20
-33.2895780174873
 30
0.0
 11
-23.72972834661667
 21
-33.17855523562064
 31
0.0
 11
-23.82021083088334
 21
-33.1969502478873
 31
0.0
 11
-23.91278936315001
 21
-33.22335061802064
 31
0.0
 11
-23.96416245541667
 21
-33.25053145535397
 31
0.0
 11
-23.96863274235
 21
-33.27701474922063
 31
0.0
 11
-23.95812343035
 21
-33.2895780174873
 31
0.0
  0
SPLINE
  5
125
100
AcDbEntity
  8
0
100
AcDbSpline
210
0.1114963293076392
220
0.9937648457008945
230
0.0
 70
    24
 71
     3
 72
     8
 73
     4
 74
     2
 42
0.0000001
 43
0.0000001
 44
0.0000000001
 40
0.0
 40
0.0
 40
0.0
 40
0.0
 40
0.1310290932809472
 40
0.1310290932809472
 40
0.1310290932809472
 40
0.1310290932809472
 10
-23.93387600635
 20
-33.2977768718873
 30
0.0
 10
-23.89047197079445
 20
-33.30264662619841
 30
0.0
 10
-23.84706793523889
 20
-33.30751638050951
 30
0.0
 10
-23.80366389968333
 20
-33.31238613482063
 30
0.0
 11
-23.93387600635
 21
-33.2977768718873
 31
0.0
 11
-23.80366389968333
 21
-33.31238613482063
 31
0.0
  0
SPLINE
  5
126
100
AcDbEntity
  8
0
100
AcDbSpline
210
0.0
220
0.0
230
1.0
 70
     8
 71
     3
 72
    13
 73
     9
 74
     7
 42
0.0000001
 43
0.0000001
 44
0.0000000001
 40
0.0
 40
0.0
 40
0.0
 40
0.0
 40
0.1440708849339972
 40
0.2519904396275471
 40
0.3192864171055308
 40
0.3489538720860332
 40
0.3982033560478548
 40
0.4939364566214987
 40
0.4939364566214987
 40
0.4939364566214987
 40
0.4939364566214987
 10
-23.75132960741667
 20
-33.1444120270873
 30
0.0
 10
-23.79902601621312
 20
-33.15160306477199
 30
0.0
 10
-23.88245049872935
 20
-33.16418071186823
 30
0.0
 10
-23.98303634744313
 20
-33.19592537044602
 30
0.0
 10
-24.05247062721672
 20
-33.20930510920304
 30
0.0
 10
-24.08103379087174
 20
-33.26312928879524
 30
0.0
 10
-24.00486434797148
 20
-33.28468131307362
 30
0.0
 10
-23.96210820918683
 20
-33.29256874243611
 30
0.0
 10
-23.93387600635
 20
-33.2977768718873
 30
0.0
 11
-23.75132960741667
 21
-33.1444120270873
 31
0.0
 11
-23.89309854288334
 21
-33.17006331988731
 31
0.0
 11
-23.99742037115
 21
-33.19769638762064
 31
0.0
 11
-24.05851850021667
 21
-33.22590573375396
 31
0.0
 11
-24.07016551141667
 21
-33.25319135295397
 31
0.0
 11
-24.02749964475001
 21
-33.27779085482064
 31
0.0
 11
-23.93387600635
 21
-33.2977768718873
 31
0.0
  0
SPLINE
  5
127
100
AcDbEntity
  8
0
100
AcDbSpline
210
0.0
220
0.0
230
-1.0
 70
     8
 71
     3
 72
     9
 73
     5
 74
     3
 42
0.0000001
 43
0.0000001
 44
0.0000000001
 40
0.0
 40
0.0
 40
0.0
 40
0.0
 40
0.9025719964535149
 40
1.281484009531588
 40
1.281484009531588
 40
1.281484009531588
 40
1.281484009531588
 10
-23.70030590288334
 20
-33.40171405268732
 30
0.0
 10
-24.00121197324432
 20
-33.39977458838471
 30
0.0
 10
-24.42844250892874
 20
-33.39702091056111
 30
0.0
 10
-24.85536832905909
 20
-33.4120183780761
 30
0.0
 10
-24.98160269541667
 20
-33.41645286228731
 30
0.0
 11
-23.70030590288334
 21
-33.40171405268732
 31
0.0
 11
-24.60287295568334
 21
-33.40470135615397
 31
0.0
 11
-24.98160269541667
 21
-33.41645286228731
 31
0.0
  0
SPLINE
  5
128
100
AcDbEntity
  8
0
100
AcDbSpline
210
-0.0048978330775625
220
0.9999880055436387
230
0.0
 70
    24
 71
     3
 72
     8
 73
     4
 74
     2
 42
0.0000001
 43
0.0000001
 44
0.0000000001
 40
0.0
 40
0.0
 40
0.0
 40
0.0
 40
0.1403635694513618
 40
0.1403635694513618
 40
0.1403635694513618
 40
0.1403635694513618
 10
-22.96063558075001
 20
-33.3317529870873
 30
0.0
 10
-23.0074228760389
 20
-33.33198214619842
 30
0.0
 10
-23.05421017132778
 20
-33.33221130530953
 30
0.0
 10
-23.10099746661666
 20
-33.33244046442064
 30
0.0
 11
-22.96063558075001
 21
-33.3317529870873
 31
0.0
 11
-23.10099746661666
 21
-33.33244046442064
 31
0.0
  0
SPLINE
  5
129
100
AcDbEntity
  8
0
100
AcDbSpline
210
-0.0097147790406226
220
0.9999528104206678
230
0.0
 70
    24
 71
     3
 72
     8
 73
     4
 74
     2
 42
0.0000001
 43
0.0000001
 44
0.0000000001
 40
0.0
 40
0.0
 40
0.0
 40
0.0
 40
0.0154049274853872
 40
0.0154049274853872
 40
0.0154049274853872
 40
0.0154049274853872
 10
-22.94523138021667
 20
-33.33160333162064
 30
0.0
 10
-22.95036611372779
 20
-33.3316532167762
 30
0.0
 10
-22.9555008472389
 20
-33.33170310193176
 30
0.0
 10
-22.96063558075001
 20
-33.3317529870873
 30
0.0
 11
-22.94523138021667
 21
-33.33160333162064
 31
0.0
 11
-22.96063558075001
 21
-33.3317529870873
 31
0.0
  0
SPLINE
  5
12A
100
AcDbEntity
  8
0
100
AcDbSpline
210
-0.0151267086201278
220
0.9998855847977416
230
0.0
 70
    24
 71
     3
 72
     8
 73
     4
 74
     2
 42
0.0000001
 43
0.0000001
 44
0.0000000001
 40
0.0
 40
0.0
 40
0.0
 40
0.0
 40
0.157366015731185
 40
0.157366015731185
 40
0.157366015731185
 40
0.157366015731185
 10
-22.78788336955
 20
-33.32922290175397
 30
0.0
 10
-22.84033270643889
 20
-33.3300163783762
 30
0.0
 10
-22.89278204332778
 20
-33.33080985499842
 30
0.0
 10
-22.94523138021667
 20
-33.33160333162064
 30
0.0
 11
-22.78788336955
 21
-33.32922290175397
 31
0.0
 11
-22.94523138021667
 21
-33.33160333162064
 31
0.0
  0
SPLINE
  5
12B
100
AcDbEntity
  8
0
100
AcDbSpline
210
-0.0216579762266605
220
0.9997654385233396
230
0.0
 70
    24
 71
     3
 72
     8
 73
     4
 74
     2
 42
0.0000001
 43
0.0000001
 44
0.0000000001
 40
0.0
 40
0.0
 40
0.0
 40
0.0
 40
0.0432916041425967
 40
0.0432916041425967
 40
0.0432916041425967
 40
0.0432916041425967
 10
-22.74460191995
 20
-33.32828529322064
 30
0.0
 10
-22.75902906981667
 20
-33.32859782939841
 30
0.0
 10
-22.77345621968334
 20
-33.32891036557619
 30
0.0
 10
-22.78788336955
 20
-33.32922290175397
 30
0.0
 11
-22.74460191995
 21
-33.32828529322064
 31
0.0
 11
-22.78788336955
 21
-33.32922290175397
 31
0.0
  0
SPLINE
  5
12C
100
AcDbEntity
  8
0
100
AcDbSpline
210
-0.1102572439920369
220
0.9939030838805566
230
0.0
 70
    24
 71
     3
 72
     8
 73
     4
 74
     2
 42
0.0000001
 43
0.0000001
 44
0.0000000001
 40
0.0
 40
0.0
 40
0.0
 40
0.0
 40
0.0060692780122787
 40
0.0060692780122787
 40
0.0060692780122787
 40
0.0060692780122787
 10
-22.57766701648333
 20
-33.32312775082064
 30
0.0
 10
-22.57565625843889
 20
-33.32290469019841
 30
0.0
 10
-22.57364550039445
 20
-33.32268162957619
 30
0.0
 10
-22.57163474235
 20
-33.32245856895398
 30
0.0
 11
-22.57766701648333
 21
-33.32312775082064
 31
0.0
 11
-22.57163474235
 21
-33.32245856895398
 31
0.0
  0
SPLINE
  5
12D
100
AcDbEntity
  8
0
100
AcDbSpline
210
-0.0240236145104298
220
0.9997113913254436
230
0.0
 70
    24
 71
     3
 72
     8
 73
     4
 74
     2
 42
0.0000001
 43
0.0000001
 44
0.0000000001
 40
0.0
 40
0.0
 40
0.0
 40
0.0
 40
0.0161062857471169
 40
0.0161062857471169
 40
0.0161062857471169
 40
0.0161062857471169
 10
-22.72851058981667
 20
-33.32793989375398
 30
0.0
 10
-22.73387780226112
 20
-33.32806887082064
 30
0.0
 10
-22.73924501470556
 20
-33.32819784788731
 30
0.0
 10
-22.74461222715
 20
-33.32832682495396
 30
0.0
 11
-22.72851058981667
 21
-33.32793989375398
 31
0.0
 11
-22.74461222715
 21
-33.32832682495396
 31
0.0
  0
SPLINE
  5
12E
100
AcDbEntity
  8
0
100
AcDbSpline
210
-0.0324538304698622
220
0.9994732357036049
230
0.0
 70
    24
 71
     3
 72
     8
 73
     4
 74
     2
 42
0.0000001
 43
0.0000001
 44
0.0000000001
 40
0.0
 40
0.0
 40
0.0
 40
0.0
 40
0.1349357801512914
 40
0.1349357801512914
 40
0.1349357801512914
 40
0.1349357801512914
 10
-22.59364588901667
 20
-33.32356071082063
 30
0.0
 10
-22.63860078928333
 20
-33.32502043846508
 30
0.0
 10
-22.68355568955
 20
-33.32648016610953
 30
0.0
 10
-22.72851058981667
 20
-33.32793989375398
 30
0.0
 11
-22.59364588901667
 21
-33.32356071082063
 31
0.0
 11
-22.72851058981667
 21
-33.32793989375398
 31
0.0
  0
SPLINE
  5
12F
100
AcDbEntity
  8
0
100
AcDbSpline
210
-0.0417084724842897
220
0.999129823057558
230
0.0
 70
    24
 71
     3
 72
     8
 73
     4
 74
     2
 42
0.0000001
 43
0.0000001
 44
0.0000000001
 40
0.0
 40
0.0
 40
0.0
 40
0.0
 40
0.0221626721129185
 40
0.0221626721129185
 40
0.0221626721129185
 40
0.0221626721129185
 10
-22.57150250235
 20
-33.32263633962063
 30
0.0
 10
-22.57888363123889
 20
-33.32294446335397
 30
0.0
 10
-22.58626476012778
 20
-33.3232525870873
 30
0.0
 10
-22.59364588901667
 20
-33.32356071082063
 30
0.0
 11
-22.57150250235
 21
-33.32263633962063
 31
0.0
 11
-22.59364588901667
 21
-33.32356071082063
 31
0.0
  0
SPLINE
  5
130
100
AcDbEntity
  8
0
100
AcDbSpline
210
0.0
220
0.0
230
-1.0
 70
     8
 71
     3
 72
     9
 73
     5
 74
     3
 42
0.0000001
 43
0.0000001
 44
0.0000000001
 40
0.0
 40
0.0
 40
0.0
 40
0.0
 40
0.0128035675049248
 40
0.0136730487535995
 40
0.0136730487535995
 40
0.0136730487535995
 40
0.0136730487535995
 10
-22.50111651408334
 20
-32.6025823822873
 30
0.0
 10
-22.49581891017308
 20
-32.600155660981
 30
0.0
 10
-22.49016154971364
 20
-32.5975641427405
 30
0.0
 10
-22.48810848169243
 20
-32.6017371503786
 30
0.0
 10
-22.48797792528333
 20
-32.60200251562064
 30
0.0
 11
-22.50111651408334
 21
-32.6025823822873
 31
0.0
 11
-22.48838416955
 21
-32.6012337742873
 31
0.0
 11
-22.48797792528333
 21
-32.60200251562064
 31
0.0
  0
SPLINE
  5
131
100
AcDbEntity
  8
0
100
AcDbSpline
210
0.0
220
0.0
230
1.0
 70
     8
 71
     3
 72
    19
 73
    15
 74
    13
 42
0.0000001
 43
0.0000001
 44
0.0000000001
 40
0.0
 40
0.0
 40
0.0
 40
0.0
 40
0.0326363466998679
 40
0.0686117189576817
 40
0.1090868398299527
 40
0.1534021147121397
 40
0.2003055406847276
 40
0.2477786716089877
 40
0.2941501509937942
 40
0.338950422114579
 40
0.3848828388533895
 40
0.4274087270834494
 40
0.462198219764881
 40
0.4863225016313288
 40
0.4863225016313288
 40
0.4863225016313288
 40
0.4863225016313288
 10
-23.02723387301667
 20
-32.76100842708731
 30
0.0
 10
-23.01757552379775
 20
-32.76647807783019
 30
0.0
 10
-22.99727067937697
 20
-32.77797697943884
 30
0.0
 10
-22.95940079705037
 20
-32.7749347703676
 30
0.0
 10
-22.92125683190235
 20
-32.76270350130556
 30
0.0
 10
-22.88063893704182
 20
-32.74577521033035
 30
0.0
 10
-22.83860351743662
 20
-32.72659021500366
 30
0.0
 10
-22.7960996870823
 20
-32.70671119848366
 30
0.0
 10
-22.75420249216342
 20
-32.68720810405286
 30
0.0
 10
-22.71258822656331
 20
-32.66832018275822
 30
0.0
 10
-22.671861204076
 20
-32.65055710257814
 30
0.0
 10
-22.63371790657771
 20
-32.63534875449279
 30
0.0
 10
-22.60192081638598
 20
-32.62362941154172
 30
0.0
 10
-22.58274065752724
 20
-32.61933626322834
 30
0.0
 10
-22.57488667835
 20
-32.61757828522064
 30
0.0
 11
-23.02723387301667
 21
-32.76100842708731
 31
0.0
 11
-22.99746375995
 21
-32.7743827118873
 31
0.0
 11
-22.96149282341667
 21
-32.77381779242063
 31
0.0
 11
-22.92261318821667
 21
-32.76256570922064
 31
0.0
 11
-22.88155219301668
 21
-32.74589722815397
 31
0.0
 11
-22.83880182288334
 21
-32.72660118655398
 31
0.0
 11
-22.79576207035
 21
-32.70656926548731
 31
0.0
 11
-22.75369626555001
 21
-32.68705562495398
 31
0.0
 11
-22.71288538235001
 21
-32.66857492948731
 31
0.0
 11
-22.67072800955
 21
-32.6503391726873
 31
0.0
 11
-22.63123066768334
 21
-32.63457810815396
 31
0.0
 11
-22.59832903568334
 21
-32.62327362175397
 31
0.0
 11
-22.57488667835
 21
-32.61757828522064
 31
0.0
  0
SPLINE
  5
132
100
AcDbEntity
  8
0
100
AcDbSpline
210
-0.1756672800504879
220
0.9844495958248259
230
0.0
 70
    24
 71
     3
 72
     9
 73
     5
 74
     3
 42
0.0000001
 43
0.0000001
 44
0.0000000001
 40
0.0
 40
0.0
 40
0.0
 40
0.0
 40
0.0007825035927538
 40
0.0015482695925337
 40
0.0015482695925337
 40
0.0015482695925337
 40
0.0015482695925337
 10
-22.57488664741666
 20
-32.61757827988732
 30
0.0
 10
-22.57462908279552
 20
-32.61753696438366
 30
0.0
 10
-22.57411946280818
 20
-32.61745521710654
 30
0.0
 10
-22.57361303527733
 20
-32.61735559222827
 30
0.0
 10
-22.57336255888334
 20
-32.61730631828731
 30
0.0
 11
-22.57488664741666
 21
-32.61757827988732
 31
0.0
 11
-22.57411476901668
 21
-32.61744976682065
 31
0.0
 11
-22.57336255888334
 21
-32.61730631828731
 31
0.0
  0
SPLINE
  5
133
100
AcDbEntity
  8
0
100
AcDbSpline
210
-0.2236336201232898
220
0.9746732806179474
230
0.0
 70
    24
 71
     3
 72
     9
 73
     5
 74
     3
 42
0.0000001
 43
0.0000001
 44
0.0000000001
 40
0.0
 40
0.0
 40
0.0
 40
0.0
 40
0.0007499072292018
 40
0.0014843723148156
 40
0.0014843723148156
 40
0.0014843723148156
 40
0.0014843723148156
 10
-22.50256319355
 20
-32.60291431615398
 30
0.0
 10
-22.50231850836581
 20
-32.60286306603001
 30
0.0
 10
-22.50183417657233
 20
-32.60276162112832
 30
0.0
 10
-22.50135408288458
 20
-32.60264171632744
 30
0.0
 10
-22.50111653328334
 20
-32.60258238762063
 30
0.0
 11
-22.50256319355
 21
-32.60291431615398
 31
0.0
 11
-22.50183021968334
 21
-32.6027558542873
 31
0.0
 11
-22.50111653328334
 21
-32.60258238762063
 31
0.0
  0
SPLINE
  5
134
100
AcDbEntity
  8
0
100
AcDbSpline
210
0.6106988901075187
220
0.7918629083505837
230
0.0
 70
    24
 71
     3
 72
     8
 73
     4
 74
     2
 42
0.0000001
 43
0.0000001
 44
0.0000000001
 40
0.0
 40
0.0
 40
0.0
 40
0.0
 40
0.0108381198009945
 40
0.0108381198009945
 40
0.0108381198009945
 40
0.0108381198009945
 10
-22.48733734288334
 20
-32.6017521454873
 30
0.0
 10
-22.49019811123889
 20
-32.59954586957619
 30
0.0
 10
-22.49305887959445
 20
-32.59733959366509
 30
0.0
 10
-22.49591964795001
 20
-32.59513331775398
 30
0.0
 11
-22.48733734288334
 21
-32.6017521454873
 31
0.0
 11
-22.49591964795001
 21
-32.59513331775398
 31
0.0
  0
LINE
  5
135
100
AcDbEntity
  8
0
100
AcDbLine
 10
-22.740258
 20
-33.32936
 30
0.0
 11
-22.744602
 21
-33.328285
 31
0.0
  0
LWPOLYLINE
  5
136
100
AcDbEntity
  8
0
100
AcDbPolyline
 90
        4
 70
     0
 43
0.0
 10
-22.030965
 20
-33.228709
 10
-22.155823
 20
-33.23708
 10
-22.333377
 20
-33.252521
 10
-22.412531
 20
-33.260314
  0
LINE
  5
137
100
AcDbEntity
  8
0
100
AcDbLine
 10
-22.714626
 20
-33.327273
 30
0.0
 11
-22.717099
 21
-33.327569
 31
0.0
  0
LINE
  5
138
100
AcDbEntity
  8
0
100
AcDbLine
 10
-22.641249
 20
-33.317963
 30
0.0
 11
-22.714626
 21
-33.327273
 31
0.0
  0
LINE
  5
139
100
AcDbEntity
  8
0
100
AcDbLine
 10
-21.881134
 20
-33.220438
 30
0.0
 11
-22.579643
 21
-33.32427
 31
0.0
  0
LWPOLYLINE
  5
13A
100
AcDbEntity
  8
0
100
AcDbPolyline
 90
        4
 70
     0
 43
0.0
 10
-22.497104
 20
-33.296385
 10
-22.529691
 20
-33.302122
 10
-22.578557
 20
-33.309437
 10
-22.641249
 20
-33.317963
  0
LINE
  5
13B
100
AcDbEntity
  8
0
100
AcDbLine
 10
-22.502563
 20
-32.602914
 30
0.0
 11
-22.573363
 21
-32.617306
 31
0.0
  0
LINE
  5
13C
100
AcDbEntity
  8
0
100
AcDbLine
 10
-22.426305
 20
-33.281993
 30
0.0
 11
-22.497104
 21
-33.296385
 31
0.0
  0
LWPOLYLINE
  5
13D
100
AcDbEntity
  8
0
100
AcDbPolyline
 90
        3
 70
     0
 43
0.0
 10
-22.410869
 20
-33.277357
 10
-22.411629
 20
-33.278123
 10
-22.426305
 20
-33.281993
  0
LINE
  5
13E
100
AcDbEntity
  8
0
100
AcDbLine
 10
-22.740264
 20
-33.329404
 30
0.0
 11
-22.75706
 21
-33.435902
 31
0.0
  0
LINE
  5
13F
100
AcDbEntity
  8
0
100
AcDbLine
 10
-22.486493
 20
-32.603789
 30
0.0
 11
-22.410854
 21
-33.277354
 31
0.0
  0
LINE
  5
140
100
AcDbEntity
  8
0
100
AcDbLine
 10
-23.027234
 20
-32.761008
 30
0.0
 11
-22.963147
 21
-33.3317
 31
0.0
  0
LINE
  5
141
100
AcDbEntity
  8
0
100
AcDbLine
 10
-22.487337
 20
-32.60176
 30
0.0
 11
-22.486564
 21
-32.603157
 31
0.0
  0
SPLINE
  5
142
100
AcDbEntity
  8
0
100
AcDbSpline
210
-0.0402731218153028
220
0.9991887087328649
230
0.0
 70
    24
 71
     3
 72
     8
 73
     4
 74
     2
 42
0.0000001
 43
0.0000001
 44
0.0000000001
 40
0.0
 40
0.0
 40
0.0
 40
0.0
 40
0.0143861705745499
 40
0.0143861705745499
 40
0.0143861705745499
 40
0.0143861705745499
 10
-22.59401715835
 20
-33.32484976362064
 30
0.0
 10
-22.58922565861667
 20
-33.32465663828731
 30
0.0
 10
-22.58443415888334
 20
-33.32446351295397
 30
0.0
 10
-22.57964265915
 20
-33.32427038762063
 30
0.0
 11
-22.59401715835
 21
-33.32484976362064
 31
0.0
 11
-22.57964265915
 21
-33.32427038762063
 31
0.0
  0
SPLINE
  5
143
100
AcDbEntity
  8
0
100
AcDbSpline
210
-0.0356448928182326
220
0.9993645188898677
230
0.0
 70
    24
 71
     3
 72
     8
 73
     4
 74
     2
 42
0.0000001
 43
0.0000001
 44
0.0000000001
 40
0.0
 40
0.0
 40
0.0
 40
0.0
 40
0.0647014205305461
 40
0.0647014205305461
 40
0.0647014205305461
 40
0.0647014205305461
 10
-22.65867746235
 20
-33.32715603882064
 30
0.0
 10
-22.63712402768334
 20
-33.32638728042064
 30
0.0
 10
-22.61557059301667
 20
-33.32561852202064
 30
0.0
 10
-22.59401715835
 20
-33.32484976362064
 30
0.0
 11
-22.65867746235
 21
-33.32715603882064
 31
0.0
 11
-22.59401715835
 21
-33.32484976362064
 31
0.0
  0
SPLINE
  5
144
100
AcDbEntity
  8
0
100
AcDbSpline
210
-0.0275485634213915
220
0.9996204663037955
230
0.0
 70
    24
 71
     3
 72
     8
 73
     4
 74
     2
 42
0.0000001
 43
0.0000001
 44
0.0000000001
 40
0.0
 40
0.0
 40
0.0
 40
0.0
 40
0.0816176134345067
 40
0.0816176134345067
 40
0.0816176134345067
 40
0.0816176134345067
 10
-22.74026409915001
 20
-33.32940448682064
 30
0.0
 10
-22.71306855355001
 20
-33.32865500415397
 30
0.0
 10
-22.68587300795001
 20
-33.32790552148731
 30
0.0
 10
-22.65867746235
 20
-33.32715603882064
 30
0.0
 11
-22.74026409915001
 21
-33.32940448682064
 31
0.0
 11
-22.65867746235
 21
-33.32715603882064
 31
0.0
  0
SPLINE
  5
145
100
AcDbEntity
  8
0
100
AcDbSpline
210
0.0
220
0.0
230
-1.0
 70
     8
 71
     3
 72
    12
 73
     8
 74
     6
 42
0.0000001
 43
0.0000001
 44
0.0000000001
 40
0.0
 40
0.0
 40
0.0
 40
0.0
 40
0.0302834030116068
 40
0.1043375142833081
 40
0.2292456179536788
 40
0.4008750562902871
 40
0.5747974717340476
 40
0.5747974717340476
 40
0.5747974717340476
 40
0.5747974717340476
 10
-21.88121057701667
 20
-33.22044893375398
 30
0.0
 10
-21.88492471229234
 20
-33.21059743869855
 30
0.0
 10
-21.89772128083606
 20
-33.17665539771777
 30
0.0
 10
-21.98527035373841
 20
-33.16487141922908
 30
0.0
 10
-22.09894624358692
 20
-33.13647585444532
 30
0.0
 10
-22.25793707175305
 20
-33.12029364242655
 30
0.0
 10
-22.37233674676762
 20
-33.11138032001125
 30
0.0
 10
-22.42991614501667
 20
-33.10689408575397
 30
0.0
 11
-21.88121057701667
 21
-33.22044893375398
 31
0.0
 11
-21.89463172795
 21
-33.19330197802063
 31
0.0
 11
-21.96377755941667
 21
-33.1667903694873
 31
0.0
 11
-22.08625673808334
 21
-33.14227741055398
 31
0.0
 11
-22.25657534288334
 21
-33.12110580308731
 31
0.0
 11
-22.42991614501667
 21
-33.10689408575397
 31
0.0
  0
SPLINE
  5
146
100
AcDbEntity
  8
0
100
AcDbSpline
210
0.0
220
0.0
230
1.0
 70
     8
 71
     3
 72
    24
 73
    20
 74
    18
 42
0.0000001
 43
0.0000001
 44
0.0000000001
 40
0.0
 40
0.0
 40
0.0
 40
0.0
 40
0.0106131368168843
 40
0.0239354716487744
 40
0.0362374177222969
 40
0.0451332241315485
 40
0.0522398077397119
 40
0.058552331441678
 40
0.0644514975787316
 40
0.0702990662381384
 40
0.0763115339519298
 40
0.0826628387934829
 40
0.0895111633455428
 40
0.0970113965197096
 40
0.1053223914923384
 40
0.1146111409777445
 40
0.1250556813568605
 40
0.1368457984474988
 40
0.1501687288273838
 40
0.1501687288273838
 40
0.1501687288273838
 40
0.1501687288273838
 10
-21.88113440421667
 20
-33.22043761108731
 30
0.0
 10
-21.88463599387522
 20
-33.2209423162556
 30
0.0
 10
-21.89253301823703
 20
-33.22208056185209
 30
0.0
 10
-21.90452599672956
 20
-33.22353239847479
 30
0.0
 10
-21.91598060859477
 20
-33.22464013493658
 30
0.0
 10
-21.92539291148207
 20
-33.2253028719041
 30
0.0
 10
-21.93282204604933
 20
-33.22567867169778
 30
0.0
 10
-21.93925739182299
 20
-33.22591193455833
 30
0.0
 10
-21.94527505966686
 20
-33.22607233430005
 30
0.0
 10
-21.95119351008413
 20
-33.22619631609304
 30
0.0
 10
-21.95726293736802
 20
-33.22630761636208
 30
0.0
 10
-21.96366591483072
 20
-33.22642385858516
 30
0.0
 10
-21.97056452198974
 20
-33.2265605050009
 30
0.0
 10
-21.9781157603373
 20
-33.22673262286892
 30
0.0
 10
-21.98647946210371
 20
-33.2269559744245
 30
0.0
 10
-21.99582305229418
 20
-33.22724732617431
 30
0.0
 10
-22.00632405321646
 20
-33.22762630281852
 30
0.0
 10
-22.01816681271285
 20
-33.22810914581454
 30
0.0
 10
-22.02652867988392
 20
-33.22850075952674
 30
0.0
 10
-22.03096480315
 20
-33.22870851775398
 30
0.0
 11
-21.88113440421667
 21
-33.22043761108731
 31
0.0
 11
-21.89164400101668
 21
-33.2219164782873
 31
0.0
 11
-21.90486971835
 21
-33.22351804202063
 31
0.0
 11
-21.91711595195
 21
-33.22468750335398
 31
0.0
 11
-21.92598979301667
 21
-33.22531225642064
 31
0.0
 11
-21.93308715835001
 21
-33.2256741070873
 31
0.0
 11
-21.93939540261667
 21
-33.22590650708731
 31
0.0
 11
-21.94529238075
 21
-33.22606716202063
 31
0.0
 11
-21.95113860261667
 21
-33.22619265748731
 31
0.0
 11
-21.95715001381667
 21
-33.22630536682064
 31
0.0
 11
-21.96350023781667
 21
-33.22642253482065
 31
0.0
 11
-21.97034719355
 21
-33.22655945215397
 31
0.0
 11
-21.97784546235001
 21
-33.2267310990873
 31
0.0
 11
-21.98615349115001
 21
-33.22695312362064
 31
0.0
 11
-21.99543773328334
 21
-33.22724245908731
 31
0.0
 11
-22.00587552848333
 21
-33.22761776575397
 31
0.0
 11
-22.01765580048334
 21
-33.22809948415398
 31
0.0
 11
-22.03096480315
 21
-33.22870851775398
 31
0.0
  0
SPLINE
  5
147
100
AcDbEntity
  8
0
100
AcDbSpline
210
0.0
220
0.0
230
-1.0
 70
     8
 71
     3
 72
    11
 73
     7
 74
     5
 42
0.0000001
 43
0.0000001
 44
0.0000000001
 40
0.0
 40
0.0
 40
0.0
 40
0.0
 40
0.0740109755829595
 40
0.186323831776407
 40
0.3340778761505969
 40
0.4023636558996008
 40
0.4023636558996008
 40
0.4023636558996008
 40
0.4023636558996008
 10
-22.03077508261667
 20
-33.22869937962064
 30
0.0
 10
-22.05384812321417
 20
-33.21984508385301
 30
0.0
 10
-22.11193487725296
 20
-33.19755425060686
 30
0.0
 10
-22.22212101412872
 20
-33.17819963372414
 30
0.0
 10
-22.33034654609441
 20
-33.16270658112602
 30
0.0
 10
-22.40199971352782
 20
-33.15536005450168
 30
0.0
 10
-22.42464781755001
 20
-33.15303796735397
 30
0.0
 11
-22.03077508261667
 21
-33.22869937962064
 31
0.0
 11
-22.10052543675001
 21
-33.20395038762064
 31
0.0
 11
-22.21042105915
 21
-33.18077432575398
 31
0.0
 11
-22.35674807568333
 21
-33.16028867562064
 31
0.0
 11
-22.42464781755001
 21
-33.15303796735397
 31
0.0
  0
SPLINE
  5
148
100
AcDbEntity
  8
0
100
AcDbSpline
210
-0.0223204607683471
220
0.9997508674820386
230
0.0
 70
    24
 71
     3
 72
     8
 73
     4
 74
     2
 42
0.0000001
 43
0.0000001
 44
0.0000000001
 40
0.0
 40
0.0
 40
0.0
 40
0.0
 40
0.019206485226696
 40
0.019206485226696
 40
0.019206485226696
 40
0.019206485226696
 10
-22.75945994981668
 20
-33.32978844095396
 30
0.0
 10
-22.75305938306112
 20
-33.32964554175397
 30
0.0
 10
-22.74665881630557
 20
-33.32950264255396
 30
0.0
 10
-22.74025824955001
 20
-33.32935974335397
 30
0.0
 11
-22.75945994981668
 21
-33.32978844095396
 31
0.0
 11
-22.74025824955001
 21
-33.32935974335397
 31
0.0
  0
SPLINE
  5
149
100
AcDbEntity
  8
0
100
AcDbSpline
210
-0.0191639838622011
220
0.9998163539983377
230
0.0
 70
    24
 71
     3
 72
     8
 73
     4
 74
     2
 42
0.0000001
 43
0.0000001
 44
0.0000000001
 40
0.0
 40
0.0
 40
0.0
 40
0.0
 40
0.0777382133787212
 40
0.0777382133787212
 40
0.0777382133787212
 40
0.0777382133787212
 10
-22.83718388688333
 20
-33.33127821482063
 30
0.0
 10
-22.81127590786111
 20
-33.33078162353174
 30
0.0
 10
-22.78536792883889
 20
-33.33028503224285
 30
0.0
 10
-22.75945994981668
 20
-33.32978844095396
 30
0.0
 11
-22.83718388688333
 21
-33.33127821482063
 31
0.0
 11
-22.75945994981668
 21
-33.32978844095396
 31
0.0
  0
SPLINE
  5
14A
100
AcDbEntity
  8
0
100
AcDbSpline
210
-0.0133965705721129
220
0.9999102619219918
230
0.0
 70
    24
 71
     3
 72
     8
 73
     4
 74
     2
 42
0.0000001
 43
0.0000001
 44
0.0000000001
 40
0.0
 40
0.0
 40
0.0
 40
0.0
 40
0.1080256566814832
 40
0.1080256566814832
 40
0.1080256566814832
 40
0.1080256566814832
 10
-22.94519984955001
 20
-33.33272538815396
 30
0.0
 10
-22.90919452866112
 20
-33.33224299704285
 30
0.0
 10
-22.87318920777223
 20
-33.33176060593174
 30
0.0
 10
-22.83718388688333
 20
-33.33127821482063
 30
0.0
 11
-22.94519984955001
 21
-33.33272538815396
 31
0.0
 11
-22.83718388688333
 21
-33.33127821482063
 31
0.0
  0
SPLINE
  5
14B
100
AcDbEntity
  8
0
100
AcDbSpline
210
-0.0096788144170208
220
0.9999531591787093
230
0.0
 70
    24
 71
     3
 72
     8
 73
     4
 74
     2
 42
0.0000001
 43
0.0000001
 44
0.0000000001
 40
0.0
 40
0.0
 40
0.0
 40
0.0
 40
0.0154566589359273
 40
0.0154566589359273
 40
0.0154566589359273
 40
0.0154566589359273
 10
-22.96065578448334
 20
-33.33287499028731
 30
0.0
 10
-22.95550380617223
 20
-33.33282512290952
 30
0.0
 10
-22.95035182786112
 20
-33.33277525553174
 30
0.0
 10
-22.94519984955001
 20
-33.33272538815396
 30
0.0
 11
-22.96065578448334
 21
-33.33287499028731
 31
0.0
 11
-22.94519984955001
 21
-33.33272538815396
 31
0.0
  0
SPLINE
  5
14C
100
AcDbEntity
  8
0
100
AcDbSpline
210
-0.0060828894646179
220
0.9999814990567383
230
0.0
 70
    24
 71
     3
 72
     8
 73
     4
 74
     2
 42
0.0000001
 43
0.0000001
 44
0.0000000001
 40
0.0
 40
0.0
 40
0.0
 40
0.0
 40
0.104977654185622
 40
0.104977654185622
 40
0.104977654185622
 40
0.104977654185622
 10
-23.06563149648334
 20
-33.33351355775398
 30
0.0
 10
-23.03063959248334
 20
-33.33330070193176
 30
0.0
 10
-22.99564768848334
 20
-33.33308784610954
 30
0.0
 10
-22.96065578448334
 20
-33.33287499028731
 30
0.0
 11
-23.06563149648334
 21
-33.33351355775398
 31
0.0
 11
-22.96065578448334
 21
-33.33287499028731
 31
0.0
  0
SPLINE
  5
14D
100
AcDbEntity
  8
0
100
AcDbSpline
210
0.0
220
0.0
230
-1.0
 70
     8
 71
     3
 72
    10
 73
     6
 74
     4
 42
0.0000001
 43
0.0000001
 44
0.0000000001
 40
0.0
 40
0.0
 40
0.0
 40
0.0
 40
0.0008498386717729
 40
0.0027041347554856
 40
0.0098566636884218
 40
0.0098566636884218
 40
0.0098566636884218
 40
0.0098566636884218
 10
-22.57163474235
 20
-33.32245856895398
 30
0.0
 10
-22.57126745544187
 20
-33.32250848062634
 30
0.0
 10
-22.57009877092975
 20
-33.32266729651975
 30
0.0
 10
-22.57573167843287
 20
-33.32378479906619
 30
0.0
 10
-22.57791156254659
 20
-33.32405545414026
 30
0.0
 10
-22.57964265915
 20
-33.32427038762063
 30
0.0
 11
-22.57163474235
 21
-33.32245856895398
 31
0.0
 11
-22.57080094288334
 21
-33.32262289855398
 31
0.0
 11
-22.57257806075
 21
-33.32315230015397
 31
0.0
 11
-22.57964265915
 21
-33.32427038762063
 31
0.0
  0
LINE
  5
14E
100
AcDbEntity
  8
CENTER
  6
CENTER
 48
3.0
100
AcDbLine
 10
-4.498993
 20
-18.960647
 30
0.0
 11
-4.498993
 21
-24.569855
 31
0.0
  0
LINE
  5
14F
100
AcDbEntity
  8
0
100
AcDbLine
 10
-22.75706
 20
-10.0946
 30
0.0
 11
-4.817991
 21
-10.0946
 31
0.0
  0
LINE
  5
150
100
AcDbEntity
  8
0
100
AcDbLine
 10
-5.373316
 20
-11.869243
 30
0.0
 11
-22.477203
 21
-11.869243
 31
0.0
  0
SPLINE
  5
151
100
AcDbEntity
  8
0
100
AcDbSpline
210
0.0155899797448137
220
0.9998784688808719
230
0.0
 70
    24
 71
     3
 72
     8
 73
     4
 74
     2
 42
0.0000001
 43
0.0000001
 44
0.0000000001
 40
0.0
 40
0.0
 40
0.0
 40
0.0
 40
0.7485125825051684
 40
0.7485125825051684
 40
0.7485125825051684
 40
0.7485125825051684
 10
-22.75705947728334
 20
-10.0946507278873
 30
0.0
 10
-23.00653334892778
 20
-10.09076096255397
 30
0.0
 10
-23.25600722057223
 20
-10.08687119722064
 30
0.0
 10
-23.50548109221667
 20
-10.08298143188731
 30
0.0
 11
-22.75705947728334
 21
-10.0946507278873
 31
0.0
 11
-23.50548109221667
 21
-10.08298143188731
 31
0.0
  0
SPLINE
  5
152
100
AcDbEntity
  8
0
100
AcDbSpline
210
0.0
220
0.0
230
-1.0
 70
     8
 71
     3
 72
    12
 73
     8
 74
     6
 42
0.0000001
 43
0.0000001
 44
0.0000000001
 40
0.0
 40
0.0
 40
0.0
 40
0.0
 40
0.1500836656006954
 40
0.3065924741520078
 40
0.4602747181452857
 40
0.6052773158260707
 40
0.7385232720100365
 40
0.7385232720100365
 40
0.7385232720100365
 40
0.7385232720100365
 10
-23.80366389968333
 20
-10.21811531988731
 30
0.0
 10
-23.75375999365763
 20
-10.21454272492643
 30
0.0
 10
-23.6518157750311
 20
-10.20724459075698
 30
0.0
 10
-23.49846269652449
 20
-10.20180637693166
 30
0.0
 10
-23.34677076828699
 20
-10.19841550603147
 30
0.0
 10
-23.20279674469679
 20
-10.19690892106627
 30
0.0
 10
-23.11004694846895
 20
-10.19696232378735
 30
0.0
 10
-23.06563149648334
 20
-10.19698789695397
 30
0.0
 11
-23.80366389968333
 21
-10.21811531988731
 31
0.0
 11
-23.65390295461667
 21
-10.20827834815398
 31
0.0
 11
-23.49751544208334
 21
-10.20211774122063
 31
0.0
 11
-23.34387200955001
 21
-10.19866408255398
 31
0.0
 11
-23.19887735888334
 21
-10.19714598762065
 31
0.0
 11
-23.06563149648334
 21
-10.19698789695397
 31
0.0
  0
SPLINE
  5
153
100
AcDbEntity
  8
0
100
AcDbSpline
210
0.0
220
0.0
230
-1.0
 70
     8
 71
     3
 72
    11
 73
     7
 74
     5
 42
0.0000001
 43
0.0000001
 44
0.0000000001
 40
0.0
 40
0.0
 40
0.0
 40
0.0
 40
0.1327298095339161
 40
0.2810477517454064
 40
0.4417698636380632
 40
0.610862233373911
 40
0.610862233373911
 40
0.610862233373911
 40
0.610862233373911
 10
-23.58733121595001
 20
-10.20693378068731
 30
0.0
 10
-23.5431183832806
 20
-10.20526843190603
 30
0.0
 10
-23.44950024833665
 20
-10.2017421514684
 30
0.0
 10
-23.30226081172521
 20
-10.19906358311706
 30
0.0
 10
-23.14288586764392
 20
-10.19771826277634
 30
0.0
 10
-23.03294794338723
 20
-10.19830713577619
 30
0.0
 10
-22.97658394128333
 20
-10.19860904468731
 30
0.0
 11
-23.58733121595001
 21
-10.20693378068731
 31
0.0
 11
-23.45468078181667
 21
-10.20234415508731
 31
0.0
 11
-23.30639266021667
 21
-10.19937010495397
 31
0.0
 11
-23.14567555088334
 21
-10.19810202815397
 31
0.0
 11
-22.97658394128333
 21
-10.19860904468731
 31
0.0
  0
SPLINE
  5
154
100
AcDbEntity
  8
0
100
AcDbSpline
210
0.0383746934554249
220
0.9992634201761827
230
0.0
 70
    24
 71
     3
 72
     8
 73
     4
 74
     2
 42
0.0000001
 43
0.0000001
 44
0.0000000001
 40
0.0
 40
0.0
 40
0.0
 40
0.0
 40
1.702430165578087
 40
1.702430165578087
 40
1.702430165578087
 40
1.702430165578087
 10
-24.17837879675
 20
-11.80391954388731
 30
0.0
 10
-23.61132006679445
 20
-11.82569628913175
 30
0.0
 10
-23.04426133683889
 20
-11.84747303437619
 30
0.0
 10
-22.47720260688333
 20
-11.86924977962063
 30
0.0
 11
-24.17837879675
 21
-11.80391954388731
 31
0.0
 11
-22.47720260688333
 21
-11.86924977962063
 31
0.0
  0
SPLINE
  5
155
100
AcDbEntity
  8
0
100
AcDbSpline
210
0.0
220
0.0
230
1.0
 70
     8
 71
     3
 72
    15
 73
    11
 74
     9
 42
0.0000001
 43
0.0000001
 44
0.0000000001
 40
0.0
 40
0.0
 40
0.0
 40
0.0
 40
0.5430774032334473
 40
1.099932704484638
 40
1.65444859600938
 40
2.206825044789616
 40
2.757360243410219
 40
3.306437974579163
 40
3.854510748444616
 40
4.402078917814995
 40
4.402078917814995
 40
4.402078917814995
 40
4.402078917814995
 10
-22.49591964795001
 20
-10.93536813802064
 30
0.0
 10
-22.64267636082299
 20
-11.04161969082184
 30
0.0
 10
-22.93991301094056
 20
-11.2568184030726
 30
0.0
 10
-23.42633984452819
 20
-11.51991015723415
 30
0.0
 10
-23.93859025559785
 20
-11.73460058199842
 30
0.0
 10
-24.469408852344
 20
-11.89174674925508
 30
0.0
 10
-25.01218957588445
 20
-11.99110609517464
 30
0.0
 10
-25.56089683332859
 20
-12.02986185795396
 30
0.0
 10
-26.11052750791726
 20
-12.01301808276269
 30
0.0
 10
-26.47089782338481
 20
-11.95153651533511
 30
0.0
 10
-26.65099999568334
 20
-11.9208098894873
 30
0.0
 11
-22.49591964795001
 21
-10.93536813802064
 31
0.0
 11
-22.94256603515
 21
-11.24430190228731
 31
0.0
 11
-23.43089982075
 21
-11.51191718655397
 31
0.0
 11
-23.94268723835
 21
-11.72536861695397
 31
0.0
 11
-24.47229343888334
 21
-11.88233043882063
 31
0.0
 11
-25.01389640635
 21
-11.9810990094873
 31
0.0
 11
-25.56155086181667
 21
-12.02060789802064
 31
0.0
 11
-26.10925229861667
 21
-12.00043609642063
 31
0.0
 11
-26.65099999568334
 21
-11.9208098894873
 31
0.0
  0
LWPOLYLINE
  5
156
100
AcDbEntity
  8
0
100
AcDbPolyline
 90
       15
 70
     0
 43
0.0
 10
-29.337888
 20
-10.112133
 10
-28.983466
 20
-10.462947
 10
-28.596441
 20
-10.774408
 10
-28.180721
 20
-11.043377
 10
-27.740491
 20
-11.267148
 10
-27.280184
 20
-11.44347
 10
-26.804435
 20
-11.570572
 10
-26.318032
 20
-11.647174
 10
-25.825871
 20
-11.672506
 10
-25.332907
 20
-11.646312
 10
-24.844102
 20
-11.568855
 10
-24.364376
 20
-11.440913
 10
-23.898558
 20
-11.263771
 10
-23.45134
 20
-11.03921
 10
-23.027234
 20
-10.769493
  0
LWPOLYLINE
  5
157
100
AcDbEntity
  8
0
100
AcDbPolyline
 90
        6
 70
     0
 43
0.0
 10
-25.066164
 20
-11.98592
 10
-24.517424
 20
-11.890122
 10
-23.980578
 20
-11.734331
 10
-23.461706
 20
-11.520313
 10
-22.966684
 20
-11.250491
 10
-22.501117
 20
-10.927919
  0
LWPOLYLINE
  5
158
100
AcDbEntity
  8
0
100
AcDbPolyline
 90
        8
 70
     0
 43
0.0
 10
-22.574887
 20
-10.912923
 10
-23.040454
 20
-11.235495
 10
-23.535477
 20
-11.505317
 10
-24.054348
 20
-11.719336
 10
-24.591194
 20
-11.875126
 10
-25.139934
 20
-11.970924
 10
-25.694356
 20
-12.005646
 10
-26.248179
 20
-11.978897
  0
SPLINE
  5
159
100
AcDbEntity
  8
0
100
AcDbSpline
210
0.0
220
0.0
230
1.0
 70
     8
 71
     3
 72
    10
 73
     6
 74
     4
 42
0.0000001
 43
0.0000001
 44
0.0000000001
 40
0.0
 40
0.0
 40
0.0
 40
0.0
 40
0.208056488861529
 40
0.7252819846448233
 40
1.227114238779953
 40
1.227114238779953
 40
1.227114238779953
 40
1.227114238779953
 10
-26.90994501008334
 20
-9.943085953487305
 30
0.0
 10
-26.84127716826288
 20
-9.952801110861987
 30
0.0
 10
-26.60190204053033
 20
-9.986668012396293
 30
0.0
 10
-26.19558753262538
 20
-10.03482815627994
 30
0.0
 10
-25.85695864269535
 20
-10.06187244054534
 30
0.0
 10
-25.69020175461667
 20
-10.07519032575397
 30
0.0
 11
-26.90994501008334
 21
-9.943085953487305
 31
0.0
 11
-26.70387764581667
 21
-9.971786893220645
 31
0.0
 11
-26.19018025808333
 21
-10.03209615722062
 31
0.0
 11
-25.69020175461667
 21
-10.07519032575397
 31
0.0
  0
SPLINE
  5
15A
100
AcDbEntity
  8
0
100
AcDbSpline
210
0.0
220
0.0
230
1.0
 70
     8
 71
     3
 72
    11
 73
     7
 74
     5
 42
0.0000001
 43
0.0000001
 44
0.0000000001
 40
0.0
 40
0.0
 40
0.0
 40
0.0
 40
0.4347988053011301
 40
0.868564552021008
 40
1.301612321970998
 40
1.734292003998694
 40
1.734292003998694
 40
1.734292003998694
 40
1.734292003998694
 10
-24.90040242555
 20
-11.22646304255398
 30
0.0
 10
-25.04340117827708
 20
-11.25087114587693
 30
0.0
 10
-25.32905892638412
 20
-11.29962936018183
 30
0.0
 10
-25.7634712668014
 20
-11.31784559886111
 30
0.0
 10
-26.19715994283696
 20
-11.29886578706774
 30
0.0
 10
-26.48174661891697
 20
-11.249442830925
 30
0.0
 10
-26.62397945701667
 20
-11.22474185962062
 30
0.0
 11
-24.90040242555
 21
-11.22646304255398
 31
0.0
 11
-25.33045748688333
 21
-11.29051493802064
 31
0.0
 11
-25.76370815035
 21
-11.31164751082064
 31
0.0
 11
-26.19619726075001
 21
-11.28965795775398
 31
0.0
 11
-26.62397945701667
 21
-11.22474185962062
 31
0.0
  0
LINE
  5
15B
100
AcDbEntity
  8
0
100
AcDbLine
 10
-26.248179
 20
-11.978897
 30
0.0
 11
-26.72477
 21
-11.905814
 31
0.0
  0
LINE
  5
15C
100
AcDbEntity
  8
0
100
AcDbLine
 10
-26.651
 20
-11.92081
 30
0.0
 11
-26.174409
 21
-11.993893
 31
0.0
  0
LWPOLYLINE
  5
15D
100
AcDbEntity
  8
0
100
AcDbPolyline
 90
        7
 70
     0
 43
0.0
 10
-24.930299
 20
-11.396411
 10
-25.383947
 20
-11.46373
 10
-25.840972
 20
-11.485297
 10
-26.297115
 20
-11.460912
 10
-26.748123
 20
-11.390802
 10
-27.189792
 20
-11.275621
 10
-27.618005
 20
-11.116442
  0
SPLINE
  5
15E
100
AcDbEntity
  8
0
100
AcDbSpline
210
0.0
220
0.0
230
1.0
 70
     8
 71
     3
 72
     9
 73
     5
 74
     3
 42
0.0000001
 43
0.0000001
 44
0.0000000001
 40
0.0
 40
0.0
 40
0.0
 40
0.0
 40
1.123703040270869
 40
1.470302035191629
 40
1.470302035191629
 40
1.470302035191629
 40
1.470302035191629
 10
-28.85857180581667
 20
-9.545818890020647
 30
0.0
 10
-28.49467274754972
 20
-9.635276047139413
 30
0.0
 10
-28.01853135894472
 20
-9.752325690559858
 30
0.0
 10
-27.53626566360829
 20
-9.839912804875279
 30
0.0
 10
-27.42257963088334
 20
-9.860559995087307
 30
0.0
 11
-28.85857180581667
 21
-9.545818890020647
 31
0.0
 11
-27.76329740048334
 21
-9.796981187620637
 31
0.0
 11
-27.42257963088334
 21
-9.860559995087307
 31
0.0
  0
SPLINE
  5
15F
100
AcDbEntity
  8
0
100
AcDbSpline
210
0.0
220
0.0
230
1.0
 70
     8
 71
     3
 72
     9
 73
     5
 74
     3
 42
0.0000001
 43
0.0000001
 44
0.0000000001
 40
0.0
 40
0.0
 40
0.0
 40
0.0
 40
0.0698650271175001
 40
0.2808281538684355
 40
0.2808281538684355
 40
0.2808281538684355
 40
0.2808281538684355
 10
-27.14563804048334
 20
-9.90710931775397
 30
0.0
 10
-27.1686311417849
 20
-9.903412134334811
 30
0.0
 10
-27.26105378093117
 20
-9.888551005141092
 30
0.0
 10
-27.35329007716434
 20
-9.872567265721357
 30
0.0
 10
-27.42257963088334
 20
-9.860559995087307
 30
0.0
 11
-27.14563804048334
 21
-9.90710931775397
 31
0.0
 11
-27.21460581115
 21
-9.8959482862873
 31
0.0
 11
-27.42257963088334
 21
-9.860559995087307
 31
0.0
  0
SPLINE
  5
160
100
AcDbEntity
  8
0
100
AcDbSpline
210
0.2413434524830896
220
0.9704397652320018
230
0.0
 70
    24
 71
     3
 72
     8
 73
     4
 74
     2
 42
0.0000001
 43
0.0000001
 44
0.0000000001
 40
0.0
 40
0.0
 40
0.0
 40
0.0
 40
0.0281041563943033
 40
0.0281041563943033
 40
0.0281041563943033
 40
0.0281041563943033
 10
-28.86806523941667
 20
-9.582450732153979
 30
0.0
 10
-28.85897410910556
 20
-9.584711650198421
 30
0.0
 10
-28.84988297879445
 20
-9.586972568242863
 30
0.0
 10
-28.84079184848334
 20
-9.589233486287305
 30
0.0
 11
-28.86806523941667
 21
-9.582450732153979
 31
0.0
 11
-28.84079184848334
 21
-9.589233486287305
 31
0.0
  0
SPLINE
  5
161
100
AcDbEntity
  8
0
100
AcDbSpline
210
0.2324871347673358
220
0.9725994716056938
230
0.0
 70
    24
 71
     3
 72
     8
 73
     4
 74
     2
 42
0.0000001
 43
0.0000001
 44
0.0000000001
 40
0.0
 40
0.0
 40
0.0
 40
0.0
 40
0.1530214795280838
 40
0.1530214795280838
 40
0.1530214795280838
 40
0.1530214795280838
 10
-29.01689384955
 20
-9.546875206820637
 30
0.0
 10
-28.96728431283889
 20
-9.558733715265084
 30
0.0
 10
-28.91767477612778
 20
-9.570592223709533
 30
0.0
 10
-28.86806523941667
 20
-9.582450732153979
 30
0.0
 11
-29.01689384955
 21
-9.546875206820637
 31
0.0
 11
-28.86806523941667
 21
-9.582450732153979
 31
0.0
  0
SPLINE
  5
162
100
AcDbEntity
  8
0
100
AcDbSpline
210
0.2114401420109571
220
0.9773909485699089
230
0.0
 70
    24
 71
     3
 72
     8
 73
     4
 74
     2
 42
0.0000001
 43
0.0000001
 44
0.0000000001
 40
0.0
 40
0.0
 40
0.0
 40
0.0
 40
0.132644425982288
 40
0.132644425982288
 40
0.132644425982288
 40
0.132644425982288
 10
-29.14653931088334
 20
-9.51882885055398
 30
0.0
 10
-29.10332415710557
 20
-9.528177635976199
 30
0.0
 10
-29.06010900332779
 20
-9.537526421398416
 30
0.0
 10
-29.01689384955
 20
-9.546875206820637
 30
0.0
 11
-29.14653931088334
 21
-9.51882885055398
 31
0.0
 11
-29.01689384955
 21
-9.546875206820637
 31
0.0
  0
SPLINE
  5
163
100
AcDbEntity
  8
0
100
AcDbSpline
210
0.2078986001445422
220
0.9781503831507402
230
0.0
 70
    24
 71
     3
 72
     8
 73
     4
 74
     2
 42
0.0000001
 43
0.0000001
 44
0.0000000001
 40
0.0
 40
0.0
 40
0.0
 40
0.0
 40
0.0229515170537282
 40
0.0229515170537282
 40
0.0229515170537282
 40
0.0229515170537282
 10
-29.16898934608334
 20
-9.514057262287316
 30
0.0
 10
-29.16150600101668
 20
-9.515647791709536
 30
0.0
 10
-29.15402265595002
 20
-9.517238321131758
 30
0.0
 10
-29.14653931088334
 20
-9.51882885055398
 30
0.0
 11
-29.16898934608334
 21
-9.514057262287316
 31
0.0
 11
-29.14653931088334
 21
-9.51882885055398
 31
0.0
  0
SPLINE
  5
164
100
AcDbEntity
  8
0
100
AcDbSpline
210
0.0
220
0.0
230
1.0
 70
     8
 71
     3
 72
    10
 73
     6
 74
     4
 42
0.0000001
 43
0.0000001
 44
0.0000000001
 40
0.0
 40
0.0
 40
0.0
 40
0.0
 40
0.1759603665102216
 40
0.417277099275061
 40
0.5095273226986399
 40
0.5095273226986399
 40
0.5095273226986399
 40
0.5095273226986399
 10
-27.74914838821667
 20
-10.03683178282063
 30
0.0
 10
-27.80754990784324
 20
-10.03124360005945
 30
0.0
 10
-27.94604482682045
 20
-10.0179916346365
 30
0.0
 10
-28.11353479339394
 20
-9.988798058008205
 30
0.0
 10
-28.22256351568159
 20
-9.967029742768193
 30
0.0
 10
-28.25271615461668
 20
-9.961009566287309
 30
0.0
 11
-27.74914838821667
 21
-10.03683178282063
 31
0.0
 11
-27.92411660475
 21
-10.01817236735397
 31
0.0
 11
-28.16221080315001
 21
-9.978866919887302
 31
0.0
 11
-28.25271615461668
 21
-9.961009566287309
 31
0.0
  0
SPLINE
  5
165
100
AcDbEntity
  8
0
100
AcDbSpline
210
0.0
220
0.0
230
1.0
 70
     8
 71
     3
 72
    10
 73
     6
 74
     4
 42
0.0000001
 43
0.0000001
 44
0.0000000001
 40
0.0
 40
0.0
 40
0.0
 40
0.0
 40
0.0205104100288693
 40
0.0814735155598861
 40
0.1922310496842526
 40
0.1922310496842526
 40
0.1922310496842526
 40
0.1922310496842526
 10
-27.55886465915
 20
-10.02459121962065
 30
0.0
 10
-27.56515616545196
 20
-10.02733278229867
 30
0.0
 10
-27.59014792016902
 20
-10.03822309356945
 30
0.0
 10
-27.65556601910792
 20
-10.04090004202766
 30
0.0
 10
-27.71245545615288
 20
-10.03842691617879
 30
0.0
 10
-27.74914838821667
 20
-10.03683178282063
 30
0.0
 11
-27.55886465915
 21
-10.02459121962065
 31
0.0
 11
-27.57791247461667
 21
-10.03219764095397
 31
0.0
 11
-27.63842529168334
 21
-10.03959353215396
 31
0.0
 11
-27.74914838821667
 21
-10.03683178282063
 31
0.0
  0
SPLINE
  5
166
100
AcDbEntity
  8
0
100
AcDbSpline
210
0.0
220
0.0
230
-1.0
 70
     8
 71
     3
 72
    12
 73
     8
 74
     6
 42
0.0000001
 43
0.0000001
 44
0.0000000001
 40
0.0
 40
0.0
 40
0.0
 40
0.0
 40
0.1088155473626984
 40
0.1875814008014413
 40
0.2355319930407287
 40
0.2579353913225439
 40
0.2667116688691201
 40
0.2667116688691201
 40
0.2667116688691201
 40
0.2667116688691201
 10
-27.77135105061668
 20
-9.894515924687304
 30
0.0
 10
-27.7373077437079
 20
-9.906882300723433
 30
0.0
 10
-27.67862227685475
 20
-9.928200046173561
 30
0.0
 10
-27.60775070465117
 20
-9.964095665438001
 30
0.0
 10
-27.5645448393184
 20
-9.98522397738515
 30
0.0
 10
-27.54891771395902
 20
-10.01460948588735
 30
0.0
 10
-27.55667982449176
 20
-10.02239874370055
 30
0.0
 10
-27.55886465915
 20
-10.02459121962065
 30
0.0
 11
-27.77135105061668
 21
-9.894515924687304
 31
0.0
 11
-27.66997566928333
 21
-9.934061536420635
 31
0.0
 11
-27.59902482661667
 21
-9.968267348687312
 31
0.0
 11
-27.56015776741667
 21
-9.996349567353981
 31
0.0
 11
-27.55341297915001
 21
-10.01771355775398
 31
0.0
 11
-27.55886465915
 21
-10.02459121962065
 31
0.0
  0
SPLINE
  5
167
100
AcDbEntity
  8
0
100
AcDbSpline
210
0.3231941987212789
220
0.946332663450285
230
0.0
 70
    24
 71
     3
 72
     8
 73
     4
 74
     2
 42
0.0000001
 43
0.0000001
 44
0.0000000001
 40
0.0
 40
0.0
 40
0.0
 40
0.0
 40
0.1362815814998793
 40
0.1362815814998793
 40
0.1362815814998793
 40
0.1362815814998793
 10
-27.90031876261668
 20
-9.850470508153982
 30
0.0
 10
-27.85732952528334
 20
-9.865152313665088
 30
0.0
 10
-27.81434028795001
 20
-9.879834119176196
 30
0.0
 10
-27.77135105061668
 20
-9.894515924687304
 30
0.0
 11
-27.90031876261668
 21
-9.850470508153982
 31
0.0
 11
-27.77135105061668
 21
-9.894515924687304
 31
0.0
  0
SPLINE
  5
168
100
AcDbEntity
  8
0
100
AcDbSpline
210
0.0
220
0.0
230
-1.0
 70
     8
 71
     3
 72
    10
 73
     6
 74
     4
 42
0.0000001
 43
0.0000001
 44
0.0000000001
 40
0.0
 40
0.0
 40
0.0
 40
0.0
 40
0.1346398460805231
 40
0.3128623872728212
 40
0.472752384449938
 40
0.472752384449938
 40
0.472752384449938
 40
0.472752384449938
 10
-28.35372062288334
 20
-9.716717663353968
 30
0.0
 10
-28.3104775080723
 20
-9.728726701495991
 30
0.0
 10
-28.20999355382889
 20
-9.756632083530643
 30
0.0
 10
-28.05861092365555
 20
-9.800455424854954
 30
0.0
 10
-27.95114045804016
 20
-9.834412534636399
 30
0.0
 10
-27.90031876261668
 20
-9.850470508153982
 30
0.0
 11
-28.35372062288334
 21
-9.716717663353968
 31
0.0
 11
-28.22404694501667
 21
-9.752947836153971
 31
0.0
 11
-28.05296239141668
 21
-9.802881288953976
 31
0.0
 11
-27.90031876261668
 21
-9.850470508153982
 31
0.0
  0
SPLINE
  5
169
100
AcDbEntity
  8
0
100
AcDbSpline
210
0.0
220
0.0
230
-1.0
 70
     8
 71
     3
 72
    10
 73
     6
 74
     4
 42
0.0000001
 43
0.0000001
 44
0.0000000001
 40
0.0
 40
0.0
 40
0.0
 40
0.0
 40
0.2359100111291544
 40
0.4459300474874814
 40
0.5034879637873452
 40
0.5034879637873452
 40
0.5034879637873452
 40
0.5034879637873452
 10
-28.84079063568334
 20
-9.589228959353981
 30
0.0
 10
-28.76455162528811
 20
-9.608501471719231
 30
0.0
 10
-28.62044046458229
 20
-9.644931432080403
 30
0.0
 10
-28.45825354085105
 20
-9.688103313686191
 30
0.0
 10
-28.37222580031039
 20
-9.711652143058005
 30
0.0
 10
-28.35372062288334
 20
-9.716717663353968
 30
0.0
 11
-28.84079063568334
 21
-9.589228959353981
 31
0.0
 11
-28.61220379515001
 21
-9.647552108153981
 31
0.0
 11
-28.40924384848333
 21
-9.701549105487295
 31
0.0
 11
-28.35372062288334
 21
-9.716717663353968
 31
0.0
  0
SPLINE
  5
16A
100
AcDbEntity
  8
0
100
AcDbSpline
210
0.0
220
0.0
230
1.0
 70
     8
 71
     3
 72
    12
 73
     8
 74
     6
 42
0.0000001
 43
0.0000001
 44
0.0000000001
 40
0.0
 40
0.0
 40
0.0
 40
0.0
 40
0.0216237747804024
 40
0.0405192975776276
 40
0.0575167262942086
 40
0.0729054308819954
 40
0.0869780838273365
 40
0.0869780838273365
 40
0.0869780838273365
 40
0.0869780838273365
 10
-29.53158721595
 20
-9.513211424420639
 30
0.0
 10
-29.53871599598962
 20
-9.512146203177831
 30
0.0
 10
-29.55207412437952
 20
-9.510150158686913
 30
0.0
 10
-29.57103083228886
 20
-9.507283384126914
 30
0.0
 10
-29.58793004915511
 20
-9.504710947487362
 30
0.0
 10
-29.60323817151632
 20
-9.502368784086776
 30
0.0
 10
-29.61294531001476
 20
-9.500881253068151
 30
0.0
 10
-29.61758206821667
 20
-9.500170711887314
 30
0.0
 11
-29.53158721595
 21
-9.513211424420639
 31
0.0
 11
-29.55297254928334
 21
-9.510009057487302
 31
0.0
 11
-29.57165593275001
 21
-9.507185590820647
 31
0.0
 11
-29.58845984208334
 21
-9.504628011087312
 31
0.0
 11
-29.60367171408334
 21
-9.502301816953981
 31
0.0
 11
-29.61758206821667
 21
-9.500170711887314
 31
0.0
  0
SPLINE
  5
16B
100
AcDbEntity
  8
0
100
AcDbSpline
210
0.3861977654205318
220
0.9224160048395669
230
0.0
 70
    24
 71
     3
 72
     8
 73
     4
 74
     2
 42
0.0000001
 43
0.0000001
 44
0.0000000001
 40
0.0
 40
0.0
 40
0.0
 40
0.0
 40
0.0239508073191377
 40
0.0239508073191377
 40
0.0239508073191377
 40
0.0239508073191377
 10
-29.54731834448333
 20
-9.577858974287316
 30
0.0
 10
-29.55468254715
 20
-9.574775724865094
 30
0.0
 10
-29.56204674981666
 20
-9.571692475442871
 30
0.0
 10
-29.56941095248334
 20
-9.568609226020647
 30
0.0
 11
-29.54731834448333
 21
-9.577858974287316
 31
0.0
 11
-29.56941095248334
 21
-9.568609226020647
 31
0.0
  0
SPLINE
  5
16C
100
AcDbEntity
  8
0
100
AcDbSpline
210
0.0
220
0.0
230
1.0
 70
     8
 71
     3
 72
     9
 73
     5
 74
     3
 42
0.0000001
 43
0.0000001
 44
0.0000000001
 40
0.0
 40
0.0
 40
0.0
 40
0.0
 40
0.0112372434496189
 40
0.0224055852091915
 40
0.0224055852091915
 40
0.0224055852091915
 40
0.0224055852091915
 10
-26.90664652368334
 20
-9.943553423353982
 30
0.0
 10
-26.91035344078116
 20
-9.943015460237839
 30
0.0
 10
-26.91774454583918
 20
-9.941942832551861
 30
0.0
 10
-26.92513297368128
 20
-9.940851916513269
 30
0.0
 10
-26.92881582715
 20
-9.940308135887313
 30
0.0
 11
-26.90664652368334
 21
-9.943553423353982
 31
0.0
 11
-26.91776660155
 21
-9.941934933753977
 31
0.0
 11
-26.92881582715
 21
-9.940308135887313
 31
0.0
  0
SPLINE
  5
16D
100
AcDbEntity
  8
0
100
AcDbSpline
210
0.0
220
0.0
230
1.0
 70
     8
 71
     3
 72
     9
 73
     5
 74
     3
 42
0.0000001
 43
0.0000001
 44
0.0000000001
 40
0.0
 40
0.0
 40
0.0
 40
0.0
 40
0.1104520568644421
 40
0.2187790047715685
 40
0.2187790047715685
 40
0.2187790047715685
 40
0.2187790047715685
 10
-26.92881582715
 20
-9.940308135887313
 30
0.0
 10
-26.96516649056361
 20
-9.934451475052057
 30
0.0
 10
-27.03716842688045
 20
-9.922850836139609
 30
0.0
 10
-27.10881163234228
 20
-9.909209323579473
 30
0.0
 10
-27.14428528208333
 20
-9.902454820687303
 30
0.0
 11
-26.92881582715
 21
-9.940308135887313
 31
0.0
 11
-27.03777638395001
 21
-9.922217974820632
 31
0.0
 11
-27.14428528208333
 21
-9.902454820687303
 31
0.0
  0
SPLINE
  5
16E
100
AcDbEntity
  8
0
100
AcDbSpline
210
0.0
220
0.0
230
1.0
 70
     8
 71
     3
 72
     9
 73
     5
 74
     3
 42
0.0000001
 43
0.0000001
 44
0.0000000001
 40
0.0
 40
0.0
 40
0.0
 40
0.0
 40
0.1461998082962514
 40
0.2934227409222987
 40
0.2934227409222987
 40
0.2934227409222987
 40
0.2934227409222987
 10
-27.14428528208333
 20
-9.902454820687303
 30
0.0
 10
-27.19182810903339
 20
-9.891717083834405
 30
0.0
 10
-27.28724647351313
 20
-9.870166466118853
 30
0.0
 10
-27.38157930424629
 20
-9.844273730976688
 30
0.0
 10
-27.42891018235
 20
-9.831282221220639
 30
0.0
 11
-27.14428528208333
 21
-9.902454820687303
 31
0.0
 11
-27.28664426875
 21
-9.869163637753963
 31
0.0
 11
-27.42891018235
 21
-9.831282221220639
 31
0.0
  0
SPLINE
  5
16F
100
AcDbEntity
  8
0
100
AcDbSpline
210
0.0
220
0.0
230
1.0
 70
     8
 71
     3
 72
     9
 73
     5
 74
     3
 42
0.0000001
 43
0.0000001
 44
0.0000000001
 40
0.0
 40
0.0
 40
0.0
 40
0.0
 40
0.1961343406704953
 40
0.7837263572002856
 40
0.7837263572002856
 40
0.7837263572002856
 40
0.7837263572002856
 10
-29.61581544848334
 20
-9.343812069753973
 30
0.0
 10
-29.5527128378093
 20
-9.36091090996814
 30
0.0
 10
-29.30056332118551
 20
-9.429235567993801
 30
0.0
 10
-29.04795939864692
 20
-9.49586445887191
 30
0.0
 10
-28.85857180581667
 20
-9.545818890020647
 30
0.0
 11
-29.61581544848334
 21
-9.343812069753973
 31
0.0
 11
-29.42647915728334
 21
-9.395002385487309
 31
0.0
 11
-28.85857180581667
 21
-9.545818890020647
 31
0.0
  0
SPLINE
  5
170
100
AcDbEntity
  8
0
100
AcDbSpline
210
0.2381614939953344
220
0.9712255674033247
230
0.0
 70
    24
 71
     3
 72
     8
 73
     4
 74
     2
 42
0.0000001
 43
0.0000001
 44
0.0000000001
 40
0.0
 40
0.0
 40
0.0
 40
0.0
 40
0.0843569895773182
 40
0.0843569895773182
 40
0.0843569895773182
 40
0.0843569895773182
 10
-28.91977611301667
 20
-9.570826604153971
 30
0.0
 10
-28.89246622466112
 20
-9.577523466376199
 30
0.0
 10
-28.86515633630556
 20
-9.584220328598428
 30
0.0
 10
-28.83784644795
 20
-9.590917190820654
 30
0.0
 11
-28.91977611301667
 21
-9.570826604153971
 31
0.0
 11
-28.83784644795
 21
-9.590917190820654
 31
0.0
  0
SPLINE
  5
171
100
AcDbEntity
  8
0
100
AcDbSpline
210
0.2252894714297064
220
0.9742918731380877
230
0.0
 70
    24
 71
     3
 72
     8
 73
     4
 74
     2
 42
0.0000001
 43
0.0000001
 44
0.0000000001
 40
0.0
 40
0.0
 40
0.0
 40
0.0
 40
0.1873810187344707
 40
0.1873810187344707
 40
0.1873810187344707
 40
0.1873810187344707
 10
-29.10233991675
 20
-9.528611633487322
 30
0.0
 10
-29.04148531550556
 20
-9.542683290376205
 30
0.0
 10
-28.98063071426111
 20
-9.556754947265087
 30
0.0
 10
-28.91977611301667
 20
-9.570826604153971
 30
0.0
 11
-29.10233991675
 21
-9.528611633487322
 31
0.0
 11
-28.91977611301667
 21
-9.570826604153971
 31
0.0
  0
SPLINE
  5
172
100
AcDbEntity
  8
0
100
AcDbSpline
210
0.2127202668530212
220
0.9771131398512558
230
0.0
 70
    24
 71
     3
 72
     8
 73
     4
 74
     2
 42
0.0000001
 43
0.0000001
 44
0.0000000001
 40
0.0
 40
0.0
 40
0.0
 40
0.0
 40
0.0476898135601403
 40
0.0476898135601403
 40
0.0476898135601403
 40
0.0476898135601403
 10
-29.14893826021667
 20
-9.518467043620638
 30
0.0
 10
-29.13340547906111
 20
-9.5218485735762
 30
0.0
 10
-29.11787269790556
 20
-9.525230103531763
 30
0.0
 10
-29.10233991675
 20
-9.528611633487322
 30
0.0
 11
-29.14893826021667
 21
-9.518467043620638
 31
0.0
 11
-29.10233991675
 21
-9.528611633487322
 31
0.0
  0
SPLINE
  5
173
100
AcDbEntity
  8
0
100
AcDbSpline
210
0.0
220
0.0
230
-1.0
 70
     8
 71
     3
 72
     9
 73
     5
 74
     3
 42
0.0000001
 43
0.0000001
 44
0.0000000001
 40
0.0
 40
0.0
 40
0.0
 40
0.0
 40
0.0203107954032499
 40
0.022613533865783
 40
0.022613533865783
 40
0.022613533865783
 40
0.022613533865783
 10
-27.66825016101668
 20
-9.941236143353982
 30
0.0
 10
-27.65835786785202
 20
-9.948495158008039
 30
0.0
 10
-27.64734403495932
 20
-9.956577164175335
 30
0.0
 10
-27.65066957820809
 20
-9.949064993282981
 30
0.0
 10
-27.65100821861667
 20
-9.948300028153973
 30
0.0
 11
-27.66825016101668
 21
-9.941236143353982
 31
0.0
 11
-27.65014098768333
 21
-9.950433221753975
 31
0.0
 11
-27.65100821861667
 21
-9.948300028153973
 31
0.0
  0
SPLINE
  5
174
100
AcDbEntity
  8
0
100
AcDbSpline
210
0.0
220
0.0
230
-1.0
 70
     8
 71
     3
 72
    10
 73
     6
 74
     4
 42
0.0000001
 43
0.0000001
 44
0.0000000001
 40
0.0
 40
0.0
 40
0.0
 40
0.0
 40
0.0702987517910384
 40
0.1212033682568862
 40
0.1293033559336835
 40
0.1293033559336835
 40
0.1293033559336835
 40
0.1293033559336835
 10
-27.78747442875001
 20
-9.891422543353975
 30
0.0
 10
-27.76563216880069
 20
-9.899845005503934
 30
0.0
 10
-27.7279735275197
 20
-9.914366327086222
 30
0.0
 10
-27.68765507344509
 20
-9.930096166534937
 30
0.0
 10
-27.67059246796286
 20
-9.939891471215943
 30
0.0
 10
-27.66825016101668
 20
-9.941236143353982
 30
0.0
 11
-27.78747442875001
 21
-9.891422543353975
 31
0.0
 11
-27.72190252581668
 21
-9.916764998820646
 31
0.0
 11
-27.67530225488334
 21
-9.937251451087313
 31
0.0
 11
-27.66825016101668
 21
-9.941236143353982
 31
0.0
  0
SPLINE
  5
175
100
AcDbEntity
  8
0
100
AcDbSpline
210
0.0
220
0.0
230
-1.0
 70
     8
 71
     3
 72
    12
 73
     8
 74
     6
 42
0.0000001
 43
0.0000001
 44
0.0000000001
 40
0.0
 40
0.0
 40
0.0
 40
0.0
 40
0.1249605692262412
 40
0.2700121486568126
 40
0.3963274514291715
 40
0.5038589859982722
 40
0.5927720728544181
 40
0.5927720728544181
 40
0.5927720728544181
 40
0.5927720728544181
 10
-28.35406056421667
 20
-9.717658027087317
 30
0.0
 10
-28.3139281038311
 20
-9.728811943074289
 30
0.0
 10
-28.22721073429055
 20
-9.752913088261355
 30
0.0
 10
-28.10033350423798
 20
-9.789743393659517
 30
0.0
 10
-27.97953416027919
 20
-9.826610855488851
 30
0.0
 10
-27.87708880169764
 20
-9.85951911046634
 30
0.0
 10
-27.81539689341178
 20
-9.881481922802908
 30
0.0
 10
-27.78747442875001
 20
-9.891422543353975
 30
0.0
 11
-28.35406056421667
 21
-9.717658027087317
 31
0.0
 11
-28.23372267195
 21
-9.751331986553971
 31
0.0
 11
-28.09443738021667
 21
-9.791823568420632
 31
0.0
 11
-27.97364198288334
 21
-9.828756314020644
 31
0.0
 11
-27.87137711888334
 21
-9.861996779087299
 31
0.0
 11
-27.78747442875001
 21
-9.891422543353975
 31
0.0
  0
SPLINE
  5
176
100
AcDbEntity
  8
0
100
AcDbSpline
210
0.0
220
0.0
230
-1.0
 70
     8
 71
     3
 72
     9
 73
     5
 74
     3
 42
0.0000001
 43
0.0000001
 44
0.0000000001
 40
0.0
 40
0.0
 40
0.0
 40
0.0
 40
0.1806733021589734
 40
0.2189948542446083
 40
0.2189948542446083
 40
0.2189948542446083
 40
0.2189948542446083
 10
-28.56552511568333
 20
-9.660725976953976
 30
0.0
 10
-28.50731800594427
 20
-9.676185130901595
 30
0.0
 10
-28.43676492831196
 20
-9.694923235120917
 30
0.0
 10
-28.36637753864355
 20
-9.714272185792074
 30
0.0
 10
-28.35406056421667
 20
-9.717658027087317
 30
0.0
 11
-28.56552511568333
 21
-9.660725976953976
 31
0.0
 11
-28.39101656101668
 21
-9.707519207887322
 31
0.0
 11
-28.35406056421667
 21
-9.717658027087317
 31
0.0
  0
SPLINE
  5
177
100
AcDbEntity
  8
0
100
AcDbSpline
210
0.25196604048306
220
0.9677360768532345
230
0.0
 70
    24
 71
     3
 72
     8
 73
     4
 74
     2
 42
0.0000001
 43
0.0000001
 44
0.0000000001
 40
0.0
 40
0.0
 40
0.0
 40
0.0
 40
0.1199890332127011
 40
0.1199890332127011
 40
0.1199890332127011
 40
0.1199890332127011
 10
-28.68164283195
 20
-9.630492815353981
 30
0.0
 10
-28.64293692652778
 20
-9.640570535887313
 30
0.0
 10
-28.60423102110556
 20
-9.650648256420645
 30
0.0
 10
-28.56552511568333
 20
-9.660725976953976
 30
0.0
 11
-28.68164283195
 21
-9.630492815353981
 31
0.0
 11
-28.56552511568333
 21
-9.660725976953976
 31
0.0
  0
SPLINE
  5
178
100
AcDbEntity
  8
0
100
AcDbSpline
210
0.2475426253925035
220
0.9688770038626094
230
0.0
 70
    24
 71
     3
 72
     8
 73
     4
 74
     2
 42
0.0000001
 43
0.0000001
 44
0.0000000001
 40
0.0
 40
0.0
 40
0.0
 40
0.0
 40
0.0762497808343889
 40
0.0762497808343889
 40
0.0762497808343889
 40
0.0762497808343889
 10
-28.75551949115001
 20
-9.611617744420634
 30
0.0
 10
-28.73089393808334
 20
-9.61790943473175
 30
0.0
 10
-28.70626838501667
 20
-9.624201125042867
 30
0.0
 10
-28.68164283195
 20
-9.630492815353981
 30
0.0
 11
-28.75551949115001
 21
-9.611617744420634
 31
0.0
 11
-28.68164283195
 21
-9.630492815353981
 31
0.0
  0
SPLINE
  5
179
100
AcDbEntity
  8
0
100
AcDbSpline
210
0.2438713900060753
220
0.9698075815008381
230
0.0
 70
    24
 71
     3
 72
     8
 73
     4
 74
     2
 42
0.0000001
 43
0.0000001
 44
0.0000000001
 40
0.0
 40
0.0
 40
0.0
 40
0.0
 40
0.0848792220610147
 40
0.0848792220610147
 40
0.0848792220610147
 40
0.0848792220610147
 10
-28.83783600421667
 20
-9.59091813055398
 30
0.0
 10
-28.81039716652779
 20
-9.597818001842863
 30
0.0
 10
-28.7829583288389
 20
-9.604717873131749
 30
0.0
 10
-28.75551949115001
 20
-9.611617744420634
 30
0.0
 11
-28.83783600421667
 21
-9.59091813055398
 31
0.0
 11
-28.75551949115001
 21
-9.611617744420634
 31
0.0
  0
SPLINE
  5
17A
100
AcDbEntity
  8
0
100
AcDbSpline
210
0.0
220
0.0
230
-1.0
 70
     8
 71
     3
 72
    18
 73
    14
 74
    12
 42
0.0000001
 43
0.0000001
 44
0.0000000001
 40
0.0
 40
0.0
 40
0.0
 40
0.0
 40
0.0323500063488222
 40
0.0659830933050236
 40
0.1017003724883049
 40
0.1385846569554647
 40
0.175014845429762
 40
0.2089606182401123
 40
0.2389348043124321
 40
0.2644031795982356
 40
0.2860143592091525
 40
0.3004141633323542
 40
0.303498409680516
 40
0.303498409680516
 40
0.303498409680516
 40
0.303498409680516
 10
-29.33788816421667
 20
-10.11213320682065
 30
0.0
 10
-29.3460364559877
 20
-10.10472694448741
 30
0.0
 10
-29.36265622076939
 20
-10.08962066928901
 30
0.0
 10
-29.39782990816951
 20
-10.08482263570761
 30
0.0
 10
-29.43285169269414
 20
-10.08952238941153
 30
0.0
 10
-29.46817539360945
 20
-10.0985074499749
 30
0.0
 10
-29.50212235890369
 20
-10.10969843653334
 30
0.0
 10
-29.53339212393708
 20
-10.12174059338677
 30
0.0
 10
-29.56050018809541
 20
-10.13382918770783
 30
0.0
 10
-29.58381498513854
 20
-10.14548344064156
 30
0.0
 10
-29.59998177937096
 20
-10.1566131205989
 30
0.0
 10
-29.61213066071607
 20
-10.16497288279627
 30
0.0
 10
-29.61269100502864
 20
-10.17086571096203
 30
0.0
 10
-29.61278985168334
 20
-10.17190522602064
 30
0.0
 11
-29.33788816421667
 21
-10.11213320682065
 31
0.0
 11
-29.36382355728334
 21
-10.09279727402064
 31
0.0
 11
-29.39684497381668
 21
-10.08641208895397
 31
0.0
 11
-29.43236702288334
 21
-10.09014144042064
 31
0.0
 11
-29.46818362128334
 21
-10.09895175935398
 31
0.0
 11
-29.50281653328334
 21
-10.11025308842065
 31
0.0
 11
-29.53447926075
 21
-10.12249184575397
 31
0.0
 11
-29.56185555408334
 21
-10.13469800788731
 31
0.0
 11
-29.58443628795001
 21
-10.14647716735397
 31
0.0
 11
-29.60249788901666
 21
-10.15834399722063
 31
0.0
 11
-29.61234167781668
 21
-10.16885371562063
 31
0.0
 11
-29.61278985168334
 21
-10.17190522602064
 31
0.0
  0
SPLINE
  5
17B
100
AcDbEntity
  8
0
100
AcDbSpline
210
0.0
220
0.0
230
1.0
 70
     8
 71
     3
 72
    14
 73
    10
 74
     8
 42
0.0000001
 43
0.0000001
 44
0.0000000001
 40
0.0
 40
0.0
 40
0.0
 40
0.0
 40
0.4876508083287675
 40
0.9756861167299833
 40
1.464460748552238
 40
1.954301603032986
 40
2.445495735171112
 40
2.938280265888054
 40
3.428935657814867
 40
3.428935657814867
 40
3.428935657814867
 40
3.428935657814867
 10
-26.72477011088334
 20
-11.90581399722064
 30
0.0
 10
-26.88321388187283
 20
-11.86894012159133
 30
0.0
 10
-27.20022635267461
 20
-11.79516329623378
 30
0.0
 10
-27.65957566829938
 20
-11.62652362298276
 30
0.0
 10
-28.10196874547553
 20
-11.41710977215872
 30
0.0
 10
-28.52291001480555
 20
-11.16468996493582
 30
0.0
 10
-28.91809392827211
 20
-10.87187923319389
 30
0.0
 10
-29.28624684803525
 20
-10.54447782437411
 30
0.0
 10
-29.5036085804586
 20
-10.29876825156095
 30
0.0
 10
-29.61205415355001
 20
-10.17617944468731
 30
0.0
 11
-26.72477011088334
 21
-11.90581399722064
 31
0.0
 11
-27.19735998715
 21
-11.78555544362064
 31
0.0
 11
-27.65641056315001
 21
-11.61987191722065
 31
0.0
 11
-28.09792594661667
 21
-11.41019405268731
 31
0.0
 11
-28.51805739621667
 21
-11.15833371882063
 31
0.0
 11
-28.91313649275
 21
-10.86647042388731
 31
0.0
 11
-29.27970761915
 21
-10.53713442068731
 31
0.0
 11
-29.61205415355001
 21
-10.17617944468731
 31
0.0
  0
SPLINE
  5
17C
100
AcDbEntity
  8
0
100
AcDbSpline
210
0.0
220
0.0
230
1.0
 70
     8
 71
     3
 72
    10
 73
     6
 74
     4
 42
0.0000001
 43
0.0000001
 44
0.0000000001
 40
0.0
 40
0.0
 40
0.0
 40
0.0
 40
0.1483703047875817
 40
0.445831536313472
 40
0.7435269148379008
 40
0.7435269148379008
 40
0.7435269148379008
 40
0.7435269148379008
 10
-26.62338275728334
 20
-11.22224729428732
 30
0.0
 10
-26.67135241193711
 20
-11.21021185456654
 30
0.0
 10
-26.81549436043104
 20
-11.17404708029718
 30
0.0
 10
-27.05246738763925
 20
-11.10023282581967
 30
0.0
 10
-27.23630979941372
 20
-11.0255182350676
 30
0.0
 10
-27.32826716901668
 20
-10.98814624255397
 30
0.0
 11
-26.62338275728334
 21
-11.22224729428732
 31
0.0
 11
-26.76706480741668
 21
-11.18524437802063
 31
0.0
 11
-27.05093320955
 21
-11.09635166442064
 31
0.0
 11
-27.32826716901668
 21
-10.98814624255397
 31
0.0
  0
SPLINE
  5
17D
100
AcDbEntity
  8
0
100
AcDbSpline
210
0.2259846521169937
220
0.9741308623627327
230
0.0
 70
    24
 71
     3
 72
     8
 73
     4
 74
     2
 42
0.0000001
 43
0.0000001
 44
0.0000000001
 40
0.0
 40
0.0
 40
0.0
 40
0.0
 40
0.0605944772726127
 40
0.0605944772726127
 40
0.0605944772726127
 40
0.0605944772726127
 10
-26.56435580688334
 20
-11.23594071615398
 30
0.0
 10
-26.58403145701667
 20
-11.23137624219842
 30
0.0
 10
-26.60370710715
 20
-11.22681176824287
 30
0.0
 10
-26.62338275728334
 20
-11.22224729428732
 30
0.0
 11
-26.56435580688334
 21
-11.23594071615398
 31
0.0
 11
-26.62338275728334
 21
-11.22224729428732
 31
0.0
  0
SPLINE
  5
17E
100
AcDbEntity
  8
0
100
AcDbSpline
210
0.3963093907031379
220
0.9181170224108186
230
0.0
 70
    24
 71
     3
 72
     8
 73
     4
 74
     2
 42
0.0000001
 43
0.0000001
 44
0.0000000001
 40
0.0
 40
0.0
 40
0.0
 40
0.0
 40
0.0041238676271622
 40
0.0041238676271622
 40
0.0041238676271622
 40
0.0041238676271622
 10
-27.33205336208334
 20
-10.98651191508731
 30
0.0
 10
-27.33079129772778
 20
-10.98705669090953
 30
0.0
 10
-27.32952923337223
 20
-10.98760146673175
 30
0.0
 10
-27.32826716901668
 20
-10.98814624255397
 30
0.0
 11
-27.33205336208334
 21
-10.98651191508731
 31
0.0
 11
-27.32826716901668
 21
-10.98814624255397
 31
0.0
  0
SPLINE
  5
17F
100
AcDbEntity
  8
0
100
AcDbSpline
210
0.0
220
0.0
230
-1.0
 70
     8
 71
     3
 72
    14
 73
    10
 74
     8
 42
0.0000001
 43
0.0000001
 44
0.0000000001
 40
0.0
 40
0.0
 40
0.0
 40
0.0
 40
0.1269287552183902
 40
0.3869480952076509
 40
0.6454148557172489
 40
0.9022616308218449
 40
1.157563358669279
 40
1.411532666005744
 40
1.660380196665735
 40
1.660380196665735
 40
1.660380196665735
 40
1.660380196665735
 10
-28.31717034128334
 20
-9.729564143353975
 30
0.0
 10
-28.30834971251404
 20
-9.770957139698683
 30
0.0
 10
-28.28145962370046
 20
-9.897145575589064
 30
0.0
 10
-28.21016399840358
 20
-10.10118750296894
 30
0.0
 10
-28.09137775382573
 20
-10.33159768993782
 30
0.0
 10
-27.94028695574596
 20
-10.5406877899003
 30
0.0
 10
-27.76030947292027
 20
-10.72290878917063
 30
0.0
 10
-27.55772301142629
 20
-10.87652742294231
 30
0.0
 10
-27.40676401397212
 20
-10.95010022601111
 30
0.0
 10
-27.33205336208334
 20
-10.98651191508731
 30
0.0
 11
-28.31717034128334
 21
-9.729564143353975
 31
0.0
 11
-28.28900254928333
 21
-9.85332796842065
 31
0.0
 11
-28.20441898448334
 21
-10.09920533162063
 31
0.0
 11
-28.08557341541666
 21
-10.32872830868729
 31
0.0
 11
-27.93497891835
 21
-10.53679455615398
 31
0.0
 11
-27.75586238928334
 21
-10.7187182798873
 31
0.0
 11
-27.55212067088334
 21
-10.87034189695396
 31
0.0
 11
-27.33205336208334
 21
-10.98651191508731
 31
0.0
  0
LINE
  5
180
100
AcDbEntity
  8
0
100
AcDbLine
 10
-28.840791
 20
-9.589229
 30
0.0
 11
-28.837846
 21
-9.590915
 31
0.0
  0
LWPOLYLINE
  5
181
100
AcDbEntity
  8
0
100
AcDbPolyline
 90
        8
 70
     0
 43
0.0
 10
-27.618005
 20
-11.116442
 10
-27.866438
 20
-10.985909
 10
-28.092831
 20
-10.818036
 10
-28.29215
 20
-10.616554
 10
-28.459962
 20
-10.385944
 10
-28.592536
 20
-10.131333
 10
-28.686924
 20
-9.858382
 10
-28.732609
 20
-9.617539
  0
LWPOLYLINE
  5
182
100
AcDbEntity
  8
0
100
AcDbPolyline
 90
        8
 70
     0
 43
0.0
 10
-27.332282
 20
-10.986894
 10
-27.551665
 20
-10.872155
 10
-27.75219
 20
-10.725207
 10
-27.929613
 20
-10.549161
 10
-28.080179
 20
-10.347742
 10
-28.200702
 20
-10.125213
 10
-28.28863
 20
-9.886284
 10
-28.322764
 20
-9.72653
  0
LWPOLYLINE
  5
183
100
AcDbEntity
  8
0
100
AcDbPolyline
 90
        8
 70
     0
 43
0.0
 10
-27.478376
 20
-10.957196
 10
-27.69776
 20
-10.842457
 10
-27.898285
 20
-10.695509
 10
-28.075708
 20
-10.519463
 10
-28.226274
 20
-10.318044
 10
-28.346797
 20
-10.095515
 10
-28.434725
 20
-9.856586
 10
-28.471167
 20
-9.686027
  0
LINE
  5
184
100
AcDbEntity
  8
0
100
AcDbLine
 10
-26.920329
 20
-11.140028
 30
0.0
 11
-27.332282
 21
-10.986894
 31
0.0
  0
LINE
  5
185
100
AcDbEntity
  8
0
100
AcDbLine
 10
-27.33228
 20
-10.986894
 30
0.0
 11
-27.328267
 21
-10.988146
 31
0.0
  0
LINE
  5
186
100
AcDbEntity
  8
0
100
AcDbLine
 10
-28.784587
 20
-10.961436
 30
0.0
 11
-29.172846
 21
-10.857402
 31
0.0
  0
LINE
  5
187
100
AcDbEntity
  8
0
100
AcDbLine
 10
-26.548345
 20
-11.236219
 30
0.0
 11
-26.920329
 21
-11.140028
 31
0.0
  0
LWPOLYLINE
  5
188
100
AcDbEntity
  8
0
100
AcDbPolyline
 90
        3
 70
     0
 43
0.0
 10
-26.623979
 20
-11.224742
 10
-27.066424
 20
-11.11033
 10
-27.478376
 20
-10.957196
  0
LINE
  5
189
100
AcDbEntity
  8
0
100
AcDbLine
 10
-26.72477
 20
-11.905814
 30
0.0
 11
-26.651
 21
-11.92081
 31
0.0
  0
LINE
  5
18A
100
AcDbEntity
  8
0
100
AcDbLine
 10
-29.154288
 20
-9.517743
 30
0.0
 11
-29.151448
 21
-9.518231
 31
0.0
  0
LINE
  5
18B
100
AcDbEntity
  8
0
100
AcDbLine
 10
-29.271164
 20
-9.517959
 30
0.0
 11
-29.047775
 21
-9.541229
 31
0.0
  0
LINE
  5
18C
100
AcDbEntity
  8
0
100
AcDbLine
 10
-29.529514
 20
-9.496707
 30
0.0
 11
-29.571762
 21
-9.494339
 31
0.0
  0
LINE
  5
18D
100
AcDbEntity
  8
0
100
AcDbLine
 10
-29.154288
 20
-9.517743
 30
0.0
 11
-29.449618
 21
-9.501186
 31
0.0
  0
LWPOLYLINE
  5
18E
100
AcDbEntity
  8
0
100
AcDbPolyline
 90
        7
 70
     0
 43
0.0
 10
-29.537607
 20
-9.497702
 10
-29.532875
 20
-9.496656
 10
-29.510455
 20
-9.496996
 10
-29.47071
 20
-9.49947
 10
-29.415633
 20
-9.503953
 10
-29.347988
 20
-9.510221
 10
-29.271164
 20
-9.517959
  0
LINE
  5
18F
100
AcDbEntity
  8
0
100
AcDbLine
 10
-27.651553
 20
-9.948709
 30
0.0
 11
-27.65144
 21
-9.948809
 31
0.0
  0
LINE
  5
190
100
AcDbEntity
  8
0
100
AcDbLine
 10
-27.422582
 20
-9.860544
 30
0.0
 11
-27.42891
 21
-9.831282
 31
0.0
  0
LINE
  5
191
100
AcDbEntity
  8
0
100
AcDbLine
 10
-29.613333
 20
-10.171898
 30
0.0
 11
-29.612054
 21
-10.176177
 31
0.0
  0
LINE
  5
192
100
AcDbEntity
  8
0
100
AcDbLine
 10
-29.337888
 20
-10.112133
 30
0.0
 11
-29.271164
 21
-9.517959
 31
0.0
  0
LINE
  5
193
100
AcDbEntity
  8
0
100
AcDbLine
 10
-29.613282
 20
-10.171438
 30
0.0
 11
-29.537623
 21
-9.497699
 31
0.0
  0
SPLINE
  5
194
100
AcDbEntity
  8
0
100
AcDbSpline
210
0.0
220
0.0
230
1.0
 70
     8
 71
     3
 72
    10
 73
     6
 74
     4
 42
0.0000001
 43
0.0000001
 44
0.0000000001
 40
0.0
 40
0.0
 40
0.0
 40
0.0
 40
0.1612166288141767
 40
0.382914006527507
 40
0.4558267916134889
 40
0.4558267916134889
 40
0.4558267916134889
 40
0.4558267916134889
 10
-27.81421510181667
 20
-9.995724381220647
 30
0.0
 10
-27.8677235566787
 20
-9.990585894220229
 30
0.0
 10
-27.99481427297159
 20
-9.97838120628393
 30
0.0
 10
-28.14450922955778
 20
-9.951322437849928
 30
0.0
 10
-28.24068797541936
 20
-9.931523911217629
 30
0.0
 10
-28.26449116048334
 20
-9.92662399295397
 30
0.0
 11
-27.81421510181667
 21
-9.995724381220647
 31
0.0
 11
-27.97450283728334
 21
-9.978443083087306
 31
0.0
 11
-28.19304655995
 21
-9.941182264953972
 31
0.0
 11
-28.26449116048334
 21
-9.92662399295397
 31
0.0
  0
SPLINE
  5
195
100
AcDbEntity
  8
0
100
AcDbSpline
210
0.0196932452318888
220
0.999806069241549
230
0.0
 70
    24
 71
     3
 72
     8
 73
     4
 74
     2
 42
0.0000001
 43
0.0000001
 44
0.0000000001
 40
0.0
 40
0.0
 40
0.0
 40
0.0
 40
0.1008668561192337
 40
0.1008668561192337
 40
0.1008668561192337
 40
0.1008668561192337
 10
-27.71336780688335
 20
-9.997710776953972
 30
0.0
 10
-27.74698357186112
 20
-9.997048645042864
 30
0.0
 10
-27.7805993368389
 20
-9.996386513131756
 30
0.0
 10
-27.81421510181667
 20
-9.995724381220647
 30
0.0
 11
-27.71336780688335
 21
-9.997710776953972
 31
0.0
 11
-27.81421510181667
 21
-9.995724381220647
 31
0.0
  0
SPLINE
  5
196
100
AcDbEntity
  8
0
100
AcDbSpline
210
0.0
220
0.0
230
-1.0
 70
     8
 71
     3
 72
    11
 73
     7
 74
     5
 42
0.0000001
 43
0.0000001
 44
0.0000000001
 40
0.0
 40
0.0
 40
0.0
 40
0.0
 40
0.0080781207295396
 40
0.0305478065014458
 40
0.0561512661061733
 40
0.1111172620254477
 40
0.1111172620254477
 40
0.1111172620254477
 40
0.1111172620254477
 10
-27.65093306128334
 20
-9.948314939087303
 30
0.0
 10
-27.64916081487835
 20
-9.950251470053022
 30
0.0
 10
-27.6424589788864
 20
-9.957574556103025
 30
0.0
 10
-27.63097705947496
 20
-9.978918523763413
 30
0.0
 10
-27.67094728249809
 20
-9.996170611075802
 30
0.0
 10
-27.69616429042013
 20
-9.997086167300388
 30
0.0
 10
-27.71336780688335
 20
-9.997710776953972
 30
0.0
 11
-27.65093306128334
 21
-9.948314939087303
 31
0.0
 11
-27.64564816528334
 21
-9.954424432420644
 31
0.0
 11
-27.63783946981667
 21
-9.975493629220643
 31
0.0
 11
-27.65894753381667
 21
-9.989984549753962
 31
0.0
 11
-27.71336780688335
 21
-9.997710776953972
 31
0.0
  0
SPLINE
  5
197
100
AcDbEntity
  8
0
100
AcDbSpline
210
0.0547558890011748
220
0.9984997709662689
230
0.0
 70
    24
 71
     3
 72
     8
 73
     4
 74
     2
 42
0.0000001
 43
0.0000001
 44
0.0000000001
 40
0.0
 40
0.0
 40
0.0
 40
0.0
 40
0.7096637173128958
 40
0.7096637173128958
 40
0.7096637173128958
 40
0.7096637173128958
 10
-25.69020175461667
 20
-10.07519032575397
 30
0.0
 10
-25.45400206821667
 20
-10.08814308166508
 30
0.0
 10
-25.21780238181667
 20
-10.1010958375762
 30
0.0
 10
-24.98160269541667
 20
-10.11404859348731
 30
0.0
 11
-25.69020175461667
 21
-10.07519032575397
 31
0.0
 11
-24.98160269541667
 21
-10.11404859348731
 31
0.0
  0
SPLINE
  5
198
100
AcDbEntity
  8
0
100
AcDbSpline
210
0.0
220
0.0
230
1.0
 70
     8
 71
     3
 72
     9
 73
     5
 74
     3
 42
0.0000001
 43
0.0000001
 44
0.0000000001
 40
0.0
 40
0.0
 40
0.0
 40
0.0
 40
0.9025719964535149
 40
1.281484009498506
 40
1.281484009498506
 40
1.281484009498506
 40
1.281484009498506
 10
-23.70030590288334
 20
-10.12878740202064
 30
0.0
 10
-24.00121197323508
 20
-10.13072686602534
 30
0.0
 10
-24.42844250889534
 20
-10.13348054342592
 30
0.0
 10
-24.85536832905745
 20
-10.11848307729037
 30
0.0
 10
-24.98160269541667
 20
-10.11404859348731
 30
0.0
 11
-23.70030590288334
 21
-10.12878740202064
 31
0.0
 11
-24.60287295568334
 21
-10.12580009855398
 31
0.0
 11
-24.98160269541667
 21
-10.11404859348731
 31
0.0
  0
SPLINE
  5
199
100
AcDbEntity
  8
0
100
AcDbSpline
210
-0.0210770241610496
220
0.9997778548520239
230
0.0
 70
    24
 71
     3
 72
     8
 73
     4
 74
     2
 42
0.0000001
 43
0.0000001
 44
0.0000000001
 40
0.0
 40
0.0
 40
0.0
 40
0.0
 40
0.2340193740018037
 40
0.2340193740018037
 40
0.2340193740018037
 40
0.2340193740018037
 10
-23.46633851515
 20
-10.12385497002065
 30
0.0
 10
-23.54432764439445
 20
-10.12549911402064
 30
0.0
 10
-23.6223167736389
 20
-10.12714325802064
 30
0.0
 10
-23.70030590288334
 20
-10.12878740202064
 30
0.0
 11
-23.46633851515
 21
-10.12385497002065
 31
0.0
 11
-23.70030590288334
 21
-10.12878740202064
 31
0.0
  0
SPLINE
  5
19A
100
AcDbEntity
  8
0
100
AcDbSpline
210
-0.4896880931841652
220
0.8718976840166835
230
0.0
 70
    24
 71
     3
 72
     8
 73
     4
 74
     2
 42
0.0000001
 43
0.0000001
 44
0.0000000001
 40
0.0
 40
0.0
 40
0.0
 40
0.0
 40
0.0032246572637357
 40
0.0032246572637357
 40
0.0032246572637357
 40
0.0032246572637357
 10
-23.95789739515
 20
-10.24078358762063
 30
0.0
 10
-23.95696020475
 20
-10.24025722886508
 30
0.0
 10
-23.95602301435
 20
-10.23973087010953
 30
0.0
 10
-23.95508582395
 20
-10.23920451135398
 30
0.0
 11
-23.95789739515
 21
-10.24078358762063
 31
0.0
 11
-23.95508582395
 21
-10.23920451135398
 31
0.0
  0
SPLINE
  5
19B
100
AcDbEntity
  8
0
100
AcDbSpline
210
0.0
220
0.0
230
1.0
 70
     8
 71
     3
 72
    12
 73
     8
 74
     6
 42
0.0000001
 43
0.0000001
 44
0.0000000001
 40
0.0
 40
0.0
 40
0.0
 40
0.0
 40
0.0923333982660662
 40
0.1886026255586223
 40
0.2467231256182434
 40
0.2735810550952511
 40
0.2902128584562582
 40
0.2902128584562582
 40
0.2902128584562582
 40
0.2902128584562582
 10
-23.72972834661667
 20
-10.35194621908731
 30
0.0
 10
-23.76028787438655
 20
-10.34648091898503
 30
0.0
 10
-23.82270956882718
 20
-10.3353173533835
 30
0.0
 10
-23.89783896415045
 20
-10.30980226666992
 30
0.0
 10
-23.96309637035396
 20
-10.29496470272238
 30
0.0
 10
-23.97363379241288
 20
-10.25485960429643
 30
0.0
 10
-23.96225065492069
 20
-10.24467752573763
 30
0.0
 10
-23.95789739515
 20
-10.24078358762063
 30
0.0
 11
-23.72972834661667
 21
-10.35194621908731
 31
0.0
 11
-23.82021083088334
 21
-10.33355120682063
 31
0.0
 11
-23.91278936315001
 21
-10.30715083775397
 31
0.0
 11
-23.96416245541667
 21
-10.27997000042063
 31
0.0
 11
-23.96863274235
 21
-10.25348670548731
 31
0.0
 11
-23.95789739515
 21
-10.24078358762063
 31
0.0
  0
SPLINE
  5
19C
100
AcDbEntity
  8
0
100
AcDbSpline
210
-0.1114963293076392
220
0.9937648457008945
230
0.0
 70
    24
 71
     3
 72
     8
 73
     4
 74
     2
 42
0.0000001
 43
0.0000001
 44
0.0000000001
 40
0.0
 40
0.0
 40
0.0
 40
0.0
 40
0.1310290932809472
 40
0.1310290932809472
 40
0.1310290932809472
 40
0.1310290932809472
 10
-23.93387600635
 20
-10.23272458282064
 30
0.0
 10
-23.89047197079445
 20
-10.22785482850953
 30
0.0
 10
-23.84706793523889
 20
-10.22298507419842
 30
0.0
 10
-23.80366389968333
 20
-10.21811531988731
 30
0.0
 11
-23.93387600635
 21
-10.23272458282064
 31
0.0
 11
-23.80366389968333
 21
-10.21811531988731
 31
0.0
  0
SPLINE
  5
19D
100
AcDbEntity
  8
0
100
AcDbSpline
210
0.0
220
0.0
230
-1.0
 70
     8
 71
     3
 72
    13
 73
     9
 74
     7
 42
0.0000001
 43
0.0000001
 44
0.0000000001
 40
0.0
 40
0.0
 40
0.0
 40
0.0
 40
0.1440708851239133
 40
0.2519904398174668
 40
0.3192864172954564
 40
0.3489538712949158
 40
0.3982033552567303
 40
0.4939364560530631
 40
0.4939364560530631
 40
0.4939364560530631
 40
0.4939364560530631
 10
-23.75132960741667
 20
-10.38608942868732
 30
0.0
 10
-23.7990260161803
 20
-10.37889839053911
 30
0.0
 10
-23.88245049859202
 20
-10.36632074263924
 30
0.0
 10
-23.98303634754488
 20
-10.33457608432159
 30
0.0
 10
-24.05247062671711
 20
-10.32119634551433
 30
0.0
 10
-24.08103379087877
 20
-10.2673721668864
 30
0.0
 10
-24.00486434757596
 20
-10.24582014278282
 30
0.0
 10
-23.96210820904296
 20
-10.23793271273106
 30
0.0
 10
-23.93387600635
 20
-10.23272458282064
 30
0.0
 11
-23.75132960741667
 21
-10.38608942868732
 31
0.0
 11
-23.89309854288334
 21
-10.36043813482064
 31
0.0
 11
-23.99742037115
 21
-10.3328050670873
 31
0.0
 11
-24.05851850021667
 21
-10.30459572095396
 31
0.0
 11
-24.07016551141667
 21
-10.27731010282064
 31
0.0
 11
-24.02749964475001
 21
-10.25271060095398
 31
0.0
 11
-23.93387600635
 21
-10.23272458282064
 31
0.0
  0
SPLINE
  5
19E
100
AcDbEntity
  8
0
100
AcDbSpline
210
0.0
220
0.0
230
-1.0
 70
     8
 71
     3
 72
    13
 73
     9
 74
     7
 42
0.0000001
 43
0.0000001
 44
0.0000000001
 40
0.0
 40
0.0
 40
0.0
 40
0.0
 40
0.001057156586335
 40
0.0319205376987157
 40
0.0857726282406326
 40
0.1608401386997886
 40
0.2562444859824454
 40
0.3710597296317196
 40
0.3710597296317196
 40
0.3710597296317196
 40
0.3710597296317196
 10
-23.95606838821667
 20
-10.2438449454873
 30
0.0
 10
-23.95572597849257
 20
-10.24376170177129
 30
0.0
 10
-23.9453870158
 20
-10.24124818181639
 30
0.0
 10
-23.91754111139004
 20
-10.23468743281768
 30
0.0
 10
-23.86474280501531
 20
-10.22723858160712
 30
0.0
 10
-23.79040859124392
 20
-10.21921389294078
 30
0.0
 10
-23.69555196783591
 20
-10.21213304650617
 30
0.0
 10
-23.62555909393022
 20
-10.20877036836432
 30
0.0
 10
-23.58733121595001
 20
-10.20693378068731
 30
0.0
 11
-23.95606838821667
 21
-10.2438449454873
 31
0.0
 11
-23.95504113275001
 21
-10.24359529322064
 31
0.0
 11
-23.92493924795001
 21
-10.23678171668729
 31
0.0
 11
-23.87173220475001
 21
-10.22847158975398
 31
0.0
 11
-23.79711040741667
 21
-10.22030345108731
 31
0.0
 11
-23.70198625915
 21
-10.21299688575397
 31
0.0
 11
-23.58733121595001
 21
-10.20693378068731
 31
0.0
  0
SPLINE
  5
19F
100
AcDbEntity
  8
0
100
AcDbSpline
210
0.0
220
0.0
230
1.0
 70
     8
 71
     3
 72
    14
 73
    10
 74
     8
 42
0.0000001
 43
0.0000001
 44
0.0000000001
 40
0.0
 40
0.0
 40
0.0
 40
0.0
 40
0.1122805554279322
 40
0.3747232749155213
 40
0.63589274026499
 40
0.8955417233856429
 40
1.153562647527865
 40
1.40999893802658
 40
1.665033509428066
 40
1.665033509428066
 40
1.665033509428066
 40
1.665033509428066
 10
-23.65762939088333
 20
-10.21215190442064
 30
0.0
 10
-23.67351465843799
 20
-10.24604889474188
 30
0.0
 10
-23.72652988853106
 20
-10.35917615150101
 30
0.0
 10
-23.83904478734889
 20
-10.53993285484384
 30
0.0
 10
-24.00677704602822
 20
-10.74102308473714
 30
0.0
 10
-24.20130786804551
 20
-10.91455494067083
 30
0.0
 10
-24.41811003222025
 20
-11.05581001346045
 30
0.0
 10
-24.65187201578003
 20
-11.16504220016325
 30
0.0
 10
-24.81771045262699
 20
-11.20602686880533
 30
0.0
 10
-24.90040242555
 20
-11.22646304255398
 30
0.0
 11
-23.65762939088333
 21
-10.21215190442064
 31
0.0
 11
-23.70647824208334
 21
-10.31324944575397
 31
0.0
 11
-23.84416416528333
 21
-10.53667452842063
 31
0.0
 11
-24.01176819941667
 21
-10.73697025322064
 31
0.0
 11
-24.20566024741668
 21
-10.90966497855397
 31
0.0
 11
-24.42162336101667
 21
-11.05085538495398
 31
0.0
 11
-24.65492718928334
 21
-11.15729266602063
 31
0.0
 11
-24.90040242555
 21
-11.22646304255398
 31
0.0
  0
ARC
  5
1A0
100
AcDbEntity
  8
0
100
AcDbCircle
 10
-23.006278
 20
-2.084326
 30
0.0
 40
8.014201
100
AcDbArc
 50
255.014989
 51
266.428749
  0
LINE
  5
1A1
100
AcDbEntity
  8
0
100
AcDbLine
 10
-23.953262
 20
-10.241788
 30
0.0
 11
-23.956193
 21
-10.243327
 31
0.0
  0
LINE
  5
1A2
100
AcDbEntity
  8
0
100
AcDbLine
 10
-23.953649
 20
-10.241994
 30
0.0
 11
-23.953277
 21
-10.241793
 31
0.0
  0
LINE
  5
1A3
100
AcDbEntity
  8
0
100
AcDbLine
 10
-23.505481
 20
-10.082981
 30
0.0
 11
-23.466339
 21
-10.123848
 31
0.0
  0
LINE
  5
1A4
100
AcDbEntity
  8
0
100
AcDbLine
 10
-26.174409
 20
-11.993893
 30
0.0
 11
-25.620585
 21
-12.020641
 31
0.0
  0
LINE
  5
1A5
100
AcDbEntity
  8
0
100
AcDbLine
 10
-25.620585
 20
-12.020641
 30
0.0
 11
-25.066164
 21
-11.98592
 31
0.0
  0
LWPOLYLINE
  5
1A6
100
AcDbEntity
  8
0
100
AcDbPolyline
 90
        8
 70
     0
 43
0.0
 10
-23.527465
 20
-10.204862
 10
-23.606813
 20
-10.387561
 10
-23.759612
 20
-10.634762
 10
-23.945643
 20
-10.856185
 10
-24.16077
 20
-11.046906
 10
-24.400208
 20
-11.202684
 10
-24.658633
 20
-11.320056
 10
-24.930299
 20
-11.396411
  0
SPLINE
  5
1A7
100
AcDbEntity
  8
0
100
AcDbSpline
210
0.0402731958403321
220
0.9991887057492224
230
0.0
 70
    24
 71
     3
 72
     8
 73
     4
 74
     2
 42
0.0000001
 43
0.0000001
 44
0.0000000001
 40
0.0
 40
0.0
 40
0.0
 40
0.0
 40
0.0143861706175079
 40
0.0143861706175079
 40
0.0143861706175079
 40
0.0143861706175079
 10
-22.59401715835
 20
-10.20565169108731
 30
0.0
 10
-22.58922565861667
 20
-10.20584481677621
 30
0.0
 10
-22.58443415888334
 20
-10.2060379424651
 30
0.0
 10
-22.57964265915
 20
-10.20623106815399
 30
0.0
 11
-22.59401715835
 21
-10.20565169108731
 31
0.0
 11
-22.57964265915
 21
-10.20623106815399
 31
0.0
  0
SPLINE
  5
1A8
100
AcDbEntity
  8
0
100
AcDbSpline
210
0.0356448763534117
220
0.9993645194771275
230
0.0
 70
    24
 71
     3
 72
     8
 73
     4
 74
     2
 42
0.0000001
 43
0.0000001
 44
0.0000000001
 40
0.0
 40
0.0
 40
0.0
 40
0.0
 40
0.0647014204925254
 40
0.0647014204925254
 40
0.0647014204925254
 40
0.0647014204925254
 10
-22.65867746235
 20
-10.20334541695397
 30
0.0
 10
-22.63712402768334
 20
-10.20411417499842
 30
0.0
 10
-22.61557059301667
 20
-10.20488293304287
 30
0.0
 10
-22.59401715835
 20
-10.20565169108731
 30
0.0
 11
-22.65867746235
 21
-10.20334541695397
 31
0.0
 11
-22.59401715835
 21
-10.20565169108731
 31
0.0
  0
SPLINE
  5
1A9
100
AcDbEntity
  8
0
100
AcDbSpline
210
0.0275485634212176
220
0.9996204663038003
230
0.0
 70
    24
 71
     3
 72
     8
 73
     4
 74
     2
 42
0.0000001
 43
0.0000001
 44
0.0000000001
 40
0.0
 40
0.0
 40
0.0
 40
0.0
 40
0.0816176134345063
 40
0.0816176134345063
 40
0.0816176134345063
 40
0.0816176134345063
 10
-22.74026409915001
 20
-10.20109696895398
 30
0.0
 10
-22.71306855355001
 20
-10.20184645162064
 30
0.0
 10
-22.68587300795001
 20
-10.20259593428731
 30
0.0
 10
-22.65867746235
 20
-10.20334541695397
 30
0.0
 11
-22.74026409915001
 21
-10.20109696895398
 31
0.0
 11
-22.65867746235
 21
-10.20334541695397
 31
0.0
  0
SPLINE
  5
1AA
100
AcDbEntity
  8
0
100
AcDbSpline
210
0.0
220
0.0
230
-1.0
 70
     8
 71
     3
 72
    24
 73
    20
 74
    18
 42
0.0000001
 43
0.0000001
 44
0.0000000001
 40
0.0
 40
0.0
 40
0.0
 40
0.0
 40
0.0106131369655189
 40
0.0239354717974091
 40
0.0362374178709302
 40
0.0451332242801819
 40
0.052239807888346
 40
0.0585523315510415
 40
0.0644514977171451
 40
0.0702990663536597
 40
0.0763115340674509
 40
0.082662838909004
 40
0.0895111634610642
 40
0.097011396659642
 40
0.1053223916037757
 40
0.114611141122407
 40
0.1250556814631953
 40
0.1368457985538324
 40
0.1501687289337174
 40
0.1501687289337174
 40
0.1501687289337174
 40
0.1501687289337174
 10
-21.88113440421667
 20
-10.31006384468731
 30
0.0
 10
-21.88463599386333
 20
-10.30955913907752
 30
0.0
 10
-21.89253301813674
 20
-10.30842089249422
 30
0.0
 10
-21.90452599674441
 20
-10.30696905636157
 30
0.0
 10
-21.91598060858916
 20
-10.30586131966261
 30
0.0
 10
-21.9253929114899
 20
-10.30519858302459
 30
0.0
 10
-21.93282204601551
 20
-10.3048227824013
 30
0.0
 10
-21.9392573918727
 20
-10.30458952210213
 30
0.0
 10
-21.94527505962741
 20
-10.30442911954521
 30
0.0
 10
-21.95119351010398
 20
-10.30430514020542
 30
0.0
 10
-21.95726293736508
 20
-10.30419383928622
 30
0.0
 10
-21.9636659148292
 20
-10.3040775971276
 30
0.0
 10
-21.97056452200841
 20
-10.30394095121143
 30
0.0
 10
-21.97811576029743
 20
-10.30376883096387
 30
0.0
 10
-21.98647946215267
 20
-10.30354548234869
 30
0.0
 10
-21.99582305223945
 20
-10.30325412756357
 30
0.0
 10
-22.0063240532513
 20
-10.30287515360482
 30
0.0
 10
-22.01816681270617
 20
-10.30239230976371
 30
0.0
 10
-22.02652867988161
 20
-10.30200069617982
 30
0.0
 10
-22.03096480315
 20
-10.30179293802064
 30
0.0
 11
-21.88113440421667
 21
-10.31006384468731
 31
0.0
 11
-21.89164400101668
 21
-10.30858497642064
 31
0.0
 11
-21.90486971835
 21
-10.3069834126873
 31
0.0
 11
-21.91711595195
 21
-10.30581395135397
 31
0.0
 11
-21.92598979301667
 21
-10.30518919828731
 31
0.0
 11
-21.93308715835001
 21
-10.30482734762063
 31
0.0
 11
-21.93939540261667
 21
-10.30459494868731
 31
0.0
 11
-21.94529238075
 21
-10.30443429268729
 31
0.0
 11
-21.95113860261667
 21
-10.3043087982873
 31
0.0
 11
-21.95715001381667
 21
-10.30419608895398
 31
0.0
 11
-21.96350023781667
 21
-10.30407892095397
 31
0.0
 11
-21.97034719355
 21
-10.30394200362064
 31
0.0
 11
-21.97784546235001
 21
-10.30377035562064
 31
0.0
 11
-21.98615349115001
 21
-10.30354833215397
 31
0.0
 11
-21.99543773328334
 21
-10.30325899562064
 31
0.0
 11
-22.00587552848333
 21
-10.30288369002062
 31
0.0
 11
-22.01765580048334
 21
-10.30240197162064
 31
0.0
 11
-22.03096480315
 21
-10.30179293802064
 31
0.0
  0
SPLINE
  5
1AB
100
AcDbEntity
  8
0
100
AcDbSpline
210
0.0
220
0.0
230
1.0
 70
     8
 71
     3
 72
    12
 73
     8
 74
     6
 42
0.0000001
 43
0.0000001
 44
0.0000000001
 40
0.0
 40
0.0
 40
0.0
 40
0.0
 40
0.0302834020554018
 40
0.1043375137089732
 40
0.2292456173793439
 40
0.4008750557159522
 40
0.5747974711597128
 40
0.5747974711597128
 40
0.5747974711597128
 40
0.5747974711597128
 10
-21.88121057701667
 20
-10.31005252202064
 30
0.0
 10
-21.88492471236656
 20
-10.31990401664026
 30
0.0
 10
-21.89772128149959
 20
-10.35384605700442
 30
0.0
 10
-21.98527035325138
 20
-10.36563003717827
 30
0.0
 10
-22.09894624375551
 20
-10.39402560102756
 30
0.0
 10
-22.25793707170477
 20
-10.41020781343445
 30
0.0
 10
-22.37233674675146
 20
-10.41912113579228
 30
0.0
 10
-22.42991614501667
 20
-10.42360737002063
 30
0.0
 11
-21.88121057701667
 21
-10.31005252202064
 31
0.0
 11
-21.89463172795
 21
-10.33719947668731
 31
0.0
 11
-21.96377755941667
 21
-10.3637110862873
 31
0.0
 11
-22.08625673808334
 21
-10.38822404522063
 31
0.0
 11
-22.25657534288334
 21
-10.4093956526873
 31
0.0
 11
-22.42991614501667
 21
-10.42360737002063
 31
0.0
  0
SPLINE
  5
1AC
100
AcDbEntity
  8
0
100
AcDbSpline
210
0.0
220
0.0
230
1.0
 70
     8
 71
     3
 72
    11
 73
     7
 74
     5
 42
0.0000001
 43
0.0000001
 44
0.0000000001
 40
0.0
 40
0.0
 40
0.0
 40
0.0
 40
0.0740109752262702
 40
0.1863238314197176
 40
0.3340778757939056
 40
0.4023636556561702
 40
0.4023636556561702
 40
0.4023636556561702
 40
0.4023636556561702
 10
-22.03077508261667
 20
-10.30180207615398
 30
0.0
 10
-22.05384812324021
 20
-10.3106563714872
 30
0.0
 10
-22.11193487751329
 20
-10.33294720370449
 30
0.0
 10
-22.22212101404985
 20
-10.35230182132715
 30
0.0
 10
-22.33034654620993
 20
-10.36779487290016
 30
0.0
 10
-22.40199971353605
 20
-10.37514140085101
 30
0.0
 10
-22.42464781755001
 20
-10.37746348842063
 30
0.0
 11
-22.03077508261667
 21
-10.30180207615398
 31
0.0
 11
-22.10052543675001
 21
-10.32655106708731
 31
0.0
 11
-22.21042105915
 21
-10.34972712895398
 31
0.0
 11
-22.35674807568333
 21
-10.3702127790873
 31
0.0
 11
-22.42464781755001
 21
-10.37746348842063
 31
0.0
  0
SPLINE
  5
1AD
100
AcDbEntity
  8
0
100
AcDbSpline
210
0.0223204052592142
220
0.9997508687213352
230
0.0
 70
    24
 71
     3
 72
     8
 73
     4
 74
     2
 42
0.0000001
 43
0.0000001
 44
0.0000000001
 40
0.0
 40
0.0
 40
0.0
 40
0.0
 40
0.0192064852028875
 40
0.0192064852028875
 40
0.0192064852028875
 40
0.0192064852028875
 10
-22.75945994981668
 20
-10.20071301482062
 30
0.0
 10
-22.75305938306112
 20
-10.20085591366507
 30
0.0
 10
-22.74665881630557
 20
-10.20099881250951
 30
0.0
 10
-22.74025824955001
 20
-10.20114171135396
 30
0.0
 11
-22.75945994981668
 21
-10.20071301482062
 31
0.0
 11
-22.74025824955001
 21
-10.20114171135396
 31
0.0
  0
SPLINE
  5
1AE
100
AcDbEntity
  8
0
100
AcDbSpline
210
0.0191639975782457
220
0.9998163537354354
230
0.0
 70
    24
 71
     3
 72
     8
 73
     4
 74
     2
 42
0.0000001
 43
0.0000001
 44
0.0000000001
 40
0.0
 40
0.0
 40
0.0
 40
0.0
 40
0.0777382133991625
 40
0.0777382133991625
 40
0.0777382133991625
 40
0.0777382133991625
 10
-22.83718388688333
 20
-10.1992232398873
 30
0.0
 10
-22.81127590786111
 20
-10.19971983153174
 30
0.0
 10
-22.78536792883889
 20
-10.20021642317618
 30
0.0
 10
-22.75945994981668
 20
-10.20071301482062
 30
0.0
 11
-22.83718388688333
 21
-10.1992232398873
 31
0.0
 11
-22.75945994981668
 21
-10.20071301482062
 31
0.0
  0
SPLINE
  5
1AF
100
AcDbEntity
  8
0
100
AcDbSpline
210
0.0133965705722445
220
0.99991026192199
230
0.0
 70
    24
 71
     3
 72
     8
 73
     4
 74
     2
 42
0.0000001
 43
0.0000001
 44
0.0000000001
 40
0.0
 40
0.0
 40
0.0
 40
0.0
 40
0.1080256566814834
 40
0.1080256566814834
 40
0.1080256566814834
 40
0.1080256566814834
 10
-22.94519984955001
 20
-10.19777606655396
 30
0.0
 10
-22.90919452866112
 20
-10.19825845766507
 30
0.0
 10
-22.87318920777222
 20
-10.19874084877619
 30
0.0
 10
-22.83718388688333
 20
-10.1992232398873
 30
0.0
 11
-22.94519984955001
 21
-10.19777606655396
 31
0.0
 11
-22.83718388688333
 21
-10.1992232398873
 31
0.0
  0
SPLINE
  5
1B0
100
AcDbEntity
  8
0
100
AcDbSpline
210
0.0096788144151821
220
0.999953159178727
230
0.0
 70
    24
 71
     3
 72
     8
 73
     4
 74
     2
 42
0.0000001
 43
0.0000001
 44
0.0000000001
 40
0.0
 40
0.0
 40
0.0
 40
0.0
 40
0.015456658935927
 40
0.015456658935927
 40
0.015456658935927
 40
0.015456658935927
 10
-22.96065578448334
 20
-10.19762646442064
 30
0.0
 10
-22.95550380617223
 20
-10.19767633179841
 30
0.0
 10
-22.95035182786112
 20
-10.19772619917618
 30
0.0
 10
-22.94519984955001
 20
-10.19777606655396
 30
0.0
 11
-22.96065578448334
 21
-10.19762646442064
 31
0.0
 11
-22.94519984955001
 21
-10.19777606655396
 31
0.0
  0
SPLINE
  5
1B1
100
AcDbEntity
  8
0
100
AcDbSpline
210
0.0060828894646179
220
0.9999814990567383
230
0.0
 70
    24
 71
     3
 72
     8
 73
     4
 74
     2
 42
0.0000001
 43
0.0000001
 44
0.0000000001
 40
0.0
 40
0.0
 40
0.0
 40
0.0
 40
0.104977654185622
 40
0.104977654185622
 40
0.104977654185622
 40
0.104977654185622
 10
-23.06563149648334
 20
-10.19698789695397
 30
0.0
 10
-23.03063959248334
 20
-10.1972007527762
 30
0.0
 10
-22.99564768848334
 20
-10.19741360859842
 30
0.0
 10
-22.96065578448334
 20
-10.19762646442064
 30
0.0
 11
-23.06563149648334
 21
-10.19698789695397
 31
0.0
 11
-22.96065578448334
 21
-10.19762646442064
 31
0.0
  0
SPLINE
  5
1B2
100
AcDbEntity
  8
0
100
AcDbSpline
210
0.0
220
0.0
230
-1.0
 70
     8
 71
     3
 72
     9
 73
     5
 74
     3
 42
0.0000001
 43
0.0000001
 44
0.0000000001
 40
0.0
 40
0.0
 40
0.0
 40
0.0
 40
0.1349357801512914
 40
0.1570984522642093
 40
0.1570984522642093
 40
0.1570984522642093
 40
0.1570984522642093
 10
-22.72851058981667
 20
-10.20256156202064
 30
0.0
 10
-22.68354905597909
 20
-10.20384252128037
 30
0.0
 10
-22.63120276673402
 20
-10.2053338730693
 30
0.0
 10
-22.57888345228656
 20
-10.20755216982655
 30
0.0
 10
-22.57150250235
 20
-10.20786511615397
 30
0.0
 11
-22.72851058981667
 21
-10.20256156202064
 31
0.0
 11
-22.59364588901667
 21
-10.20694074495398
 31
0.0
 11
-22.57150250235
 21
-10.20786511615397
 31
0.0
  0
SPLINE
  5
1B3
100
AcDbEntity
  8
0
100
AcDbSpline
210
0.024023680699827
220
0.9997113897348738
230
0.0
 70
    24
 71
     3
 72
     8
 73
     4
 74
     2
 42
0.0000001
 43
0.0000001
 44
0.0000000001
 40
0.0
 40
0.0
 40
0.0
 40
0.0
 40
0.0161062857727424
 40
0.0161062857727424
 40
0.0161062857727424
 40
0.0161062857727424
 10
-22.74461222715
 20
-10.20217462975397
 30
0.0
 10
-22.73924501470556
 20
-10.20230360717619
 30
0.0
 10
-22.73387780226111
 20
-10.20243258459841
 30
0.0
 10
-22.72851058981667
 20
-10.20256156202064
 30
0.0
 11
-22.74461222715
 21
-10.20217462975397
 31
0.0
 11
-22.72851058981667
 21
-10.20256156202064
 31
0.0
  0
SPLINE
  5
1B4
100
AcDbEntity
  8
0
100
AcDbSpline
210
0.0211134621455936
220
0.9997770860127905
230
0.0
 70
    24
 71
     3
 72
     8
 73
     4
 74
     2
 42
0.0000001
 43
0.0000001
 44
0.0000000001
 40
0.0
 40
0.0
 40
0.0
 40
0.0
 40
0.0593402379023631
 40
0.0593402379023631
 40
0.0593402379023631
 40
0.0593402379023631
 10
-22.80392998181667
 20
-10.20096289002064
 30
0.0
 10
-22.78415431177223
 20
-10.20138051597619
 30
0.0
 10
-22.76437864172778
 20
-10.20179814193175
 30
0.0
 10
-22.74460297168334
 20
-10.2022157678873
 30
0.0
 11
-22.80392998181667
 21
-10.20096289002064
 31
0.0
 11
-22.74460297168334
 21
-10.2022157678873
 31
0.0
  0
SPLINE
  5
1B5
100
AcDbEntity
  8
0
100
AcDbSpline
210
0.0141238429166315
220
0.9999002535559565
230
0.0
 70
    24
 71
     3
 72
     8
 73
     4
 74
     2
 42
0.0000001
 43
0.0000001
 44
0.0000000001
 40
0.0
 40
0.0
 40
0.0
 40
0.0
 40
0.1569153296128206
 40
0.1569153296128206
 40
0.1569153296128206
 40
0.1569153296128206
 10
-22.96082965968334
 20
-10.19874664255397
 30
0.0
 10
-22.90852976706112
 20
-10.19948539170953
 30
0.0
 10
-22.85622987443889
 20
-10.20022414086508
 30
0.0
 10
-22.80392998181667
 20
-10.20096289002064
 30
0.0
 11
-22.96082965968334
 21
-10.19874664255397
 31
0.0
 11
-22.80392998181667
 21
-10.20096289002064
 31
0.0
  0
SPLINE
  5
1B6
100
AcDbEntity
  8
0
100
AcDbSpline
210
0.0087336650627701
220
0.9999618608199872
230
0.0
 70
    24
 71
     3
 72
     8
 73
     4
 74
     2
 42
0.0000001
 43
0.0000001
 44
0.0000000001
 40
0.0
 40
0.0
 40
0.0
 40
0.0
 40
0.0157548824782879
 40
0.0157548824782879
 40
0.0157548824782879
 40
0.0157548824782879
 10
-22.97658394128333
 20
-10.19860904468731
 30
0.0
 10
-22.97133251408334
 20
-10.19865491064286
 30
0.0
 10
-22.96608108688334
 20
-10.19870077659842
 30
0.0
 10
-22.96082965968334
 20
-10.19874664255397
 30
0.0
 11
-22.97658394128333
 21
-10.19860904468731
 31
0.0
 11
-22.96082965968334
 21
-10.19874664255397
 31
0.0
  0
SPLINE
  5
1B7
100
AcDbEntity
  8
0
100
AcDbSpline
210
0.1102572439943499
220
0.9939030838802999
230
0.0
 70
    24
 71
     3
 72
     8
 73
     4
 74
     2
 42
0.0000001
 43
0.0000001
 44
0.0000000001
 40
0.0
 40
0.0
 40
0.0
 40
0.0
 40
0.0060692780122803
 40
0.0060692780122803
 40
0.0060692780122803
 40
0.0060692780122803
 10
-22.57766701648333
 20
-10.20737370495397
 30
0.0
 10
-22.57565625843889
 20
-10.20759676557619
 30
0.0
 10
-22.57364550039445
 20
-10.20781982619841
 30
0.0
 10
-22.57163474235
 20
-10.20804288682064
 30
0.0
 11
-22.57766701648333
 21
-10.20737370495397
 31
0.0
 11
-22.57163474235
 21
-10.20804288682064
 31
0.0
  0
SPLINE
  5
1B8
100
AcDbEntity
  8
0
100
AcDbSpline
210
0.0
220
0.0
230
-1.0
 70
     8
 71
     3
 72
    19
 73
    15
 74
    13
 42
0.0000001
 43
0.0000001
 44
0.0000000001
 40
0.0
 40
0.0
 40
0.0
 40
0.0
 40
0.0272562782867735
 40
0.0672638123655668
 40
0.1160026133532707
 40
0.1676470265393388
 40
0.2178370147181052
 40
0.2651157806461736
 40
0.3089307013387529
 40
0.3495679337250479
 40
0.3864256161384318
 40
0.4195879791655896
 40
0.451888261714322
 40
0.4863423827445342
 40
0.4863423827445342
 40
0.4863423827445342
 40
0.4863423827445342
 10
-22.57488667515
 20
-10.91292317055397
 30
0.0
 10
-22.58374795699779
 20
-10.91088039314607
 30
0.0
 10
-22.60561607828922
 20
-10.90583916943888
 30
0.0
 10
-22.6418343785708
 20
-10.89203786411695
 30
0.0
 10
-22.6851297486104
 20
-10.87434233895031
 30
0.0
 10
-22.73099488329358
 20
-10.85392239485651
 30
0.0
 10
-22.77613742138357
 20
-10.83312616839052
 30
0.0
 10
-22.81878843845219
 20
-10.81315949699689
 30
0.0
 10
-22.8586307635642
 20
-10.79468486279563
 30
0.0
 10
-22.895583633549
 20
-10.77830980085108
 30
0.0
 10
-22.92998413756117
 20
-10.76474637397788
 30
0.0
 10
-22.96261638973275
 20
-10.75532252492312
 30
0.0
 10
-22.99712089514386
 20
-10.75271694674092
 30
0.0
 10
-23.01698260032777
 20
-10.76378199634071
 30
0.0
 10
-23.02723387301667
 20
-10.7694930286873
 30
0.0
 11
-22.57488667515
 21
-10.91292317055397
 31
0.0
 11
-22.60132815461667
 21
-10.90630857535398
 31
0.0
 11
-22.63903926821666
 21
-10.89294913322064
 31
0.0
 11
-22.68414403408334
 21
-10.87448211348731
 31
0.0
 11
-22.73138910075001
 21
-10.8536242830873
 31
0.0
 11
-22.77699659088333
 21
-10.83267215295398
 31
0.0
 11
-22.81984810341668
 21
-10.81269642815397
 31
0.0
 11
-22.85964103781668
 21
-10.79435877162064
 31
0.0
 11
-22.89686831355
 21
-10.77806415295396
 31
0.0
 11
-22.93128906341667
 21
-10.76488459562063
 31
0.0
 11
-22.96333500261667
 21
-10.75635229802065
 31
0.0
 11
-22.99563005968334
 21
-10.75577131455399
 31
0.0
 11
-23.02723387301667
 21
-10.7694930286873
 31
0.0
  0
SPLINE
  5
1B9
100
AcDbEntity
  8
0
100
AcDbSpline
210
0.2236329374082148
220
0.9746734372630525
230
0.0
 70
    24
 71
     3
 72
     9
 73
     5
 74
     3
 42
0.0000001
 43
0.0000001
 44
0.0000000001
 40
0.0
 40
0.0
 40
0.0
 40
0.0
 40
0.0007345822881703
 40
0.0014843721009526
 40
0.0014843721009526
 40
0.0014843721009526
 40
0.0014843721009526
 10
-22.50111653328334
 20
-10.92791906708731
 30
0.0
 10
-22.50135412078786
 20
-10.9278597288581
 30
0.0
 10
-22.5018342143988
 20
-10.92773982396334
 30
0.0
 10
-22.5023185464911
 20
-10.92763838083284
 30
0.0
 10
-22.50256319355
 20
-10.92758713962063
 30
0.0
 11
-22.50111653328334
 21
-10.92791906708731
 31
0.0
 11
-22.50183033381667
 21
-10.92774557375398
 31
0.0
 11
-22.50256319355
 21
-10.92758713962063
 31
0.0
  0
SPLINE
  5
1BA
100
AcDbEntity
  8
0
100
AcDbSpline
210
0.1756672800504879
220
0.9844495958248259
230
0.0
 70
    24
 71
     3
 72
     9
 73
     5
 74
     3
 42
0.0000001
 43
0.0000001
 44
0.0000000001
 40
0.0
 40
0.0
 40
0.0
 40
0.0
 40
0.0007658883956927
 40
0.0015482695881334
 40
0.0015482695881334
 40
0.0015482695881334
 40
0.0015482695881334
 10
-22.57336255888334
 20
-10.91319513748731
 30
0.0
 10
-22.57361307538042
 20
-10.9131458560013
 30
0.0
 10
-22.57411950304787
 20
-10.91304623179172
 30
0.0
 10
-22.57462912306723
 20
-10.91296448478954
 30
0.0
 10
-22.57488664741666
 20
-10.9129231758873
 30
0.0
 11
-22.57336255888334
 21
-10.91319513748731
 31
0.0
 11
-22.57411488955001
 21
-10.91305166762064
 31
0.0
 11
-22.57488664741666
 21
-10.9129231758873
 31
0.0
  0
SPLINE
  5
1BB
100
AcDbEntity
  8
0
100
AcDbSpline
210
0.0
220
0.0
230
1.0
 70
     8
 71
     3
 72
     9
 73
     5
 74
     3
 42
0.0000001
 43
0.0000001
 44
0.0000000001
 40
0.0
 40
0.0
 40
0.0
 40
0.0
 40
0.0015482945829413
 40
0.0136826738141029
 40
0.0136826738141029
 40
0.0136826738141029
 40
0.0136826738141029
 10
-22.48806259835001
 20
-10.92826698495398
 30
0.0
 10
-22.48839102220418
 20
-10.92868248470608
 30
0.0
 10
-22.49129338750275
 20
-10.93235436190592
 30
0.0
 10
-22.49649950484742
 20
-10.93000372162963
 30
0.0
 10
-22.50111651195001
 20
-10.92791907348731
 30
0.0
 11
-22.48806259835001
 21
-10.92826698495398
 31
0.0
 11
-22.48907736848334
 21
-10.92943636842063
 31
0.0
 11
-22.50111651195001
 21
-10.92791907348731
 31
0.0
  0
SPLINE
  5
1BC
100
AcDbEntity
  8
0
100
AcDbSpline
210
-0.6106989518202509
220
0.7918628607566129
230
0.0
 70
    24
 71
     3
 72
     8
 73
     4
 74
     2
 42
0.0000001
 43
0.0000001
 44
0.0000000001
 40
0.0
 40
0.0
 40
0.0
 40
0.0
 40
0.0108381204524068
 40
0.0108381204524068
 40
0.0108381204524068
 40
0.0108381204524068
 10
-22.48733734288334
 20
-10.92874930922065
 30
0.0
 10
-22.49019811123889
 20
-10.93095558548731
 30
0.0
 10
-22.49305887959445
 20
-10.93316186175398
 30
0.0
 10
-22.49591964795001
 20
-10.93536813802064
 30
0.0
 11
-22.48733734288334
 21
-10.92874930922065
 31
0.0
 11
-22.49591964795001
 21
-10.93536813802064
 31
0.0
  0
LWPOLYLINE
  5
1BD
100
AcDbEntity
  8
0
100
AcDbPolyline
 90
        3
 70
     0
 43
0.0
 10
-22.426305
 20
-10.248508
 10
-22.411629
 20
-10.252379
 10
-22.410869
 20
-10.253144
  0
LINE
  5
1BE
100
AcDbEntity
  8
0
100
AcDbLine
 10
-22.497104
 20
-10.234116
 30
0.0
 11
-22.426305
 21
-10.248508
 31
0.0
  0
LINE
  5
1BF
100
AcDbEntity
  8
0
100
AcDbLine
 10
-22.573363
 20
-10.913195
 30
0.0
 11
-22.502563
 21
-10.927587
 31
0.0
  0
LINE
  5
1C0
100
AcDbEntity
  8
0
100
AcDbLine
 10
-21.881134
 20
-10.310064
 30
0.0
 11
-22.579643
 21
-10.206231
 31
0.0
  0
LWPOLYLINE
  5
1C1
100
AcDbEntity
  8
0
100
AcDbPolyline
 90
        4
 70
     0
 43
0.0
 10
-22.641249
 20
-10.212538
 10
-22.578557
 20
-10.221065
 10
-22.529691
 20
-10.228379
 10
-22.497104
 20
-10.234116
  0
LINE
  5
1C2
100
AcDbEntity
  8
0
100
AcDbLine
 10
-22.714626
 20
-10.203228
 30
0.0
 11
-22.641249
 21
-10.212538
 31
0.0
  0
LINE
  5
1C3
100
AcDbEntity
  8
0
100
AcDbLine
 10
-22.717099
 20
-10.202932
 30
0.0
 11
-22.714626
 21
-10.203228
 31
0.0
  0
LWPOLYLINE
  5
1C4
100
AcDbEntity
  8
0
100
AcDbPolyline
 90
        4
 70
     0
 43
0.0
 10
-22.030965
 20
-10.301793
 10
-22.155823
 20
-10.293421
 10
-22.333377
 20
-10.27798
 10
-22.412531
 20
-10.270188
  0
LINE
  5
1C5
100
AcDbEntity
  8
0
100
AcDbLine
 10
-22.740258
 20
-10.201142
 30
0.0
 11
-22.744603
 21
-10.202217
 31
0.0
  0
LINE
  5
1C6
100
AcDbEntity
  8
0
100
AcDbLine
 10
-22.486511
 20
-10.926873
 30
0.0
 11
-22.410854
 21
-10.253147
 31
0.0
  0
LINE
  5
1C7
100
AcDbEntity
  8
0
100
AcDbLine
 10
-23.027234
 20
-10.769493
 30
0.0
 11
-22.963146
 21
-10.198792
 31
0.0
  0
LINE
  5
1C8
100
AcDbEntity
  8
0
100
AcDbLine
 10
-22.486565
 20
-10.927351
 30
0.0
 11
-22.487336
 21
-10.928734
 31
0.0
  0
SPLINE
  5
1C9
100
AcDbEntity
  8
0
100
AcDbSpline
210
0.0
220
0.0
230
1.0
 70
     8
 71
     3
 72
    10
 73
     6
 74
     4
 42
0.0000001
 43
0.0000001
 44
0.0000000001
 40
0.0
 40
0.0
 40
0.0
 40
0.0
 40
0.0008498386717756
 40
0.0027041347554884
 40
0.0098566636884223
 40
0.0098566636884223
 40
0.0098566636884223
 40
0.0098566636884223
 10
-22.57163474235
 20
-10.20804288682064
 30
0.0
 10
-22.57126745544188
 20
-10.20799297514828
 30
0.0
 10
-22.57009877092975
 20
-10.20783415925485
 30
0.0
 10
-22.57573167843288
 20
-10.2067166567084
 30
0.0
 10
-22.5779115625466
 20
-10.20644600163436
 30
0.0
 10
-22.57964265915
 20
-10.20623106815399
 30
0.0
 11
-22.57163474235
 21
-10.20804288682064
 31
0.0
 11
-22.57080094288334
 21
-10.20787855722063
 31
0.0
 11
-22.57257806075
 21
-10.20734915562064
 31
0.0
 11
-22.57964265915
 21
-10.20623106815399
 31
0.0
  0
SPLINE
  5
1CA
100
AcDbEntity
  8
0
100
AcDbSpline
210
0.0
220
0.0
230
-1.0
 70
     8
 71
     3
 72
     9
 73
     5
 74
     3
 42
0.0000001
 43
0.0000001
 44
0.0000000001
 40
0.0
 40
0.0
 40
0.0
 40
0.0
 40
0.0167831071070389
 40
0.0383549940660152
 40
0.0383549940660152
 40
0.0383549940660152
 40
0.0383549940660152
 10
-4.779669901816681
 20
-10.09421177855397
 30
0.0
 10
-4.785264194928233
 20
-10.09424397725673
 30
0.0
 10
-4.798049019438296
 20
-10.09431756202536
 30
0.0
 10
-4.810833011783522
 20
-10.09448198723284
 30
0.0
 10
-4.818023075150001
 20
-10.09457446442063
 30
0.0
 11
-4.779669901816681
 21
-10.09421177855397
 31
0.0
 11
-4.796452621816676
 21
-10.0943257678873
 31
0.0
 11
-4.818023075150001
 21
-10.09457446442063
 31
0.0
  0
LINE
  5
1CB
100
AcDbEntity
  8
0
100
AcDbLine
 10
3.501007
 20
-37.955829
 30
0.0
 11
3.501007
 21
-5.574672
 31
0.0
  0
LINE
  5
1CC
100
AcDbEntity
  8
0
100
AcDbLine
 10
3.296811
 20
-37.751634
 30
0.0
 11
3.296811
 21
-5.778868
 31
0.0
  0
SPLINE
  5
1CD
100
AcDbEntity
  8
0
100
AcDbSpline
210
0.0
220
0.0
230
1.0
 70
     8
 71
     3
 72
    11
 73
     7
 74
     5
 42
0.0000001
 43
0.0000001
 44
0.0000000001
 40
0.0
 40
0.0
 40
0.0
 40
0.0
 40
0.0953528076319093
 40
0.1913122769472207
 40
0.2872717447808108
 40
0.3826245526420562
 40
0.3826245526420562
 40
0.3826245526420562
 40
0.3826245526420562
 10
3.501006889649993
 20
-37.95582923562063
 30
0.0
 10
3.49660195081025
 20
-37.9877346767163
 30
0.0
 10
3.487764047656968
 20
-38.05174855039878
 30
0.0
 10
3.43045038947935
 20
-38.13219422710229
 30
0.0
 10
3.350004712627909
 20
-38.18950788466616
 30
0.0
 10
3.285990839536613
 20
-38.19834578861275
 30
0.0
 10
3.254085398449994
 20
-38.20275072788731
 30
0.0
 11
3.501006889649993
 21
-37.95582923562063
 31
0.0
 11
3.480505789916655
 21
-38.04895207295397
 31
0.0
 11
3.426586910983324
 21
-38.12833074922064
 31
0.0
 11
3.347208235783334
 21
-38.18224962708731
 31
0.0
 11
3.254085398449994
 21
-38.20275072788731
 31
0.0
  0
LWPOLYLINE
  5
1CE
100
AcDbEntity
  8
0
100
AcDbPolyline
 90
        5
 70
     0
 43
0.0
 10
3.296811
 20
-37.751634
 10
3.27631
 20
-37.844757
 10
3.222392
 20
-37.924135
 10
3.143013
 20
-37.978054
 10
3.04989
 20
-37.998555
  0
SPLINE
  5
1CF
100
AcDbEntity
  8
0
100
AcDbSpline
210
0.0
220
0.0
230
1.0
 70
     8
 71
     3
 72
    13
 73
     9
 74
     7
 42
0.0000001
 43
0.0000001
 44
0.0000000001
 40
0.0
 40
0.0
 40
0.0
 40
0.0
 40
1.054542918821018
 40
2.106077320192958
 40
3.17308676783103
 40
4.232061851024557
 40
5.288371356283795
 40
6.352413238754703
 40
6.352413238754703
 40
6.352413238754703
 40
6.352413238754703
 10
1.108848110983323
 20
-15.16073143082063
 30
0.0
 10
1.036545298726542
 20
-14.81576878508028
 30
0.0
 10
0.8921459477258068
 20
-14.12682764144264
 30
0.0
 10
0.4463214777070612
 20
-13.15863736731716
 30
0.0
 10
-0.149565286375854
 20
-12.27739742220234
 30
0.0
 10
-0.8948900172188004
 20
-11.51591040014839
 30
0.0
 10
-1.758510593429746
 20
-10.88743597404375
 30
0.0
 10
-2.409607714200626
 20
-10.60773698754091
 30
0.0
 10
-2.736343466616681
 20
-10.46737749908731
 30
0.0
 11
1.108848110983323
 21
-15.16073143082063
 31
0.0
 11
0.853954295516651
 21
-14.13745731775396
 31
0.0
 11
0.4239493973833178
 21
-13.17786345322064
 31
0.0
 11
-0.1760689247500196
 21
-12.29554425108731
 31
0.0
 11
-0.9153561290166791
 21
-11.5373340846873
 31
0.0
 11
-1.775056616483347
 21
-10.92357122922065
 31
0.0
 11
-2.736343466616681
 21
-10.46737749908731
 31
0.0
  0
SPLINE
  5
1D0
100
AcDbEntity
  8
0
100
AcDbSpline
210
0.0
220
0.0
230
1.0
 70
     8
 71
     3
 72
    11
 73
     7
 74
     5
 42
0.0000001
 43
0.0000001
 44
0.0000000001
 40
0.0
 40
0.0
 40
0.0
 40
0.0
 40
1.546492507981913
 40
3.092903233075569
 40
4.639138563596117
 40
6.184980108311648
 40
6.184980108311648
 40
6.184980108311648
 40
6.184980108311648
 10
-0.9971735327500041
 20
-27.92798897748731
 30
0.0
 10
-0.9264790396985686
 20
-27.41729447120738
 30
0.0
 10
-0.7850937921200004
 20
-26.39593246561426
 30
0.0
 10
-0.6461865001390139
 20
-24.85534295384007
 30
0.0
 10
-0.5561985953723423
 20
-23.3113406185372
 30
0.0
 10
-0.545304081896053
 20
-22.28057220533861
 30
0.0
 10
-0.5398575188833448
 20
-21.76525363455398
 30
0.0
 11
-0.9971735327500041
 21
-27.92798897748731
 31
0.0
 11
-0.7972847156833396
 21
-26.39446899455396
 31
0.0
 11
-0.6543330015500075
 21
-24.85467974335398
 31
0.0
 11
-0.5684672340833359
 21
-23.31083040895396
 31
0.0
 11
-0.5398575188833448
 21
-21.76525363455398
 31
0.0
  0
SPLINE
  5
1D1
100
AcDbEntity
  8
0
100
AcDbSpline
210
0.0
220
0.0
230
1.0
 70
     8
 71
     3
 72
    10
 73
     6
 74
     4
 42
0.0000001
 43
0.0000001
 44
0.0000000001
 40
0.0
 40
0.0
 40
0.0
 40
0.0
 40
2.063745859632845
 40
4.127492048043537
 40
6.191237804046626
 40
6.191237804046626
 40
6.191237804046626
 40
6.191237804046626
 10
2.126006889649993
 20
-21.76525072788731
 30
0.0
 10
2.115418274198108
 20
-22.45318135959533
 30
0.0
 10
2.094241041607454
 20
-23.82904273260643
 30
0.0
 10
1.935377207884478
 20
-25.88848234593214
 30
0.0
 10
1.745293417890256
 20
-27.25131434238249
 30
0.0
 10
1.650251532849999
 20
-27.93273026922063
 30
0.0
 11
2.126006889649993
 21
-21.76525072788731
 31
0.0
 11
2.073058048049993
 21
-23.8283172302873
 31
0.0
 11
1.914333550983322
 21
-25.88595054655398
 31
0.0
 11
1.650251532849999
 21
-27.93273026922063
 31
0.0
  0
SPLINE
  5
1D2
100
AcDbEntity
  8
0
100
AcDbSpline
210
0.0
220
0.0
230
1.0
 70
     8
 71
     3
 72
    10
 73
     6
 74
     4
 42
0.0000001
 43
0.0000001
 44
0.0000000001
 40
0.0
 40
0.0
 40
0.0
 40
0.0
 40
2.210243466146265
 40
4.42048730428146
 40
6.630731156618711
 40
6.630731156618711
 40
6.630731156618711
 40
6.630731156618711
 10
1.626006889649993
 20
-21.76525362708731
 30
0.0
 10
1.614496206597955
 20
-22.5020183888186
 30
0.0
 10
1.591474838556606
 20
-23.97554803628034
 30
0.0
 10
1.418776435363383
 20
-26.18103993409013
 30
0.0
 10
1.212157552664617
 20
-27.64019332643671
 30
0.0
 10
1.108848110983323
 20
-28.36977002495397
 30
0.0
 11
1.626006889649993
 21
-21.76525362708731
 31
0.0
 11
1.568447120049988
 21
-23.97474747242064
 31
0.0
 11
1.395904784049996
 21
-26.17824627348731
 31
0.0
 11
1.108848110983323
 21
-28.36977002495397
 31
0.0
  0
SPLINE
  5
1D3
100
AcDbEntity
  8
0
100
AcDbSpline
210
0.0
220
0.0
230
1.0
 70
     8
 71
     3
 72
    13
 73
     9
 74
     7
 42
0.0000001
 43
0.0000001
 44
0.0000000001
 40
0.0
 40
0.0
 40
0.0
 40
0.0
 40
1.054542917785965
 40
2.106077320131322
 40
3.17308676688737
 40
4.232061850844614
 40
5.288371356103851
 40
6.35241323857476
 40
6.35241323857476
 40
6.35241323857476
 40
6.35241323857476
 10
1.108848110983323
 20
-28.36977002495397
 30
0.0
 10
1.036545298613999
 20
-28.71473267029001
 30
0.0
 10
0.8921459472509948
 20
-29.40367381377621
 30
0.0
 10
0.4463214784001753
 20
-30.37186408816002
 30
0.0
 10
-0.1495652871379494
 20
-31.25310403259897
 30
0.0
 10
-0.8948900167731517
 20
-32.01459105568802
 30
0.0
 10
-1.75851059348974
 20
-32.64306548167728
 30
0.0
 10
-2.409607714220673
 20
-32.9227644682158
 30
0.0
 10
-2.736343466616681
 20
-33.06312395668731
 30
0.0
 11
1.108848110983323
 21
-28.36977002495397
 31
0.0
 11
0.853954295516651
 21
-29.39304413695396
 31
0.0
 11
0.4239493973833178
 21
-30.35263800255396
 31
0.0
 11
-0.1760689247500196
 21
-31.23495720362064
 31
0.0
 11
-0.9153561290166791
 21
-31.99316737108731
 31
0.0
 11
-1.775056616483347
 21
-32.60693022655397
 31
0.0
 11
-2.736343466616681
 21
-33.06312395668731
 31
0.0
  0
SPLINE
  5
1D4
100
AcDbEntity
  8
0
100
AcDbSpline
210
0.0
220
0.0
230
1.0
 70
     8
 71
     3
 72
     9
 73
     5
 74
     3
 42
0.0000001
 43
0.0000001
 44
0.0000000001
 40
0.0
 40
0.0
 40
0.0
 40
0.0
 40
0.6155282222804562
 40
1.170074973420647
 40
1.170074973420647
 40
1.170074973420647
 40
1.170074973420647
 10
-2.73644557648334
 20
-33.06311740308731
 30
0.0
 10
-2.93100971371725
 20
-33.12923650717608
 30
0.0
 10
-3.300862174517739
 20
-33.25492417860833
 30
0.0
 10
-3.684880744948148
 20
-33.32607766968292
 30
0.0
 10
-3.866882971683345
 20
-33.35980024148731
 30
0.0
 11
-2.73644557648334
 21
-33.06311740308731
 31
0.0
 11
-3.324058286883349
 21
-33.24638304362064
 31
0.0
 11
-3.866882971683345
 21
-33.35980024148731
 31
0.0
  0
LINE
  5
1D5
100
AcDbEntity
  8
CENTER
  6
CENTER
 48
3.0
100
AcDbLine
 10
-1.385673
 20
-21.765254
 30
0.0
 11
4.223534
 21
-21.765254
 31
0.0
  0
SPLINE
  5
1D6
100
AcDbEntity
  8
0
100
AcDbSpline
210
0.0
220
0.0
230
1.0
 70
     8
 71
     3
 72
    10
 73
     6
 74
     4
 42
0.0000001
 43
0.0000001
 44
0.0000000001
 40
0.0
 40
0.0
 40
0.0
 40
0.0
 40
2.061830960335492
 40
4.12349737155244
 40
6.184710986222128
 40
6.184710986222128
 40
6.184710986222128
 40
6.184710986222128
 10
-0.9971735327500041
 20
-15.60251247828731
 30
0.0
 10
-0.9058061001040188
 20
-16.28377938398678
 30
0.0
 10
-0.72307852659823
 20
-17.64625882532776
 30
0.0
 10
-0.5703856026118192
 20
-19.70384646799641
 30
0.0
 10
-0.5500328002863878
 20
-21.0781682241358
 30
0.0
 10
-0.5398575167500113
 20
-21.76525363455398
 30
0.0
 11
-0.9971735327500041
 21
-15.60251247828731
 31
0.0
 11
-0.7433037204833468
 21
-17.64865446442065
 31
0.0
 11
-0.5907379071500074
 21
-19.70466809855397
 31
0.0
 11
-0.5398575167500113
 21
-21.76525363455398
 31
0.0
  0
SPLINE
  5
1D7
100
AcDbEntity
  8
0
100
AcDbSpline
210
0.0
220
0.0
230
1.0
 70
     8
 71
     3
 72
    10
 73
     6
 74
     4
 42
0.0000001
 43
0.0000001
 44
0.0000000001
 40
0.0
 40
0.0
 40
0.0
 40
0.0
 40
2.063745859632859
 40
4.127492048043537
 40
6.191237805104538
 40
6.191237805104538
 40
6.191237805104538
 40
6.191237805104538
 10
2.126006889649993
 20
-21.76525072788731
 30
0.0
 10
2.115418274201597
 20
-21.07732009617884
 30
0.0
 10
2.094241041617919
 20
-19.70145872316684
 30
0.0
 10
1.935377207815479
 20
-17.64201910949593
 30
0.0
 10
1.745293417883496
 20
-16.27918711268192
 30
0.0
 10
1.650251532849999
 20
-15.59777118548731
 30
0.0
 11
2.126006889649993
 21
-21.76525072788731
 31
0.0
 11
2.073058048049993
 21
-19.7021842254873
 31
0.0
 11
1.914333550983322
 21
-17.64455090922064
 31
0.0
 11
1.650251532849999
 21
-15.59777118548731
 31
0.0
  0
SPLINE
  5
1D8
100
AcDbEntity
  8
0
100
AcDbSpline
210
0.0
220
0.0
230
1.0
 70
     8
 71
     3
 72
    10
 73
     6
 74
     4
 42
0.0000001
 43
0.0000001
 44
0.0000000001
 40
0.0
 40
0.0
 40
0.0
 40
0.0
 40
2.21024926257971
 40
4.420493101778301
 40
6.630736953057935
 40
6.630736953057935
 40
6.630736953057935
 40
6.630736953057935
 10
1.626006889649993
 20
-21.76525362708731
 30
0.0
 10
1.614496249525444
 20
-21.0284869311815
 30
0.0
 10
1.591474997520485
 20
-19.55495534720515
 30
0.0
 10
1.418776433492822
 20
-17.3494615212959
 30
0.0
 10
1.21215755200805
 20
-15.89030812897499
 30
0.0
 10
1.108848110983323
 20
-15.16073143082063
 30
0.0
 11
1.626006889649993
 21
-21.76525362708731
 31
0.0
 11
1.568447120049988
 21
-19.55575398335397
 31
0.0
 11
1.395904784049996
 21
-17.35225518122065
 31
0.0
 11
1.108848110983323
 21
-15.16073143082063
 31
0.0
  0
SPLINE
  5
1D9
100
AcDbEntity
  8
0
100
AcDbSpline
210
0.0
220
0.0
230
-1.0
 70
     8
 71
     3
 72
    14
 73
    10
 74
     8
 42
0.0000001
 43
0.0000001
 44
0.0000000001
 40
0.0
 40
0.0
 40
0.0
 40
0.0
 40
0.2932141569121013
 40
0.5730496396538224
 40
0.8199964270154504
 40
1.029205268300154
 40
1.187546168345795
 40
1.291208896119586
 40
1.343234313822845
 40
1.343234313822845
 40
1.343234313822845
 40
1.343234313822845
 10
1.050010680583334
 20
-21.76525363242064
 30
0.0
 10
1.050700864460318
 20
-21.862977852377
 30
0.0
 10
1.052049740742986
 20
-22.0539673653705
 30
0.0
 10
1.062511104133325
 20
-22.32736471591998
 30
0.0
 10
1.080038179328774
 20
-22.57145115543198
 30
0.0
 10
1.100961284774091
 20
-22.77712882270648
 30
0.0
 10
1.133877099545248
 20
-22.92682765443577
 30
0.0
 10
1.155516477033379
 20
-23.03734154772945
 30
0.0
 10
1.199228737238038
 20
-23.06762955696053
 30
0.0
 10
1.213835813383319
 20
-23.07775072788731
 30
0.0
 11
1.050010680583334
 21
-21.76525363242064
 31
0.0
 11
1.053642136583327
 21
-22.05844530068731
 31
0.0
 11
1.064574266716654
 21
-22.3380671630873
 31
0.0
 11
1.082305172316658
 21
-22.58437658388731
 31
0.0
 11
1.106956918450002
 21
-22.79212795135396
 31
0.0
 11
1.137606166449991
 21
-22.94747422335397
 31
0.0
 11
1.17369776538333
 21
-23.04465116308731
 31
0.0
 11
1.213835813383319
 21
-23.07775072788731
 31
0.0
  0
SPLINE
  5
1DA
100
AcDbEntity
  8
0
100
AcDbSpline
210
0.0
220
0.0
230
1.0
 70
     8
 71
     3
 72
    13
 73
     9
 74
     7
 42
0.0000001
 43
0.0000001
 44
0.0000000001
 40
0.0
 40
0.0
 40
0.0
 40
0.0
 40
0.0665415834184764
 40
0.2062625594798684
 40
0.4199308258217564
 40
0.6930069740033171
 40
1.011567338731137
 40
1.350305569460692
 40
1.350305569460692
 40
1.350305569460692
 40
1.350305569460692
 10
1.213835813383319
 20
-23.07775072788731
 30
0.0
 10
1.231644518275086
 20
-23.06380050597134
 30
0.0
 10
1.286847127880817
 20
-23.02055824556997
 30
0.0
 10
1.316194093013264
 20
-22.87439875492113
 30
0.0
 10
1.362596205512534
 20
-22.67521648685444
 30
0.0
 10
1.392304019268768
 20
-22.40622004120324
 30
0.0
 10
1.414939914725769
 20
-22.0974697150847
 30
0.0
 10
1.417573272649538
 20
-21.8782356858945
 30
0.0
 10
1.418930371249992
 20
-21.76525362922064
 30
0.0
 11
1.213835813383319
 21
-23.07775072788731
 31
0.0
 11
1.263016936583319
 21
-23.03292886442064
 31
0.0
 11
1.311257428316658
 21
-22.90179989695398
 31
0.0
 11
1.35470862831665
 21
-22.69259635668731
 31
0.0
 11
1.389042986716667
 21
-22.42168726762063
 31
0.0
 11
1.411311227783322
 21
-22.10390616148731
 31
0.0
 11
1.418930371249992
 21
-21.76525362922064
 31
0.0
  0
SPLINE
  5
1DB
100
AcDbEntity
  8
0
100
AcDbSpline
210
0.0
220
0.0
230
-1.0
 70
     8
 71
     3
 72
    13
 73
     9
 74
     7
 42
0.0000001
 43
0.0000001
 44
0.0000000001
 40
0.0
 40
0.0
 40
0.0
 40
0.0
 40
0.0647413169168897
 40
0.202043950753441
 40
0.4133364760088684
 40
0.6845108377299041
 40
1.0021753904638
 40
1.342401219035408
 40
1.342401219035408
 40
1.342401219035408
 40
1.342401219035408
 10
1.213835813383319
 20
-20.45275072788731
 30
0.0
 10
1.196856294785436
 20
-20.46681838227857
 30
0.0
 10
1.143866810128956
 20
-20.51072055490031
 30
0.0
 10
1.123625604010904
 20
-20.65690933006032
 30
0.0
 10
1.086856863062994
 20
-20.85542252596578
 30
0.0
 10
1.067538334507883
 20
-21.12371715997399
 30
0.0
 10
1.052442953284324
 20
-21.43235521971941
 30
0.0
 10
1.050839764398242
 20
-21.65177923217481
 30
0.0
 10
1.050010680583334
 20
-21.76525363242064
 30
0.0
 11
1.213835813383319
 21
-20.45275072788731
 31
0.0
 11
1.167322138716663
 21
-20.49778311828731
 31
0.0
 11
1.126688848049987
 21
-20.62893550655398
 31
0.0
 11
1.09366499418332
 21
-20.83763135295396
 31
0.0
 11
1.069646905649982
 21
-21.10773997162064
 31
0.0
 11
1.054927943516652
 21
-21.42506334015397
 31
0.0
 11
1.050010680583334
 21
-21.76525363242064
 31
0.0
  0
SPLINE
  5
1DC
100
AcDbEntity
  8
0
100
AcDbSpline
210
0.0
220
0.0
230
1.0
 70
     8
 71
     3
 72
    14
 73
    10
 74
     8
 42
0.0000001
 43
0.0000001
 44
0.0000000001
 40
0.0
 40
0.0
 40
0.0
 40
0.0
 40
0.2914364562208552
 40
0.571536483084079
 40
0.8199298429112761
 40
1.031142779226213
 40
1.191723517769378
 40
1.297589446817955
 40
1.351098894383948
 40
1.351098894383948
 40
1.351098894383948
 40
1.351098894383948
 10
1.418930371249992
 20
-21.76525362922064
 30
0.0
 10
1.417859155674068
 20
-21.66811748036089
 30
0.0
 10
1.415758393158535
 20
-21.47762362924995
 30
0.0
 10
1.399470532449239
 20
-21.20448435835057
 30
0.0
 10
1.37389655874571
 20
-20.95978751754557
 30
0.0
 10
1.343670738693963
 20
-20.7534467844461
 30
0.0
 10
1.302871102755906
 20
-20.60311648016857
 30
0.0
 10
1.274350139993788
 20
-20.49276832725022
 30
0.0
 10
1.229046330146166
 20
-20.46280931070583
 30
0.0
 10
1.213835813383319
 20
-20.45275072788731
 30
0.0
 11
1.418930371249992
 21
-21.76525362922064
 31
0.0
 11
1.413310855516662
 21
-21.47387135615398
 31
0.0
 11
1.39665721604998
 21
-21.19426684735397
 31
0.0
 11
1.370709756849983
 21
-20.94723245588731
 31
0.0
 11
1.336802033116661
 21
-20.73875902655397
 31
0.0
 11
1.297837146716652
 21
-20.5829774126873
 31
0.0
 11
1.255961962716646
 21
-20.48574540202063
 31
0.0
 11
1.213835813383319
 21
-20.45275072788731
 31
0.0
  0
SPLINE
  5
1DD
100
AcDbEntity
  8
0
100
AcDbSpline
210
0.0
220
0.0
230
-1.0
 70
     8
 71
     3
 72
     9
 73
     5
 74
     3
 42
0.0000001
 43
0.0000001
 44
0.0000000001
 40
0.0
 40
0.0
 40
0.0
 40
0.0
 40
0.6155282225980382
 40
1.170074973520072
 40
1.170074973520072
 40
1.170074973520072
 40
1.170074973520072
 10
-2.73644557648334
 20
-10.4673840526873
 30
0.0
 10
-2.931009713668649
 20
-10.40126494805352
 30
0.0
 10
-3.300862174217353
 20
-10.27557727563942
 30
0.0
 10
-3.684880744910629
 20
-10.20442378558979
 30
0.0
 10
-3.866882971683345
 20
-10.17070121428731
 30
0.0
 11
-2.73644557648334
 21
-10.4673840526873
 31
0.0
 11
-3.324058286883349
 21
-10.28411841108731
 31
0.0
 11
-3.866882971683345
 21
-10.17070121428731
 31
0.0
  0
SPLINE
  5
1DE
100
AcDbEntity
  8
0
100
AcDbSpline
210
0.0
220
0.0
230
1.0
 70
     8
 71
     3
 72
    11
 73
     7
 74
     5
 42
0.0000001
 43
0.0000001
 44
0.0000000001
 40
0.0
 40
0.0
 40
0.0
 40
0.0
 40
0.0953528065901604
 40
0.1913122759054718
 40
0.2872717443384216
 40
0.3826245519703309
 40
0.3826245519703309
 40
0.3826245519703309
 40
0.3826245519703309
 10
3.501006889649993
 20
-5.574672219087297
 30
0.0
 10
3.496601950768643
 20
-5.54276677833608
 30
0.0
 10
3.487764047483451
 20
-5.478752904993916
 30
0.0
 10
3.43045038915572
 20
-5.398307228860553
 30
0.0
 10
3.35000471311177
 20
-5.340993569609537
 30
0.0
 10
3.285990839605164
 20
-5.332155666650529
 30
0.0
 10
3.254085398449994
 20
-5.327750727887298
 30
0.0
 11
3.501006889649993
 21
-5.574672219087297
 31
0.0
 11
3.480505789916655
 21
-5.481549382820652
 31
0.0
 11
3.426586910983324
 21
-5.402170706553981
 31
0.0
 11
3.347208235783334
 21
-5.348251827620636
 31
0.0
 11
3.254085398449994
 21
-5.327750727887298
 31
0.0
  0
LWPOLYLINE
  5
1DF
100
AcDbEntity
  8
0
100
AcDbPolyline
 90
        5
 70
     0
 43
0.0
 10
3.296811
 20
-5.778868
 10
3.27631
 20
-5.685745
 10
3.222392
 20
-5.606366
 10
3.143013
 20
-5.552447
 10
3.04989
 20
-5.531946
  0
ENDSEC
  0
SECTION
  2
OBJECTS
  0
DICTIONARY
  5
7
102
{ACAD_XDICTIONARY
360
259
102
}
100
AcDbDictionary
  3
ACAD_GROUP
350
26
  3
ACAD_LAYOUT
350
B
  3
ACAD_MLINESTYLE
350
27
  3
ACAD_PLOTSETTINGS
350
28
  3
ACAD_PLOTSTYLENAME
350
6
  3
ACDBHEADERROUNDTRIPXREC
350
236
  3
ACDBVARIABLEDICTIONARY
350
1E0
  0
DICTIONARY
  5
11
100
AcDbDictionary
280
     1
  3
ACAD_LAYERFILTERS
360
12
  0
DICTIONARY
  5
25F
100
AcDbDictionary
280
     1
  3
ACAD_XREC_ROUNDTRIP
360
260
  0
DICTIONARY
  5
257
100
AcDbDictionary
280
     1
  3
ACAD_LAYOUTSELFREF
360
258
  0
DICTIONARY
  5
232
100
AcDbDictionary
280
     1
  3
ACAD_LAYOUTSELFREF
360
261
  3
ACAD_XREC_ROUNDTRIP
360
233
  0
DICTIONARY
  5
259
100
AcDbDictionary
280
     1
  3
ACAD_XREC_ROUNDTRIP
360
25A
  0
DICTIONARY
  5
26
102
{ACAD_REACTORS
330
7
102
}
100
AcDbDictionary
  0
DICTIONARY
  5
B
102
{ACAD_XDICTIONARY
360
25B
102
}
102
{ACAD_REACTORS
330
7
102
}
100
AcDbDictionary
  3
LAYOUT1
350
1F7
  3
MODEL
350
A
  0
DICTIONARY
  5
27
102
{ACAD_REACTORS
330
7
102
}
100
AcDbDictionary
  3
STANDARD
350
29
  0
DICTIONARY
  5
28
102
{ACAD_REACTORS
330
7
102
}
100
AcDbDictionary
  0
ACAD_PROXY_OBJECT
  5
6
102
{ACAD_REACTORS
330
7
102
}
100
AcDbProxyObject
 90
      499
 91
      517
 93
       86
310
405010041939BDC9B585B0
350
5
340
5
 94
        0
  0
DICTIONARY
  5
236
102
{ACAD_REACTORS
330
7
102
}
100
AcDbDictionary
  3
CEPSNTYPE
350
240
  3
DIMSTYLEDATA
350
244
  3
FINGERPRINTGUID
350
241
  3
HYPERLINKBASE
350
239
  3
INSUNITS
350
23F
  3
LAYOUTDICT
350
23B
  3
LWETCUNION
350
23E
  3
PLOTSETDICT
350
23C
  3
PLOTSTYLNAMDICT
350
23D
  3
PSVPSCALE
350
243
  3
PUCSBASE
350
247
  3
PUCSORGBACK
350
24D
  3
PUCSORGBOTTOM
350
249
  3
PUCSORGFRONT
350
24C
  3
PUCSORGLEFT
350
24A
  3
PUCSORGRIGHT
350
24B
  3
PUCSORGTOP
350
248
  3
PUCSORTHOREF
350
245
  3
PUCSORTHOVIEW
350
246
  3
STYLESHEET
350
23A
  3
TSTACKALIGN
350
237
  3
TSTACKSIZE
350
238
  3
UCSBASE
350
250
  3
UCSORGBACK
350
256
  3
UCSORGBOTTOM
350
252
  3
UCSORGFRONT
350
255
  3
UCSORGLEFT
350
253
  3
UCSORGRIGHT
350
254
  3
UCSORGTOP
350
251
  3
UCSORTHOREF
350
24E
  3
UCSORTHOVIEW
350
24F
  3
VERSIONGUID
350
242
  0
DICTIONARY
  5
1E0
102
{ACAD_REACTORS
330
7
102
}
100
AcDbDictionary
  3
DIMASSOC
350
1E2
  3
HIDETEXT
350
1E1
  0
DICTIONARY
  5
12
102
{ACAD_XDICTIONARY
360
25D
102
}
102
{ACAD_REACTORS
330
11
102
}
100
AcDbDictionary
280
     1
  3
DIM-1_12
360
13
  3
DIM-1_16
360
14
  0
XRECORD
  5
260
102
{ACAD_REACTORS
330
25F
102
}
100
AcDbXrecord
102
ACADR14ROUNDTRIP
1000
DSTYLE
1002
{
1070
    79
 70
     1
1070
   276
 70
     1
1070
   277
 70
     5
1070
   289
 70
     0
1002
}
  0
XRECORD
  5
258
102
{ACAD_REACTORS
330
257
102
}
100
AcDbXrecord
340
2
  0
XRECORD
  5
261
102
{ACAD_REACTORS
330
232
102
}
100
AcDbXrecord
340
1F6
  0
XRECORD
  5
233
102
{ACAD_REACTORS
330
232
102
}
100
AcDbXrecord
102
EXTNAMES
  1
*PAPER_SPACE
  2
*Paper_Space
  0
XRECORD
  5
25A
102
{ACAD_REACTORS
330
259
102
}
100
AcDbXrecord
102
EXTNAMES
  1
ACDBVARIABLEDICTIONARY
  2
AcDbVariableDictionary
  0
DICTIONARY
  5
25B
100
AcDbDictionary
280
     1
  3
ACAD_XREC_ROUNDTRIP
360
25C
  0
ACAD_PROXY_OBJECT
  5
1F7
102
{ACAD_REACTORS
330
B
102
}
100
AcDbProxyObject
 90
      499
 91
      515
 93
      604
310
9104850204465736B4A65742031313230432C00AAAAAA416AA591069074C61796F75743140501A800000000000000000000000000000000000000000000A1000000000000008902A6A6AAAA1
330
1F6
330
0
340
0
340
0
 94
        0
  0
ACAD_PROXY_OBJECT
  5
A
102
{ACAD_REACTORS
330
B
102
}
100
AcDbProxyObject
 90
      499
 91
      515
 93
      468
310
9044E6F6E652C01AAAAAAAAA5A69054D6F64656C901A800000000000000000000000000000000000000000000A1000000000000008902A6A6AAAAC
330
2
330
0
340
0
340
0
 94
        0
  0
MLINESTYLE
  5
29
102
{ACAD_REACTORS
330
27
102
}
100
AcDbMlineStyle
  2
STANDARD
 70
     0
  3

 62
     0
 51
90.0
 52
90.0
 71
     2
 49
0.5
 62
   256
  6
BYLAYER
 49
-0.5
 62
   256
  6
BYLAYER
  0
ACAD_PROXY_OBJECT
  5
5
102
{ACAD_REACTORS
330
6
102
}
100
AcDbProxyObject
 90
      499
 91
      518
 93
        0
 94
        0
  0
XRECORD
  5
240
102
{ACAD_REACTORS
330
236
102
}
100
AcDbXrecord
 90
        0
  0
XRECORD
  5
244
102
{ACAD_REACTORS
330
236
102
}
100
AcDbXrecord
1000
DSTYLE
1002
{
1070
    79
 70
     1
1070
   276
 70
     1
1070
   277
 70
     5
1070
   289
 70
     0
1002
}
  0
XRECORD
  5
241
102
{ACAD_REACTORS
330
236
102
}
100
AcDbXrecord
  1
{AE98BB68-3F44-45E5-9613-1524D8A29712}
  0
XRECORD
  5
239
102
{ACAD_REACTORS
330
236
102
}
100
AcDbXrecord
  1

  0
XRECORD
  5
23F
102
{ACAD_REACTORS
330
236
102
}
100
AcDbXrecord
 90
        0
  0
XRECORD
  5
23B
102
{ACAD_REACTORS
330
236
102
}
100
AcDbXrecord
340
B
  0
XRECORD
  5
23E
102
{ACAD_REACTORS
330
236
102
}
100
AcDbXrecord
 90
    10781
  0
XRECORD
  5
23C
102
{ACAD_REACTORS
330
236
102
}
100
AcDbXrecord
340
28
  0
XRECORD
  5
23D
102
{ACAD_REACTORS
330
236
102
}
100
AcDbXrecord
340
6
  0
XRECORD
  5
243
102
{ACAD_REACTORS
330
236
102
}
100
AcDbXrecord
 40
0.0
  0
XRECORD
  5
247
102
{ACAD_REACTORS
330
236
102
}
100
AcDbXrecord
340
0
  0
XRECORD
  5
24D
102
{ACAD_REACTORS
330
236
102
}
100
AcDbXrecord
 10
0.0
 20
0.0
 30
0.0
  0
XRECORD
  5
249
102
{ACAD_REACTORS
330
236
102
}
100
AcDbXrecord
 10
0.0
 20
0.0
 30
0.0
  0
XRECORD
  5
24C
102
{ACAD_REACTORS
330
236
102
}
100
AcDbXrecord
 10
0.0
 20
0.0
 30
0.0
  0
XRECORD
  5
24A
102
{ACAD_REACTORS
330
236
102
}
100
AcDbXrecord
 10
0.0
 20
0.0
 30
0.0
  0
XRECORD
  5
24B
102
{ACAD_REACTORS
330
236
102
}
100
AcDbXrecord
 10
0.0
 20
0.0
 30
0.0
  0
XRECORD
  5
248
102
{ACAD_REACTORS
330
236
102
}
100
AcDbXrecord
 10
0.0
 20
0.0
 30
0.0
  0
XRECORD
  5
245
102
{ACAD_REACTORS
330
236
102
}
100
AcDbXrecord
340
0
  0
XRECORD
  5
246
102
{ACAD_REACTORS
330
236
102
}
100
AcDbXrecord
 70
     0
  0
XRECORD
  5
23A
102
{ACAD_REACTORS
330
236
102
}
100
AcDbXrecord
  1

  0
XRECORD
  5
237
102
{ACAD_REACTORS
330
236
102
}
100
AcDbXrecord
 90
        1
  0
XRECORD
  5
238
102
{ACAD_REACTORS
330
236
102
}
100
AcDbXrecord
 90
       70
  0
XRECORD
  5
250
102
{ACAD_REACTORS
330
236
102
}
100
AcDbXrecord
340
0
  0
XRECORD
  5
256
102
{ACAD_REACTORS
330
236
102
}
100
AcDbXrecord
 10
0.0
 20
0.0
 30
0.0
  0
XRECORD
  5
252
102
{ACAD_REACTORS
330
236
102
}
100
AcDbXrecord
 10
0.0
 20
0.0
 30
0.0
  0
XRECORD
  5
255
102
{ACAD_REACTORS
330
236
102
}
100
AcDbXrecord
 10
0.0
 20
0.0
 30
0.0
  0
XRECORD
  5
253
102
{ACAD_REACTORS
330
236
102
}
100
AcDbXrecord
 10
0.0
 20
0.0
 30
0.0
  0
XRECORD
  5
254
102
{ACAD_REACTORS
330
236
102
}
100
AcDbXrecord
 10
0.0
 20
0.0
 30
0.0
  0
XRECORD
  5
251
102
{ACAD_REACTORS
330
236
102
}
100
AcDbXrecord
 10
0.0
 20
0.0
 30
0.0
  0
XRECORD
  5
24E
102
{ACAD_REACTORS
330
236
102
}
100
AcDbXrecord
340
0
  0
XRECORD
  5
24F
102
{ACAD_REACTORS
330
236
102
}
100
AcDbXrecord
 70
     0
  0
XRECORD
  5
242
102
{ACAD_REACTORS
330
236
102
}
100
AcDbXrecord
  1
{4DF0B390-0CC0-44F6-BD78-DEAD729A23FD}
  0
DICTIONARYVAR
  5
1E2
102
{ACAD_REACTORS
330
1E0
102
}
100
DictionaryVariables
280
     0
  1
1
  0
DICTIONARYVAR
  5
1E1
102
{ACAD_REACTORS
330
1E0
102
}
100
DictionaryVariables
280
     0
  1
1
  0
DICTIONARY
  5
25D
100
AcDbDictionary
280
     1
  3
ACAD_XREC_ROUNDTRIP
360
25E
  0
XRECORD
  5
13
102
{ACAD_REACTORS
330
12
102
}
100
AcDbXrecord
  1
DIM-1_12
  1
DIM-1_12
  1
*
  1
*
 70
     0
  1
*
  1
*
  0
XRECORD
  5
14
102
{ACAD_REACTORS
330
12
102
}
100
AcDbXrecord
  1
dim-1_16
  1
*
  1
*
  1
*
 70
     0
  1
*
  1
*
  0
XRECORD
  5
25C
102
{ACAD_REACTORS
330
25B
102
}
100
AcDbXrecord
102
EXTNAMES
  1
LAYOUT1
  2
Layout1
  1
MODEL
  2
Model
  0
XRECORD
  5
25E
102
{ACAD_REACTORS
330
25D
102
}
100
AcDbXrecord
102
EXTNAMES
  1
DIM-1_16
  2
dim-1_16
  0
ENDSEC
  0
EOF
