  0
SECTION
  2
HEADER
  9
$ACADVER
  1
AC1014
  9
$ACADMAINTVER
 70
     0
  9
$DWGCODEPAGE
  3
ANSI_1252
  9
$INSBASE
 10
18.563824
 20
-38.903067
 30
0.0
  9
$EXTMIN
 10
-45.188578
 20
-41.431806
 30
-0.001526
  9
$EXTMAX
 10
26.862473
 20
-19.355214
 30
0.0
  9
$LIMMIN
 10
0.0
 20
0.0
  9
$LIMMAX
 10
17.0
 20
11.0
  9
$ORTHOMODE
 70
     1
  9
$REGENMODE
 70
     1
  9
$FILLMODE
 70
     1
  9
$QTEXTMODE
 70
     0
  9
$MIRRTEXT
 70
     1
  9
$DRAGMODE
 70
     2
  9
$LTSCALE
 40
2.0
  9
$OSMODE
 70
    53
  9
$ATTMODE
 70
     1
  9
$TEXTSIZE
 40
0.0
  9
$TRACEWID
 40
0.05
  9
$TEXTSTYLE
  7
ROMANS
  9
$CLAYER
  8
0
  9
$CELTYPE
  6
BYLAYER
  9
$CECOLOR
 62
   256
  9
$CELTSCALE
 40
1.0
  9
$DELOBJ
 70
     1
  9
$DISPSILH
 70
     0
  9
$DIMSCALE
 40
16.0
  9
$DIMASZ
 40
0.1
  9
$DIMEXO
 40
0.0625
  9
$DIMDLI
 40
0.25
  9
$DIMRND
 40
0.0
  9
$DIMDLE
 40
0.0
  9
$DIMEXE
 40
0.1
  9
$DIMTP
 40
0.1
  9
$DIMTM
 40
0.1
  9
$DIMTXT
 40
0.125
  9
$DIMCEN
 40
0.09
  9
$DIMTSZ
 40
0.0
  9
$DIMTOL
 70
     0
  9
$DIMLIM
 70
     0
  9
$DIMTIH
 70
     1
  9
$DIMTOH
 70
     1
  9
$DIMSE1
 70
     0
  9
$DIMSE2
 70
     0
  9
$DIMTAD
 70
     0
  9
$DIMZIN
 70
     4
  9
$DIMBLK
  1

  9
$DIMASO
 70
     1
  9
$DIMSHO
 70
     1
  9
$DIMPOST
  1

  9
$DIMAPOST
  1
cm
  9
$DIMALT
 70
     1
  9
$DIMALTD
 70
     2
  9
$DIMALTF
 40
2.54
  9
$DIMLFAC
 40
1.0
  9
$DIMTOFL
 70
     0
  9
$DIMTVP
 40
0.0
  9
$DIMTIX
 70
     0
  9
$DIMSOXD
 70
     0
  9
$DIMSAH
 70
     0
  9
$DIMBLK1
  1

  9
$DIMBLK2
  1

  9
$DIMSTYLE
  2
STANDARD
  9
$DIMCLRD
 70
     0
  9
$DIMCLRE
 70
     0
  9
$DIMCLRT
 70
     0
  9
$DIMTFAC
 40
1.0
  9
$DIMGAP
 40
0.09
  9
$DIMJUST
 70
     0
  9
$DIMSD1
 70
     0
  9
$DIMSD2
 70
     0
  9
$DIMTOLJ
 70
     1
  9
$DIMTZIN
 70
     0
  9
$DIMALTZ
 70
     4
  9
$DIMALTTZ
 70
     0
  9
$DIMFIT
 70
     0
  9
$DIMUPT
 70
     0
  9
$DIMUNIT
 70
     5
  9
$DIMDEC
 70
     4
  9
$DIMTDEC
 70
     4
  9
$DIMALTU
 70
     2
  9
$DIMALTTD
 70
     2
  9
$DIMTXSTY
  7
STANDARD
  9
$DIMAUNIT
 70
     0
  9
$LUNITS
 70
     2
  9
$LUPREC
 70
     4
  9
$SKETCHINC
 40
0.1
  9
$FILLETRAD
 40
0.0
  9
$AUNITS
 70
     0
  9
$AUPREC
 70
     0
  9
$MENU
  1
acad
  9
$ELEVATION
 40
0.0
  9
$PELEVATION
 40
0.0
  9
$THICKNESS
 40
0.0
  9
$LIMCHECK
 70
     0
  9
$BLIPMODE
 70
     0
  9
$CHAMFERA
 40
0.0
  9
$CHAMFERB
 40
0.0
  9
$CHAMFERC
 40
0.0
  9
$CHAMFERD
 40
0.0
  9
$SKPOLY
 70
     0
  9
$TDCREATE
 40
2444971.833333333
  9
$TDUPDATE
 40
2453690.341406609
  9
$TDINDWG
 40
0.2056616204
  9
$TDUSRTIMER
 40
0.2056616204
  9
$USRTIMER
 70
     1
  9
$ANGBASE
 50
0.0
  9
$ANGDIR
 70
     0
  9
$PDMODE
 70
     0
  9
$PDSIZE
 40
0.0
  9
$PLINEWID
 40
0.0
  9
$COORDS
 70
     1
  9
$SPLFRAME
 70
     0
  9
$SPLINETYPE
 70
     6
  9
$SPLINESEGS
 70
     8
  9
$ATTDIA
 70
     0
  9
$ATTREQ
 70
     1
  9
$HANDLING
 70
     1
  9
$HANDSEED
  5
177
  9
$SURFTAB1
 70
     6
  9
$SURFTAB2
 70
     6
  9
$SURFTYPE
 70
     6
  9
$SURFU
 70
     6
  9
$SURFV
 70
     6
  9
$UCSNAME
  2

  9
$UCSORG
 10
0.0
 20
0.0
 30
0.0
  9
$UCSXDIR
 10
1.0
 20
0.0
 30
0.0
  9
$UCSYDIR
 10
0.0
 20
1.0
 30
0.0
  9
$PUCSNAME
  2

  9
$PUCSORG
 10
0.0
 20
0.0
 30
0.0
  9
$PUCSXDIR
 10
1.0
 20
0.0
 30
0.0
  9
$PUCSYDIR
 10
0.0
 20
1.0
 30
0.0
  9
$USERI1
 70
     0
  9
$USERI2
 70
     0
  9
$USERI3
 70
     0
  9
$USERI4
 70
     0
  9
$USERI5
 70
     0
  9
$USERR1
 40
0.0
  9
$USERR2
 40
0.0
  9
$USERR3
 40
0.0
  9
$USERR4
 40
0.0
  9
$USERR5
 40
0.0
  9
$WORLDVIEW
 70
     1
  9
$SHADEDGE
 70
     3
  9
$SHADEDIF
 70
    70
  9
$TILEMODE
 70
     1
  9
$MAXACTVP
 70
    16
  9
$PINSBASE
 10
0.0
 20
0.0
 30
0.0
  9
$PLIMCHECK
 70
     0
  9
$PEXTMIN
 10
0.0
 20
0.0
 30
0.0
  9
$PEXTMAX
 10
0.0
 20
0.0
 30
0.0
  9
$PLIMMIN
 10
0.0
 20
0.0
  9
$PLIMMAX
 10
12.0
 20
9.0
  9
$UNITMODE
 70
     0
  9
$VISRETAIN
 70
     0
  9
$PLINEGEN
 70
     1
  9
$PSLTSCALE
 70
     1
  9
$TREEDEPTH
 70
  3020
  9
$PICKSTYLE
 70
     1
  9
$CMLSTYLE
  2
STANDARD
  9
$CMLJUST
 70
     0
  9
$CMLSCALE
 40
1.0
  9
$PROXYGRAPHICS
 70
     1
  9
$MEASUREMENT
 70
     0
  0
ENDSEC
  0
SECTION
  2
CLASSES
  0
CLASS
  1
LWPOLYLINE
  2
AcDbPolyline
  3
"AutoCAD"
 90
        0
280
     0
281
     1
  0
CLASS
  1
IMAGE
  2
AcDbRasterImage
  3
ISM
 90
      127
280
     0
281
     1
  0
CLASS
  1
OLE2FRAME
  2
AcDbOle2Frame
  3
""
 90
        0
280
     0
281
     1
  0
CLASS
  1
HATCH
  2
AcDbHatch
  3
"ACAD_SEDONA"
 90
        0
280
     0
281
     1
  0
CLASS
  1
DICTIONARYVAR
  2
AcDbDictionaryVar
  3
"AutoCAD"
 90
        0
280
     0
281
     0
  0
CLASS
  1
RASTERVARIABLES
  2
AcDbRasterVariables
  3
ISM
 90
        0
280
     0
281
     0
  0
CLASS
  1
IMAGEDEF
  2
AcDbRasterImageDef
  3
ISM
 90
        0
280
     0
281
     0
  0
CLASS
  1
IMAGEDEF_REACTOR
  2
AcDbRasterImageDefReactor
  3
ISM
 90
        1
280
     0
281
     0
  0
CLASS
  1
IDBUFFER
  2
AcDbIdBuffer
  3
"Acad"
 90
        0
280
     0
281
     0
  0
CLASS
  1
SPATIAL_FILTER
  2
AcDbSpatialFilter
  3
"Acad"
 90
        0
280
     0
281
     0
  0
CLASS
  1
XRECORD
  2
AcDbXrecord
  3
"<Built In>"
 90
        0
280
     0
281
     0
  0
CLASS
  1
SORTENTSTABLE
  2
AcDbSortentsTable
  3
"AutoCAD"
 90
        0
280
     0
281
     0
  0
CLASS
  1
LAYER_INDEX
  2
AcDbLayerIndex
  3
"Acad"
 90
        0
280
     0
281
     0
  0
CLASS
  1
SPATIAL_INDEX
  2
AcDbSpatialIndex
  3
"Acad"
 90
        0
280
     0
281
     0
  0
CLASS
  1
OBJECT_PTR
  2
CAseDLPNTableRecord
  3
ASE-LPNTableRecord
 90
        1
280
     0
281
     0
  0
CLASS
  1
LAYOUT
  2
AcDbLayout
  3
AutoCAD 2000
 90
        0
280
     0
281
     0
  0
CLASS
  1
PLOTSETTINGS
  2
AcDbPlotSettings
  3
AutoCAD 2000
 90
        0
280
     0
281
     0
  0
CLASS
  1
ACDBDICTIONARYWDFLT
  2
AcDbDictionaryWithDefault
  3
AutoCAD 2000
 90
        0
280
     0
281
     0
  0
CLASS
  1
ACDBPLACEHOLDER
  2
AcDbPlaceHolder
  3
AutoCAD 2000
 90
        0
280
     0
281
     0
  0
CLASS
  1
VBA_PROJECT
  2
AcDbVbaProject
  3
acadvba
 90
        0
280
     0
281
     0
  0
CLASS
  1
WIPEOUT
  2
AcDbWipeout
  3
"WipeOut|Version(1.0.0.0) Product Desc: Object Enabler for WipeOut entity^I^I^I^I^I^I|Company: Autodesk, Inc.^I^I^I^I^I^I|WEB Address: www.autodesk.com"
 90
      127
280
     1
281
     1
  0
CLASS
  1
WIPEOUTVARIABLES
  2
AcDbWipeoutVariables
  3
WipeOut|AutoCAD Express Tool|expresstools@autodesk.com
 90
        0
280
     1
281
     0
  0
CLASS
  1
RTEXT
  2
RText
  3
RText|AutoCAD Express Tool|expresstools@autodesk.com
 90
        0
280
     1
281
     1
  0
CLASS
  1
ARCALIGNEDTEXT
  2
AcDbArcAlignedText
  3
ATEXT|AutoCAD Express Tool|expresstools@autodesk.com
 90
        0
280
     1
281
     1
  0
CLASS
  1
LONG_TRANSACTION
  2
AcDbLongTransaction
  3
AutoCAD 2000
 90
        0
280
     0
281
     0
  0
CLASS
  1
LWPOLYLINE
  2
AcDbPolyline
  3
"AutoCAD"
 90
        0
280
     0
281
     1
  0
CLASS
  1
HATCH
  2
AcDbHatch
  3
"ACAD_SEDONA"
 90
        0
280
     0
281
     1
  0
CLASS
  1
XRECORD
  2
AcDbXrecord
  3
"<Built In>"
 90
        0
280
     0
281
     0
  0
ENDSEC
  0
SECTION
  2
TABLES
  0
TABLE
  2
VPORT
  5
1D
100
AcDbSymbolTable
 70
     3
  0
VPORT
  5
176
100
AcDbSymbolTableRecord
100
AcDbViewportTableRecord
  2
*ACTIVE
 70
     0
 10
0.0
 20
0.0
 11
1.0
 21
1.0
 12
-9.163053
 22
-30.39351
 13
0.0
 23
0.0
 14
1.0
 24
1.0
 15
0.0
 25
0.0
 16
0.0
 26
0.0
 36
1.0
 17
0.0
 27
0.0
 37
0.0
 40
49.630391
 41
1.487748
 42
50.0
 43
0.0
 44
0.0
 50
0.0
 51
0.0
 71
     0
 72
   100
 73
     1
 74
     1
 75
     0
 76
     0
 77
     0
 78
     0
  0
ENDTAB
  0
TABLE
  2
LTYPE
  5
18
100
AcDbSymbolTable
 70
     3
  0
LTYPE
  5
19
100
AcDbSymbolTableRecord
100
AcDbLinetypeTableRecord
  2
BYBLOCK
 70
     0
  3

 72
    65
 73
     0
 40
0.0
  0
LTYPE
  5
1A
100
AcDbSymbolTableRecord
100
AcDbLinetypeTableRecord
  2
BYLAYER
 70
     0
  3

 72
    65
 73
     0
 40
0.0
  0
LTYPE
  5
8
100
AcDbSymbolTableRecord
100
AcDbLinetypeTableRecord
  2
CONTINUOUS
 70
     0
  3
Solid line
 72
    65
 73
     0
 40
0.0
  0
LTYPE
  5
2D
100
AcDbSymbolTableRecord
100
AcDbLinetypeTableRecord
  2
CENTER
 70
     0
  3
____ _ ____ _ ____ _ ____ _ ____ _ ____ _ ____
 72
    65
 73
     4
 40
0.6
 49
0.375
 74
     0
 49
-0.075
 74
     0
 49
0.075
 74
     0
 49
-0.075
 74
     0
  0
LTYPE
  5
3F
100
AcDbSymbolTableRecord
100
AcDbLinetypeTableRecord
  2
HIDDEN
 70
     0
  3
- - - - - - - - - - - - - - - - - - - -
 72
    65
 73
     2
 40
0.2
 49
0.1
 74
     0
 49
-0.1
 74
     0
  0
ENDTAB
  0
TABLE
  2
LAYER
  5
10
102
{ACAD_XDICTIONARY
360
11
102
}
100
AcDbSymbolTable
 70
     2
  0
LAYER
  5
4
100
AcDbSymbolTableRecord
100
AcDbLayerTableRecord
  2
0
 70
     0
 62
     7
  6
CONTINUOUS
  0
LAYER
  5
2C
100
AcDbSymbolTableRecord
100
AcDbLayerTableRecord
  2
CENTER
 70
     0
 62
     1
  6
CENTER
  0
ENDTAB
  0
TABLE
  2
STYLE
  5
15
100
AcDbSymbolTable
 70
     2
  0
STYLE
  5
16
100
AcDbSymbolTableRecord
100
AcDbTextStyleTableRecord
  2
STANDARD
 70
     0
 40
0.0
 41
1.0
 50
0.0
 71
     0
 42
0.0
  3
txt
  4

  0
STYLE
  5
C0
100
AcDbSymbolTableRecord
100
AcDbTextStyleTableRecord
  2
ROMANS
 70
     0
 40
0.0
 41
1.0
 50
0.0
 71
     0
 42
0.0
  3
romant.shx
  4

  0
ENDTAB
  0
TABLE
  2
VIEW
  5
1B
100
AcDbSymbolTable
 70
     0
  0
ENDTAB
  0
TABLE
  2
UCS
  5
1C
100
AcDbSymbolTable
 70
     0
  0
ENDTAB
  0
TABLE
  2
APPID
  5
1F
100
AcDbSymbolTable
 70
     2
  0
APPID
  5
20
100
AcDbSymbolTableRecord
100
AcDbRegAppTableRecord
  2
ACAD
 70
     0
  0
APPID
  5
BA
100
AcDbSymbolTableRecord
100
AcDbRegAppTableRecord
  2
DCO15
 70
     0
  0
ENDTAB
  0
TABLE
  2
DIMSTYLE
  5
21
100
AcDbSymbolTable
 70
     1
  0
DIMSTYLE
105
24
102
{ACAD_XDICTIONARY
360
166
102
}
100
AcDbSymbolTableRecord
100
AcDbDimStyleTableRecord
  2
STANDARD
 70
     0
  3

  4
cm
  5

  6

  7

 40
16.0
 41
0.1
 42
0.0625
 43
0.25
 44
0.1
 45
0.0
 46
0.0
 47
0.1
 48
0.1
140
0.125
141
0.09
142
0.0
143
2.54
144
1.0
145
0.0
146
1.0
147
0.09
 71
     0
 72
     0
 73
     1
 74
     1
 75
     0
 76
     0
 77
     0
 78
     4
170
     1
171
     2
172
     0
173
     0
174
     0
175
     0
176
     0
177
     0
178
     0
270
     5
271
     4
272
     4
273
     2
274
     2
340
16
275
     0
280
     0
281
     0
282
     0
283
     1
284
     0
285
     4
286
     0
287
     0
288
     0
  0
ENDTAB
  0
TABLE
  2
BLOCK_RECORD
  5
1
100
AcDbSymbolTable
 70
     0
  0
BLOCK_RECORD
  5
2
102
{ACAD_XDICTIONARY
360
15E
102
}
100
AcDbSymbolTableRecord
100
AcDbBlockTableRecord
  2
*MODEL_SPACE
  0
BLOCK_RECORD
  5
CC
102
{ACAD_XDICTIONARY
360
139
102
}
100
AcDbSymbolTableRecord
100
AcDbBlockTableRecord
  2
*PAPER_SPACE
  0
ENDTAB
  0
ENDSEC
  0
SECTION
  2
BLOCKS
  0
BLOCK
  5
3
100
AcDbEntity
  8
0
100
AcDbBlockBegin
  2
*MODEL_SPACE
 70
     0
 10
0.0
 20
0.0
 30
0.0
  3
*MODEL_SPACE
  1

  0
ENDBLK
  5
9
100
AcDbEntity
  8
0
100
AcDbBlockEnd
  0
BLOCK
  5
CE
100
AcDbEntity
 67
     1
  8
0
100
AcDbBlockBegin
  2
*PAPER_SPACE
 70
     0
 10
0.0
 20
0.0
 30
0.0
  3
*PAPER_SPACE
  1

  0
ENDBLK
  5
CF
100
AcDbEntity
 67
     1
  8
0
100
AcDbBlockEnd
  0
ENDSEC
  0
SECTION
  2
ENTITIES
  0
LINE
  5
2B
100
AcDbEntity
  8
CENTER
 48
3.0
100
AcDbLine
 10
21.692829
 20
-22.903067
 30
0.0
 11
26.860477
 21
-22.903067
 31
0.0
  0
LINE
  5
30
100
AcDbEntity
  8
0
100
AcDbLine
 10
-25.312443
 20
-35.903066
 30
0.0
 11
-11.153372
 21
-35.903067
 31
0.0
  0
LINE
  5
31
100
AcDbEntity
  8
0
100
AcDbLine
 10
-36.32466
 20
-29.046915
 30
0.0
 11
-17.776576
 21
-28.723157
 31
0.0
  0
LINE
  5
32
100
AcDbEntity
  8
0
100
AcDbLine
 10
-31.363247
 20
-38.298612
 30
0.0
 11
20.022949
 21
-38.41072
 31
0.0
  0
LINE
  5
33
100
AcDbEntity
  8
0
100
AcDbLine
 10
-40.683111
 20
-20.903067
 30
0.0
 11
-33.860831
 21
-35.908493
 31
0.0
  0
ARC
  5
34
100
AcDbEntity
  8
0
100
AcDbCircle
 10
-31.363247
 20
-35.798612
 30
0.0
 40
2.5
100
AcDbArc
 50
182.519091
 51
270.0
  0
LINE
  5
35
100
AcDbEntity
  8
0
100
AcDbLine
 10
-30.090407
 20
-35.903067
 30
0.0
 11
-25.49562
 21
-35.903067
 31
0.0
  0
SPLINE
  5
36
100
AcDbEntity
  8
0
100
AcDbSpline
210
0.0
220
0.0
230
1.0
 70
     8
 71
     3
 72
    13
 73
     9
 74
     7
 42
0.0000001
 43
0.0000001
 44
0.0000000001
 40
0.0
 40
0.0
 40
0.0
 40
0.0
 40
0.2731291130024053
 40
0.6861323127438808
 40
1.220006177078868
 40
1.862132157951224
 40
2.59986928243647
 40
3.39982078404985
 40
3.39982078404985
 40
3.39982078404985
 40
3.39982078404985
 10
-33.48769018951704
 20
-35.90849271374756
 30
0.0
 10
-33.39664722300244
 20
-35.90865929542927
 30
0.0
 10
-33.16793663083216
 20
-35.90907776811888
 30
0.0
 10
-32.76127585115737
 20
-35.91205251427302
 30
0.0
 10
-32.23160545516407
 20
-35.91127555556917
 30
0.0
 10
-31.59369299333796
 20
-35.91256674904198
 30
0.0
 10
-30.86709337085988
 20
-35.90891099147153
 30
0.0
 10
-30.35453025300479
 20
-35.90863825771718
 30
0.0
 10
-30.08787962631704
 20
-35.9084963734809
 30
0.0
 11
-33.48769018951704
 21
-35.90849271374756
 31
0.0
 11
-33.2145619697837
 21
-35.90919125134756
 31
0.0
 11
-32.80156380445037
 21
-35.91123047374756
 31
0.0
 11
-32.2676900753837
 21
-35.91161051641423
 31
0.0
 11
-31.62556412231703
 21
-35.91179948601423
 31
0.0
 11
-30.88783043911703
 21
-35.90954615161424
 31
0.0
 11
-30.08787962631704
 21
-35.9084963734809
 31
0.0
  0
SPLINE
  5
37
100
AcDbEntity
  8
0
100
AcDbSpline
210
0.0000000200103128
220
0.9999999999999998
230
0.0
 70
    24
 71
     3
 72
    10
 73
     6
 74
     4
 42
0.0000001
 43
0.0000001
 44
0.0000000001
 40
0.0
 40
0.0
 40
0.0
 40
0.0
 40
0.0414888287999986
 40
0.1659604927999965
 40
0.3731409578666672
 40
0.3731409578666672
 40
0.3731409578666672
 40
0.3731409578666672
 10
-33.8608311473837
 20
-35.90849270628089
 30
0.0
 10
-33.84700153778371
 20
-35.90849270582974
 30
0.0
 10
-33.79168137351703
 20
-35.90849270402506
 30
0.0
 10
-33.66730105422815
 20
-35.90849271028552
 30
0.0
 10
-33.55675034453927
 20
-35.90849271241641
 30
0.0
 10
-33.48769018951704
 20
-35.90849271374756
 30
0.0
 11
-33.8608311473837
 21
-35.90849270628089
 31
0.0
 11
-33.8193423185837
 21
-35.90849270521422
 31
0.0
 11
-33.69487065458371
 21
-35.90849270841423
 31
0.0
 11
-33.48769018951704
 21
-35.90849271374756
 31
0.0
  0
SPLINE
  5
38
100
AcDbEntity
  8
0
100
AcDbSpline
210
0.0
220
0.0
230
1.0
 70
     8
 71
     3
 72
    10
 73
     6
 74
     4
 42
0.0000001
 43
0.0000001
 44
0.0000000001
 40
0.0
 40
0.0
 40
0.0
 40
0.0
 40
0.0076728855192304
 40
0.0147434301897714
 40
0.0212096824916957
 40
0.0212096824916957
 40
0.0212096824916957
 40
0.0212096824916957
 10
-36.32422324171633
 20
-29.0468476626861
 30
0.0
 10
-36.32678003384713
 20
-29.04691362402941
 30
0.0
 10
-36.33169290348343
 20
-29.04704036858435
 30
0.0
 10
-36.33876185185811
 20
-29.04715895648326
 30
0.0
 10
-36.343273400062
 20
-29.04723910669511
 30
0.0
 10
-36.345428474783
 20
-29.04727739281943
 30
0.0
 11
-36.32422324171633
 21
-29.0468476626861
 31
0.0
 11
-36.33189387531633
 21
-29.04703354535277
 31
0.0
 11
-36.33896322464966
 21
-29.04716355281943
 31
0.0
 11
-36.345428474783
 21
-29.04727739281943
 31
0.0
  0
LINE
  5
39
100
AcDbEntity
  8
0
100
AcDbLine
 10
-25.312443
 20
-35.903066
 30
0.0
 11
-25.49562
 21
-35.903067
 31
0.0
  0
LINE
  5
3A
100
AcDbEntity
  8
0
100
AcDbLine
 10
-45.186176
 20
-20.903067
 30
0.0
 11
-44.98198
 21
-19.613955
 31
0.0
  0
SPLINE
  5
3B
100
AcDbEntity
  8
0
100
AcDbSpline
210
0.0
220
0.0
230
-1.0
 70
     8
 71
     3
 72
    11
 73
     7
 74
     5
 42
0.0000001
 43
0.0000001
 44
0.0000000001
 40
0.0
 40
0.0
 40
0.0
 40
0.0
 40
0.0938306355020984
 40
0.1733116897212595
 40
0.2273811739461018
 40
0.250889058972004
 40
0.250889058972004
 40
0.250889058972004
 40
0.250889058972004
 10
-44.93925427104966
 20
-20.9030673874861
 30
0.0
 10
-44.97036123368395
 20
-20.89852017875136
 30
0.0
 10
-45.02781795053763
 20
-20.89012116892778
 30
0.0
 10
-45.10231343036031
 20
-20.88867313908623
 30
0.0
 10
-45.15747802937946
 20
-20.88441890596613
 30
0.0
 10
-45.17950195992662
 20
-20.89873058918039
 30
0.0
 10
-45.18617576224966
 20
-20.9030673874861
 30
0.0
 11
-44.93925427104966
 21
-20.9030673874861
 31
0.0
 11
-45.03237710731633
 21
-20.8915641042861
 31
0.0
 11
-45.111755783583
 21
-20.8875312722861
 31
0.0
 11
-45.16567466144966
 21
-20.8915641042861
 31
0.0
 11
-45.18617576224966
 21
-20.9030673874861
 31
0.0
  0
SPLINE
  5
3D
100
AcDbEntity
  8
0
100
AcDbSpline
210
0.0
220
0.0
230
-1.0
 70
     8
 71
     3
 72
    19
 73
    15
 74
    13
 42
0.0000001
 43
0.0000001
 44
0.0000000001
 40
0.0
 40
0.0
 40
0.0
 40
0.0
 40
0.044919487442544
 40
0.1763643529026945
 40
0.3852476222370487
 40
0.6583382791715083
 40
0.9769690983147041
 40
1.321221479515718
 40
1.666142660259376
 40
1.988571704961668
 40
2.263963596927614
 40
2.474897483575365
 40
2.606535438499493
 40
2.651212545368507
 40
2.651212545368507
 40
2.651212545368507
 40
2.651212545368507
 10
24.11282802868367
 20
-24.21556738641943
 30
0.0
 10
24.1144567467934
 20
-24.20068306912305
 30
0.0
 10
24.12085147282078
 20
-24.14224377834234
 30
0.0
 10
24.13512159287749
 20
-24.01462300681307
 30
0.0
 10
24.15863271974869
 20
-23.81150548659796
 30
0.0
 10
24.1908272357709
 20
-23.54658442191166
 30
0.0
 10
24.23060661890621
 20
-23.23713658458565
 30
0.0
 10
24.2760175686797
 20
-22.90428155028397
 30
0.0
 10
24.32427676109834
 20
-22.57054823736837
 30
0.0
 10
24.37165634830396
 20
-22.25989019173606
 30
0.0
 10
24.41413741956936
 20
-21.99367149525728
 30
0.0
 10
24.44774181131273
 20
-21.79044235685134
 30
0.0
 10
24.4692861585778
 20
-21.66316975209853
 30
0.0
 10
24.47922841522403
 20
-21.60524511847706
 30
0.0
 10
24.48174771935033
 20
-21.5905673874861
 30
0.0
 11
24.11282802868367
 21
-24.21556738641943
 31
0.0
 11
24.11772313908366
 21
-24.17091541841944
 31
0.0
 11
24.132318482017
 21
-24.04028338321943
 31
0.0
 11
24.15634239881699
 21
-23.8327862226861
 31
0.0
 11
24.18928428468366
 21
-23.56168967335276
 31
0.0
 11
24.229909582817
 21
-23.2456593202861
 31
0.0
 11
24.276442504417
 21
-22.90456638695276
 31
0.0
 11
24.325804632417
 21
-22.56319561895276
 31
0.0
 11
24.37441493428367
 21
-22.24445194855277
 31
0.0
 11
24.417812098017
 21
-21.97250088615277
 31
0.0
 11
24.452216878817
 21
-21.7643917426861
 31
0.0
 11
24.47419835188366
 21
-21.6346020434861
 31
0.0
 11
24.48174771935033
 21
-21.5905673874861
 31
0.0
  0
SPLINE
  5
40
100
AcDbEntity
  8
0
  6
HIDDEN
 62
     8
100
AcDbSpline
210
0.0
220
0.0
230
1.0
 70
     8
 71
     3
 72
    15
 73
    11
 74
     9
 42
0.0000001
 43
0.0000001
 44
0.0000000001
 40
0.0
 40
0.0
 40
0.0
 40
0.0
 40
0.0068972714138285
 40
0.0487861047837551
 40
0.0905345616925579
 40
0.132158271809679
 40
0.1736908989388019
 40
0.2151624276047519
 40
0.2566050066242462
 40
0.2979387051408561
 40
0.2979387051408561
 40
0.2979387051408561
 40
0.2979387051408561
 10
-11.36615656971633
 20
-23.54148565095277
 30
0.0
 10
-11.36437174550094
 20
-23.54003650458328
 30
0.0
 10
-11.351747242858
 20
-23.52978633427867
 30
0.0
 10
-11.33023659844503
 20
-23.5083961511175
 30
0.0
 10
-11.30551616338375
 20
-23.47453809569422
 30
0.0
 10
-11.28667173930961
 20
-23.43720482561586
 30
0.0
 10
-11.27416777232917
 20
-23.39737465097821
 30
0.0
 10
-11.2685756512212
 20
-23.35611897905608
 30
0.0
 10
-11.26950533881257
 20
-23.3144101472215
 30
0.0
 10
-11.2760292402832
 20
-23.28753138027948
 30
0.0
 10
-11.27928690038299
 20
-23.27410967441943
 30
0.0
 11
-11.36615656971633
 21
-23.54148565095277
 31
0.0
 11
-11.360822746783
 21
-23.53711270161944
 31
0.0
 11
-11.33104755851632
 21
-23.5076489522861
 31
0.0
 11
-11.30646325344966
 21
-23.47390661095277
 31
0.0
 11
-11.28771097824966
 21
-23.4367463442861
 31
0.0
 11
-11.275312829983
 21
-23.39710741095277
 31
0.0
 11
-11.26966166518299
 21
-23.35602271761943
 31
0.0
 11
-11.270986170783
 21
-23.31460130961943
 31
0.0
 11
-11.27928690038299
 21
-23.27410967441943
 31
0.0
  0
SPLINE
  5
41
100
AcDbEntity
  8
0
  6
HIDDEN
 62
     8
100
AcDbSpline
210
0.0
220
0.0
230
1.0
 70
     8
 71
     3
 72
    15
 73
    11
 74
     9
 42
0.0000001
 43
0.0000001
 44
0.0000000001
 40
0.0
 40
0.0
 40
0.0
 40
0.0
 40
0.0414595791319513
 40
0.08309009999964
 40
0.1247403264269326
 40
0.166351808473266
 40
0.2079094734824977
 40
0.249487901268508
 40
0.2911874413302986
 40
0.2979381241002266
 40
0.2979381241002266
 40
0.2979381241002266
 40
0.2979381241002266
 10
-11.27928690038299
 20
-23.27410967441943
 30
0.0
 10
-11.27602138210069
 20
-23.28757295818239
 30
0.0
 10
-11.26947688149773
 20
-23.31455503609078
 30
0.0
 10
-11.26858275062444
 20
-23.3564326837205
 30
0.0
 10
-11.27426251042036
 20
-23.39782815471157
 30
0.0
 10
-11.28687064233656
 20
-23.43769358749076
 30
0.0
 10
-11.30576989616864
 20
-23.47493923584341
 30
0.0
 10
-11.33046006959291
 20
-23.50864140286135
 30
0.0
 10
-11.35187008966967
 20
-23.5298901907029
 30
0.0
 10
-11.36440942425838
 20
-23.54006761515383
 30
0.0
 10
-11.36615655904966
 20
-23.5414856594861
 30
0.0
 11
-11.27928690038299
 21
-23.27410967441943
 31
0.0
 11
-11.27097146144966
 21
-23.31472679121943
 31
0.0
 11
-11.26967845664966
 21
-23.3563372274861
 31
0.0
 11
-11.27542130678299
 21
-23.3975896338861
 31
0.0
 11
-11.28792721824966
 21
-23.43727738535277
 31
0.0
 11
-11.30672818571633
 21
-23.47433899815276
 31
0.0
 11
-11.33126713824966
 21
-23.50790394215276
 31
0.0
 11
-11.36093490251633
 21
-23.5372071058861
 31
0.0
 11
-11.36615655904966
 21
-23.5414856594861
 31
0.0
  0
LWPOLYLINE
  5
42
100
AcDbEntity
  8
0
  6
HIDDEN
 62
     8
100
AcDbPolyline
 90
        4
 70
     0
 43
0.0
 10
-11.879475
 20
-23.367737
 10
-11.912203
 20
-23.357287
 10
-11.958088
 20
-23.332425
 10
-11.997292
 20
-23.297899
  0
LINE
  5
43
100
AcDbEntity
  8
0
  6
HIDDEN
 62
     8
100
AcDbLine
 10
-12.459355
 20
-23.231229
 30
0.0
 11
-12.388555
 21
-23.470562
 31
0.0
  0
SPLINE
  5
45
100
AcDbEntity
  8
0
  6
HIDDEN
 62
     8
100
AcDbSpline
210
0.0
220
0.0
230
1.0
 70
     8
 71
     3
 72
    10
 73
     6
 74
     4
 42
0.0000001
 43
0.0000001
 44
0.0000000001
 40
0.0
 40
0.0
 40
0.0
 40
0.0
 40
0.1219812914124622
 40
0.2430995108508133
 40
0.3633501632846348
 40
0.3633501632846348
 40
0.3633501632846348
 40
0.3633501632846348
 10
-12.50894305184966
 20
-23.14097348241944
 30
0.0
 10
-12.52657277786834
 20
-23.17761323708855
 30
0.0
 10
-12.56170749174085
 20
-23.25063350384108
 30
0.0
 10
-12.61515046450405
 20
-23.35932403069227
 30
0.0
 10
-12.65130027919193
 20
-23.43120203115196
 30
0.0
 10
-12.669310218783
 20
-23.46701185361943
 30
0.0
 11
-12.50894305184966
 21
-23.14097348241944
 31
0.0
 11
-12.56198866464966
 21
-23.2508170002861
 31
0.0
 11
-12.61544131958299
 21
-23.35950203495277
 31
0.0
 11
-12.669310218783
 21
-23.46701185361943
 31
0.0
  0
LWPOLYLINE
  5
47
100
AcDbEntity
  8
0
  6
HIDDEN
 62
     8
100
AcDbPolyline
 90
       11
 70
     0
 43
0.0
 10
-11.60148
 20
-23.072222
 10
-11.592303
 20
-23.123868
 10
-11.594787
 20
-23.176309
 10
-11.608807
 20
-23.226913
 10
-11.633661
 20
-23.273145
 10
-11.668102
 20
-23.312684
 10
-11.710404
 20
-23.34355
 10
-11.758444
 20
-23.364194
 10
-11.809814
 20
-23.37358
 10
-11.861938
 20
-23.371239
 10
-11.879475
 20
-23.367737
  0
LWPOLYLINE
  5
48
100
AcDbEntity
  8
0
  6
HIDDEN
 62
     8
100
AcDbPolyline
 90
       15
 70
     0
 43
0.0
 10
-5.681219
 20
-21.79932
 10
-6.105325
 20
-21.90856
 10
-6.552543
 20
-22.027352
 10
-7.018361
 20
-22.154498
 10
-7.498087
 20
-22.288716
 10
-7.986892
 20
-22.428657
 10
-8.479856
 20
-22.57291
 10
-8.972017
 20
-22.720024
 10
-9.45842
 20
-22.868518
 10
-9.934169
 20
-23.016897
 10
-10.394476
 20
-23.163667
 10
-10.834706
 20
-23.307352
 10
-11.250427
 20
-23.446504
 10
-11.637451
 20
-23.579723
 10
-11.991873
 20
-23.705664
  0
SPLINE
  5
49
100
AcDbEntity
  8
0
  6
HIDDEN
 62
     8
100
AcDbSpline
210
0.0
220
0.0
230
1.0
 70
     8
 71
     3
 72
    23
 73
    19
 74
    17
 42
0.0000001
 43
0.0000001
 44
0.0000000001
 40
0.0
 40
0.0
 40
0.0
 40
0.0
 40
0.2029309227957671
 40
0.3851828949439416
 40
0.5598613312187624
 40
0.7353216169754142
 40
0.9125944462719067
 40
1.091044782519585
 40
1.270248009369591
 40
1.449607438180255
 40
1.627929609771538
 40
1.803847042055444
 40
1.978702616595439
 40
2.165600262162297
 40
2.378343926226288
 40
2.621169284364901
 40
2.888186105642432
 40
3.162379352897046
 40
3.162379352897046
 40
3.162379352897046
 40
3.162379352897046
 10
-11.74927264864966
 20
-22.2669244690861
 30
0.0
 10
-11.68206205642857
 20
-22.2571713225028
 30
0.0
 10
-11.55448972725393
 20
-22.23865888889231
 30
0.0
 10
-11.36735214025103
 20
-22.26107385988061
 30
0.0
 10
-11.19683719002156
 20
-22.31286466217293
 30
0.0
 10
-11.04007397614275
 20
-22.39476467034478
 30
0.0
 10
-10.89963182288504
 20
-22.50410552238416
 30
0.0
 10
-10.77996769896226
 20
-22.6375588515775
 30
0.0
 10
-10.68498199716902
 20
-22.79033670616781
 30
0.0
 10
-10.61747884810023
 20
-22.95701180999496
 30
0.0
 10
-10.57907190535879
 20
-23.13152874555232
 30
0.0
 10
-10.56993824786909
 20
-23.30844431322936
 30
0.0
 10
-10.59000549472984
 20
-23.48734938082503
 30
0.0
 10
-10.64348538041451
 20
-23.6722129401518
 30
0.0
 10
-10.74159087088321
 20
-23.86448543842693
 30
0.0
 10
-10.89787511089303
 20
-24.05001598561721
 30
0.0
 10
-11.11375863432315
 20
-24.20662963045532
 30
0.0
 10
-11.28930185959683
 20
-24.2535959713253
 30
0.0
 10
-11.37823732064966
 20
-24.27739052775277
 30
0.0
 11
-11.74927264864966
 21
-22.2669244690861
 31
0.0
 11
-11.54731396811633
 21
-22.24708383441943
 31
0.0
 11
-11.366121178783
 21
-22.26670409041943
 31
0.0
 11
-11.19909630411633
 21
-22.3178435794861
 31
0.0
 11
-11.04347866571632
 21
-22.3988958002861
 31
0.0
 11
-10.90353807264966
 21
-22.50771807015277
 31
0.0
 11
-10.784305223583
 21
-22.6404887378861
 31
0.0
 11
-10.68959045558299
 21
-22.79261667495277
 31
0.0
 11
-10.62218305504966
 21
-22.95882752615276
 31
0.0
 11
-10.58381032864966
 21
-23.1329720946861
 31
0.0
 11
-10.57473570891633
 21
-23.30865531601943
 31
0.0
 11
-10.59426937291633
 21
-23.48241638161943
 31
0.0
 11
-10.64628971744966
 21
-23.6619285362861
 31
0.0
 11
-10.743314237983
 21
-23.85125922321943
 31
0.0
 11
-10.89947378571633
 21
-24.0372117714861
 31
0.0
 11
-11.11823830731633
 21
-24.19031326375277
 31
0.0
 11
-11.37823732064966
 21
-24.27739052775277
 31
0.0
  0
SPLINE
  5
4A
100
AcDbEntity
  8
0
  6
HIDDEN
 62
     8
100
AcDbSpline
210
0.0
220
0.0
230
1.0
 70
     8
 71
     3
 72
    24
 73
    20
 74
    18
 42
0.0000001
 43
0.0000001
 44
0.0000000001
 40
0.0
 40
0.0
 40
0.0
 40
0.0
 40
0.2277128851684348
 40
0.4314300991914139
 40
0.6257980644372406
 40
0.8201008806551746
 40
1.015540365881795
 40
1.211478755002298
 40
1.407536120415418
 40
1.603175296253712
 40
1.797236652848191
 40
1.988385149463428
 40
2.178221620952661
 40
2.381129699111334
 40
2.612310928977793
 40
2.876665445802544
 40
3.16810145771174
 40
3.468260381877697
 40
3.772299972972809
 40
3.772299972972809
 40
3.772299972972809
 40
3.772299972972809
 10
-11.77792392544966
 20
-22.14526817361943
 30
0.0
 10
-11.70226731913411
 20
-22.13616601125698
 30
0.0
 10
-11.55892656288721
 20
-22.11892084391396
 30
0.0
 10
-11.35038357430273
 20
-22.14842956230131
 30
0.0
 10
-11.16179562520152
 20
-22.20961757392497
 30
0.0
 10
-10.98971376897154
 20
-22.3031350959306
 30
0.0
 10
-10.83660022205376
 20
-22.42585646851142
 30
0.0
 10
-10.70702527938092
 20
-22.57401141103121
 30
0.0
 10
-10.60495297775798
 20
-22.74232335574605
 30
0.0
 10
-10.53317019895606
 20
-22.92490699029243
 30
0.0
 10
-10.49319118318579
 20
-23.11526326972024
 30
0.0
 10
-10.48501102847497
 20
-23.30762446752733
 30
0.0
 10
-10.508443817009
 20
-23.50169373013791
 30
0.0
 10
-10.5680100301829
 20
-23.70207919740613
 30
0.0
 10
-10.67589812581423
 20
-23.91013310670249
 30
0.0
 10
-10.84646822827589
 20
-24.11306733814839
 30
0.0
 10
-11.08239314246189
 20
-24.27839995265475
 30
0.0
 10
-11.36891314509879
 20
-24.38243413947771
 30
0.0
 10
-11.57172007702857
 20
-24.37877996819548
 30
0.0
 10
-11.67377484064966
 20
-24.3769411474861
 30
0.0
 11
-11.77792392544966
 21
-22.14526817361943
 31
0.0
 11
-11.550834199583
 21
-22.12843325521943
 31
0.0
 11
-11.34882041824966
 21
-22.15472271015277
 31
0.0
 11
-11.16408309878299
 21
-22.2151464530861
 31
0.0
 11
-10.99326240224966
 21
-22.3077416690861
 31
0.0
 11
-10.84071750624966
 21
-22.42991632721943
 31
0.0
 11
-10.71164265184967
 21
-22.57733252135277
 31
0.0
 11
-10.60990018784966
 21
-22.74492417255277
 31
0.0
 11
-10.53825281504966
 21
-22.9269718066861
 31
0.0
 11
-10.49832896118299
 21
-23.11688203815277
 31
0.0
 11
-10.49020540384967
 21
-23.30785783655277
 31
0.0
 11
-10.51299699638299
 21
-23.4963211730861
 31
0.0
 11
-10.57090663904966
 21
-23.6907900946861
 31
0.0
 11
-10.67749018038299
 21
-23.89593567655277
 31
0.0
 11
-10.84800280224967
 21
-24.09794744935277
 31
0.0
 11
-11.08634578678299
 21
-24.26566021201943
 31
0.0
 11
-11.370021076383
 21
-24.36376072081943
 31
0.0
 11
-11.67377484064966
 21
-24.3769411474861
 31
0.0
  0
LINE
  5
4B
100
AcDbEntity
  8
0
  6
HIDDEN
 62
     8
100
AcDbLine
 10
-11.925149
 20
-23.721655
 30
0.0
 11
-11.395009
 21
-23.561509
 31
0.0
  0
LINE
  5
4C
100
AcDbEntity
  8
0
  6
HIDDEN
 62
     8
100
AcDbLine
 10
-11.378237
 20
-24.277391
 30
0.0
 11
-11.655281
 21
-24.284402
 31
0.0
  0
LWPOLYLINE
  5
4D
100
AcDbEntity
  8
0
  6
HIDDEN
 62
     8
100
AcDbPolyline
 90
        4
 70
     0
 43
0.0
 10
-11.925149
 20
-23.721655
 10
-12.007298
 20
-23.736666
 10
-12.090653
 20
-23.732922
 10
-12.118697
 20
-23.727322
  0
LWPOLYLINE
  5
4E
100
AcDbEntity
  8
0
  6
HIDDEN
 62
     8
100
AcDbPolyline
 90
        4
 70
     0
 43
0.0
 10
-12.118697
 20
-23.727322
 10
-12.171034
 20
-23.710611
 10
-12.24441
 20
-23.670853
 10
-12.307103
 20
-23.61564
  0
LINE
  5
50
100
AcDbEntity
  8
0
  6
HIDDEN
 62
     8
100
AcDbLine
 10
-11.82373
 20
-23.381109
 30
0.0
 11
-11.879508
 21
-23.367741
 31
0.0
  0
LINE
  5
51
100
AcDbEntity
  8
0
  6
HIDDEN
 62
     8
100
AcDbLine
 10
-12.187097
 20
-23.710948
 30
0.0
 11
-12.118749
 21
-23.727328
 31
0.0
  0
LWPOLYLINE
  5
52
100
AcDbEntity
  8
0
  6
HIDDEN
 62
     8
100
AcDbPolyline
 90
        3
 70
     0
 43
0.0
 10
-12.388555
 20
-23.470562
 10
-12.355968
 20
-23.547742
 10
-12.307103
 20
-23.61564
  0
SPLINE
  5
53
100
AcDbEntity
  8
0
  6
HIDDEN
 62
     8
100
AcDbSpline
210
0.0
220
0.0
230
-1.0
 70
     8
 71
     3
 72
     9
 73
     5
 74
     3
 42
0.0000001
 43
0.0000001
 44
0.0000000001
 40
0.0
 40
0.0
 40
0.0
 40
0.0
 40
0.2374921832506131
 40
0.4732350025218015
 40
0.4732350025218015
 40
0.4732350025218015
 40
0.4732350025218015
 10
-12.48450143798299
 20
-23.89992747175277
 30
0.0
 10
-12.5266597632317
 20
-23.83230198975465
 30
0.0
 10
-12.61066587611641
 20
-23.6975491540786
 30
0.0
 10
-12.64980688603108
 20
-23.54366476959124
 30
0.0
 10
-12.66930504651633
 20
-23.46700700241943
 30
0.0
 11
-12.48450143798299
 21
-23.89992747175277
 31
0.0
 11
-12.59967706038299
 21
-23.6922327122861
 31
0.0
 11
-12.66930504651633
 21
-23.46700700241943
 31
0.0
  0
SPLINE
  5
54
100
AcDbEntity
  8
0
  6
HIDDEN
 62
     8
100
AcDbSpline
210
0.0
220
0.0
230
-1.0
 70
     8
 71
     3
 72
    21
 73
    17
 74
    15
 42
0.0000001
 43
0.0000001
 44
0.0000000001
 40
0.0
 40
0.0
 40
0.0
 40
0.0
 40
0.0370721271340788
 40
0.0698516278681891
 40
0.099886864404678
 40
0.127409067477461
 40
0.1526944513111225
 40
0.176050737271628
 40
0.1978012627177495
 40
0.2182711510316521
 40
0.2377764022793982
 40
0.2566158101739306
 40
0.2742570848316807
 40
0.2904191481742621
 40
0.3058742045729553
 40
0.3232748230021711
 40
0.3232748230021711
 40
0.3232748230021711
 40
0.3232748230021711
 10
-12.46849980384967
 20
-23.67488680081943
 30
0.0
 10
-12.47575199297217
 20
-23.66488081305187
 30
0.0
 10
-12.48941663147492
 20
-23.64602744293189
 30
0.0
 10
-12.5083474874928
 20
-23.61863462169791
 30
0.0
 10
-12.52517822073214
 20
-23.59366480428757
 30
0.0
 10
-12.5404124487612
 20
-23.57063261440002
 30
0.0
 10
-12.55434737230034
 20
-23.54941099203495
 30
0.0
 10
-12.56727285907558
 20
-23.5298273357532
 30
0.0
 10
-12.57948980558977
 20
-23.51170217896013
 30
0.0
 10
-12.59133200031304
 20
-23.49486749688672
 30
0.0
 10
-12.6031652681383
 20
-23.47925086021508
 30
0.0
 10
-12.61543005294436
 20
-23.46507250923286
 30
0.0
 10
-12.62835164930422
 20
-23.45340443479945
 30
0.0
 10
-12.64397069390979
 20
-23.44545605029214
 30
0.0
 10
-12.66099412624721
 20
-23.45208371554084
 30
0.0
 10
-12.66643087485094
 20
-23.46184317089874
 30
0.0
 10
-12.669310218783
 20
-23.46701185361943
 30
0.0
 11
-12.46849980384967
 21
-23.67488680081943
 31
0.0
 11
-12.490136337183
 21
-23.64478359441943
 31
0.0
 11
-12.50881263904966
 21
-23.61784493415277
 31
0.0
 11
-12.52560853558299
 21
-23.59294486801943
 31
0.0
 11
-12.54081039584966
 21
-23.5700020018861
 31
0.0
 11
-12.55470901131633
 21
-23.54887904935277
 31
0.0
 11
-12.56760011104967
 21
-23.52940250855277
 31
0.0
 11
-12.57979059851633
 21
-23.5113892530861
 31
0.0
 11
-12.59161501344966
 21
-23.49467998801943
 31
0.0
 11
-12.60347656651632
 21
-23.4791958546861
 31
0.0
 11
-12.61594926944966
 21
-23.4650765426861
 31
0.0
 11
-12.629374164383
 21
-23.45363159761943
 31
0.0
 11
-12.64444443958299
 21
-23.44779215441943
 31
0.0
 11
-12.65899664651633
 21
-23.45299715601944
 31
0.0
 11
-12.669310218783
 21
-23.46701185361943
 31
0.0
  0
SPLINE
  5
55
100
AcDbEntity
  8
0
  6
HIDDEN
 62
     8
100
AcDbSpline
210
0.0
220
0.0
230
-1.0
 70
     8
 71
     3
 72
     9
 73
     5
 74
     3
 42
0.0000001
 43
0.0000001
 44
0.0000000001
 40
0.0
 40
0.0
 40
0.0
 40
0.0
 40
0.0917265852592328
 40
0.182611593232511
 40
0.182611593232511
 40
0.182611593232511
 40
0.182611593232511
 10
-12.38176599584966
 20
-23.83404420775277
 30
0.0
 10
-12.39816422839657
 20
-23.80819438151133
 30
0.0
 10
-12.43081024223351
 20
-23.75673189720113
 30
0.0
 10
-12.45643788988797
 20
-23.70143926675296
 30
0.0
 10
-12.46919266038299
 20
-23.67392036135277
 30
0.0
 11
-12.38176599584966
 21
-23.83404420775277
 31
0.0
 11
-12.429189892383
 21
-23.75552834641943
 31
0.0
 11
-12.46919266038299
 21
-23.67392036135277
 31
0.0
  0
SPLINE
  5
57
100
AcDbEntity
  8
0
  6
HIDDEN
 62
     8
100
AcDbSpline
210
-0.9571077830553139
220
-0.2897321031831681
230
0.0
 70
    24
 71
     3
 72
     9
 73
     5
 74
     3
 42
0.0000001
 43
0.0000001
 44
0.0000000001
 40
0.0
 40
0.0
 40
0.0
 40
0.0
 40
0.0026171697270552
 40
0.0052342978817469
 40
0.0052342978817469
 40
0.0052342978817469
 40
0.0052342978817469
 10
-12.463297293983
 20
-23.45729494481943
 30
0.0
 10
-12.46355401735582
 20
-23.45646117818598
 30
0.0
 10
-12.46406746002354
 20
-23.45479365816303
 30
0.0
 10
-12.46456504166938
 20
-23.45312133675105
 30
0.0
 10
-12.46481383051633
 20
-23.4522851826861
 30
0.0
 11
-12.463297293983
 21
-23.45729494481943
 31
0.0
 11
-12.464063498783
 21
-23.45479244455277
 31
0.0
 11
-12.46481383051633
 21
-23.4522851826861
 31
0.0
  0
SPLINE
  5
59
100
AcDbEntity
  8
0
  6
HIDDEN
 62
     8
100
AcDbSpline
210
0.0
220
0.0
230
1.0
 70
     8
 71
     3
 72
    13
 73
     9
 74
     7
 42
0.0000001
 43
0.0000001
 44
0.0000000001
 40
0.0
 40
0.0
 40
0.0
 40
0.0
 40
0.0277209647503247
 40
0.0639067660839201
 40
0.1047000882677489
 40
0.148727405362745
 40
0.1954273298099695
 40
0.1977003738530251
 40
0.1977003738530251
 40
0.1977003738530251
 40
0.1977003738530251
 10
-11.99187335371633
 20
-23.70566370641943
 30
0.0
 10
-12.00068771960159
 20
-23.70846892865431
 30
0.0
 10
-12.02100799430635
 20
-23.71493597201996
 30
0.0
 10
-12.05561579962296
 20
-23.72036816736011
 30
0.0
 10
-12.09593971199476
 20
-23.72265797921471
 30
0.0
 10
-12.13980722536307
 20
-23.7201601524144
 30
0.0
 10
-12.17044196216422
 20
-23.71490472288411
 30
0.0
 10
-12.18632398792599
 20
-23.71113124022105
 30
0.0
 10
-12.18706114038299
 20
-23.71095609681943
 30
0.0
 11
-11.99187335371633
 21
-23.70566370641943
 31
0.0
 11
-12.01846765771633
 21
-23.71348642215277
 31
0.0
 11
-12.05413866891633
 21
-23.7195684594861
 31
0.0
 11
-12.09486797451633
 21
-23.72185292881944
 31
0.0
 11
-12.13882742731633
 21
-23.7194093330861
 31
0.0
 11
-12.18484914464966
 21
-23.71147935975277
 31
0.0
 11
-12.18706114038299
 21
-23.71095609681943
 31
0.0
  0
SPLINE
  5
5A
100
AcDbEntity
  8
0
  6
HIDDEN
 62
     8
100
AcDbSpline
210
0.0
220
0.0
230
1.0
 70
     8
 71
     3
 72
    10
 73
     6
 74
     4
 42
0.0000001
 43
0.0000001
 44
0.0000000001
 40
0.0
 40
0.0
 40
0.0
 40
0.0
 40
0.3217848319311007
 40
0.6449042024987355
 40
0.9666156735235841
 40
0.9666156735235841
 40
0.9666156735235841
 40
0.9666156735235841
 10
-11.67377665931633
 20
-24.37694046055276
 30
0.0
 10
-11.77961671631081
 20
-24.35670383019965
 30
0.0
 10
-11.99173578090072
 20
-24.31614664209103
 30
0.0
 10
-12.27676960179356
 20
-24.14807075136386
 30
0.0
 10
-12.41535851729369
 20
-23.98252135234549
 30
0.0
 10
-12.48450168011633
 20
-23.89992738001943
 30
0.0
 11
-11.67377665931633
 21
-24.37694046055276
 31
0.0
 11
-11.98583178891633
 21
-24.2984097394861
 31
0.0
 11
-12.264239015583
 21
-24.13441113041943
 31
0.0
 11
-12.48450168011633
 21
-23.89992738001943
 31
0.0
  0
SPLINE
  5
5B
100
AcDbEntity
  8
0
  6
HIDDEN
 62
     8
100
AcDbSpline
210
0.0
220
0.0
230
1.0
 70
     8
 71
     3
 72
    10
 73
     6
 74
     4
 42
0.0000001
 43
0.0000001
 44
0.0000000001
 40
0.0
 40
0.0
 40
0.0
 40
0.0
 40
0.2943806298386994
 40
0.5881952995868289
 40
0.8786269541018555
 40
0.8786269541018555
 40
0.8786269541018555
 40
0.8786269541018555
 10
-11.65528132598299
 20
-24.28440219601943
 30
0.0
 10
-11.75169713580955
 20
-24.26379009705233
 30
0.0
 10
-11.94434339170252
 20
-24.22260552681171
 30
0.0
 10
-12.19960663213734
 20
-24.06334246390699
 30
0.0
 10
-12.32128105548078
 20
-23.91018133882049
 30
0.0
 10
-12.38176599584966
 20
-23.83404420775277
 30
0.0
 11
-11.65528132598299
 21
-24.28440219601943
 31
0.0
 11
-11.93907810144966
 21
-24.2061759506861
 31
0.0
 11
-12.18843396704966
 21
-24.0507773906861
 31
0.0
 11
-12.38176599584966
 21
-23.83404420775277
 31
0.0
  0
LINE
  5
5C
100
AcDbEntity
  8
0
  6
HIDDEN
 62
     8
100
AcDbLine
 10
-11.367848
 20
-23.543232
 30
0.0
 11
-11.395009
 21
-23.561509
 31
0.0
  0
LINE
  5
5D
100
AcDbEntity
  8
0
  6
HIDDEN
 62
     8
100
AcDbLine
 10
-11.395009
 20
-23.561509
 30
0.0
 11
-11.366157
 21
-23.541485
 31
0.0
  0
SPLINE
  5
5E
100
AcDbEntity
  8
0
  6
HIDDEN
 62
     8
100
AcDbSpline
210
-0.5233857699047975
220
0.8520958489871681
230
0.0
 70
    24
 71
     3
 72
     8
 73
     4
 74
     2
 42
0.0000001
 43
0.0000001
 44
0.0000000001
 40
0.0
 40
0.0
 40
0.0
 40
0.0
 40
0.0039924560177626
 40
0.0039924560177626
 40
0.0039924560177626
 40
0.0039924560177626
 10
-11.37126537504966
 20
-23.54532639975277
 30
0.0
 10
-11.370131389983
 20
-23.54462986819722
 30
0.0
 10
-11.36899740491633
 20
-23.54393333664166
 30
0.0
 10
-11.36786341984966
 20
-23.5432368050861
 30
0.0
 11
-11.37126537504966
 21
-23.54532639975277
 31
0.0
 11
-11.36786341984966
 21
-23.5432368050861
 31
0.0
  0
SPLINE
  5
5F
100
AcDbEntity
  8
0
  6
HIDDEN
 62
     8
100
AcDbSpline
210
0.0
220
0.0
230
1.0
 70
     8
 71
     3
 72
    10
 73
     6
 74
     4
 42
0.0000001
 43
0.0000001
 44
0.0000000001
 40
0.0
 40
0.0
 40
0.0
 40
0.0
 40
0.0051516957076297
 40
0.0063301684840256
 40
0.0063923200385043
 40
0.0063923200385043
 40
0.0063923200385043
 40
0.0063923200385043
 10
-11.36615248971633
 20
-23.54149070161943
 30
0.0
 10
-11.36749211284685
 20
-23.54256686322677
 30
0.0
 10
-11.36913818058893
 20
-23.54388920147754
 30
0.0
 10
-11.37092769588787
 20
-23.54505331596223
 30
0.0
 10
-11.37124926538333
 20
-23.54531337173907
 30
0.0
 10
-11.37126537504966
 20
-23.54532639975277
 30
0.0
 11
-11.36615248971633
 21
-23.54149070161943
 31
0.0
 11
-11.37025484384966
 21
-23.5446068946861
 31
0.0
 11
-11.37121698144966
 21
-23.54528740135277
 31
0.0
 11
-11.37126537504966
 21
-23.54532639975277
 31
0.0
  0
ARC
  5
60
100
AcDbEntity
  8
0
100
AcDbCircle
 10
20.02296
 20
-35.903067
 30
0.0
 40
2.5
100
AcDbArc
 50
270.0
 51
0.0
  0
LINE
  5
61
100
AcDbEntity
  8
CENTER
 48
3.0
100
AcDbLine
 10
18.563824
 20
-36.375929
 30
0.0
 11
18.563824
 21
-41.430206
 31
0.0
  0
LINE
  5
62
100
AcDbEntity
  8
0
100
AcDbLine
 10
19.938824
 20
-38.903067
 30
0.0
 11
17.188824
 21
-38.903067
 31
0.0
  0
LINE
  5
63
100
AcDbEntity
  8
0
100
AcDbLine
 10
17.188824
 20
-38.903067
 30
0.0
 11
16.845074
 21
-38.403067
 31
0.0
  0
LINE
  5
64
100
AcDbEntity
  8
0
100
AcDbLine
 10
19.938824
 20
-38.903067
 30
0.0
 11
20.282574
 21
-38.403067
 31
0.0
  0
LINE
  5
65
100
AcDbEntity
  8
0
100
AcDbLine
 10
24.112828
 20
-24.215567
 30
0.0
 11
22.52296
 21
-35.903067
 31
0.0
  0
LWPOLYLINE
  5
6A
100
AcDbEntity
  8
0
  6
HIDDEN
 62
     8
100
AcDbPolyline
 90
       15
 70
     0
 43
0.0
 10
-5.964417
 20
-20.841988
 10
-6.388522
 20
-20.951228
 10
-6.835741
 20
-21.07002
 10
-7.301558
 20
-21.197165
 10
-7.781285
 20
-21.331384
 10
-8.27009
 20
-21.471324
 10
-8.763054
 20
-21.615578
 10
-9.255214
 20
-21.762691
 10
-9.741617
 20
-21.911185
 10
-10.217367
 20
-22.059564
 10
-10.677673
 20
-22.206335
 10
-11.117903
 20
-22.35002
 10
-11.533624
 20
-22.489172
 10
-11.920649
 20
-22.622391
 10
-12.275071
 20
-22.748331
  0
SPLINE
  5
6B
100
AcDbEntity
  8
0
  6
HIDDEN
 62
     8
100
AcDbSpline
210
0.0
220
0.0
230
1.0
 70
     8
 71
     3
 72
     9
 73
     5
 74
     3
 42
0.0000001
 43
0.0000001
 44
0.0000000001
 40
0.0
 40
0.0
 40
0.0
 40
0.0
 40
0.2305085667192019
 40
0.9217113380293106
 40
0.9217113380293106
 40
0.9217113380293106
 40
0.9217113380293106
 10
-12.88053549771633
 20
-21.55906382055277
 30
0.0
 10
-12.9556470746375
 20
-21.54272524418485
 30
0.0
 10
-13.25598815545225
 20
-21.47739382809085
 30
0.0
 10
-13.54715601566406
 20
-21.37788039959542
 30
0.0
 10
-13.76550640758299
 20
-21.30325404455277
 30
0.0
 11
-12.88053549771633
 21
-21.55906382055277
 31
0.0
 11
-13.10529650038299
 21
-21.50791021841944
 31
0.0
 11
-13.76550640758299
 21
-21.30325404455277
 31
0.0
  0
SPLINE
  5
6C
100
AcDbEntity
  8
0
  6
HIDDEN
 62
     8
100
AcDbSpline
210
0.0
220
0.0
230
1.0
 70
     8
 71
     3
 72
     9
 73
     5
 74
     3
 42
0.0000001
 43
0.0000001
 44
0.0000000001
 40
0.0
 40
0.0
 40
0.0
 40
0.0
 40
0.1184125005808048
 40
1.290633624107266
 40
1.290633624107266
 40
1.290633624107266
 40
1.290633624107266
 10
-13.83454923638299
 20
-21.62311410855277
 30
0.0
 10
-13.79580828404642
 20
-21.63070171845951
 30
0.0
 10
-13.37355239492765
 20
-21.71340265310929
 30
0.0
 10
-12.94354938156989
 20
-21.74462110039156
 30
0.0
 10
-12.55299810038299
 20
-21.77297533095277
 30
0.0
 11
-13.83454923638299
 21
-21.62311410855277
 31
0.0
 11
-13.71826116704967
 21
-21.64544357841943
 31
0.0
 11
-12.55299810038299
 21
-21.77297533095277
 31
0.0
  0
SPLINE
  5
6D
100
AcDbEntity
  8
0
  6
HIDDEN
 62
     8
100
AcDbSpline
210
0.0
220
0.0
230
1.0
 70
     8
 71
     3
 72
     9
 73
     5
 74
     3
 42
0.0000001
 43
0.0000001
 44
0.0000000001
 40
0.0
 40
0.0
 40
0.0
 40
0.0
 40
0.1278431477441892
 40
0.5111012856054396
 40
0.5111012856054396
 40
0.5111012856054396
 40
0.5111012856054396
 10
-15.90783335264966
 20
-20.90188422055277
 30
0.0
 10
-15.86980581917967
 20
-20.92112359490751
 30
0.0
 10
-15.71777638633273
 20
-20.99804026303141
 30
0.0
 10
-15.5622047035403
 20
-21.06759380420019
 30
0.0
 10
-15.445546586783
 20
-21.1197497298861
 30
0.0
 11
-15.90783335264966
 21
-20.90188422055277
 31
0.0
 11
-15.79352912651633
 21
-20.9591416594861
 31
0.0
 11
-15.445546586783
 21
-21.1197497298861
 31
0.0
  0
SPLINE
  5
6E
100
AcDbEntity
  8
0
  6
HIDDEN
 62
     8
100
AcDbSpline
210
0.0
220
0.0
230
1.0
 70
     8
 71
     3
 72
     9
 73
     5
 74
     3
 42
0.0000001
 43
0.0000001
 44
0.0000000001
 40
0.0
 40
0.0
 40
0.0
 40
0.0
 40
0.6446847828217832
 40
1.690033583720547
 40
1.690033583720547
 40
1.690033583720547
 40
1.690033583720547
 10
-15.445546586783
 20
-21.1197497298861
 30
0.0
 10
-15.24640175254435
 20
-21.20122535981879
 30
0.0
 10
-14.72434590935436
 20
-21.41481276642445
 30
0.0
 10
-14.17459232884583
 20
-21.54351004316001
 30
0.0
 10
-13.83454923638299
 20
-21.62311410855277
 30
0.0
 11
-15.445546586783
 21
-21.1197497298861
 31
0.0
 11
-14.844081681183
 21
-21.3518239346861
 31
0.0
 11
-13.83454923638299
 21
-21.62311410855277
 31
0.0
  0
LINE
  5
6F
100
AcDbEntity
  8
0
  6
HIDDEN
 62
     8
100
AcDbLine
 10
-13.765506
 20
-21.303254
 30
0.0
 11
-14.83442
 21
-20.903067
 31
0.0
  0
LWPOLYLINE
  5
71
100
AcDbEntity
  8
0
  6
HIDDEN
 62
     8
100
AcDbPolyline
 90
        7
 70
     0
 43
0.0
 10
-6.513132
 20
-21.777205
 10
-8.120244
 20
-22.238279
 10
-8.559914
 20
-22.367094
 10
-8.998735
 20
-22.498317
 10
-9.432616
 20
-22.630723
 10
-9.857512
 20
-22.763079
 10
-11.295147
 20
-23.220495
  0
LWPOLYLINE
  5
72
100
AcDbEntity
  8
0
  6
HIDDEN
 62
     8
100
AcDbPolyline
 90
        7
 70
     0
 43
0.0
 10
-6.553063
 20
-21.252881
 10
-8.266339
 20
-21.744413
 10
-8.706009
 20
-21.873229
 10
-9.14483
 20
-22.004451
 10
-9.578711
 20
-22.136857
 10
-10.003607
 20
-22.269213
 10
-11.44737
 20
-22.728579
  0
SPLINE
  5
74
100
AcDbEntity
  8
0
  6
HIDDEN
 62
     8
100
AcDbSpline
210
0.0
220
0.0
230
1.0
 70
     8
 71
     3
 72
    10
 73
     6
 74
     4
 42
0.0000001
 43
0.0000001
 44
0.0000000001
 40
0.0
 40
0.0
 40
0.0
 40
0.0
 40
0.1843192825956496
 40
0.3586609413517246
 40
0.5294804374987199
 40
0.5294804374987199
 40
0.5294804374987199
 40
0.5294804374987199
 10
-10.35975442464966
 20
-21.54729977361943
 30
0.0
 10
-10.30018607079714
 20
-21.53224345488538
 30
0.0
 10
-10.18427393416851
 20
-21.50294585034614
 30
0.0
 10
-10.01438249510911
 20
-21.45502179150724
 30
0.0
 10
-9.904475348940399
 20
-21.42098720031731
 30
0.0
 10
-9.850082544116331
 20
-21.40414355601943
 30
0.0
 11
-10.35975442464966
 21
-21.54729977361943
 31
0.0
 11
-10.18126872651633
 21
-21.50129484455276
 31
0.0
 11
-10.01346737824966
 21
-21.4539902834861
 31
0.0
 11
-9.850082544116331
 21
-21.40414355601943
 31
0.0
  0
SPLINE
  5
75
100
AcDbEntity
  8
0
  6
HIDDEN
 62
     8
100
AcDbSpline
210
0.0
220
0.0
230
1.0
 70
     8
 71
     3
 72
    10
 73
     6
 74
     4
 42
0.0000001
 43
0.0000001
 44
0.0000000001
 40
0.0
 40
0.0
 40
0.0
 40
0.0
 40
0.1810053778930353
 40
0.3624756913871551
 40
0.5409831062673014
 40
0.5409831062673014
 40
0.5409831062673014
 40
0.5409831062673014
 10
-9.843828228382996
 20
-21.4021019058861
 30
0.0
 10
-9.901493015296832
 20
-21.41986294797243
 30
0.0
 10
-10.01697070854878
 20
-21.45543065366682
 30
0.0
 10
-10.1911728650888
 20
-21.5022436965308
 30
0.0
 10
-10.30810330328876
 20
-21.52920347247958
 30
0.0
 10
-10.36608730784967
 20
-21.54257241041944
 30
0.0
 11
-9.843828228382996
 21
-21.4021019058861
 31
0.0
 11
-10.017132599583
 21
-21.45433735121943
 31
0.0
 11
-10.19238461024966
 21
-21.50143520081943
 31
0.0
 11
-10.36608730784967
 21
-21.54257241041944
 31
0.0
  0
SPLINE
  5
76
100
AcDbEntity
  8
0
  6
HIDDEN
 62
     8
100
AcDbSpline
210
0.0
220
0.0
230
1.0
 70
     8
 71
     3
 72
     9
 73
     5
 74
     3
 42
0.0000001
 43
0.0000001
 44
0.0000000001
 40
0.0
 40
0.0
 40
0.0
 40
0.0
 40
1.104307833859352
 40
1.453328403634383
 40
1.453328403634383
 40
1.453328403634383
 40
1.453328403634383
 10
-11.79571192544966
 20
-21.76413733415277
 30
0.0
 10
-11.42843621608493
 20
-21.72960676137377
 30
0.0
 10
-10.94508166220179
 20
-21.68416267352546
 30
0.0
 10
-10.47310098341958
 20
-21.57380564256659
 30
0.0
 10
-10.35975360438299
 20
-21.54730311655277
 30
0.0
 11
-11.79571192544966
 21
-21.76413733415277
 31
0.0
 11
-10.700451709983
 21
-21.62306695335276
 31
0.0
 11
-10.35975360438299
 21
-21.54730311655277
 31
0.0
  0
SPLINE
  5
77
100
AcDbEntity
  8
0
  6
HIDDEN
 62
     8
100
AcDbSpline
210
0.0
220
0.0
230
1.0
 70
     8
 71
     3
 72
    10
 73
     6
 74
     4
 42
0.0000001
 43
0.0000001
 44
0.0000000001
 40
0.0
 40
0.0
 40
0.0
 40
0.0
 40
0.6330247628057384
 40
1.266044332213459
 40
1.440330182844842
 40
1.440330182844842
 40
1.440330182844842
 40
1.440330182844842
 10
-10.36608730784967
 20
-21.54257241041944
 30
0.0
 10
-10.57358531109602
 20
-21.5817789565303
 30
0.0
 10
-10.98857961525452
 20
-21.66019172709764
 30
0.0
 10
-11.46957633858921
 20
-21.68685336243882
 30
0.0
 10
-11.73863031674314
 20
-21.68337321699018
 30
0.0
 10
-11.79671527478299
 20
-21.6826219026861
 30
0.0
 11
-10.36608730784967
 21
-21.54257241041944
 31
0.0
 11
-10.99053129504966
 21
-21.64644761041943
 31
0.0
 11
-11.622435009183
 21
-21.6840171634861
 31
0.0
 11
-11.79671527478299
 21
-21.6826219026861
 31
0.0
  0
LWPOLYLINE
  5
78
100
AcDbEntity
  8
0
  6
HIDDEN
 62
     8
100
AcDbPolyline
 90
        3
 70
     0
 43
0.0
 10
-11.652415
 20
-22.9815
 10
-11.621858
 20
-23.023959
 10
-11.60148
 20
-23.072222
  0
SPLINE
  5
7A
100
AcDbEntity
  8
0
  6
HIDDEN
 62
     8
100
AcDbSpline
210
0.0
220
0.0
230
-1.0
 70
     8
 71
     3
 72
    15
 73
    11
 74
     9
 42
0.0000001
 43
0.0000001
 44
0.0000000001
 40
0.0
 40
0.0
 40
0.0
 40
0.0
 40
0.041418926822468
 40
0.082931951261249
 40
0.1244020356168358
 40
0.1657920360149311
 40
0.2071117388586407
 40
0.2484606625183754
 40
0.289962316544242
 40
0.331668231666122
 40
0.331668231666122
 40
0.331668231666122
 40
0.331668231666122
 10
-11.42538198091633
 20
-22.78024388455276
 30
0.0
 10
-11.4299612949939
 20
-22.76718314741825
 30
0.0
 10
-11.43913032666676
 20
-22.74103200110491
 30
0.0
 10
-11.4611248840552
 20
-22.70551499003313
 30
0.0
 10
-11.48835885717771
 20
-22.67405004131101
 30
0.0
 10
-11.52055757070246
 20
-22.64771233102845
 30
0.0
 10
-11.55659566374964
 20
-22.6270337018591
 30
0.0
 10
-11.59555018245821
 20
-22.6126214580739
 30
0.0
 10
-11.63647831524368
 20
-22.60417609368832
 30
0.0
 10
-11.66427409680147
 20
-22.60417630680134
 30
0.0
 10
-11.67820610464966
 20
-22.60417641361943
 30
0.0
 11
-11.42538198091633
 21
-22.78024388455276
 31
0.0
 11
-11.44049018891633
 21
-22.7416787506861
 31
0.0
 11
-11.46200818358299
 21
-22.70617794641943
 31
0.0
 11
-11.48921326198299
 21
-22.67487855975276
 31
0.0
 11
-11.521222058783
 21
-22.6486379602861
 31
0.0
 11
-11.55706685344966
 21
-22.62808392081943
 31
0.0
 11
-11.59580917984966
 21
-22.61363519655277
 31
0.0
 11
-11.63652427211633
 21
-22.60559352081944
 31
0.0
 11
-11.67820610464966
 21
-22.60417641361943
 31
0.0
  0
SPLINE
  5
7B
100
AcDbEntity
  8
0
  6
HIDDEN
 62
     8
100
AcDbSpline
210
-0.0116698221515749
220
0.9999319053070315
230
0.0
 70
    24
 71
     3
 72
     8
 73
     4
 74
     2
 42
0.0000001
 43
0.0000001
 44
0.0000000001
 40
0.0
 40
0.0
 40
0.0
 40
0.0
 40
0.7573377456145934
 40
0.7573377456145934
 40
0.7573377456145934
 40
0.7573377456145934
 10
-12.55299810038299
 20
-21.77297533095277
 30
0.0
 10
-12.30056937540521
 20
-21.77002933201943
 30
0.0
 10
-12.04814065042744
 20
-21.7670833330861
 30
0.0
 10
-11.79571192544966
 20
-21.76413733415277
 30
0.0
 11
-12.55299810038299
 21
-21.77297533095277
 31
0.0
 11
-11.79571192544966
 21
-21.76413733415277
 31
0.0
  0
SPLINE
  5
7C
100
AcDbEntity
  8
0
  6
HIDDEN
 62
     8
100
AcDbSpline
210
0.174867653449676
220
0.98459194785302
230
0.0
 70
    24
 71
     3
 72
     8
 73
     4
 74
     2
 42
0.0000001
 43
0.0000001
 44
0.0000000001
 40
0.0
 40
0.0
 40
0.0
 40
0.0
 40
0.3445868164368156
 40
0.3445868164368156
 40
0.3445868164368156
 40
0.3445868164368156
 10
-12.54125809291633
 20
-21.61932090855276
 30
0.0
 10
-12.654350561183
 20
-21.59923521255277
 30
0.0
 10
-12.76744302944966
 20
-21.57914951655276
 30
0.0
 10
-12.88053549771633
 20
-21.55906382055277
 30
0.0
 11
-12.54125809291633
 21
-21.61932090855276
 31
0.0
 11
-12.88053549771633
 21
-21.55906382055277
 31
0.0
  0
SPLINE
  5
7D
100
AcDbEntity
  8
0
  6
HIDDEN
 62
     8
100
AcDbSpline
210
0.0847143283973617
220
0.996405280277149
230
0.0
 70
    24
 71
     3
 72
     8
 73
     4
 74
     2
 42
0.0000001
 43
0.0000001
 44
0.0000000001
 40
0.0
 40
0.0
 40
0.0
 40
0.0
 40
0.7472288965853794
 40
0.7472288965853794
 40
0.7472288965853794
 40
0.7472288965853794
 10
-11.79671527478299
 20
-21.6826219026861
 30
0.0
 10
-12.04489621416077
 20
-21.66152157130832
 30
0.0
 10
-12.29307715353855
 20
-21.64042123993054
 30
0.0
 10
-12.54125809291633
 20
-21.61932090855276
 30
0.0
 11
-11.79671527478299
 21
-21.6826219026861
 31
0.0
 11
-12.54125809291633
 21
-21.61932090855276
 31
0.0
  0
LWPOLYLINE
  5
7E
100
AcDbEntity
  8
0
  6
HIDDEN
 62
     8
100
AcDbPolyline
 90
       11
 70
     0
 43
0.0
 10
-11.770232
 20
-22.911661
 10
-11.787769
 20
-22.908159
 10
-11.839893
 20
-22.905818
 10
-11.891263
 20
-22.915205
 10
-11.939304
 20
-22.935848
 10
-11.981605
 20
-22.966714
 10
-12.016046
 20
-23.006254
 10
-12.0409
 20
-23.052485
 10
-12.05492
 20
-23.10309
 10
-12.057404
 20
-23.15553
 10
-12.048227
 20
-23.207177
  0
LWPOLYLINE
  5
7F
100
AcDbEntity
  8
0
  6
HIDDEN
 62
     8
100
AcDbPolyline
 90
        3
 70
     0
 43
0.0
 10
-12.048227
 20
-23.207177
 10
-12.027849
 20
-23.255439
 10
-11.997292
 20
-23.297899
  0
LWPOLYLINE
  5
80
100
AcDbEntity
  8
0
  6
HIDDEN
 62
     8
100
AcDbPolyline
 90
        8
 70
     0
 43
0.0
 10
-12.208347
 20
-22.764323
 10
-12.28517
 20
-22.797335
 10
-12.352816
 20
-22.846694
 10
-12.407892
 20
-22.909924
 10
-12.447637
 20
-22.983855
 10
-12.470058
 20
-23.064779
 10
-12.47403
 20
-23.148639
 10
-12.459355
 20
-23.231229
  0
LINE
  5
81
100
AcDbEntity
  8
0
  6
HIDDEN
 62
     8
100
AcDbLine
 10
-12.09146
 20
-22.268661
 30
0.0
 11
-12.508943
 21
-23.140973
 31
0.0
  0
SPLINE
  5
82
100
AcDbEntity
  8
0
  6
HIDDEN
 62
     8
100
AcDbSpline
210
0.0
220
0.0
230
1.0
 70
     8
 71
     3
 72
    15
 73
    11
 74
     9
 42
0.0000001
 43
0.0000001
 44
0.0000000001
 40
0.0
 40
0.0
 40
0.0
 40
0.0
 40
0.0224752321501511
 40
0.0550845567366682
 40
0.0887789893448792
 40
0.1252024958495465
 40
0.1645322537124477
 40
0.2066455499806592
 40
0.2518610777195877
 40
0.3026883053758274
 40
0.3026883053758274
 40
0.3026883053758274
 40
0.3026883053758274
 10
-12.09145953184966
 20
-22.26866089361944
 30
0.0
 10
-12.08702130608299
 20
-22.27503370399207
 30
0.0
 10
-12.07614365652545
 20
-22.29065282784352
 30
0.0
 10
-12.04410383561572
 20
-22.29437522460304
 30
0.0
 10
-12.01061382174331
 20
-22.29431575107114
 30
0.0
 10
-11.97397516732034
 20
-22.29176430679532
 30
0.0
 10
-11.93490648498825
 20
-22.28835768083692
 30
0.0
 10
-11.89282495580031
 20
-22.28469713816085
 30
0.0
 10
-11.84690627636157
 20
-22.28121896576947
 30
0.0
 10
-11.81492466230118
 20
-22.27971743566288
 30
0.0
 10
-11.79799952544966
 20
-22.27892280401943
 30
0.0
 11
-12.09145953184966
 21
-22.26866089361944
 31
0.0
 11
-12.07664624011633
 21
-22.28556362855277
 31
0.0
 11
-12.04505492704966
 21
-22.2936479954861
 31
0.0
 11
-12.011361841183
 21
-22.29394924881944
 31
0.0
 11
-11.97500575264966
 21
-22.2917341522861
 31
0.0
 11
-11.93581434678299
 21
-22.28843816081944
 31
0.0
 11
-11.89385312651633
 21
-22.28486244881943
 31
0.0
 11
-11.848758116383
 21
-22.28156335655277
 31
0.0
 11
-11.79799952544966
 21
-22.27892280401943
 31
0.0
  0
SPLINE
  5
83
100
AcDbEntity
  8
0
  6
HIDDEN
 62
     8
100
AcDbSpline
210
0.0
220
0.0
230
-1.0
 70
     8
 71
     3
 72
     9
 73
     5
 74
     3
 42
0.0000001
 43
0.0000001
 44
0.0000000001
 40
0.0
 40
0.0
 40
0.0
 40
0.0
 40
0.1710742779966861
 40
0.3535128589318353
 40
0.3535128589318353
 40
0.3535128589318353
 40
0.3535128589318353
 10
-12.10615869878299
 20
-22.2711517074861
 30
0.0
 10
-12.05650418290438
 20
-22.24234737864354
 30
0.0
 10
-11.95389664848903
 20
-22.18282527656026
 30
0.0
 10
-11.83782610959914
 20
-22.15805234536672
 30
0.0
 10
-11.77792519264966
 20
-22.1452676946861
 30
0.0
 11
-12.10615869878299
 21
-22.2711517074861
 31
0.0
 11
-11.954042317983
 21
-22.19287645415277
 31
0.0
 11
-11.77792519264966
 21
-22.1452676946861
 31
0.0
  0
LINE
  5
86
100
AcDbEntity
  8
0
  6
HIDDEN
 62
     8
100
AcDbLine
 10
-11.714421
 20
-22.925025
 30
0.0
 11
-11.770199
 21
-22.911657
 31
0.0
  0
LWPOLYLINE
  5
87
100
AcDbEntity
  8
0
  6
HIDDEN
 62
     8
100
AcDbPolyline
 90
        4
 70
     0
 43
0.0
 10
-11.652415
 20
-22.9815
 10
-11.691619
 20
-22.946973
 10
-11.737504
 20
-22.922111
 10
-11.770232
 20
-22.911661
  0
LINE
  5
88
100
AcDbEntity
  8
0
  6
HIDDEN
 62
     8
100
AcDbLine
 10
-12.208347
 20
-22.764323
 30
0.0
 11
-11.678206
 21
-22.604176
 31
0.0
  0
SPLINE
  5
89
100
AcDbEntity
  8
0
  6
HIDDEN
 62
     8
100
AcDbSpline
210
0.0
220
0.0
230
-1.0
 70
     8
 71
     3
 72
     9
 73
     5
 74
     3
 42
0.0000001
 43
0.0000001
 44
0.0000000001
 40
0.0
 40
0.0
 40
0.0
 40
0.0
 40
0.0259863483289963
 40
0.0522617728828358
 40
0.0522617728828358
 40
0.0522617728828358
 40
0.0522617728828358
 10
-11.80010626678299
 20
-22.27903497895276
 30
0.0
 10
-11.79172452153171
 20
-22.27684452125199
 30
0.0
 10
-11.77486779117705
 20
-22.27243923885456
 30
0.0
 10
-11.75783576597971
 20
-22.26876949184872
 30
0.0
 10
-11.74927264864966
 20
-22.2669244690861
 30
0.0
 11
-11.80010626678299
 21
-22.27903497895276
 31
0.0
 11
-11.774917690783
 21
-22.2726454610861
 31
0.0
 11
-11.74927264864966
 21
-22.2669244690861
 31
0.0
  0
LINE
  5
8A
100
AcDbEntity
  8
0
  6
HIDDEN
 62
     8
100
AcDbLine
 10
-10.359758
 20
-21.547301
 30
0.0
 11
-10.366087
 21
-21.542572
 31
0.0
  0
LINE
  5
8B
100
AcDbEntity
  8
0
  6
HIDDEN
 62
     8
100
AcDbLine
 10
-11.425382
 20
-22.780244
 30
0.0
 11
-11.279287
 21
-23.27411
 31
0.0
  0
SPLINE
  5
8E
100
AcDbEntity
  8
0
  6
HIDDEN
 62
     8
100
AcDbSpline
210
0.0
220
0.0
230
1.0
 70
     8
 71
     3
 72
    10
 73
     6
 74
     4
 42
0.0000001
 43
0.0000001
 44
0.0000000001
 40
0.0
 40
0.0
 40
0.0
 40
0.0
 40
0.0035852124407026
 40
0.2203007040904721
 40
1.322458802385132
 40
1.322458802385132
 40
1.322458802385132
 40
1.322458802385132
 10
-9.850098109982997
 20
-21.40409449255277
 30
0.0
 10
-9.848959055537298
 20
-21.40373290919504
 30
0.0
 10
-9.778967527689145
 20
-21.38151468095566
 30
0.0
 10
-9.360082779483215
 20
-21.24350204948721
 30
0.0
 10
-8.96094037428295
 20
-21.05740338635924
 30
0.0
 10
-8.627384499316328
 20
-20.90188419921943
 30
0.0
 11
-9.850098109982997
 21
-21.40409449255277
 31
0.0
 11
-9.846681002783004
 21
-21.4030095378861
 31
0.0
 11
-9.641046388382996
 21
-21.33459894161943
 31
0.0
 11
-8.627384499316328
 21
-20.90188419921943
 31
0.0
  0
SPLINE
  5
8F
100
AcDbEntity
  8
0
  6
HIDDEN
 62
     8
100
AcDbSpline
210
0.0
220
0.0
230
1.0
 70
     8
 71
     3
 72
    23
 73
    19
 74
    17
 42
0.0000001
 43
0.0000001
 44
0.0000000001
 40
0.0
 40
0.0
 40
0.0
 40
0.0
 40
0.0162457877549977
 40
0.0310192310921766
 40
0.0470980039210106
 40
0.0647320677898372
 40
0.0839588684529922
 40
0.1041733422706129
 40
0.1253899508546649
 40
0.1478288160200711
 40
0.1716420668594995
 40
0.1969837673834539
 40
0.2240071981314759
 40
0.25286091717484
 40
0.2836850377934272
 40
0.3166092146066731
 40
0.3517544139918525
 40
0.3892210108935471
 40
0.3892210108935471
 40
0.3892210108935471
 40
0.3892210108935471
 10
-4.818312067316335
 20
-21.3607652690861
 30
0.0
 10
-4.821608024252613
 20
-21.35643852518439
 30
0.0
 10
-4.827901227845947
 20
-21.34817716716422
 30
0.0
 10
-4.845263220061058
 20
-21.34286545701227
 30
0.0
 10
-4.857770349211714
 20
-21.35610548298573
 30
0.0
 10
-4.86572758910832
 20
-21.37138452799527
 30
0.0
 10
-4.872808399141414
 20
-21.38921407281415
 30
0.0
 10
-4.879169570583371
 20
-21.4083682467567
 30
0.0
 10
-4.885352193078507
 20
-21.4287540913979
 30
0.0
 10
-4.891595850590713
 20
-21.45035626000006
 30
0.0
 10
-4.898141296887448
 20
-21.47330668955883
 30
0.0
 10
-4.905174882677034
 20
-21.49770573546966
 30
0.0
 10
-4.912879209358997
 20
-21.523659884266
 30
0.0
 10
-4.921438954378188
 20
-21.55126448014816
 30
0.0
 10
-4.931042746945637
 20
-21.58060169730465
 30
0.0
 10
-4.941914072785144
 20
-21.61172371295588
 30
0.0
 10
-4.954201408185275
 20
-21.64469248686831
 30
0.0
 10
-4.963386707885652
 20
-21.6670873403351
 30
0.0
 10
-4.96812618464967
 20
-21.67864274855276
 30
0.0
 11
-4.818312067316335
 21
-21.3607652690861
 31
0.0
 11
-4.829610253982999
 21
-21.3490915122861
 31
0.0
 11
-4.84399903264967
 21
-21.3457422322861
 31
0.0
 11
-4.856543689716335
 21
-21.35579999121943
 31
0.0
 11
-4.865266767049669
 21
-21.37112539921943
 31
0.0
 11
-4.872505995849667
 21
-21.38893728935277
 31
0.0
 11
-4.878984889716329
 21
-21.40808536721943
 31
0.0
 11
-4.885189965982996
 21
-21.42837431761943
 31
0.0
 11
-4.891456505716337
 21
-21.44992038801943
 31
0.0
 11
-4.898012007582999
 21
-21.4728135378861
 31
0.0
 11
-4.905050615582997
 21
-21.4971581426861
 31
0.0
 11
-4.912756141982999
 21
-21.52305970001943
 31
0.0
 11
-4.921313945716328
 21
-21.5506151186861
 31
0.0
 11
-4.930917642783004
 21
-21.57990497041943
 31
0.0
 11
-4.941773401716336
 21
-21.61098798695276
 31
0.0
 11
-4.954102444916333
 21
-21.64389968295277
 31
0.0
 11
-4.96812618464967
 21
-21.67864274855276
 31
0.0
  0
LWPOLYLINE
  5
90
100
AcDbEntity
  8
0
  6
HIDDEN
 62
     8
100
AcDbPolyline
 90
       11
 70
     0
 43
0.0
 10
-6.164166
 20
-21.641238
 10
-6.146629
 20
-21.644739
 10
-6.094505
 20
-21.64708
 10
-6.043134
 20
-21.637694
 10
-5.995094
 20
-21.61705
 10
-5.952793
 20
-21.586185
 10
-5.918352
 20
-21.546645
 10
-5.893498
 20
-21.500413
 10
-5.879477
 20
-21.449809
 10
-5.876994
 20
-21.397369
 10
-5.886171
 20
-21.345722
  0
LWPOLYLINE
  5
91
100
AcDbEntity
  8
0
  6
HIDDEN
 62
     8
100
AcDbPolyline
 90
        6
 70
     0
 43
0.0
 10
-6.332917
 20
-21.480677
 10
-6.312539
 20
-21.52894
 10
-6.281982
 20
-21.571399
 10
-6.242779
 20
-21.605925
 10
-6.196894
 20
-21.630788
 10
-6.164166
 20
-21.641238
  0
LINE
  5
92
100
AcDbEntity
  8
0
  6
HIDDEN
 62
     8
100
AcDbLine
 10
-6.39746
 20
-21.799391
 30
0.0
 11
-6.543555
 21
-21.305525
 31
0.0
  0
LWPOLYLINE
  5
93
100
AcDbEntity
  8
0
  6
HIDDEN
 62
     8
100
AcDbPolyline
 90
        8
 70
     0
 43
0.0
 10
-5.614495
 20
-21.815312
 10
-5.537672
 20
-21.7823
 10
-5.470026
 20
-21.732941
 10
-5.41495
 20
-21.669711
 10
-5.375205
 20
-21.59578
 10
-5.352784
 20
-21.514856
 10
-5.348812
 20
-21.430996
 10
-5.363487
 20
-21.348406
  0
SPLINE
  5
94
100
AcDbEntity
  8
0
  6
HIDDEN
 62
     8
100
AcDbSpline
210
0.0
220
0.0
230
1.0
 70
     8
 71
     3
 72
    19
 73
    15
 74
    13
 42
0.0000001
 43
0.0000001
 44
0.0000000001
 40
0.0
 40
0.0
 40
0.0
 40
0.0
 40
0.0695734112757252
 40
0.140226846675743
 40
0.2076627034702005
 40
0.26844308903863
 40
0.3216131511151076
 40
0.3684813526879169
 40
0.4102772894475146
 40
0.4484460022322799
 40
0.4833141284643491
 40
0.5156775635886616
 40
0.5484122565673044
 40
0.5807634695942696
 40
0.5807634695942696
 40
0.5807634695942696
 40
0.5807634695942696
 10
-5.438299165983
 20
-21.33516018001943
 30
0.0
 10
-5.433201096652247
 20
-21.3578451216889
 30
0.0
 10
-5.422925818018105
 20
-21.40356715513536
 30
0.0
 10
-5.423121103682582
 20
-21.473344345515
 30
0.0
 10
-5.434021159830312
 20
-21.53898327165898
 30
0.0
 10
-5.453749931761601
 20
-21.59642183160587
 30
0.0
 10
-5.478485492359375
 20
-21.64416881470802
 30
0.0
 10
-5.505677266419753
 20
-21.68299906826549
 30
0.0
 10
-5.533981212626534
 20
-21.7145305961178
 30
0.0
 10
-5.562629525882806
 20
-21.7400266513813
 30
0.0
 10
-5.591236520324133
 20
-21.76053961763047
 30
0.0
 10
-5.620215791716489
 20
-21.77707111997733
 30
0.0
 10
-5.649959840586177
 20
-21.790377625059
 30
0.0
 10
-5.670840330491408
 20
-21.79635108850273
 30
0.0
 10
-5.681219062516332
 20
-21.7993202226861
 30
0.0
 11
-5.438299165983
 21
-21.33516018001943
 31
0.0
 11
-5.425566821449667
 21
-21.4035586226861
 31
0.0
 11
-5.425071509449669
 21
-21.4742103218861
 31
0.0
 11
-5.436299686516329
 21
-21.54070485415276
 31
0.0
 11
-5.456037989449667
 21
-21.59819098001944
 31
0.0
 11
-5.480525967049666
 21
-21.64538626001943
 31
0.0
 11
-5.507428717983001
 21
-21.68376425255277
 31
0.0
 11
-5.535365626783002
 21
-21.7148517010861
 31
0.0
 11
-5.563890471583001
 21
-21.74021277095277
 31
0.0
 11
-5.592250467316336
 21
-21.76049815655276
 31
0.0
 11
-5.620354902516329
 21
-21.77654598055277
 31
0.0
 11
-5.650333535049666
 21
-21.78969290855277
 31
0.0
 11
-5.681219062516332
 21
-21.7993202226861
 31
0.0
  0
SPLINE
  5
96
100
AcDbEntity
  8
0
  6
HIDDEN
 62
     8
100
AcDbSpline
210
0.0
220
0.0
230
1.0
 70
     8
 71
     3
 72
    13
 73
     9
 74
     7
 42
0.0000001
 43
0.0000001
 44
0.0000000001
 40
0.0
 40
0.0
 40
0.0
 40
0.0
 40
0.2470105717770199
 40
0.4976002279322386
 40
0.7517710819227568
 40
1.00871968029196
 40
1.267014223870485
 40
1.524968928046568
 40
1.524968928046568
 40
1.524968928046568
 40
1.524968928046568
 10
-4.81839075424967
 20
-21.36065899281943
 30
0.0
 10
-4.818972916296067
 20
-21.4433473873812
 30
0.0
 10
-4.82014567568404
 20
-21.6099222982657
 30
0.0
 10
-4.893352232434525
 20
-21.8528873363842
 30
0.0
 10
-5.015864692005203
 20
-22.07731241718341
 30
0.0
 10
-5.187833956940823
 20
-22.27003337645479
 30
0.0
 10
-5.397493193031005
 20
-22.42522560413208
 30
0.0
 10
-5.559304191700143
 20
-22.4858335499235
 30
0.0
 10
-5.640156432116335
 20
-22.51611757415277
 30
0.0
 11
-4.81839075424967
 21
-21.36065899281943
 31
0.0
 11
-4.831788543049666
 21
-21.6073059506861
 31
0.0
 11
-4.900898311582995
 21
-21.84817731815277
 31
0.0
 11
-5.023338817183001
 21
-22.0709129138861
 31
0.0
 11
-5.193639165982999
 21
-22.26331970535277
 31
0.0
 11
-5.403048924916332
 21
-22.41452692775276
 31
0.0
 11
-5.640156432116335
 21
-22.51611757415277
 31
0.0
  0
SPLINE
  5
97
100
AcDbEntity
  8
0
  6
HIDDEN
 62
     8
100
AcDbSpline
210
0.0
220
0.0
230
-1.0
 70
     8
 71
     3
 72
    18
 73
    14
 74
    12
 42
0.0000001
 43
0.0000001
 44
0.0000000001
 40
0.0
 40
0.0
 40
0.0
 40
0.0
 40
0.2758472339689533
 40
0.5450085076006152
 40
0.8095996671710267
 40
1.060513547260121
 40
1.285701675596556
 40
1.48684242779993
 40
1.67912384966952
 40
1.871009721696001
 40
2.064739960242699
 40
2.262858655878801
 40
2.437632269687857
 40
2.437632269687857
 40
2.437632269687857
 40
2.437632269687857
 10
-5.668820726516333
 20
-22.42567650961944
 30
0.0
 10
-5.758971295461636
 20
-22.44679627030201
 30
0.0
 10
-5.937087372006219
 20
-22.48852389281567
 30
0.0
 10
-6.210174468922533
 20
-22.45214621935193
 30
0.0
 10
-6.453279954970904
 20
-22.34800042354541
 30
0.0
 10
-6.646580423531711
 20
-22.18924803422003
 30
0.0
 10
-6.781275361039522
 20
-22.00560894106338
 30
0.0
 10
-6.865006077679564
 20
-21.81561455809418
 30
0.0
 10
-6.907741162601293
 20
-21.62409447457929
 30
0.0
 10
-6.914192578738273
 20
-21.43037741395292
 30
0.0
 10
-6.88400260570685
 20
-21.23726469792355
 30
0.0
 10
-6.822157761277212
 20
-21.05701632171371
 30
0.0
 10
-6.7564474594948
 20
-20.95116814501402
 30
0.0
 10
-6.725649219316331
 20
-20.90155739175276
 30
0.0
 11
-5.668820726516333
 21
-22.42567650961944
 31
0.0
 11
-5.940738102516328
 21
-22.47207303015277
 31
0.0
 11
-6.207984577182996
 21
-22.44002442641943
 31
0.0
 11
-6.450883643849662
 21
-22.3351029074861
 31
0.0
 11
-6.645084247583003
 21
-22.1762196146861
 31
0.0
 11
-6.778500988916333
 21
-21.99480939921943
 31
0.0
 11
-6.859794480116333
 21
-21.81082850215277
 31
0.0
 11
-6.901817676916331
 21
-21.62319535975277
 31
0.0
 11
-6.908167737716333
 21
-21.4314145874861
 31
0.0
 11
-6.878729117982997
 21
-21.2399341106861
 31
0.0
 11
-6.812549720649664
 21
-21.05319551015277
 31
0.0
 11
-6.725649219316331
 21
-20.90155739175276
 31
0.0
  0
SPLINE
  5
98
100
AcDbEntity
  8
0
  6
HIDDEN
 62
     8
100
AcDbSpline
210
0.0
220
0.0
230
-1.0
 70
     8
 71
     3
 72
    18
 73
    14
 74
    12
 42
0.0000001
 43
0.0000001
 44
0.0000000001
 40
0.0
 40
0.0
 40
0.0
 40
0.0
 40
0.2961837075628313
 40
0.5850611802906154
 40
0.869003402306097
 40
1.138976506444715
 40
1.382255946126407
 40
1.599215116413996
 40
1.804961731675154
 40
2.009448098501166
 40
2.215777131007726
 40
2.426517405042083
 40
2.600009101074023
 40
2.600009101074023
 40
2.600009101074023
 40
2.600009101074023
 10
-5.640156429983002
 20
-22.51611378321944
 30
0.0
 10
-5.737233501600911
 20
-22.53726331519282
 30
0.0
 10
-5.928992955783186
 20
-22.57904066426027
 30
0.0
 10
-6.221610304458893
 20
-22.54048092250062
 30
0.0
 10
-6.484082450669076
 20
-22.43258629271714
 30
0.0
 10
-6.696288783847497
 20
-22.26730053779749
 30
0.0
 10
-6.847879935506966
 20
-22.0742366997984
 30
0.0
 10
-6.94547913621097
 20
-21.87319921194711
 30
0.0
 10
-6.999537386561295
 20
-21.67004640993301
 30
0.0
 10
-7.015642428480411
 20
-21.46394879645918
 30
0.0
 10
-6.993721978426706
 20
-21.25701835726144
 30
0.0
 10
-6.939559907984147
 20
-21.06608158467646
 30
0.0
 10
-6.879720524397795
 20
-20.95257603107568
 30
0.0
 10
-6.852701335583
 20
-20.9013250354861
 30
0.0
 11
-5.640156429983002
 21
-22.51611378321944
 31
0.0
 11
-5.93273229451633
 21
-22.56220230801943
 31
0.0
 11
-6.219586922782998
 21
-22.52807583015277
 31
0.0
 11
-6.481848113182999
 21
-22.41925371175277
 31
0.0
 11
-6.695073868916332
 21
-22.2536630898861
 31
0.0
 11
-6.84549316384967
 21
-22.06245921575276
 31
0.0
 11
-6.940401062516333
 21
-21.86735982481943
 31
0.0
 11
-6.99344740704967
 21
-21.6685690930861
 31
0.0
 11
-7.009345965982995
 21
-21.46470170961943
 31
0.0
 11
-6.988115932916333
 21
-21.25946780561943
 31
0.0
 11
-6.928743431582999
 21
-21.0572640242861
 31
0.0
 11
-6.852701335583
 21
-20.9013250354861
 31
0.0
  0
LINE
  5
99
100
AcDbEntity
  8
0
  6
HIDDEN
 62
     8
100
AcDbLine
 10
-5.614495
 20
-21.815312
 30
0.0
 11
-6.144636
 21
-21.975459
 31
0.0
  0
LINE
  5
9A
100
AcDbEntity
  8
0
  6
HIDDEN
 62
     8
100
AcDbLine
 10
-6.164199
 20
-21.641241
 30
0.0
 11
-6.108421
 21
-21.65461
 31
0.0
  0
SPLINE
  5
9B
100
AcDbEntity
  8
0
  6
HIDDEN
 62
     8
100
AcDbSpline
210
0.0
220
0.0
230
1.0
 70
     8
 71
     3
 72
    15
 73
    11
 74
     9
 42
0.0000001
 43
0.0000001
 44
0.0000000001
 40
0.0
 40
0.0
 40
0.0
 40
0.0
 40
0.0414189274265608
 40
0.0829319509531587
 40
0.124402036113806
 40
0.1657920365118944
 40
0.2071117388250117
 40
0.2484606634841615
 40
0.2899623175100392
 40
0.3316682315658682
 40
0.3316682315658682
 40
0.3316682315658682
 40
0.3316682315658682
 10
-6.397459995849666
 20
-21.79939113041943
 30
0.0
 10
-6.392880682326994
 20
-21.81245186800697
 30
0.0
 10
-6.383711651932986
 20
-21.83860301474881
 30
0.0
 10
-6.361717092998479
 20
-21.87412002511469
 30
0.0
 10
-6.334483121067799
 20
-21.90558497467582
 30
0.0
 10
-6.302284407364319
 20
-21.9319226851186
 30
0.0
 10
-6.266246313520511
 20
-21.95260131318177
 30
0.0
 10
-6.22729179462224
 20
-21.96701355675767
 30
0.0
 10
-6.186363661877273
 20
-21.97545892123897
 30
0.0
 10
-6.158567880675246
 20
-21.97545870815586
 30
0.0
 10
-6.144635873182995
 20
-21.97545860135277
 30
0.0
 11
-6.397459995849666
 21
-21.79939113041943
 31
0.0
 11
-6.382351788916336
 21
-21.83795626535277
 31
0.0
 11
-6.360833794249665
 21
-21.87345706855277
 31
0.0
 11
-6.333628715849668
 21
-21.9047564562861
 31
0.0
 11
-6.301619919049668
 21
-21.93099705575277
 31
0.0
 11
-6.265775124382995
 21
-21.95155109415277
 31
0.0
 11
-6.227032796916336
 21
-21.96599981841943
 31
0.0
 11
-6.186317704649665
 21
-21.97404149415277
 31
0.0
 11
-6.144635873182995
 21
-21.97545860135277
 31
0.0
  0
SPLINE
  5
9C
100
AcDbEntity
  8
0
  6
HIDDEN
 62
     8
100
AcDbSpline
210
0.0
220
0.0
230
1.0
 70
     8
 71
     3
 72
    12
 73
     8
 74
     6
 42
0.0000001
 43
0.0000001
 44
0.0000000001
 40
0.0
 40
0.0
 40
0.0
 40
0.0
 40
0.2085815485403655
 40
0.4204493013424818
 40
0.6352870454675639
 40
0.8518112634174615
 40
1.068468284855322
 40
1.068468284855322
 40
1.068468284855322
 40
1.068468284855322
 10
-4.967934265716335
 20
-21.67818538001943
 30
0.0
 10
-4.988432227143922
 20
-21.74486576891682
 30
0.0
 10
-5.029751095574445
 20
-21.8792770968667
 30
0.0
 10
-5.142854343987357
 20
-22.06108598375546
 30
0.0
 10
-5.28952397292287
 20
-22.21861653447651
 30
0.0
 10
-5.466259183339058
 20
-22.34691558351202
 30
0.0
 10
-5.60128641336757
 20
-22.39941750228669
 30
0.0
 10
-5.668820726516333
 20
-22.42567650961944
 30
0.0
 11
-4.967934265716335
 21
-21.67818538001943
 31
0.0
 11
-5.03768154784967
 21
-21.87475999441943
 31
0.0
 11
-5.147583908383001
 21
-22.05589369041943
 31
0.0
 11
-5.293923442249667
 21
-22.21318322321943
 31
0.0
 11
-5.47044163744967
 21
-22.33857885201943
 31
0.0
 11
-5.668820726516333
 21
-22.42567650961944
 31
0.0
  0
LWPOLYLINE
  5
9D
100
AcDbEntity
  8
0
  6
HIDDEN
 62
     8
100
AcDbPolyline
 90
       11
 70
     0
 43
0.0
 10
-6.054922
 20
-21.185161
 10
-6.072459
 20
-21.18166
 10
-6.124584
 20
-21.179318
 10
-6.175954
 20
-21.188705
 10
-6.223994
 20
-21.209349
 10
-6.266295
 20
-21.240214
 10
-6.300736
 20
-21.279754
 10
-6.32559
 20
-21.325985
 10
-6.339611
 20
-21.37659
 10
-6.342095
 20
-21.42903
 10
-6.332917
 20
-21.480677
  0
LINE
  5
9E
100
AcDbEntity
  8
0
  6
HIDDEN
 62
     8
100
AcDbLine
 10
-5.897693
 20
-20.85798
 30
0.0
 11
-6.427833
 21
-21.018126
 31
0.0
  0
SPLINE
  5
9F
100
AcDbEntity
  8
0
  6
HIDDEN
 62
     8
100
AcDbSpline
210
0.0
220
0.0
230
-1.0
 70
     8
 71
     3
 72
    15
 73
    11
 74
     9
 42
0.0000001
 43
0.0000001
 44
0.0000000001
 40
0.0
 40
0.0
 40
0.0
 40
0.0
 40
0.0419978394482097
 40
0.0838861980534759
 40
0.1256341857377144
 40
0.1672576805555437
 40
0.2087904698756203
 40
0.2502624435500844
 40
0.2917055189919577
 40
0.3330395353519945
 40
0.3330395353519945
 40
0.3330395353519945
 40
0.3330395353519945
 10
-6.427833335582996
 20
-21.01812630695277
 30
0.0
 10
-6.439522050096794
 20
-21.02588482018675
 30
0.0
 10
-6.462869008739849
 20
-21.04138162160075
 30
0.0
 10
-6.492574377947031
 20
-21.07128465548945
 30
0.0
 10
-6.517333341876353
 20
-21.10508360652352
 30
0.0
 10
-6.536167573404929
 20
-21.1424322784183
 30
0.0
 10
-6.548674544632802
 20
-21.18225833222513
 30
0.0
 10
-6.554266155423205
 20
-21.22351546593928
 30
0.0
 10
-6.553336749661331
 20
-21.26522443635431
 30
0.0
 10
-6.546812769020691
 20
-21.29210351024174
 30
0.0
 10
-6.543555076382999
 20
-21.30552534055277
 30
0.0
 11
-6.427833335582996
 21
-21.01812630695277
 31
0.0
 11
-6.462019029449661
 21
-21.04252214375276
 31
0.0
 11
-6.491793936116331
 21
-21.0719855026861
 31
0.0
 11
-6.51637809291633
 21
-21.1057273714861
 31
0.0
 11
-6.535130463049662
 21
-21.1428873490861
 31
0.0
 11
-6.547528871583001
 21
-21.18252637095277
 31
0.0
 11
-6.553180269982996
 21
-21.22361148135277
 31
0.0
 11
-6.55185584331633
 21
-21.26503338855277
 31
0.0
 11
-6.543555076382999
 21
-21.30552534055277
 31
0.0
  0
LWPOLYLINE
  5
A0
100
AcDbEntity
  8
0
  6
HIDDEN
 62
     8
100
AcDbPolyline
 90
        3
 70
     0
 43
0.0
 10
-5.578432
 20
-20.908782
 10
-5.651808
 20
-20.869024
 10
-5.704145
 20
-20.852313
  0
LINE
  5
A1
100
AcDbEntity
  8
0
  6
HIDDEN
 62
     8
100
AcDbLine
 10
-5.772439
 20
-20.835926
 30
0.0
 11
-5.704093
 21
-20.852307
 31
0.0
  0
LINE
  5
A2
100
AcDbEntity
  8
0
  6
HIDDEN
 62
     8
100
AcDbLine
 10
-6.054889
 20
-21.185157
 30
0.0
 11
-5.999112
 21
-21.198526
 31
0.0
  0
LWPOLYLINE
  5
A3
100
AcDbEntity
  8
0
  6
HIDDEN
 62
     8
100
AcDbPolyline
 90
        4
 70
     0
 43
0.0
 10
-5.704145
 20
-20.852313
 10
-5.732189
 20
-20.846713
 10
-5.815544
 20
-20.842969
 10
-5.897693
 20
-20.85798
  0
LINE
  5
A4
100
AcDbEntity
  8
0
  6
HIDDEN
 62
     8
100
AcDbLine
 10
-5.363487
 20
-21.348406
 30
0.0
 11
-5.434287
 21
-21.109073
 31
0.0
  0
LINE
  5
A5
100
AcDbEntity
  8
0
  6
HIDDEN
 62
     8
100
AcDbLine
 10
-5.439746
 20
-21.330129
 30
0.0
 11
-5.510545
 21
-21.090796
 31
0.0
  0
LWPOLYLINE
  5
A6
100
AcDbEntity
  8
0
  6
HIDDEN
 62
     8
100
AcDbPolyline
 90
        4
 70
     0
 43
0.0
 10
-5.434287
 20
-21.109073
 10
-5.466874
 20
-21.031894
 10
-5.515739
 20
-20.963995
 10
-5.578432
 20
-20.908782
  0
LWPOLYLINE
  5
A7
100
AcDbEntity
  8
0
  6
HIDDEN
 62
     8
100
AcDbPolyline
 90
        6
 70
     0
 43
0.0
 10
-5.886171
 20
-21.345722
 10
-5.906549
 20
-21.297459
 10
-5.937106
 20
-21.255
 10
-5.97631
 20
-21.220473
 10
-6.022194
 20
-21.195611
 10
-6.054922
 20
-21.185161
  0
SPLINE
  5
A8
100
AcDbEntity
  8
0
  6
HIDDEN
 62
     8
100
AcDbSpline
210
0.0
220
0.0
230
-1.0
 70
     8
 71
     3
 72
    13
 73
     9
 74
     7
 42
0.0000001
 43
0.0000001
 44
0.0000000001
 40
0.0
 40
0.0
 40
0.0
 40
0.0
 40
0.0305434641010287
 40
0.0669974819459425
 40
0.1059747063447949
 40
0.1470684469645273
 40
0.1903831459684743
 40
0.193966451367502
 40
0.193966451367502
 40
0.193966451367502
 40
0.193966451367502
 10
-5.964416524916334
 20
-20.8419879282861
 30
0.0
 10
-5.954516904597799
 20
-20.83960292846276
 30
0.0
 10
-5.932801959908852
 20
-20.83437140062831
 30
0.0
 10
-5.897911601816675
 20
-20.82857276101648
 30
0.0
 10
-5.859105597496292
 20
-20.82571888850682
 30
0.0
 10
-5.81791975569566
 20
-20.82735424814658
 30
0.0
 10
-5.788872638192096
 20
-20.8320489989112
 30
0.0
 10
-5.773657914939247
 20
-20.8356383787369
 30
0.0
 10
-5.772495413449669
 20
-20.83591263015276
 30
0.0
 11
-5.964416524916334
 21
-20.8419879282861
 31
0.0
 11
-5.934646411849663
 21
-20.8351583186861
 31
0.0
 11
-5.898675476383003
 21
-20.82924331921943
 31
0.0
 11
-5.859795840116332
 21
-20.82648688935277
 31
0.0
 11
-5.818734844916328
 21
-20.82812706961943
 31
0.0
 11
-5.775984475849666
 21
-20.8350962226861
 31
0.0
 11
-5.772495413449669
 21
-20.83591263015276
 31
0.0
  0
SPLINE
  5
A9
100
AcDbEntity
  8
0
  6
HIDDEN
 62
     8
100
AcDbSpline
210
0.0
220
0.0
230
-1.0
 70
     8
 71
     3
 72
    14
 73
    10
 74
     8
 42
0.0000001
 43
0.0000001
 44
0.0000000001
 40
0.0
 40
0.0
 40
0.0
 40
0.0
 40
0.0413392256212626
 40
0.0874468062994037
 40
0.1355060293260999
 40
0.1906709645891079
 40
0.2511489070753468
 40
0.3144232681786698
 40
0.377129307810665
 40
0.377129307810665
 40
0.377129307810665
 40
0.377129307810665
 10
-5.772495413449669
 20
-20.83591263015276
 30
0.0
 10
-5.759199928896244
 20
-20.83959475537477
 30
0.0
 10
-5.731075365725859
 20
-20.84738372786323
 30
0.0
 10
-5.68982218354449
 20
-20.86626033832145
 30
0.0
 10
-5.647419729865862
 20
-20.892554302424
 30
0.0
 10
-5.605550774996673
 20
-20.92793254954807
 30
0.0
 10
-5.566596249598717
 20
-20.97336052117153
 30
0.0
 10
-5.533622187008582
 20
-21.02655299706543
 30
0.0
 10
-5.519231977559432
 20
-21.06610013248765
 30
0.0
 10
-5.512069331316333
 20
-21.0857844978861
 30
0.0
 11
-5.772495413449669
 21
-20.83591263015276
 31
0.0
 11
-5.732944722249667
 21
-20.84794069735277
 31
0.0
 11
-5.690878918516336
 21
-20.8668186514861
 31
0.0
 11
-5.650068034249668
 21
-20.8921989714861
 31
0.0
 11
-5.607910661449663
 21
-20.92777882535276
 31
0.0
 11
-5.568413319582995
 21
-20.97357775015276
 31
0.0
 11
-5.535511687582999
 21
-21.0276252050861
 31
0.0
 11
-5.512069331316333
 21
-21.0857844978861
 31
0.0
  0
SPLINE
  5
AA
100
AcDbEntity
  8
0
  6
HIDDEN
 62
     8
100
AcDbSpline
210
-0.9567361950521128
220
-0.2909567890206473
230
0.0
 70
    24
 71
     3
 72
     9
 73
     5
 74
     3
 42
0.0000001
 43
0.0000001
 44
0.0000000001
 40
0.0
 40
0.0
 40
0.0
 40
0.0
 40
0.002620161452908
 40
0.0052382333514575
 40
0.0052382333514575
 40
0.0052382333514575
 40
0.0052382333514575
 10
-5.512069300382997
 20
-21.0857845842861
 30
0.0
 10
-5.511810417956864
 20
-21.08661872983908
 30
0.0
 10
-5.511292859560922
 20
-21.08828635572175
 30
0.0
 10
-5.510794361469057
 20
-21.0899597780765
 30
0.0
 10
-5.510545211849668
 20
-21.0907961554861
 30
0.0
 11
-5.512069300382997
 21
-21.0857845842861
 31
0.0
 11
-5.511297421982995
 21
-21.08828847121943
 31
0.0
 11
-5.510545211849668
 21
-21.0907961554861
 31
0.0
  0
SPLINE
  5
AB
100
AcDbEntity
  8
0
  6
HIDDEN
 62
     8
100
AcDbSpline
210
-0.9610548280671963
220
-0.2763577707406327
230
0.0
 70
    24
 71
     3
 72
     9
 73
     5
 74
     3
 42
0.0000001
 43
0.0000001
 44
0.0000000001
 40
0.0
 40
0.0
 40
0.0
 40
0.0
 40
0.002617621034996
 40
0.0052347750257995
 40
0.0052347750257995
 40
0.0052347750257995
 40
0.0052347750257995
 10
-5.439745845449662
 20
-21.33012922961943
 30
0.0
 10
-5.439499924009507
 20
-21.33096640528874
 30
0.0
 10
-5.439008125007274
 20
-21.33264060725584
 30
0.0
 10
-5.438535484401501
 20
-21.33432031834147
 30
0.0
 10
-5.438299185183002
 20
-21.33516009895277
 30
0.0
 11
-5.439745845449662
 21
-21.33012922961943
 31
0.0
 11
-5.439012871583001
 21
-21.33264213415277
 31
0.0
 11
-5.438299185183002
 21
-21.33516009895277
 31
0.0
  0
LINE
  5
AC
100
AcDbEntity
  8
0
  6
HIDDEN
 62
     8
100
AcDbLine
 10
-4.818312
 20
-21.360765
 30
0.0
 11
-5.157193
 21
-20.903067
 31
0.0
  0
LINE
  5
AD
100
AcDbEntity
  8
0
100
AcDbLine
 10
24.57837
 20
-20.903067
 30
0.0
 11
24.481748
 21
-21.590567
 31
0.0
  0
LINE
  5
AE
100
AcDbEntity
  8
0
100
AcDbLine
 10
26.563824
 20
-20.903067
 30
0.0
 11
26.359629
 21
-19.613955
 31
0.0
  0
LINE
  5
171
100
AcDbEntity
  8
0
100
AcDbLine
 10
26.112707
 20
-19.403067
 30
0.0
 11
-44.735059
 21
-19.403067
 31
0.0
  0
LINE
  5
172
100
AcDbEntity
  8
0
100
AcDbLine
 10
26.563824
 20
-20.903067
 30
0.0
 11
-45.186176
 21
-20.903067
 31
0.0
  0
ARC
  5
173
100
AcDbEntity
  8
0
100
AcDbCircle
 10
26.112707
 20
-19.653067
 30
0.0
 40
0.25
100
AcDbArc
 50
9.00087
 51
90.0
  0
ARC
  5
174
100
AcDbEntity
  8
0
100
AcDbCircle
 10
-44.735059
 20
-19.653067
 30
0.0
 40
0.25
100
AcDbArc
 50
90.0
 51
170.99913
  0
ENDSEC
  0
SECTION
  2
OBJECTS
  0
DICTIONARY
  5
7
102
{ACAD_XDICTIONARY
360
160
102
}
100
AcDbDictionary
  3
ACAD_GROUP
350
26
  3
ACAD_LAYOUT
350
B
  3
ACAD_MLINESTYLE
350
27
  3
ACAD_PLOTSETTINGS
350
28
  3
ACAD_PLOTSTYLENAME
350
6
  3
ACDBHEADERROUNDTRIPXREC
350
13D
  3
ACDBVARIABLEDICTIONARY
350
B1
  0
DICTIONARY
  5
11
100
AcDbDictionary
280
     1
  3
ACAD_LAYERFILTERS
360
12
  0
DICTIONARY
  5
166
100
AcDbDictionary
280
     1
  3
ACAD_XREC_ROUNDTRIP
360
167
  0
DICTIONARY
  5
15E
100
AcDbDictionary
280
     1
  3
ACAD_LAYOUTSELFREF
360
15F
  0
DICTIONARY
  5
139
100
AcDbDictionary
280
     1
  3
ACAD_LAYOUTSELFREF
360
168
  3
ACAD_XREC_ROUNDTRIP
360
13A
  0
DICTIONARY
  5
160
100
AcDbDictionary
280
     1
  3
ACAD_XREC_ROUNDTRIP
360
161
  0
DICTIONARY
  5
26
102
{ACAD_REACTORS
330
7
102
}
100
AcDbDictionary
  0
DICTIONARY
  5
B
102
{ACAD_XDICTIONARY
360
162
102
}
102
{ACAD_REACTORS
330
7
102
}
100
AcDbDictionary
  3
LAYOUT1
350
CD
  3
MODEL
350
A
  0
DICTIONARY
  5
27
102
{ACAD_REACTORS
330
7
102
}
100
AcDbDictionary
  3
STANDARD
350
2A
  0
DICTIONARY
  5
28
102
{ACAD_REACTORS
330
7
102
}
100
AcDbDictionary
  0
ACAD_PROXY_OBJECT
  5
6
102
{ACAD_REACTORS
330
7
102
}
100
AcDbProxyObject
 90
      499
 91
      517
 93
       86
310
405010041939BDC9B585B0
350
5
340
5
 94
        0
  0
DICTIONARY
  5
13D
102
{ACAD_REACTORS
330
7
102
}
100
AcDbDictionary
  3
CEPSNTYPE
350
147
  3
DIMSTYLEDATA
350
14B
  3
FINGERPRINTGUID
350
148
  3
HYPERLINKBASE
350
140
  3
INSUNITS
350
146
  3
LAYOUTDICT
350
142
  3
LWETCUNION
350
145
  3
PLOTSETDICT
350
143
  3
PLOTSTYLNAMDICT
350
144
  3
PSVPSCALE
350
14A
  3
PUCSBASE
350
14E
  3
PUCSORGBACK
350
154
  3
PUCSORGBOTTOM
350
150
  3
PUCSORGFRONT
350
153
  3
PUCSORGLEFT
350
151
  3
PUCSORGRIGHT
350
152
  3
PUCSORGTOP
350
14F
  3
PUCSORTHOREF
350
14C
  3
PUCSORTHOVIEW
350
14D
  3
STYLESHEET
350
141
  3
TSTACKALIGN
350
13E
  3
TSTACKSIZE
350
13F
  3
UCSBASE
350
157
  3
UCSORGBACK
350
15D
  3
UCSORGBOTTOM
350
159
  3
UCSORGFRONT
350
15C
  3
UCSORGLEFT
350
15A
  3
UCSORGRIGHT
350
15B
  3
UCSORGTOP
350
158
  3
UCSORTHOREF
350
155
  3
UCSORTHOVIEW
350
156
  3
VERSIONGUID
350
149
  0
DICTIONARY
  5
B1
102
{ACAD_REACTORS
330
7
102
}
100
AcDbDictionary
  3
DIMASSOC
350
B3
  3
HIDETEXT
350
B2
  0
DICTIONARY
  5
12
102
{ACAD_XDICTIONARY
360
164
102
}
102
{ACAD_REACTORS
330
11
102
}
100
AcDbDictionary
280
     1
  3
DIM-1_12
360
13
  3
DIM-1_16
360
14
  0
XRECORD
  5
167
102
{ACAD_REACTORS
330
166
102
}
100
AcDbXrecord
102
ACADR14ROUNDTRIP
1000
DSTYLE
1002
{
1070
    79
 70
     1
1070
   276
 70
     1
1070
   277
 70
     5
1070
   289
 70
     0
1002
}
  0
XRECORD
  5
15F
102
{ACAD_REACTORS
330
15E
102
}
100
AcDbXrecord
340
2
  0
XRECORD
  5
168
102
{ACAD_REACTORS
330
139
102
}
100
AcDbXrecord
340
CC
  0
XRECORD
  5
13A
102
{ACAD_REACTORS
330
139
102
}
100
AcDbXrecord
102
EXTNAMES
  1
*PAPER_SPACE
  2
*Paper_Space
  0
XRECORD
  5
161
102
{ACAD_REACTORS
330
160
102
}
100
AcDbXrecord
102
EXTNAMES
  1
ACDBVARIABLEDICTIONARY
  2
AcDbVariableDictionary
  0
DICTIONARY
  5
162
100
AcDbDictionary
280
     1
  3
ACAD_XREC_ROUNDTRIP
360
163
  0
ACAD_PROXY_OBJECT
  5
CD
102
{ACAD_REACTORS
330
B
102
}
100
AcDbProxyObject
 90
      499
 91
      515
 93
      604
310
9104850204465736B4A65742031313230432C00AAAAAA416AA591069074C61796F75743140501A800000000000000000000000000000000000000000000A1000000000000008902A6A6AAAA0
330
CC
330
0
340
0
340
0
 94
        0
  0
ACAD_PROXY_OBJECT
  5
A
102
{ACAD_REACTORS
330
B
102
}
100
AcDbProxyObject
 90
      499
 91
      515
 93
      468
310
9044E6F6E652C01AAAAAAAAA5A69054D6F64656C901A800000000000000000000000000000000000000000000A1000000000000008902A6A6AAAA4
330
2
330
0
340
0
340
0
 94
        0
  0
MLINESTYLE
  5
2A
102
{ACAD_REACTORS
330
27
102
}
100
AcDbMlineStyle
  2
STANDARD
 70
     0
  3

 62
     0
 51
90.0
 52
90.0
 71
     2
 49
0.5
 62
   256
  6
BYLAYER
 49
-0.5
 62
   256
  6
BYLAYER
  0
ACAD_PROXY_OBJECT
  5
5
102
{ACAD_REACTORS
330
6
102
}
100
AcDbProxyObject
 90
      499
 91
      518
 93
        0
 94
        0
  0
XRECORD
  5
147
102
{ACAD_REACTORS
330
13D
102
}
100
AcDbXrecord
 90
        0
  0
XRECORD
  5
14B
102
{ACAD_REACTORS
330
13D
102
}
100
AcDbXrecord
1000
DSTYLE
1002
{
1070
    79
 70
     1
1070
   276
 70
     1
1070
   277
 70
     5
1070
   289
 70
     0
1002
}
  0
XRECORD
  5
148
102
{ACAD_REACTORS
330
13D
102
}
100
AcDbXrecord
  1
{0ED6B1DE-3704-495B-8F00-8F897C248CCA}
  0
XRECORD
  5
140
102
{ACAD_REACTORS
330
13D
102
}
100
AcDbXrecord
  1

  0
XRECORD
  5
146
102
{ACAD_REACTORS
330
13D
102
}
100
AcDbXrecord
 90
        0
  0
XRECORD
  5
142
102
{ACAD_REACTORS
330
13D
102
}
100
AcDbXrecord
340
B
  0
XRECORD
  5
145
102
{ACAD_REACTORS
330
13D
102
}
100
AcDbXrecord
 90
    10781
  0
XRECORD
  5
143
102
{ACAD_REACTORS
330
13D
102
}
100
AcDbXrecord
340
28
  0
XRECORD
  5
144
102
{ACAD_REACTORS
330
13D
102
}
100
AcDbXrecord
340
6
  0
XRECORD
  5
14A
102
{ACAD_REACTORS
330
13D
102
}
100
AcDbXrecord
 40
0.0
  0
XRECORD
  5
14E
102
{ACAD_REACTORS
330
13D
102
}
100
AcDbXrecord
340
0
  0
XRECORD
  5
154
102
{ACAD_REACTORS
330
13D
102
}
100
AcDbXrecord
 10
0.0
 20
0.0
 30
0.0
  0
XRECORD
  5
150
102
{ACAD_REACTORS
330
13D
102
}
100
AcDbXrecord
 10
0.0
 20
0.0
 30
0.0
  0
XRECORD
  5
153
102
{ACAD_REACTORS
330
13D
102
}
100
AcDbXrecord
 10
0.0
 20
0.0
 30
0.0
  0
XRECORD
  5
151
102
{ACAD_REACTORS
330
13D
102
}
100
AcDbXrecord
 10
0.0
 20
0.0
 30
0.0
  0
XRECORD
  5
152
102
{ACAD_REACTORS
330
13D
102
}
100
AcDbXrecord
 10
0.0
 20
0.0
 30
0.0
  0
XRECORD
  5
14F
102
{ACAD_REACTORS
330
13D
102
}
100
AcDbXrecord
 10
0.0
 20
0.0
 30
0.0
  0
XRECORD
  5
14C
102
{ACAD_REACTORS
330
13D
102
}
100
AcDbXrecord
340
0
  0
XRECORD
  5
14D
102
{ACAD_REACTORS
330
13D
102
}
100
AcDbXrecord
 70
     0
  0
XRECORD
  5
141
102
{ACAD_REACTORS
330
13D
102
}
100
AcDbXrecord
  1

  0
XRECORD
  5
13E
102
{ACAD_REACTORS
330
13D
102
}
100
AcDbXrecord
 90
        1
  0
XRECORD
  5
13F
102
{ACAD_REACTORS
330
13D
102
}
100
AcDbXrecord
 90
       70
  0
XRECORD
  5
157
102
{ACAD_REACTORS
330
13D
102
}
100
AcDbXrecord
340
0
  0
XRECORD
  5
15D
102
{ACAD_REACTORS
330
13D
102
}
100
AcDbXrecord
 10
0.0
 20
0.0
 30
0.0
  0
XRECORD
  5
159
102
{ACAD_REACTORS
330
13D
102
}
100
AcDbXrecord
 10
0.0
 20
0.0
 30
0.0
  0
XRECORD
  5
15C
102
{ACAD_REACTORS
330
13D
102
}
100
AcDbXrecord
 10
0.0
 20
0.0
 30
0.0
  0
XRECORD
  5
15A
102
{ACAD_REACTORS
330
13D
102
}
100
AcDbXrecord
 10
0.0
 20
0.0
 30
0.0
  0
XRECORD
  5
15B
102
{ACAD_REACTORS
330
13D
102
}
100
AcDbXrecord
 10
0.0
 20
0.0
 30
0.0
  0
XRECORD
  5
158
102
{ACAD_REACTORS
330
13D
102
}
100
AcDbXrecord
 10
0.0
 20
0.0
 30
0.0
  0
XRECORD
  5
155
102
{ACAD_REACTORS
330
13D
102
}
100
AcDbXrecord
340
0
  0
XRECORD
  5
156
102
{ACAD_REACTORS
330
13D
102
}
100
AcDbXrecord
 70
     0
  0
XRECORD
  5
149
102
{ACAD_REACTORS
330
13D
102
}
100
AcDbXrecord
  1
{97584D36-C228-42DB-88F1-E574A2A0416A}
  0
DICTIONARYVAR
  5
B3
102
{ACAD_REACTORS
330
B1
102
}
100
DictionaryVariables
280
     0
  1
1
  0
DICTIONARYVAR
  5
B2
102
{ACAD_REACTORS
330
B1
102
}
100
DictionaryVariables
280
     0
  1
1
  0
DICTIONARY
  5
164
100
AcDbDictionary
280
     1
  3
ACAD_XREC_ROUNDTRIP
360
165
  0
XRECORD
  5
13
102
{ACAD_REACTORS
330
12
102
}
100
AcDbXrecord
  1
DIM-1_12
  1
DIM-1_12
  1
*
  1
*
 70
     0
  1
*
  1
*
  0
XRECORD
  5
14
102
{ACAD_REACTORS
330
12
102
}
100
AcDbXrecord
  1
dim-1_16
  1
*
  1
*
  1
*
 70
     0
  1
*
  1
*
  0
XRECORD
  5
163
102
{ACAD_REACTORS
330
162
102
}
100
AcDbXrecord
102
EXTNAMES
  1
LAYOUT1
  2
Layout1
  1
MODEL
  2
Model
  0
XRECORD
  5
165
102
{ACAD_REACTORS
330
164
102
}
100
AcDbXrecord
102
EXTNAMES
  1
DIM-1_16
  2
dim-1_16
  0
ENDSEC
  0
EOF
