  0
SECTION
  2
HEADER
  9
$ACADVER
  1
AC1014
  9
$ACADMAINTVER
 70
     0
  9
$DWGCODEPAGE
  3
ANSI_1252
  9
$INSBASE
 10
-181.908146
 20
-80.352951
 30
0.0
  9
$EXTMIN
 10
-220.107079
 20
-84.122265
 30
-1.464573
  9
$EXTMAX
 10
-143.709213
 20
-58.601177
 30
1.464573
  9
$LIMMIN
 10
0.0
 20
0.0
  9
$LIMMAX
 10
100.502416
 20
51.698548
  9
$ORTHOMODE
 70
     1
  9
$REGENMODE
 70
     1
  9
$FILLMODE
 70
     1
  9
$QTEXTMODE
 70
     0
  9
$MIRRTEXT
 70
     0
  9
$DRAGMODE
 70
     2
  9
$LTSCALE
 40
1.0
  9
$OSMODE
 70
    37
  9
$ATTMODE
 70
     1
  9
$TEXTSIZE
 40
0.15
  9
$TRACEWID
 40
1.0
  9
$TEXTSTYLE
  7
CARTOUCHE
  9
$CLAYER
  8
0
  9
$CELTYPE
  6
BYLAYER
  9
$CECOLOR
 62
   256
  9
$CELTSCALE
 40
1.0
  9
$DELOBJ
 70
     1
  9
$DISPSILH
 70
     0
  9
$DIMSCALE
 40
16.0
  9
$DIMASZ
 40
0.1
  9
$DIMEXO
 40
0.0625
  9
$DIMDLI
 40
0.25
  9
$DIMRND
 40
0.0
  9
$DIMDLE
 40
0.0
  9
$DIMEXE
 40
0.1
  9
$DIMTP
 40
0.0
  9
$DIMTM
 40
0.0
  9
$DIMTXT
 40
0.1
  9
$DIMCEN
 40
0.0625
  9
$DIMTSZ
 40
0.0
  9
$DIMTOL
 70
     0
  9
$DIMLIM
 70
     0
  9
$DIMTIH
 70
     1
  9
$DIMTOH
 70
     1
  9
$DIMSE1
 70
     0
  9
$DIMSE2
 70
     0
  9
$DIMTAD
 70
     0
  9
$DIMZIN
 70
    12
  9
$DIMBLK
  1

  9
$DIMASO
 70
     1
  9
$DIMSHO
 70
     1
  9
$DIMPOST
  1
\X
  9
$DIMAPOST
  1
cm
  9
$DIMALT
 70
     1
  9
$DIMALTD
 70
     1
  9
$DIMALTF
 40
2.54
  9
$DIMLFAC
 40
1.0
  9
$DIMTOFL
 70
     0
  9
$DIMTVP
 40
0.0
  9
$DIMTIX
 70
     0
  9
$DIMSOXD
 70
     0
  9
$DIMSAH
 70
     0
  9
$DIMBLK1
  1

  9
$DIMBLK2
  1

  9
$DIMSTYLE
  2
STANDARD
  9
$DIMCLRD
 70
     0
  9
$DIMCLRE
 70
     0
  9
$DIMCLRT
 70
     0
  9
$DIMTFAC
 40
1.0
  9
$DIMGAP
 40
0.08
  9
$DIMJUST
 70
     0
  9
$DIMSD1
 70
     0
  9
$DIMSD2
 70
     0
  9
$DIMTOLJ
 70
     1
  9
$DIMTZIN
 70
     4
  9
$DIMALTZ
 70
    12
  9
$DIMALTTZ
 70
     4
  9
$DIMFIT
 70
     3
  9
$DIMUPT
 70
     0
  9
$DIMUNIT
 70
     2
  9
$DIMDEC
 70
     4
  9
$DIMTDEC
 70
     3
  9
$DIMALTU
 70
     2
  9
$DIMALTTD
 70
     1
  9
$DIMTXSTY
  7
ROMANS
  9
$DIMAUNIT
 70
     0
  9
$LUNITS
 70
     2
  9
$LUPREC
 70
     2
  9
$SKETCHINC
 40
1.0
  9
$FILLETRAD
 40
0.0
  9
$AUNITS
 70
     0
  9
$AUPREC
 70
     0
  9
$MENU
  1
.
  9
$ELEVATION
 40
0.0
  9
$PELEVATION
 40
0.0
  9
$THICKNESS
 40
0.0
  9
$LIMCHECK
 70
     0
  9
$BLIPMODE
 70
     0
  9
$CHAMFERA
 40
0.0
  9
$CHAMFERB
 40
0.0
  9
$CHAMFERC
 40
20.0
  9
$CHAMFERD
 40
0.0
  9
$SKPOLY
 70
     0
  9
$TDCREATE
 40
2452062.343093519
  9
$TDUPDATE
 40
2453690.385610891
  9
$TDINDWG
 40
1.9329026273
  9
$TDUSRTIMER
 40
1.9329026273
  9
$USRTIMER
 70
     1
  9
$ANGBASE
 50
0.0
  9
$ANGDIR
 70
     0
  9
$PDMODE
 70
    34
  9
$PDSIZE
 40
-5.0
  9
$PLINEWID
 40
0.0
  9
$COORDS
 70
     1
  9
$SPLFRAME
 70
     0
  9
$SPLINETYPE
 70
     6
  9
$SPLINESEGS
 70
     8
  9
$ATTDIA
 70
     0
  9
$ATTREQ
 70
     1
  9
$HANDLING
 70
     1
  9
$HANDSEED
  5
89
  9
$SURFTAB1
 70
     6
  9
$SURFTAB2
 70
     6
  9
$SURFTYPE
 70
     6
  9
$SURFU
 70
     6
  9
$SURFV
 70
     6
  9
$UCSNAME
  2

  9
$UCSORG
 10
0.0
 20
0.0
 30
0.0
  9
$UCSXDIR
 10
1.0
 20
0.0
 30
0.0
  9
$UCSYDIR
 10
0.0
 20
1.0
 30
0.0
  9
$PUCSNAME
  2

  9
$PUCSORG
 10
0.0
 20
0.0
 30
0.0
  9
$PUCSXDIR
 10
1.0
 20
0.0
 30
0.0
  9
$PUCSYDIR
 10
0.0
 20
1.0
 30
0.0
  9
$USERI1
 70
     0
  9
$USERI2
 70
     0
  9
$USERI3
 70
     0
  9
$USERI4
 70
     0
  9
$USERI5
 70
     0
  9
$USERR1
 40
0.0
  9
$USERR2
 40
0.0
  9
$USERR3
 40
0.0
  9
$USERR4
 40
0.0
  9
$USERR5
 40
0.0
  9
$WORLDVIEW
 70
     1
  9
$SHADEDGE
 70
     3
  9
$SHADEDIF
 70
    70
  9
$TILEMODE
 70
     1
  9
$MAXACTVP
 70
    48
  9
$PINSBASE
 10
0.0
 20
0.0
 30
0.0
  9
$PLIMCHECK
 70
     0
  9
$PEXTMIN
 10
0.0
 20
0.0
 30
0.0
  9
$PEXTMAX
 10
0.0
 20
0.0
 30
0.0
  9
$PLIMMIN
 10
0.0
 20
0.0
  9
$PLIMMAX
 10
12.0
 20
9.0
  9
$UNITMODE
 70
     0
  9
$VISRETAIN
 70
     1
  9
$PLINEGEN
 70
     0
  9
$PSLTSCALE
 70
     1
  9
$TREEDEPTH
 70
  3020
  9
$PICKSTYLE
 70
     1
  9
$CMLSTYLE
  2
STANDARD
  9
$CMLJUST
 70
     0
  9
$CMLSCALE
 40
20.0
  9
$PROXYGRAPHICS
 70
     1
  9
$MEASUREMENT
 70
     0
  0
ENDSEC
  0
SECTION
  2
CLASSES
  0
CLASS
  1
ACDBDICTIONARYWDFLT
  2
AcDbDictionaryWithDefault
  3
AutoCAD 2000
 90
        0
280
     1
281
     0
  0
CLASS
  1
ACDBPLACEHOLDER
  2
AcDbPlaceHolder
  3
AutoCAD 2000
 90
        0
280
     1
281
     0
  0
CLASS
  1
LAYOUT
  2
AcDbLayout
  3
AutoCAD 2000
 90
        0
280
     1
281
     0
  0
CLASS
  1
DICTIONARYVAR
  2
AcDbDictionaryVar
  3
"AutoCAD"
 90
        0
280
     0
281
     0
  0
CLASS
  1
IMAGEDEF
  2
AcDbRasterImageDef
  3
ISM
 90
        0
280
     1
281
     0
  0
CLASS
  1
LONG_TRANSACTION
  2
AcDbLongTransaction
  3
AutoCAD 2000
 90
        0
280
     1
281
     0
  0
CLASS
  1
LWPOLYLINE
  2
AcDbPolyline
  3
"AutoCAD"
 90
        0
280
     0
281
     1
  0
CLASS
  1
HATCH
  2
AcDbHatch
  3
"ACAD_SEDONA"
 90
        0
280
     0
281
     1
  0
CLASS
  1
XRECORD
  2
AcDbXrecord
  3
"<Built In>"
 90
        0
280
     0
281
     0
  0
CLASS
  1
LONG_TRANSACTION
  2
AcDbLongTransaction
  3
AutoCAD 2000
 90
        0
280
     1
281
     0
  0
CLASS
  1
LWPOLYLINE
  2
AcDbPolyline
  3
"AutoCAD"
 90
        0
280
     0
281
     1
  0
CLASS
  1
HATCH
  2
AcDbHatch
  3
"ACAD_SEDONA"
 90
        0
280
     0
281
     1
  0
CLASS
  1
XRECORD
  2
AcDbXrecord
  3
"<Built In>"
 90
        0
280
     0
281
     0
  0
ENDSEC
  0
SECTION
  2
TABLES
  0
TABLE
  2
VPORT
  5
26
100
AcDbSymbolTable
 70
     2
  0
VPORT
  5
88
100
AcDbSymbolTableRecord
100
AcDbViewportTableRecord
  2
*ACTIVE
 70
     0
 10
0.0
 20
0.0
 11
1.0
 21
1.0
 12
-181.891272
 22
-71.784979
 13
0.0
 23
0.0
 14
10.0
 24
10.0
 15
10.0
 25
10.0
 16
0.0
 26
0.0
 36
1.0
 17
0.0
 27
0.0
 37
0.0
 40
52.524041
 41
1.487748
 42
50.0
 43
0.0
 44
0.0
 50
0.0
 51
0.0
 71
     0
 72
   100
 73
     1
 74
     3
 75
     0
 76
     0
 77
     0
 78
     2
  0
ENDTAB
  0
TABLE
  2
LTYPE
  5
1D
100
AcDbSymbolTable
 70
     3
  0
LTYPE
  5
1E
102
{ACAD_XDICTIONARY
360
1F
102
}
100
AcDbSymbolTableRecord
100
AcDbLinetypeTableRecord
  2
BYBLOCK
 70
     0
  3

 72
    65
 73
     0
 40
0.0
  0
LTYPE
  5
21
102
{ACAD_XDICTIONARY
360
22
102
}
100
AcDbSymbolTableRecord
100
AcDbLinetypeTableRecord
  2
BYLAYER
 70
     0
  3

 72
    65
 73
     0
 40
0.0
  0
LTYPE
  5
8
102
{ACAD_XDICTIONARY
360
9
102
}
100
AcDbSymbolTableRecord
100
AcDbLinetypeTableRecord
  2
CONTINUOUS
 70
     0
  3
Solid line
 72
    65
 73
     0
 40
0.0
  0
LTYPE
  5
59
100
AcDbSymbolTableRecord
100
AcDbLinetypeTableRecord
  2
CENTER
 70
     0
  3
Center ____ _ ____ _ ____ _ ____ _ ____ _ ____
 72
    65
 73
     4
 40
50.8
 49
31.75
 74
     0
 49
-6.35
 74
     0
 49
6.35
 74
     0
 49
-6.35
 74
     0
  0
LTYPE
  5
3D
100
AcDbSymbolTableRecord
100
AcDbLinetypeTableRecord
  2
HIDDEN
 70
     0
  3
Hidden __ __ __ __ __ __ __ __ __ __ __ __ __ _
 72
    65
 73
     2
 40
9.525
 49
6.35
 74
     0
 49
-3.175
 74
     0
  0
ENDTAB
  0
TABLE
  2
LAYER
  5
12
102
{ACAD_XDICTIONARY
360
13
102
}
100
AcDbSymbolTable
 70
     2
  0
LAYER
  5
7
100
AcDbSymbolTableRecord
100
AcDbLayerTableRecord
  2
0
 70
     0
 62
     7
  6
CONTINUOUS
  0
LAYER
  5
56
102
{ACAD_XDICTIONARY
360
57
102
}
100
AcDbSymbolTableRecord
100
AcDbLayerTableRecord
  2
CENTER
 70
     0
 62
     1
  6
CENTER
  0
ENDTAB
  0
TABLE
  2
STYLE
  5
19
100
AcDbSymbolTable
 70
     3
  0
STYLE
  5
1A
102
{ACAD_XDICTIONARY
360
1B
102
}
100
AcDbSymbolTableRecord
100
AcDbTextStyleTableRecord
  2
STANDARD
 70
     0
 40
0.0
 41
1.0
 50
0.0
 71
     0
 42
0.125
  3
txt
  4

  0
STYLE
  5
36
100
AcDbSymbolTableRecord
100
AcDbTextStyleTableRecord
  2
CARTOUCHE
 70
     0
 40
0.0
 41
1.0
 50
0.0
 71
     0
 42
0.15
  3
romans.shx
  4

  0
STYLE
  5
33
102
{ACAD_XDICTIONARY
360
34
102
}
100
AcDbSymbolTableRecord
100
AcDbTextStyleTableRecord
  2
ROMANS
 70
     0
 40
0.0
 41
1.0
 50
0.0
 71
     0
 42
1.0
  3
romans.shx
  4

  0
ENDTAB
  0
TABLE
  2
VIEW
  5
24
100
AcDbSymbolTable
 70
     0
  0
ENDTAB
  0
TABLE
  2
UCS
  5
25
100
AcDbSymbolTable
 70
     0
  0
ENDTAB
  0
TABLE
  2
APPID
  5
28
100
AcDbSymbolTable
 70
     1
  0
APPID
  5
29
100
AcDbSymbolTableRecord
100
AcDbRegAppTableRecord
  2
ACAD
 70
     0
  0
ENDTAB
  0
TABLE
  2
DIMSTYLE
  5
2A
100
AcDbSymbolTable
 70
     1
  0
DIMSTYLE
105
38
102
{ACAD_XDICTIONARY
360
39
102
}
100
AcDbSymbolTableRecord
100
AcDbDimStyleTableRecord
  2
STANDARD
 70
     0
  3
\X
  4
cm
  5

  6

  7

 40
16.0
 41
0.1
 42
0.0625
 43
0.25
 44
0.1
 45
0.0
 46
0.0
 47
0.0
 48
0.0
140
0.1
141
0.0625
142
0.0
143
2.54
144
1.0
145
0.0
146
1.0
147
0.08
 71
     0
 72
     0
 73
     1
 74
     1
 75
     0
 76
     0
 77
     0
 78
    12
170
     1
171
     1
172
     0
173
     0
174
     0
175
     0
176
     0
177
     0
178
     0
270
     2
271
     4
272
     3
273
     2
274
     1
340
33
275
     0
280
     0
281
     0
282
     0
283
     1
284
     4
285
    12
286
     4
287
     3
288
     0
  0
ENDTAB
  0
TABLE
  2
BLOCK_RECORD
  5
1
100
AcDbSymbolTable
 70
     0
  0
BLOCK_RECORD
  5
2
102
{ACAD_XDICTIONARY
360
3
102
}
100
AcDbSymbolTableRecord
100
AcDbBlockTableRecord
  2
*MODEL_SPACE
  0
BLOCK_RECORD
  5
C
102
{ACAD_XDICTIONARY
360
D
102
}
100
AcDbSymbolTableRecord
100
AcDbBlockTableRecord
  2
*PAPER_SPACE
  0
ENDTAB
  0
ENDSEC
  0
SECTION
  2
BLOCKS
  0
BLOCK
  5
6
100
AcDbEntity
  8
0
100
AcDbBlockBegin
  2
*MODEL_SPACE
 70
     0
 10
0.0
 20
0.0
 30
0.0
  3
*MODEL_SPACE
  1

  0
ENDBLK
  5
B
100
AcDbEntity
  8
0
100
AcDbBlockEnd
  0
BLOCK
  5
10
100
AcDbEntity
 67
     1
  8
0
100
AcDbBlockBegin
  2
*PAPER_SPACE
 70
     0
 10
0.0
 20
0.0
 30
0.0
  3
*PAPER_SPACE
  1

  0
ENDBLK
  5
11
100
AcDbEntity
 67
     1
  8
0
100
AcDbBlockEnd
  0
ENDSEC
  0
SECTION
  2
ENTITIES
  0
LINE
  5
3B
100
AcDbEntity
  8
0
 62
     8
100
AcDbLine
 10
-198.965565
 20
-60.102951
 30
1.464573
 11
-203.63463
 21
-60.102951
 31
-1.464573
210
0.0
220
1.0
230
-0.0000000000000002
  0
LINE
  5
3C
100
AcDbEntity
  8
0
  6
HIDDEN
 62
     8
 48
0.25
100
AcDbLine
 10
-200.72473
 20
-60.102951
 30
-0.917138
 11
-201.875465
 21
-60.102951
 31
0.917138
210
0.0
220
1.0
230
-0.0000000000000002
  0
LINE
  5
3E
100
AcDbEntity
  8
0
100
AcDbLine
 10
-153.624253
 20
-61.602953
 30
0.0
 11
-161.054819
 21
-77.287855
 31
0.0
  0
LINE
  5
3F
100
AcDbEntity
  8
0
100
AcDbLine
 10
-208.983136
 20
-60.102951
 30
0.0
 11
-154.951733
 21
-60.102951
 31
0.0
  0
LINE
  5
40
100
AcDbEntity
  8
0
100
AcDbLine
 10
-220.003524
 20
-61.60296
 30
0.0
 11
-143.812768
 21
-61.602953
 31
0.0
  0
SPLINE
  5
41
100
AcDbEntity
  8
0
100
AcDbSpline
210
0.0
220
0.0
230
-1.0
 70
     8
 71
     3
 72
    11
 73
     7
 74
     5
 42
0.0000001
 43
0.0000001
 44
0.0000000001
 40
0.0
 40
0.0
 40
0.0
 40
0.0
 40
1.262715973514483
 40
3.563095032887834
 40
4.851502111491949
 40
5.800483832858754
 40
5.800483832858754
 40
5.800483832858754
 40
5.800483832858754
 10
-206.4810447843684
 20
-60.10295141628429
 30
0.0
 10
-206.8946224276378
 20
-60.01969679054646
 30
0.0
 10
-208.0616437351651
 20
-59.78477132064386
 30
0.0
 10
-209.5534760923539
 20
-59.16048331772999
 30
0.0
 10
-210.9854578733254
 20
-58.61917615202392
 30
0.0
 10
-211.7359533678806
 20
-58.60653753003313
 30
0.0
 10
-212.0542737716969
 20
-58.60117689657833
 30
0.0
 11
-206.4810447843684
 21
-60.10295141628429
 31
0.0
 11
-207.7128139585762
 21
-59.82510913865162
 31
0.0
 11
-209.8765567741731
 21
-59.04410923803927
 31
0.0
 11
-211.1073079775343
 21
-58.66299996811524
 31
0.0
 11
-212.0542737716969
 21
-58.60117689657833
 31
0.0
  0
LINE
  5
42
100
AcDbEntity
  8
0
100
AcDbLine
 10
-219.503526
 20
-60.102951
 30
0.0
 11
-208.983136
 21
-60.102951
 31
0.0
  0
LINE
  5
43
100
AcDbEntity
  8
0
100
AcDbLine
 10
-210.192039
 20
-61.602952
 30
0.0
 11
-202.761483
 21
-77.28783
 31
0.0
  0
ARC
  5
44
100
AcDbEntity
  8
0
100
AcDbCircle
 10
-219.503525
 20
-60.602951
 30
0.0
 40
0.5
100
AcDbArc
 50
90.000103
 51
180.000103
  0
SPLINE
  5
45
100
AcDbEntity
  8
0
  6
HIDDEN
 62
     8
 48
0.125
100
AcDbSpline
210
0.0
220
0.0
230
1.0
 70
     8
 71
     3
 72
    11
 73
     7
 74
     0
 42
0.0000001
 43
0.0000001
 40
2.043904048262741
 40
2.043904048262741
 40
2.043904048262741
 40
2.043904048262741
 40
2.077508468839849
 40
2.402225909498972
 40
3.276319265890822
 40
4.040982654721876
 40
4.040982654721876
 40
4.040982654721876
 40
4.040982654721876
 10
-212.0542737716969
 20
-58.60117689657831
 30
0.0
 10
-212.0428835032209
 20
-58.60152565000745
 30
0.0
 10
-211.9214956757907
 20
-58.60781771150725
 30
0.0
 10
-211.5095821973482
 20
-58.72549868103028
 30
0.0
 10
-211.1926217478936
 20
-59.378022593197
 30
0.0
 10
-210.9926788012082
 20
-59.87237625340982
 30
0.0
 10
-210.1920356736259
 20
-61.60295922244753
 30
0.0
  0
LINE
  5
46
100
AcDbEntity
  8
0
100
AcDbLine
 10
-220.003524
 20
-61.60296
 30
0.0
 11
-220.003524
 21
-60.601609
 31
0.0
  0
SPLINE
  5
47
100
AcDbEntity
  8
0
100
AcDbSpline
210
0.0
220
0.0
230
-1.0
 70
     8
 71
     3
 72
    10
 73
     6
 74
     0
 42
0.0000001
 43
0.0000001
 40
0.0
 40
0.0
 40
0.0
 40
0.0
 40
0.8576478121057387
 40
1.479903508893086
 40
2.043904048262741
 40
2.043904048262741
 40
2.043904048262741
 40
2.043904048262741
 10
-213.1397910560432
 20
-60.10295141628429
 30
0.0
 10
-213.0909669582361
 20
-59.8212688453586
 30
0.0
 10
-213.0712594988219
 20
-59.3158385151243
 30
0.0
 10
-212.6511876444611
 20
-58.72599491354877
 30
0.0
 10
-212.245442595731
 20
-58.59532358565165
 30
0.0
 10
-212.0542737716969
 20
-58.60117689657831
 30
0.0
  0
LWPOLYLINE
  5
48
100
AcDbEntity
  8
0
  6
HIDDEN
 62
     8
 48
0.25
100
AcDbPolyline
 90
        3
 70
     0
 43
0.0
 10
-201.481896
 20
-76.973096
 42
-0.235993
 10
-181.908146
 20
-67.602951
 42
-0.235993
 10
-162.334396
 20
-76.973096
  0
LINE
  5
49
100
AcDbEntity
  8
0
100
AcDbLine
 10
-181.905348
 20
-79.337018
 30
0.0
 11
-200.094917
 21
-79.019518
 31
0.0
  0
LINE
  5
4A
100
AcDbEntity
  8
0
100
AcDbLine
 10
-185.332804
 20
-80.095371
 30
0.0
 11
-184.883592
 21
-79.285033
 31
0.0
  0
LINE
  5
4B
100
AcDbEntity
  8
0
100
AcDbLine
 10
-165.184844
 20
-80.352951
 30
0.0
 11
-198.631448
 21
-80.352951
 31
0.0
  0
LINE
  5
4C
100
AcDbEntity
  8
0
100
AcDbLine
 10
-196.057312
 20
-80.095371
 30
0.0
 11
-196.620089
 21
-79.080172
 31
0.0
  0
LINE
  5
4D
100
AcDbEntity
  8
0
100
AcDbLine
 10
-199.06875
 20
-80.095371
 30
0.0
 11
-199.660951
 21
-79.027093
 31
0.0
  0
ARC
  5
4E
100
AcDbEntity
  8
0
100
AcDbCircle
 10
-198.631448
 20
-79.852951
 30
0.0
 40
0.5
100
AcDbArc
 50
209.001871
 51
270.0
  0
ARC
  5
4F
100
AcDbEntity
  8
0
100
AcDbCircle
 10
-195.62001
 20
-79.852951
 30
0.0
 40
0.5
100
AcDbArc
 50
209.001871
 51
270.0
  0
ARC
  5
50
100
AcDbEntity
  8
0
100
AcDbCircle
 10
-185.770106
 20
-79.852951
 30
0.0
 40
0.5
100
AcDbArc
 50
270.0
 51
330.998129
  0
ARC
  5
51
100
AcDbEntity
  8
0
100
AcDbCircle
 10
-200.04256
 20
-76.019975
 30
0.0
 40
3.0
100
AcDbArc
 50
205.0
 51
269.0
  0
LINE
  5
52
100
AcDbEntity
  8
0
100
AcDbLine
 10
-164.747542
 20
-80.095371
 30
0.0
 11
-164.15534
 21
-79.027093
 31
0.0
  0
LINE
  5
53
100
AcDbEntity
  8
0
100
AcDbLine
 10
-167.758979
 20
-80.095371
 30
0.0
 11
-167.196202
 21
-79.080172
 31
0.0
  0
LINE
  5
54
100
AcDbEntity
  8
0
100
AcDbLine
 10
-178.483487
 20
-80.095371
 30
0.0
 11
-178.932699
 21
-79.285033
 31
0.0
  0
LINE
  5
55
100
AcDbEntity
  8
CENTER
 48
0.125
100
AcDbLine
 10
-181.908146
 20
-84.122265
 30
0.0
 11
-181.908146
 21
-75.593581
 31
0.0
  0
ARC
  5
5A
100
AcDbEntity
  8
0
100
AcDbCircle
 10
-178.046185
 20
-79.852951
 30
0.0
 40
0.5
100
AcDbArc
 50
209.001871
 51
270.0
  0
ARC
  5
5B
100
AcDbEntity
  8
0
100
AcDbCircle
 10
-168.196281
 20
-79.852951
 30
0.0
 40
0.5
100
AcDbArc
 50
270.0
 51
330.998129
  0
ARC
  5
5C
100
AcDbEntity
  8
0
100
AcDbCircle
 10
-165.184844
 20
-79.852951
 30
0.0
 40
0.5
100
AcDbArc
 50
270.0
 51
330.998129
  0
LINE
  5
5D
100
AcDbEntity
  8
0
100
AcDbLine
 10
-181.90605
 20
-79.336958
 30
0.0
 11
-163.721385
 21
-79.019543
 31
0.0
  0
LINE
  5
5E
100
AcDbEntity
  8
0
100
AcDbLine
 10
-183.179592
 20
-79.857384
 30
0.0
 11
-180.636699
 21
-79.857384
 31
0.0
  0
LINE
  5
5F
100
AcDbEntity
  8
0
100
AcDbLine
 10
-180.636699
 20
-79.857384
 30
0.0
 11
-183.179592
 21
-79.857384
 31
0.0
  0
ARC
  5
60
100
AcDbEntity
  8
0
100
AcDbCircle
 10
-183.179592
 20
-79.607384
 30
0.0
 40
0.25
100
AcDbArc
 50
225.0
 51
270.0
  0
LINE
  5
61
100
AcDbEntity
  8
0
100
AcDbLine
 10
-183.356369
 20
-79.784161
 30
0.0
 11
-183.837232
 21
-79.303297
 31
0.0
  0
ARC
  5
62
100
AcDbEntity
  8
0
100
AcDbCircle
 10
-180.636699
 20
-79.607384
 30
0.0
 40
0.25
100
AcDbArc
 50
270.0
 51
315.0
  0
LINE
  5
63
100
AcDbEntity
  8
0
100
AcDbLine
 10
-180.459922
 20
-79.784161
 30
0.0
 11
-179.979084
 21
-79.303322
 31
0.0
  0
ARC
  5
64
100
AcDbEntity
  8
0
100
AcDbCircle
 10
-163.773742
 20
-76.02
 30
0.0
 40
3.0
100
AcDbArc
 50
271.0
 51
335.0
  0
LINE
  5
65
100
AcDbEntity
  8
0
  6
HIDDEN
 62
     8
 48
0.25
100
AcDbLine
 10
-195.328436
 20
-60.852951
 30
0.0
 11
-168.487493
 21
-60.852951
 31
0.0
  0
LINE
  5
66
100
AcDbEntity
  8
0
  6
HIDDEN
 62
     8
 48
0.25
100
AcDbLine
 10
-187.285366
 20
-60.602951
 30
0.0
 11
-176.530526
 21
-60.602951
 31
0.0
  0
LWPOLYLINE
  5
67
100
AcDbEntity
  8
0
  6
HIDDEN
 62
     8
 48
0.25
100
AcDbPolyline
 90
        2
 70
     0
 43
0.0
 10
-190.656378
 20
-63.915888
 10
-173.159914
 20
-63.915888
  0
LINE
  5
68
100
AcDbEntity
  8
0
  6
HIDDEN
 62
     8
 48
0.25
100
AcDbLine
 10
-173.159914
 20
-64.974026
 30
0.0
 11
-190.656378
 21
-64.974026
 31
0.0
  0
LINE
  5
69
100
AcDbEntity
  8
CENTER
 48
0.125
100
AcDbLine
 10
-186.171916
 20
-63.597912
 30
0.0
 11
-177.643231
 21
-63.597912
 31
0.0
  0
ARC
  5
6A
100
AcDbEntity
  8
0
  6
HIDDEN
 62
     8
 48
0.125
100
AcDbCircle
 10
-188.151392
 20
-60.602951
 30
0.0
 40
0.5
100
AcDbArc
 50
30.0
 51
90.0
  0
ARC
  5
6B
100
AcDbEntity
  8
0
  6
HIDDEN
 62
     8
 48
0.125
100
AcDbCircle
 10
-196.627475
 20
-60.852951
 30
0.0
 40
0.75
100
AcDbArc
 50
30.0
 51
90.0
  0
ARC
  5
6C
100
AcDbEntity
  8
0
  6
HIDDEN
 62
     8
 48
0.125
100
AcDbCircle
 10
-202.981903
 20
-61.602959
 30
0.0
 40
1.500007
100
AcDbArc
 50
30.000003
 51
90.0
  0
ARC
  5
6D
100
AcDbEntity
  8
0
  6
HIDDEN
 62
     8
 48
0.125
100
AcDbCircle
 10
-200.383815
 20
-60.102951
 30
0.0
 40
1.500007
100
AcDbArc
 50
210.000003
 51
270.000006
  0
ARC
  5
6E
100
AcDbEntity
  8
0
  6
HIDDEN
 62
     8
 48
0.125
100
AcDbCircle
 10
-195.328436
 20
-60.102951
 30
0.0
 40
0.75
100
AcDbArc
 50
210.0
 51
270.0
  0
ARC
  5
6F
100
AcDbEntity
  8
0
  6
HIDDEN
 62
     8
 48
0.125
100
AcDbCircle
 10
-190.656378
 20
-64.040888
 30
0.0
 40
0.125
100
AcDbArc
 50
90.0
 51
180.0
  0
ARC
  5
70
100
AcDbEntity
  8
0
  6
HIDDEN
 62
     8
 48
0.125
100
AcDbCircle
 10
-190.656378
 20
-64.849026
 30
0.0
 40
0.125
100
AcDbArc
 50
180.0
 51
270.0
  0
LINE
  5
71
100
AcDbEntity
  8
0
  6
HIDDEN
 62
     8
 48
0.125
100
AcDbLine
 10
-190.781378
 20
-64.040888
 30
0.0
 11
-190.781378
 21
-64.849026
 31
0.0
  0
ARC
  5
72
100
AcDbEntity
  8
0
  6
HIDDEN
 62
     8
 48
0.125
100
AcDbCircle
 10
-187.285366
 20
-60.102951
 30
0.0
 40
0.5
100
AcDbArc
 50
210.0
 51
270.0
  0
ARC
  5
73
100
AcDbEntity
  8
0
  6
HIDDEN
 62
     8
 48
0.125
100
AcDbCircle
 10
-167.188455
 20
-60.852951
 30
0.0
 40
0.75
100
AcDbArc
 50
90.0
 51
150.0
  0
ARC
  5
74
100
AcDbEntity
  8
0
  6
HIDDEN
 62
     8
 48
0.125
100
AcDbCircle
 10
-175.6645
 20
-60.602951
 30
0.0
 40
0.5
100
AcDbArc
 50
90.0
 51
150.0
  0
ARC
  5
75
100
AcDbEntity
  8
0
  6
HIDDEN
 62
     8
 48
0.125
100
AcDbCircle
 10
-160.834388
 20
-61.602959
 30
0.0
 40
1.500007
100
AcDbArc
 50
90.0
 51
149.999997
  0
LINE
  5
76
100
AcDbEntity
  8
CENTER
 48
0.125
100
AcDbLine
 10
-181.908146
 20
-67.862793
 30
0.0
 11
-181.908146
 21
-59.334108
 31
0.0
  0
CIRCLE
  5
77
100
AcDbEntity
  8
0
100
AcDbCircle
 10
-181.908146
 20
-63.598451
 30
0.0
 40
1.1875
  0
ARC
  5
78
100
AcDbEntity
  8
0
  6
HIDDEN
 62
     8
 48
0.125
100
AcDbCircle
 10
-173.159914
 20
-64.849026
 30
0.0
 40
0.125
100
AcDbArc
 50
270.0
 51
0.0
  0
LINE
  5
79
100
AcDbEntity
  8
0
  6
HIDDEN
 62
     8
 48
0.125
100
AcDbLine
 10
-173.034914
 20
-64.040888
 30
0.0
 11
-173.034914
 21
-64.849026
 31
0.0
  0
ARC
  5
7A
100
AcDbEntity
  8
0
  6
HIDDEN
 62
     8
 48
0.125
100
AcDbCircle
 10
-173.159914
 20
-64.040888
 30
0.0
 40
0.125
100
AcDbArc
 50
0.0
 51
90.0
  0
ARC
  5
7B
100
AcDbEntity
  8
0
  6
HIDDEN
 62
     8
 48
0.125
100
AcDbCircle
 10
-176.530526
 20
-60.102951
 30
0.0
 40
0.5
100
AcDbArc
 50
270.0
 51
330.0
  0
ARC
  5
7C
100
AcDbEntity
  8
0
  6
HIDDEN
 62
     8
 48
0.25
100
AcDbCircle
 10
-168.487493
 20
-60.102951
 30
0.0
 40
0.75
100
AcDbArc
 50
270.0
 51
330.0
  0
ARC
  5
7D
100
AcDbEntity
  8
0
  6
HIDDEN
 62
     8
 48
0.125
100
AcDbCircle
 10
-163.432477
 20
-60.102951
 30
0.0
 40
1.500007
100
AcDbArc
 50
269.999994
 51
329.999997
  0
ARC
  5
7E
100
AcDbEntity
  8
0
100
AcDbCircle
 10
-144.312766
 20
-60.602952
 30
0.0
 40
0.5
100
AcDbArc
 50
359.999897
 51
89.999897
  0
SPLINE
  5
7F
100
AcDbEntity
  8
0
  6
HIDDEN
 62
     8
 48
0.125
100
AcDbSpline
210
0.0
220
0.0
230
-1.0
 70
     8
 71
     3
 72
    11
 73
     7
 74
     0
 42
0.0000001
 43
0.0000001
 40
2.043904048262741
 40
2.043904048262741
 40
2.043904048262741
 40
2.043904048262741
 40
2.077508468839849
 40
2.402225909498972
 40
3.276319265890822
 40
4.040982654721876
 40
4.040982654721876
 40
4.040982654721876
 40
4.040982654721876
 10
-151.7620176898126
 20
-58.60117689657831
 30
0.0
 10
-151.7734079582887
 20
-58.60152565000745
 30
0.0
 10
-151.8947957857189
 20
-58.60781771150725
 30
0.0
 10
-152.3067092641614
 20
-58.72549868103028
 30
0.0
 10
-152.6236697136159
 20
-59.378022593197
 30
0.0
 10
-152.8236126603013
 20
-59.87237625340982
 30
0.0
 10
-153.624252550658
 20
-61.60295342557661
 30
0.0
  0
LINE
  5
80
100
AcDbEntity
  8
0
100
AcDbLine
 10
-143.812768
 20
-61.602953
 30
0.0
 11
-143.812766
 21
-60.602953
 31
0.0
  0
LINE
  5
81
100
AcDbEntity
  8
0
100
AcDbLine
 10
-144.312765
 20
-60.102952
 30
0.0
 11
-154.951733
 21
-60.102951
 31
0.0
  0
SPLINE
  5
82
100
AcDbEntity
  8
0
100
AcDbSpline
210
0.0
220
0.0
230
-1.0
 70
     8
 71
     3
 72
    11
 73
     7
 74
     5
 42
0.0000001
 43
0.0000001
 44
0.0000000001
 40
0.0
 40
0.0
 40
0.0
 40
0.0
 40
1.262715973514483
 40
3.563095032887834
 40
4.851502111491949
 40
5.800483832858754
 40
5.800483832858754
 40
5.800483832858754
 40
5.800483832858754
 10
-157.3352466771411
 20
-60.10295141628429
 30
0.0
 10
-156.9216690338717
 20
-60.01969679054646
 30
0.0
 10
-155.7546477263444
 20
-59.78477132064386
 30
0.0
 10
-154.2628153691556
 20
-59.16048331772999
 30
0.0
 10
-152.8308335881841
 20
-58.61917615202392
 30
0.0
 10
-152.080338093629
 20
-58.60653753003313
 30
0.0
 10
-151.7620176898126
 20
-58.60117689657833
 30
0.0
 11
-157.3352466771411
 21
-60.10295141628429
 31
0.0
 11
-156.1034775029333
 21
-59.82510913865162
 31
0.0
 11
-153.9397346873365
 21
-59.04410923803927
 31
0.0
 11
-152.7089834839752
 21
-58.66299996811524
 31
0.0
 11
-151.7620176898126
 21
-58.60117689657833
 31
0.0
  0
SPLINE
  5
83
100
AcDbEntity
  8
0
100
AcDbSpline
210
0.0
220
0.0
230
1.0
 70
     8
 71
     3
 72
    10
 73
     6
 74
     0
 42
0.0000001
 43
0.0000001
 40
0.0
 40
0.0
 40
0.0
 40
0.0
 40
0.8576478121057387
 40
1.479903508893086
 40
2.043904048262741
 40
2.043904048262741
 40
2.043904048262741
 40
2.043904048262741
 10
-150.6765004054663
 20
-60.10295141628429
 30
0.0
 10
-150.7253245032734
 20
-59.8212688453586
 30
0.0
 10
-150.7450319626877
 20
-59.3158385151243
 30
0.0
 10
-151.1651038170485
 20
-58.72599491354877
 30
0.0
 10
-151.5708488657786
 20
-58.59532358565165
 30
0.0
 10
-151.7620176898126
 20
-58.60117689657831
 30
0.0
  0
ENDSEC
  0
SECTION
  2
OBJECTS
  0
DICTIONARY
  5
30
102
{ACAD_XDICTIONARY
360
31
102
}
100
AcDbDictionary
  3
ACAD_GROUP
350
2C
  3
ACAD_MLINESTYLE
350
2D
  0
DICTIONARY
  5
1F
100
AcDbDictionary
280
     1
  3
ACAD_XREC_ROUNDTRIP
360
20
  0
DICTIONARY
  5
22
100
AcDbDictionary
280
     1
  3
ACAD_XREC_ROUNDTRIP
360
23
  0
DICTIONARY
  5
9
100
AcDbDictionary
280
     1
  3
ACAD_XREC_ROUNDTRIP
360
A
  0
DICTIONARY
  5
13
100
AcDbDictionary
280
     1
  3
ACAD_LAYERFILTERS
360
14
  0
DICTIONARY
  5
57
100
AcDbDictionary
280
     1
  3
ACAD_XREC_ROUNDTRIP
360
58
  0
DICTIONARY
  5
1B
100
AcDbDictionary
280
     1
  3
ACAD_XREC_ROUNDTRIP
360
1C
  0
DICTIONARY
  5
34
100
AcDbDictionary
280
     1
  3
ACAD_XREC_ROUNDTRIP
360
35
  0
DICTIONARY
  5
39
100
AcDbDictionary
280
     1
  3
ACAD_XREC_ROUNDTRIP
360
3A
  0
DICTIONARY
  5
3
100
AcDbDictionary
280
     1
  3
ACAD_LAYOUTSELFREF
360
4
  3
ACAD_XREC_ROUNDTRIP
360
5
  0
DICTIONARY
  5
D
100
AcDbDictionary
280
     1
  3
ACAD_LAYOUTSELFREF
360
E
  3
ACAD_XREC_ROUNDTRIP
360
F
  0
DICTIONARY
  5
31
100
AcDbDictionary
280
     1
  3
ACAD_XREC_ROUNDTRIP
360
32
  0
DICTIONARY
  5
2C
102
{ACAD_REACTORS
330
30
102
}
100
AcDbDictionary
  0
DICTIONARY
  5
2D
102
{ACAD_XDICTIONARY
360
2E
102
}
102
{ACAD_REACTORS
330
30
102
}
100
AcDbDictionary
  3
STANDARD
350
37
  0
XRECORD
  5
20
102
{ACAD_REACTORS
330
1F
102
}
100
AcDbXrecord
102
EXTNAMES
  1
BYBLOCK
  2
ByBlock
  0
XRECORD
  5
23
102
{ACAD_REACTORS
330
22
102
}
100
AcDbXrecord
102
EXTNAMES
  1
BYLAYER
  2
ByLayer
  0
XRECORD
  5
A
102
{ACAD_REACTORS
330
9
102
}
100
AcDbXrecord
102
EXTNAMES
  1
CONTINUOUS
  2
Continuous
  0
DICTIONARY
  5
14
102
{ACAD_XDICTIONARY
360
15
102
}
102
{ACAD_REACTORS
330
13
102
}
100
AcDbDictionary
280
     1
  3
DIM-1_12
360
17
  3
DIM-1_16
360
18
  0
XRECORD
  5
58
102
{ACAD_REACTORS
330
57
102
}
100
AcDbXrecord
102
LINEWEIGHT
280
     3
  0
XRECORD
  5
1C
102
{ACAD_REACTORS
330
1B
102
}
100
AcDbXrecord
102
EXTNAMES
  1
STANDARD
  2
Standard
  0
XRECORD
  5
35
102
{ACAD_REACTORS
330
34
102
}
100
AcDbXrecord
102
EXTNAMES
  1
ROMANS
  2
romans
  0
XRECORD
  5
3A
102
{ACAD_REACTORS
330
39
102
}
100
AcDbXrecord
102
ACADR14ROUNDTRIP
1000
DSTYLE
1002
{
1070
    79
 70
     1
1070
   276
 70
     1
1070
   277
 70
     5
1002
}
  0
XRECORD
  5
4
102
{ACAD_REACTORS
330
3
102
}
100
AcDbXrecord
340
2
  0
XRECORD
  5
5
102
{ACAD_REACTORS
330
3
102
}
100
AcDbXrecord
102
EXTNAMES
  1
*MODEL_SPACE
  2
*Model_Space
  0
XRECORD
  5
E
102
{ACAD_REACTORS
330
D
102
}
100
AcDbXrecord
340
C
  0
XRECORD
  5
F
102
{ACAD_REACTORS
330
D
102
}
100
AcDbXrecord
102
EXTNAMES
  1
*PAPER_SPACE
  2
*Paper_Space
  0
XRECORD
  5
32
102
{ACAD_REACTORS
330
31
102
}
100
AcDbXrecord
102
EXTNAMES
  1
ACDBVARIABLEDICTIONARY
  2
AcDbVariableDictionary
  0
DICTIONARY
  5
2E
100
AcDbDictionary
280
     1
  3
ACAD_XREC_ROUNDTRIP
360
2F
  0
MLINESTYLE
  5
37
102
{ACAD_REACTORS
330
2D
102
}
100
AcDbMlineStyle
  2
STANDARD
 70
     0
  3

 62
   256
 51
90.0
 52
90.0
 71
     2
 49
0.5
 62
   256
  6
BYLAYER
 49
-0.5
 62
   256
  6
BYLAYER
  0
DICTIONARY
  5
15
100
AcDbDictionary
280
     1
  3
ACAD_XREC_ROUNDTRIP
360
16
  0
XRECORD
  5
17
102
{ACAD_REACTORS
330
14
102
}
100
AcDbXrecord
  1
DIM-1_12
  1
DIM-1_12
  1
*
  1
*
 70
     0
  1
*
  1
*
  0
XRECORD
  5
18
102
{ACAD_REACTORS
330
14
102
}
100
AcDbXrecord
  1
dim-1_16
  1
*
  1
*
  1
*
 70
     0
  1
*
  1
*
  0
XRECORD
  5
2F
102
{ACAD_REACTORS
330
2E
102
}
100
AcDbXrecord
102
EXTNAMES
  1
STANDARD
  2
Standard
  0
XRECORD
  5
16
102
{ACAD_REACTORS
330
15
102
}
100
AcDbXrecord
102
EXTNAMES
  1
DIM-1_16
  2
dim-1_16
  0
ENDSEC
  0
EOF
