  0
SECTION
  2
HEADER
  9
$ACADVER
  1
AC1014
  9
$ACADMAINTVER
 70
     0
  9
$DWGCODEPAGE
  3
ANSI_1252
  9
$INSBASE
 10
-181.905396
 20
-27.427789
 30
0.0
  9
$EXTMIN
 10
-220.003524
 20
-37.927789
 30
0.0
  9
$EXTMAX
 10
-143.812768
 20
20.947211
 30
0.0
  9
$LIMMIN
 10
0.0
 20
0.0
  9
$LIMMAX
 10
100.502416
 20
51.698548
  9
$ORTHOMODE
 70
     1
  9
$REGENMODE
 70
     1
  9
$FILLMODE
 70
     1
  9
$QTEXTMODE
 70
     0
  9
$MIRRTEXT
 70
     0
  9
$DRAGMODE
 70
     2
  9
$LTSCALE
 40
1.0
  9
$OSMODE
 70
    37
  9
$ATTMODE
 70
     1
  9
$TEXTSIZE
 40
0.15
  9
$TRACEWID
 40
1.0
  9
$TEXTSTYLE
  7
CARTOUCHE
  9
$CLAYER
  8
0
  9
$CELTYPE
  6
BYLAYER
  9
$CECOLOR
 62
   256
  9
$CELTSCALE
 40
1.0
  9
$DELOBJ
 70
     1
  9
$DISPSILH
 70
     0
  9
$DIMSCALE
 40
16.0
  9
$DIMASZ
 40
0.1
  9
$DIMEXO
 40
0.0625
  9
$DIMDLI
 40
0.25
  9
$DIMRND
 40
0.0
  9
$DIMDLE
 40
0.0
  9
$DIMEXE
 40
0.1
  9
$DIMTP
 40
0.0
  9
$DIMTM
 40
0.0
  9
$DIMTXT
 40
0.1
  9
$DIMCEN
 40
0.0625
  9
$DIMTSZ
 40
0.0
  9
$DIMTOL
 70
     0
  9
$DIMLIM
 70
     0
  9
$DIMTIH
 70
     1
  9
$DIMTOH
 70
     1
  9
$DIMSE1
 70
     0
  9
$DIMSE2
 70
     0
  9
$DIMTAD
 70
     0
  9
$DIMZIN
 70
    12
  9
$DIMBLK
  1

  9
$DIMASO
 70
     1
  9
$DIMSHO
 70
     1
  9
$DIMPOST
  1
\X
  9
$DIMAPOST
  1
cm
  9
$DIMALT
 70
     1
  9
$DIMALTD
 70
     1
  9
$DIMALTF
 40
2.54
  9
$DIMLFAC
 40
1.0
  9
$DIMTOFL
 70
     0
  9
$DIMTVP
 40
0.0
  9
$DIMTIX
 70
     0
  9
$DIMSOXD
 70
     0
  9
$DIMSAH
 70
     0
  9
$DIMBLK1
  1

  9
$DIMBLK2
  1

  9
$DIMSTYLE
  2
STANDARD
  9
$DIMCLRD
 70
     0
  9
$DIMCLRE
 70
     0
  9
$DIMCLRT
 70
     0
  9
$DIMTFAC
 40
1.0
  9
$DIMGAP
 40
0.08
  9
$DIMJUST
 70
     0
  9
$DIMSD1
 70
     0
  9
$DIMSD2
 70
     0
  9
$DIMTOLJ
 70
     1
  9
$DIMTZIN
 70
     4
  9
$DIMALTZ
 70
    12
  9
$DIMALTTZ
 70
     4
  9
$DIMFIT
 70
     3
  9
$DIMUPT
 70
     0
  9
$DIMUNIT
 70
     2
  9
$DIMDEC
 70
     4
  9
$DIMTDEC
 70
     3
  9
$DIMALTU
 70
     2
  9
$DIMALTTD
 70
     1
  9
$DIMTXSTY
  7
ROMANS
  9
$DIMAUNIT
 70
     0
  9
$LUNITS
 70
     2
  9
$LUPREC
 70
     2
  9
$SKETCHINC
 40
1.0
  9
$FILLETRAD
 40
0.0
  9
$AUNITS
 70
     0
  9
$AUPREC
 70
     0
  9
$MENU
  1
.
  9
$ELEVATION
 40
0.0
  9
$PELEVATION
 40
0.0
  9
$THICKNESS
 40
0.0
  9
$LIMCHECK
 70
     0
  9
$BLIPMODE
 70
     0
  9
$CHAMFERA
 40
0.0
  9
$CHAMFERB
 40
0.0
  9
$CHAMFERC
 40
20.0
  9
$CHAMFERD
 40
0.0
  9
$SKPOLY
 70
     0
  9
$TDCREATE
 40
2452062.343093519
  9
$TDUPDATE
 40
2453690.384834525
  9
$TDINDWG
 40
1.9329089583
  9
$TDUSRTIMER
 40
1.9329089583
  9
$USRTIMER
 70
     1
  9
$ANGBASE
 50
0.0
  9
$ANGDIR
 70
     0
  9
$PDMODE
 70
    34
  9
$PDSIZE
 40
-5.0
  9
$PLINEWID
 40
0.0
  9
$COORDS
 70
     1
  9
$SPLFRAME
 70
     0
  9
$SPLINETYPE
 70
     6
  9
$SPLINESEGS
 70
     8
  9
$ATTDIA
 70
     0
  9
$ATTREQ
 70
     1
  9
$HANDLING
 70
     1
  9
$HANDSEED
  5
6A
  9
$SURFTAB1
 70
     6
  9
$SURFTAB2
 70
     6
  9
$SURFTYPE
 70
     6
  9
$SURFU
 70
     6
  9
$SURFV
 70
     6
  9
$UCSNAME
  2

  9
$UCSORG
 10
0.0
 20
0.0
 30
0.0
  9
$UCSXDIR
 10
1.0
 20
0.0
 30
0.0
  9
$UCSYDIR
 10
0.0
 20
1.0
 30
0.0
  9
$PUCSNAME
  2

  9
$PUCSORG
 10
0.0
 20
0.0
 30
0.0
  9
$PUCSXDIR
 10
1.0
 20
0.0
 30
0.0
  9
$PUCSYDIR
 10
0.0
 20
1.0
 30
0.0
  9
$USERI1
 70
     0
  9
$USERI2
 70
     0
  9
$USERI3
 70
     0
  9
$USERI4
 70
     0
  9
$USERI5
 70
     0
  9
$USERR1
 40
0.0
  9
$USERR2
 40
0.0
  9
$USERR3
 40
0.0
  9
$USERR4
 40
0.0
  9
$USERR5
 40
0.0
  9
$WORLDVIEW
 70
     1
  9
$SHADEDGE
 70
     3
  9
$SHADEDIF
 70
    70
  9
$TILEMODE
 70
     1
  9
$MAXACTVP
 70
    48
  9
$PINSBASE
 10
0.0
 20
0.0
 30
0.0
  9
$PLIMCHECK
 70
     0
  9
$PEXTMIN
 10
0.0
 20
0.0
 30
0.0
  9
$PEXTMAX
 10
0.0
 20
0.0
 30
0.0
  9
$PLIMMIN
 10
0.0
 20
0.0
  9
$PLIMMAX
 10
12.0
 20
9.0
  9
$UNITMODE
 70
     0
  9
$VISRETAIN
 70
     1
  9
$PLINEGEN
 70
     0
  9
$PSLTSCALE
 70
     1
  9
$TREEDEPTH
 70
  3020
  9
$PICKSTYLE
 70
     1
  9
$CMLSTYLE
  2
STANDARD
  9
$CMLJUST
 70
     0
  9
$CMLSCALE
 40
20.0
  9
$PROXYGRAPHICS
 70
     1
  9
$MEASUREMENT
 70
     0
  0
ENDSEC
  0
SECTION
  2
CLASSES
  0
CLASS
  1
ACDBDICTIONARYWDFLT
  2
AcDbDictionaryWithDefault
  3
AutoCAD 2000
 90
        0
280
     1
281
     0
  0
CLASS
  1
ACDBPLACEHOLDER
  2
AcDbPlaceHolder
  3
AutoCAD 2000
 90
        0
280
     1
281
     0
  0
CLASS
  1
LAYOUT
  2
AcDbLayout
  3
AutoCAD 2000
 90
        0
280
     1
281
     0
  0
CLASS
  1
DICTIONARYVAR
  2
AcDbDictionaryVar
  3
"AutoCAD"
 90
        0
280
     0
281
     0
  0
CLASS
  1
IMAGEDEF
  2
AcDbRasterImageDef
  3
ISM
 90
        0
280
     1
281
     0
  0
CLASS
  1
LONG_TRANSACTION
  2
AcDbLongTransaction
  3
AutoCAD 2000
 90
        0
280
     1
281
     0
  0
CLASS
  1
LWPOLYLINE
  2
AcDbPolyline
  3
"AutoCAD"
 90
        0
280
     0
281
     1
  0
CLASS
  1
HATCH
  2
AcDbHatch
  3
"ACAD_SEDONA"
 90
        0
280
     0
281
     1
  0
CLASS
  1
XRECORD
  2
AcDbXrecord
  3
"<Built In>"
 90
        0
280
     0
281
     0
  0
CLASS
  1
LONG_TRANSACTION
  2
AcDbLongTransaction
  3
AutoCAD 2000
 90
        0
280
     1
281
     0
  0
CLASS
  1
LWPOLYLINE
  2
AcDbPolyline
  3
"AutoCAD"
 90
        0
280
     0
281
     1
  0
CLASS
  1
HATCH
  2
AcDbHatch
  3
"ACAD_SEDONA"
 90
        0
280
     0
281
     1
  0
CLASS
  1
XRECORD
  2
AcDbXrecord
  3
"<Built In>"
 90
        0
280
     0
281
     0
  0
ENDSEC
  0
SECTION
  2
TABLES
  0
TABLE
  2
VPORT
  5
26
100
AcDbSymbolTable
 70
     2
  0
VPORT
  5
69
100
AcDbSymbolTableRecord
100
AcDbViewportTableRecord
  2
*ACTIVE
 70
     0
 10
0.0
 20
0.0
 11
1.0
 21
1.0
 12
-181.909463
 22
-8.488537
 13
0.0
 23
0.0
 14
10.0
 24
10.0
 15
10.0
 25
10.0
 16
0.0
 26
0.0
 36
1.0
 17
0.0
 27
0.0
 37
0.0
 40
59.293035
 41
1.487748
 42
50.0
 43
0.0
 44
0.0
 50
0.0
 51
0.0
 71
     0
 72
   100
 73
     1
 74
     3
 75
     0
 76
     0
 77
     0
 78
     2
  0
ENDTAB
  0
TABLE
  2
LTYPE
  5
1D
100
AcDbSymbolTable
 70
     2
  0
LTYPE
  5
1E
102
{ACAD_XDICTIONARY
360
1F
102
}
100
AcDbSymbolTableRecord
100
AcDbLinetypeTableRecord
  2
BYBLOCK
 70
     0
  3

 72
    65
 73
     0
 40
0.0
  0
LTYPE
  5
21
102
{ACAD_XDICTIONARY
360
22
102
}
100
AcDbSymbolTableRecord
100
AcDbLinetypeTableRecord
  2
BYLAYER
 70
     0
  3

 72
    65
 73
     0
 40
0.0
  0
LTYPE
  5
8
102
{ACAD_XDICTIONARY
360
9
102
}
100
AcDbSymbolTableRecord
100
AcDbLinetypeTableRecord
  2
CONTINUOUS
 70
     0
  3
Solid line
 72
    65
 73
     0
 40
0.0
  0
LTYPE
  5
4A
100
AcDbSymbolTableRecord
100
AcDbLinetypeTableRecord
  2
CENTER
 70
     0
  3
Center ____ _ ____ _ ____ _ ____ _ ____ _ ____
 72
    65
 73
     4
 40
50.8
 49
31.75
 74
     0
 49
-6.35
 74
     0
 49
6.35
 74
     0
 49
-6.35
 74
     0
  0
ENDTAB
  0
TABLE
  2
LAYER
  5
12
102
{ACAD_XDICTIONARY
360
13
102
}
100
AcDbSymbolTable
 70
     2
  0
LAYER
  5
7
100
AcDbSymbolTableRecord
100
AcDbLayerTableRecord
  2
0
 70
     0
 62
     7
  6
CONTINUOUS
  0
LAYER
  5
47
102
{ACAD_XDICTIONARY
360
48
102
}
100
AcDbSymbolTableRecord
100
AcDbLayerTableRecord
  2
CENTER
 70
     0
 62
     1
  6
CENTER
  0
ENDTAB
  0
TABLE
  2
STYLE
  5
19
100
AcDbSymbolTable
 70
     3
  0
STYLE
  5
1A
102
{ACAD_XDICTIONARY
360
1B
102
}
100
AcDbSymbolTableRecord
100
AcDbTextStyleTableRecord
  2
STANDARD
 70
     0
 40
0.0
 41
1.0
 50
0.0
 71
     0
 42
0.125
  3
txt
  4

  0
STYLE
  5
36
100
AcDbSymbolTableRecord
100
AcDbTextStyleTableRecord
  2
CARTOUCHE
 70
     0
 40
0.0
 41
1.0
 50
0.0
 71
     0
 42
0.15
  3
romans.shx
  4

  0
STYLE
  5
33
102
{ACAD_XDICTIONARY
360
34
102
}
100
AcDbSymbolTableRecord
100
AcDbTextStyleTableRecord
  2
ROMANS
 70
     0
 40
0.0
 41
1.0
 50
0.0
 71
     0
 42
1.0
  3
romans.shx
  4

  0
ENDTAB
  0
TABLE
  2
VIEW
  5
24
100
AcDbSymbolTable
 70
     0
  0
ENDTAB
  0
TABLE
  2
UCS
  5
25
100
AcDbSymbolTable
 70
     0
  0
ENDTAB
  0
TABLE
  2
APPID
  5
28
100
AcDbSymbolTable
 70
     1
  0
APPID
  5
29
100
AcDbSymbolTableRecord
100
AcDbRegAppTableRecord
  2
ACAD
 70
     0
  0
ENDTAB
  0
TABLE
  2
DIMSTYLE
  5
2A
100
AcDbSymbolTable
 70
     1
  0
DIMSTYLE
105
38
102
{ACAD_XDICTIONARY
360
39
102
}
100
AcDbSymbolTableRecord
100
AcDbDimStyleTableRecord
  2
STANDARD
 70
     0
  3
\X
  4
cm
  5

  6

  7

 40
16.0
 41
0.1
 42
0.0625
 43
0.25
 44
0.1
 45
0.0
 46
0.0
 47
0.0
 48
0.0
140
0.1
141
0.0625
142
0.0
143
2.54
144
1.0
145
0.0
146
1.0
147
0.08
 71
     0
 72
     0
 73
     1
 74
     1
 75
     0
 76
     0
 77
     0
 78
    12
170
     1
171
     1
172
     0
173
     0
174
     0
175
     0
176
     0
177
     0
178
     0
270
     2
271
     4
272
     3
273
     2
274
     1
340
33
275
     0
280
     0
281
     0
282
     0
283
     1
284
     4
285
    12
286
     4
287
     3
288
     0
  0
ENDTAB
  0
TABLE
  2
BLOCK_RECORD
  5
1
100
AcDbSymbolTable
 70
     0
  0
BLOCK_RECORD
  5
2
102
{ACAD_XDICTIONARY
360
3
102
}
100
AcDbSymbolTableRecord
100
AcDbBlockTableRecord
  2
*MODEL_SPACE
  0
BLOCK_RECORD
  5
C
102
{ACAD_XDICTIONARY
360
D
102
}
100
AcDbSymbolTableRecord
100
AcDbBlockTableRecord
  2
*PAPER_SPACE
  0
ENDTAB
  0
ENDSEC
  0
SECTION
  2
BLOCKS
  0
BLOCK
  5
6
100
AcDbEntity
  8
0
100
AcDbBlockBegin
  2
*MODEL_SPACE
 70
     0
 10
0.0
 20
0.0
 30
0.0
  3
*MODEL_SPACE
  1

  0
ENDBLK
  5
B
100
AcDbEntity
  8
0
100
AcDbBlockEnd
  0
BLOCK
  5
10
100
AcDbEntity
 67
     1
  8
0
100
AcDbBlockBegin
  2
*PAPER_SPACE
 70
     0
 10
0.0
 20
0.0
 30
0.0
  3
*PAPER_SPACE
  1

  0
ENDBLK
  5
11
100
AcDbEntity
 67
     1
  8
0
100
AcDbBlockEnd
  0
ENDSEC
  0
SECTION
  2
ENTITIES
  0
SPLINE
  5
3B
100
AcDbEntity
  8
0
100
AcDbSpline
210
0.0
220
0.0
230
1.0
 70
     8
 71
     3
 72
    11
 73
     7
 74
     5
 42
0.0000001
 43
0.0000001
 44
0.0000000001
 12
0.7081191216480502
 22
-0.7060929893125935
 32
0.0
 40
0.0
 40
0.0
 40
0.0
 40
0.0
 40
0.8748739964054657
 40
4.947333313290582
 40
12.10352015180035
 40
12.37978174565527
 40
12.37978174565527
 40
12.37978174565527
 40
12.37978174565527
 10
-158.3623971394723
 20
-7.453152005538875
 30
0.0
 10
-158.1558921375099
 20
-7.659066137336805
 30
0.0
 10
-156.9867724271592
 20
-8.829962301982167
 30
0.0
 10
-154.2347906391187
 20
-11.58641142233588
 30
0.0
 10
-151.0561574133228
 20
-14.7276879241688
 30
0.0
 10
-151.0817537111248
 20
-17.21079281887095
 30
0.0
 10
-151.0827051168549
 20
-17.30308898777974
 30
0.0
 11
-158.3623971394723
 21
-7.453152005538875
 31
0.0
 11
-157.7437872880119
 21
-8.071800824548986
 31
0.0
 11
-154.8636910655628
 21
-10.951031735247
 31
0.0
 11
-151.0827233092373
 21
-17.02682739452382
 31
0.0
 11
-151.0827051168549
 21
-17.30308898777974
 31
0.0
  0
LINE
  5
3C
100
AcDbEntity
  8
0
100
AcDbLine
 10
-181.908146
 20
20.947211
 30
0.0
 11
-220.003524
 21
-17.148167
 31
0.0
  0
SPLINE
  5
3D
100
AcDbEntity
  8
0
100
AcDbSpline
210
0.0
220
0.0
230
-1.0
 70
     8
 71
     3
 72
    11
 73
     7
 74
     5
 42
0.0000001
 43
0.0000001
 44
0.0000000001
 12
-0.7081191216480502
 22
-0.7060929893125935
 32
0.0
 40
0.0
 40
0.0
 40
0.0
 40
0.0
 40
0.8748739964054657
 40
4.947333313290582
 40
12.10352015180035
 40
12.37978174565527
 40
12.37978174565527
 40
12.37978174565527
 40
12.37978174565527
 10
-205.4538038970148
 20
-7.453152005538875
 30
0.0
 10
-205.6603088989773
 20
-7.659066137336805
 30
0.0
 10
-206.8294286093278
 20
-8.829962301982167
 30
0.0
 10
-209.5814103973687
 20
-11.58641142233588
 30
0.0
 10
-212.7600436231637
 20
-14.7276879241688
 30
0.0
 10
-212.7344473253624
 20
-17.21079281887095
 30
0.0
 10
-212.7334959196323
 20
-17.30308898777974
 30
0.0
 11
-205.4538038970148
 21
-7.453152005538875
 31
0.0
 11
-206.0724137484752
 21
-8.071800824548986
 31
0.0
 11
-208.9525099709244
 21
-10.951031735247
 31
0.0
 11
-212.7334777272499
 21
-17.02682739452382
 31
0.0
 11
-212.7334959196323
 21
-17.30308898777974
 31
0.0
  0
LINE
  5
3E
100
AcDbEntity
  8
0
100
AcDbLine
 10
-181.908146
 20
20.947211
 30
0.0
 11
-143.812768
 21
-17.148167
 31
0.0
  0
SPLINE
  5
3F
100
AcDbEntity
  8
0
100
AcDbSpline
210
0.0
220
0.0
230
1.0
 70
     8
 71
     3
 72
    18
 73
    14
 74
    12
 42
0.0000001
 43
0.0000001
 44
0.0000000001
 40
0.0
 40
0.0
 40
0.0
 40
0.0
 40
1.047808341837815
 40
3.648912702977269
 40
6.72574134593836
 40
9.447991638499674
 40
14.50226470901637
 40
18.72344617013861
 40
24.39626979009326
 40
30.71781484771024
 40
36.05679284598121
 40
46.72458817223
 40
58.63911318903656
 40
58.63911318903656
 40
58.63911318903656
 40
58.63911318903656
 10
-181.8760232138556
 20
-5.101280371521298
 30
0.0
 10
-181.5267157916979
 20
-5.088018969810544
 30
0.0
 10
-180.310279312752
 20
-5.041837148928321
 30
0.0
 10
-178.1034575467993
 20
-4.607110383714066
 30
0.0
 10
-175.3949439624983
 20
-3.828015567484966
 30
0.0
 10
-171.7192101801184
 20
-4.031212578203712
 30
0.0
 10
-167.9800743719099
 20
-5.703698496267705
 30
0.0
 10
-163.9996760115385
 20
-8.701470956776981
 30
0.0
 10
-160.4286869117661
 20
-12.95744475190945
 30
0.0
 10
-159.6002865063481
 20
-19.11740753078041
 30
0.0
 10
-162.77404265489
 20
-25.98868707678018
 30
0.0
 10
-170.0152466878743
 20
-32.9530847574627
 30
0.0
 10
-177.7994760735135
 20
-33.09740554961563
 30
0.0
 10
-181.9064674872759
 20
-33.17354979265309
 30
0.0
 11
-181.8760232138556
 21
-5.101280371521298
 31
0.0
 11
-180.8296817390883
 21
-5.045856194425936
 31
0.0
 11
-178.2663192331626
 21
-4.604362637561507
 31
0.0
 11
-175.2541078984812
 21
-3.97710083148479
 31
0.0
 11
-172.5347498099823
 21
-4.102552981190569
 31
0.0
 11
-167.8454091594157
 21
-5.988225416767363
 31
0.0
 11
-164.4691635323695
 21
-8.521866747653362
 31
0.0
 11
-161.0341725413988
 21
-13.03648353261587
 31
0.0
 11
-160.2042482132572
 21
-19.30331347486262
 31
0.0
 11
-162.2253162033028
 21
-24.24497010454001
 31
0.0
 11
-170.1220867598656
 21
-31.41733874396015
 31
0.0
 11
-181.9064674872759
 21
-33.17354979265309
 31
0.0
  0
SPLINE
  5
40
100
AcDbEntity
  8
0
100
AcDbSpline
210
0.0
220
0.0
230
-1.0
 70
     8
 71
     3
 72
    18
 73
    14
 74
    12
 42
0.0000001
 43
0.0000001
 44
0.0000000001
 40
0.0
 40
0.0
 40
0.0
 40
0.0
 40
1.047808341837815
 40
3.86473335972189
 40
6.941562002682982
 40
9.476526227709257
 40
14.32853007140388
 40
18.54971153252612
 40
24.33799328920741
 40
30.65953834682439
 40
35.99851634509536
 40
46.80584267177979
 40
58.53494834328478
 40
58.53494834328478
 40
58.53494834328478
 40
58.53494834328478
 10
-181.9375205568332
 20
-5.101280371521298
 30
0.0
 10
-182.2866454579225
 20
-5.086826945958534
 30
0.0
 10
-183.5743567674001
 20
-5.033516971505866
 30
0.0
 10
-185.8620061940977
 20
-4.642983468981826
 30
0.0
 10
-188.574788026557
 20
-3.835458845714732
 30
0.0
 10
-192.1224323512024
 20
-4.03354053160031
 30
0.0
 10
-195.7001779869834
 20
-5.75948008229882
 30
0.0
 10
-199.6278492395177
 20
-8.742099561756983
 30
0.0
 10
-203.422755101416
 20
-12.88453133368336
 30
0.0
 10
-204.2012682681779
 20
-19.1218959330507
 30
0.0
 10
-201.0353897890659
 20
-26.04009380283974
 30
0.0
 10
-193.6702373667286
 20
-32.86540307016045
 30
0.0
 10
-185.9336104854188
 20
-33.06807106048539
 30
0.0
 10
-181.9070762834129
 20
-33.17354979265309
 30
0.0
 11
-181.9375205568332
 21
-5.101280371521298
 31
0.0
 11
-182.9838620316005
 21
-5.045856194425936
 31
0.0
 11
-185.7659745375262
 21
-4.604362637561507
 31
0.0
 11
-188.7781858722076
 21
-3.97710083148479
 31
0.0
 11
-191.3100439607065
 21
-4.102552981190569
 31
0.0
 11
-195.7806346112731
 21
-5.988225416767363
 31
0.0
 11
-199.1568802383193
 21
-8.521866747653362
 31
0.0
 11
-202.77937122929
 21
-13.03648353261587
 31
0.0
 11
-203.6092955574316
 21
-19.30331347486262
 31
0.0
 11
-201.588227567386
 21
-24.24497010454001
 31
0.0
 11
-193.5039570108232
 21
-31.41733874396015
 31
0.0
 11
-181.9070762834129
 21
-33.17354979265309
 31
0.0
  0
ARC
  5
41
100
AcDbEntity
  8
0
100
AcDbCircle
 10
-198.440706
 20
-17.303463
 30
0.0
 40
11.97719
100
AcDbArc
 50
129.611365
 51
230.418414
  0
ARC
  5
42
100
AcDbEntity
  8
0
100
AcDbCircle
 10
-165.368901
 20
-17.303463
 30
0.0
 40
11.97719
100
AcDbArc
 50
309.581586
 51
50.388635
  0
SPLINE
  5
43
100
AcDbEntity
  8
0
100
AcDbSpline
210
0.0
220
0.0
230
1.0
 70
     8
 71
     3
 72
    10
 73
     6
 74
     4
 42
0.0000001
 43
0.0000001
 44
0.0000000001
 12
-0.707129051214131
 22
-0.707084510457557
 32
0.0
 13
-1.0
 23
0.0
 33
0.0
 40
0.0
 40
0.0
 40
0.0
 40
0.0
 40
2.225113638892622
 40
9.10372214087017
 40
25.19488072034642
 40
25.19488072034642
 40
25.19488072034642
 40
25.19488072034642
 10
-158.2707119074907
 20
-27.06479429786685
 30
0.0
 10
-158.7951927395953
 20
-27.58924209388979
 30
0.0
 10
-161.1868472518691
 20
-29.47277640543934
 30
0.0
 10
-168.585315015446
 20
-33.66774871759571
 30
0.0
 10
-176.5425975353946
 20
-34.19550149187879
 30
0.0
 10
-181.9063170618866
 20
-34.19550149187879
 30
0.0
 11
-158.2707119074907
 21
-27.06479429786685
 31
0.0
 11
-159.9811454394109
 21
-28.48801172288279
 31
0.0
 11
-165.9887628222174
 21
-31.83820400173465
 31
0.0
 11
-181.9063170618866
 21
-34.19550149187879
 31
0.0
  0
ARC
  5
44
100
AcDbEntity
  8
0
100
AcDbCircle
 10
-181.908146
 20
7.382239
 30
0.0
 40
45.310028
100
AcDbArc
 50
212.778327
 51
327.221673
  0
SPLINE
  5
45
100
AcDbEntity
  8
0
100
AcDbSpline
210
0.0
220
0.0
230
-1.0
 70
     8
 71
     3
 72
    11
 73
     7
 74
     5
 42
0.0000001
 43
0.0000001
 44
0.0000000001
 12
-0.7081191216480502
 22
0.7060929893125935
 32
0.0
 40
0.0
 40
0.0
 40
0.0
 40
0.0
 40
0.8748739964054657
 40
4.947333313290582
 40
12.10352015180035
 40
12.37978174565527
 40
12.37978174565527
 40
12.37978174565527
 40
12.37978174565527
 10
-205.4538038970148
 20
-27.15302597002061
 30
0.0
 10
-205.6603088989773
 20
-26.94711183822268
 30
0.0
 10
-206.8294286093278
 20
-25.77621567357732
 30
0.0
 10
-209.5814103973687
 20
-23.0197665532236
 30
0.0
 10
-212.7600436231637
 20
-19.87849005139068
 30
0.0
 10
-212.7344473253624
 20
-17.39538515668853
 30
0.0
 10
-212.7334959196323
 20
-17.30308898777974
 30
0.0
 11
-205.4538038970148
 21
-27.15302597002061
 31
0.0
 11
-206.0724137484752
 21
-26.5343771510105
 31
0.0
 11
-208.9525099709244
 21
-23.65514624031249
 31
0.0
 11
-212.7334777272499
 21
-17.57935058103567
 31
0.0
 11
-212.7334959196323
 21
-17.30308898777974
 31
0.0
  0
LINE
  5
46
100
AcDbEntity
  8
CENTER
 48
0.125
100
AcDbLine
 10
-181.905396
 20
-32.599132
 30
0.0
 11
-181.905396
 21
-22.256446
 31
0.0
  0
SPLINE
  5
4B
100
AcDbEntity
  8
0
100
AcDbSpline
210
0.0
220
0.0
230
1.0
 70
     8
 71
     3
 72
    10
 73
     6
 74
     4
 42
0.0000001
 43
0.0000001
 44
0.0000000001
 12
0.707129051214131
 22
-0.707084510457557
 32
0.0
 13
1.0
 23
0.0
 33
0.0
 40
0.0
 40
0.0
 40
0.0
 40
0.0
 40
2.225113638892622
 40
9.268072370280323
 40
25.17377756810089
 40
25.17377756810089
 40
25.17377756810089
 40
25.17377756810089
 10
-205.5419222162826
 20
-27.06479429786685
 30
0.0
 10
-205.0174413841781
 20
-27.58924209388979
 30
0.0
 10
-202.5865140125359
 20
-29.51423943865083
 30
0.0
 10
-195.1024538748549
 20
-33.53881626117099
 30
0.0
 10
-187.2082187944936
 20
-34.19550149187879
 30
0.0
 10
-181.9063170618867
 20
-34.19550149187879
 30
0.0
 11
-205.5419222162826
 21
-27.06479429786685
 31
0.0
 11
-203.8314886843624
 21
-28.48801172288279
 31
0.0
 11
-197.6363713015559
 21
-31.83820400173465
 31
0.0
 11
-181.9063170618867
 21
-34.19550149187879
 31
0.0
  0
LINE
  5
4C
100
AcDbEntity
  8
CENTER
 48
0.125
100
AcDbLine
 10
-187.076739
 20
-27.427789
 30
0.0
 11
-176.734053
 21
-27.427789
 31
0.0
  0
CIRCLE
  5
4D
100
AcDbEntity
  8
0
100
AcDbCircle
 10
-181.908146
 20
-27.427789
 30
0.0
 40
1.890146
  0
CIRCLE
  5
4E
100
AcDbEntity
  8
0
100
AcDbCircle
 10
-181.908146
 20
-27.427789
 30
0.0
 40
1.25
  0
SPLINE
  5
4F
100
AcDbEntity
  8
0
100
AcDbSpline
210
0.0
220
0.0
230
1.0
 70
     8
 71
     3
 72
    11
 73
     7
 74
     5
 42
0.0000001
 43
0.0000001
 44
0.0000000001
 12
0.7081191216480502
 22
0.7060929893125935
 32
0.0
 40
0.0
 40
0.0
 40
0.0
 40
0.0
 40
0.8748739964054657
 40
4.947333313290582
 40
12.10352015180035
 40
12.37978174565527
 40
12.37978174565527
 40
12.37978174565527
 40
12.37978174565527
 10
-158.3623971394723
 20
-27.15302597002061
 30
0.0
 10
-158.1558921375099
 20
-26.94711183822268
 30
0.0
 10
-156.9867724271592
 20
-25.77621567357732
 30
0.0
 10
-154.2347906391187
 20
-23.0197665532236
 30
0.0
 10
-151.0561574133228
 20
-19.87849005139068
 30
0.0
 10
-151.0817537111248
 20
-17.39538515668853
 30
0.0
 10
-151.0827051168549
 20
-17.30308898777974
 30
0.0
 11
-158.3623971394723
 21
-27.15302597002061
 31
0.0
 11
-157.7437872880119
 21
-26.5343771510105
 31
0.0
 11
-154.8636910655628
 21
-23.65514624031249
 31
0.0
 11
-151.0827233092373
 21
-17.57935058103567
 31
0.0
 11
-151.0827051168549
 21
-17.30308898777974
 31
0.0
  0
LINE
  5
50
100
AcDbEntity
  8
0
100
AcDbLine
 10
-176.382898
 20
10.633518
 30
0.0
 11
-158.361136
 21
-7.451891
 31
0.0
  0
SPLINE
  5
51
100
AcDbEntity
  8
0
100
AcDbSpline
210
0.0
220
0.0
230
-1.0
 70
     8
 71
     3
 72
    10
 73
     6
 74
     0
 42
0.0000001
 43
0.0000001
 40
0.0
 40
0.0
 40
0.0
 40
0.0
 40
1.488449221609101
 40
10.27472049212021
 40
18.14439122435531
 40
18.14439122435531
 40
18.14439122435531
 40
18.14439122435531
 10
-181.9030529757568
 20
1.954883928706308
 30
0.0
 10
-181.4070142679214
 20
1.962268404902485
 30
0.0
 10
-178.201623892631
 20
2.013243223388002
 30
0.0
 10
-172.3272053673501
 20
1.420245632426258
 30
0.0
 10
-163.6085876165688
 20
-2.413004973123993
 30
0.0
 10
-157.730291956529
 20
-8.078661670495982
 30
0.0
  0
SPLINE
  5
52
100
AcDbEntity
  8
0
100
AcDbSpline
210
0.0
220
0.0
230
-1.0
 70
     8
 71
     3
 72
    12
 73
     8
 74
     6
 42
0.0000001
 43
0.0000001
 44
0.0000000001
 13
0.7042862850880986
 23
-0.7099160715442395
 33
0.0
 40
0.0
 40
0.0
 40
0.0
 40
0.0
 40
0.7156211591374843
 40
1.610005010111754
 40
3.971110889628865
 40
6.481165017776453
 40
15.75920458427384
 40
15.75920458427384
 40
15.75920458427384
 40
15.75920458427384
 10
-181.9078293649169
 20
9.696632019933922
 30
0.0
 10
-181.6671355708327
 20
9.676877424013508
 30
0.0
 10
-181.1256224958901
 20
9.632433519583774
 30
0.0
 10
-179.9685618923383
 20
8.943437931597133
 30
0.0
 10
-178.2600610998142
 20
8.037694560479744
 30
0.0
 10
-173.4847131271293
 20
7.522978073273874
 30
0.0
 10
-170.3351113561598
 20
4.601263453687581
 30
0.0
 10
-168.1569793497635
 20
2.405720320127632
 30
0.0
 11
-181.9078293649169
 21
9.696632019933922
 31
0.0
 11
-181.2000530775968
 21
9.590960971332378
 31
0.0
 11
-180.3947012115699
 21
9.201948317591359
 31
0.0
 11
-178.2570816670658
 21
8.199250129079814
 31
0.0
 11
-175.8064858560268
 21
7.656155388588786
 31
0.0
 11
-168.1569793497635
 21
2.405720320127632
 31
0.0
  0
SPLINE
  5
53
100
AcDbEntity
  8
0
100
AcDbSpline
210
0.0
220
0.0
230
-1.0
 70
     8
 71
     3
 72
    12
 73
     8
 74
     6
 42
0.0000001
 43
0.0000001
 44
0.0000000001
 13
-0.7042862850880986
 23
-0.7099160715442395
 33
0.0
 40
0.0
 40
0.0
 40
0.0
 40
0.0
 40
0.7156211591374843
 40
1.610005010111754
 40
4.17084102350871
 40
6.680895151656297
 40
15.62694641596571
 40
15.62694641596571
 40
15.62694641596571
 40
15.62694641596571
 10
-181.9078293649169
 20
9.696632019933922
 30
0.0
 10
-182.1486532962162
 20
9.677164036678744
 30
0.0
 10
-182.6904591539607
 20
9.633364953634043
 30
0.0
 10
-183.9013542423398
 20
8.900111651554707
 30
0.0
 10
-185.7211905451181
 20
8.079851482947981
 30
0.0
 10
-190.4378918998447
 20
7.522240143342109
 30
0.0
 10
-193.3709856430209
 20
4.522702176591606
 30
0.0
 10
-195.4711793800703
 20
2.405720320127632
 30
0.0
 11
-181.9078293649169
 21
9.696632019933922
 31
0.0
 11
-182.6156056522371
 21
9.590960971332378
 31
0.0
 11
-183.420957518264
 21
9.201948317591359
 31
0.0
 11
-185.7773270627681
 21
8.199250129079814
 31
0.0
 11
-188.227922873807
 21
7.656155388588786
 31
0.0
 11
-195.4711793800703
 21
2.405720320127632
 31
0.0
  0
LINE
  5
54
100
AcDbEntity
  8
0
100
AcDbLine
 10
-187.651347
 20
10.633518
 30
0.0
 11
-205.454359
 21
-7.451891
 31
0.0
  0
SPLINE
  5
55
100
AcDbEntity
  8
0
100
AcDbSpline
210
0.0
220
0.0
230
-1.0
 70
     8
 71
     3
 72
     9
 73
     5
 74
     0
 42
0.0000001
 43
0.0000001
 40
16.04164239311964
 40
16.04164239311964
 40
16.04164239311964
 40
16.04164239311964
 40
18.36949836706613
 40
22.9779782321937
 40
22.9779782321937
 40
22.9779782321937
 40
22.9779782321937
 10
-188.8037997729574
 20
0.6277040174703937
 30
0.0
 10
-188.0481450267365
 20
0.8129395914697763
 30
0.0
 10
-185.7668867132625
 20
1.232980687961754
 30
0.0
 10
-183.4426571054256
 20
1.207181736897533
 30
0.0
 10
-181.9064971503831
 20
1.207181736897533
 30
0.0
  0
SPLINE
  5
56
100
AcDbEntity
  8
0
100
AcDbSpline
210
0.0
220
0.0
230
-1.0
 70
     8
 71
     3
 72
    13
 73
     9
 74
     7
 42
0.0000001
 43
0.0000001
 44
0.0000000001
 40
0.0
 40
0.0
 40
0.0
 40
0.0
 40
0.8341723334485209
 40
3.724652608989519
 40
5.86594738579067
 40
9.939273480578595
 40
18.49729351840877
 40
21.0257636005212
 40
21.0257636005212
 40
21.0257636005212
 40
21.0257636005212
 10
-181.9077471293384
 20
-3.545116071293691
 30
0.0
 10
-182.1860489370817
 20
-3.54954933051058
 30
0.0
 10
-183.4286909101286
 20
-3.56934422162169
 30
0.0
 10
-185.3627069782464
 20
-3.182922746038505
 30
0.0
 10
-188.2922866997527
 20
-2.349999245288255
 30
0.0
 10
-193.3002861820949
 20
-2.692700656446632
 30
0.0
 10
-198.1387933083669
 20
-5.053616768849424
 30
0.0
 10
-200.5301985657916
 20
-7.878108206817378
 30
0.0
 10
-201.0756008150327
 20
-8.522283416538456
 30
0.0
 11
-181.9077471293384
 21
-3.545116071293691
 31
0.0
 11
-182.7419194627869
 21
-3.545116071293691
 31
0.0
 11
-185.5965134682208
 21
-3.091057388486774
 31
0.0
 11
-187.6833824314879
 21
-2.611347839584027
 31
0.0
 11
-191.7538935281902
 21
-2.762757502763065
 31
0.0
 11
-199.3797313406316
 21
-6.646866747653362
 31
0.0
 11
-201.0756008150327
 21
-8.522283416538456
 31
0.0
  0
SPLINE
  5
57
100
AcDbEntity
  8
0
100
AcDbSpline
210
0.0
220
0.0
230
-1.0
 70
     8
 71
     3
 72
    12
 73
     8
 74
     6
 42
0.0000001
 43
0.0000001
 44
0.0000000001
 12
-1.0
 22
0.0
 32
0.0
 13
-0.7070845104575604
 23
-0.7071290512141277
 33
0.0
 40
0.0
 40
0.0
 40
0.0
 40
0.0
 40
0.6728280364420167
 40
2.221418831192543
 40
6.133662259576603
 40
13.22445552024183
 40
21.80303253667799
 40
21.80303253667799
 40
21.80303253667799
 40
21.80303253667799
 10
-181.9077471293384
 20
5.454883928706308
 30
0.0
 10
-182.1320231414857
 20
5.454883928706308
 30
0.0
 10
-182.8791164853321
 20
5.490054150320416
 30
0.0
 10
-184.7680453713881
 20
6.412834013863212
 30
0.0
 10
-189.1540468584158
 20
5.547602932297898
 30
0.0
 10
-194.7790004644875
 20
2.319589851905456
 30
0.0
 10
-198.9372464742704
 20
-0.9359053971774429
 30
0.0
 10
-200.9591727843002
 20
-2.957959072644049
 30
0.0
 11
-181.9077471293384
 21
5.454883928706308
 31
0.0
 11
-182.5788076656019
 21
5.503621217225145
 31
0.0
 11
-184.0583466786394
 21
5.960893300875909
 31
0.0
 11
-187.9568495890464
 21
5.633290339225595
 31
0.0
 11
-194.2814077314518
 21
2.427153509826553
 31
0.0
 11
-200.9591727843002
 21
-2.957959072644049
 31
0.0
  0
SPLINE
  5
58
100
AcDbEntity
  8
0
100
AcDbSpline
210
0.0
220
0.0
230
-1.0
 70
     8
 71
     3
 72
    10
 73
     6
 74
     0
 42
0.0000001
 43
0.0000001
 40
0.0
 40
0.0
 40
0.0
 40
0.0
 40
1.488449221609101
 40
10.27472049212021
 40
18.14439122435531
 40
18.14439122435531
 40
18.14439122435531
 40
18.14439122435531
 10
-181.9065546731019
 20
1.954883928706308
 30
0.0
 10
-182.4025933809373
 20
1.962268404902485
 30
0.0
 10
-185.8267337562277
 20
2.013243223388002
 30
0.0
 10
-191.5136522815086
 20
1.420245632426258
 30
0.0
 10
-200.0135200322899
 20
-2.413004973123993
 30
0.0
 10
-206.0793156923297
 20
-8.078661670495982
 30
0.0
  0
SPLINE
  5
59
100
AcDbEntity
  8
0
100
AcDbSpline
210
0.0
220
0.0
230
1.0
 70
     8
 71
     3
 72
    11
 73
     7
 74
     5
 42
0.0000001
 43
0.0000001
 44
0.0000000001
 12
0.6898637283083541
 22
-0.7239392490841324
 32
0.0
 40
0.0
 40
0.0
 40
0.0
 40
0.0
 40
0.825388994535165
 40
4.105548265572375
 40
7.743965883934945
 40
9.603920098924383
 40
9.603920098924383
 40
9.603920098924383
 40
9.603920098924383
 10
-190.5938327250358
 20
1.069577104870333
 30
0.0
 10
-190.4040307486775
 20
0.8703999419016355
 30
0.0
 10
-189.4852642806903
 20
-0.143810798624208
 30
0.0
 10
-187.2716606641253
 20
-1.610912631056391
 30
0.0
 10
-184.3575476861352
 20
-2.230974893309498
 30
0.0
 10
-182.5260888926447
 20
-2.278903191684614
 30
0.0
 10
-181.9065546731019
 20
-2.29511607129369
 30
0.0
 11
-190.5938327250358
 21
1.069577104870333
 31
0.0
 11
-190.0243103436657
 21
0.4721566085544282
 31
0.0
 11
-187.3023599354295
 21
-1.358261600072751
 31
0.0
 11
-183.7644450772183
 21
-2.2075208194276
 31
0.0
 11
-181.9065546731019
 21
-2.29511607129369
 31
0.0
  0
SPLINE
  5
5A
100
AcDbEntity
  8
0
100
AcDbSpline
210
0.0
220
0.0
230
1.0
 70
     8
 71
     3
 72
    11
 73
     7
 74
     5
 42
0.0000001
 43
0.0000001
 44
0.0000000001
 12
0.124192450081545
 22
-0.9922581495471543
 32
0.0
 13
1.0
 23
0.0
 33
0.0
 40
0.0
 40
0.0
 40
0.0
 40
0.0
 40
0.5837736046780464
 40
1.326015893679949
 40
3.348945654417204
 40
8.157242680177878
 40
8.157242680177878
 40
8.157242680177878
 40
8.157242680177878
 10
-189.1563612095623
 20
1.439892328507546
 30
0.0
 10
-189.1321944514763
 20
1.24680762293011
 30
0.0
 10
-189.0380516230706
 20
0.7914075981350887
 30
0.0
 10
-188.12602449084
 20
0.0621810684667387
 30
0.0
 10
-185.8340984838541
 20
-0.9702870668094936
 30
0.0
 10
-183.5089164732103
 20
-1.294838919229604
 30
0.0
 10
-181.9061507979568
 20
-1.294838919229604
 30
0.0
 11
-189.1563612095623
 21
1.439892328507546
 31
0.0
 11
-188.9975582292619
 21
0.8781332743157008
 31
0.0
 11
-188.4687619781322
 21
0.3572703937280985
 31
0.0
 11
-186.6544080459167
 21
-0.5373606059195204
 31
0.0
 11
-181.9061507979568
 21
-1.294838919229604
 31
0.0
  0
SPLINE
  5
5B
100
AcDbEntity
  8
0
100
AcDbSpline
210
0.0
220
0.0
230
-1.0
 70
     8
 71
     3
 72
    10
 73
     6
 74
     0
 42
0.0000001
 43
0.0000001
 40
0.0
 40
0.0
 40
0.0
 40
0.0
 40
8.562798139572908
 40
13.79871858803507
 40
14.78376939200053
 40
14.78376939200053
 40
14.78376939200053
 40
14.78376939200053
 10
-201.0756008150327
 20
-8.522283416538456
 30
0.0
 10
-199.6144486411171
 20
-6.070372123484987
 30
0.0
 10
-196.334939384682
 20
-2.706590404259681
 30
0.0
 10
-191.8999446045686
 20
-0.4729724975537517
 30
0.0
 10
-190.1463389831568
 20
0.1916912357891869
 30
0.0
 10
-189.8317550507253
 20
0.2895849806301403
 30
0.0
  0
SPLINE
  5
5C
100
AcDbEntity
  8
0
100
AcDbSpline
210
0.0
220
0.0
230
-1.0
 70
     8
 71
     3
 72
    10
 73
     6
 74
     0
 42
0.0000001
 43
0.0000001
 40
0.0
 40
0.0
 40
0.0
 40
0.0
 40
8.562798139572908
 40
13.79871858803507
 40
14.78323031103634
 40
14.78323031103634
 40
14.78323031103634
 40
14.78323031103634
 10
-162.5498934857335
 20
-8.522283416538456
 30
0.0
 10
-164.0110456596491
 20
-6.070372123484987
 30
0.0
 10
-167.2905549160842
 20
-2.706590404259681
 30
0.0
 10
-171.7253879768689
 20
-0.4730539450427403
 30
0.0
 10
-173.6975634877413
 20
0.1915760402737485
 30
0.0
 10
-174.0119727725008
 20
0.2894242534180691
 30
0.0
  0
SPLINE
  5
5D
100
AcDbEntity
  8
0
100
AcDbSpline
210
0.0
220
0.0
230
1.0
 70
     8
 71
     3
 72
    11
 73
     7
 74
     5
 42
0.0000001
 43
0.0000001
 44
0.0000000001
 12
-0.6898637283083541
 22
-0.7239392490841324
 32
0.0
 40
0.0
 40
0.0
 40
0.0
 40
0.0
 40
0.825388994535165
 40
4.262732808653844
 40
7.688823376289751
 40
9.54877759127919
 40
9.54877759127919
 40
9.54877759127919
 40
9.54877759127919
 10
-173.2497188708778
 20
1.069577104870333
 30
0.0
 10
-173.439520847236
 20
0.8703999419016355
 30
0.0
 10
-174.3892500279072
 20
-0.1901805634796593
 30
0.0
 10
-176.6762543319696
 20
-1.503011814427519
 30
0.0
 10
-179.5197418412199
 20
-2.249253960374667
 30
0.0
 10
-181.2847196584678
 20
-2.283179122164447
 30
0.0
 10
-181.9057469228116
 20
-2.29511607129369
 30
0.0
 11
-173.2497188708778
 21
1.069577104870333
 31
0.0
 11
-173.8192412522478
 21
0.4721566085544282
 31
0.0
 11
-176.7286916604841
 21
-1.358261600072751
 31
0.0
 11
-180.0478565186953
 21
-2.2075208194276
 31
0.0
 11
-181.9057469228116
 21
-2.29511607129369
 31
0.0
  0
SPLINE
  5
5E
100
AcDbEntity
  8
0
100
AcDbSpline
210
0.0
220
0.0
230
-1.0
 70
     8
 71
     3
 72
    12
 73
     8
 74
     6
 42
0.0000001
 43
0.0000001
 44
0.0000000001
 12
1.0
 22
0.0
 32
0.0
 13
0.7070845104575604
 23
-0.7071290512141277
 33
0.0
 40
0.0
 40
0.0
 40
0.0
 40
0.0
 40
0.6728280364420167
 40
2.221418831192543
 40
5.915725962730361
 40
13.37113283416936
 40
21.94970985060551
 40
21.94970985060551
 40
21.94970985060551
 40
21.94970985060551
 10
-181.9079116004954
 20
5.454883928706308
 30
0.0
 10
-181.6836355883481
 20
5.454883928706308
 30
0.0
 10
-180.9365874597321
 20
5.48916390222574
 30
0.0
 10
-179.1140997734693
 20
6.392440246293237
 30
0.0
 10
-174.7070958809961
 20
5.446483076643154
 30
0.0
 10
-168.9104405462216
 20
2.47189417122902
 30
0.0
 10
-164.6909122555634
 20
-0.9359053971774429
 30
0.0
 10
-162.6689859455337
 20
-2.957959072644049
 30
0.0
 11
-181.9079116004954
 21
5.454883928706308
 31
0.0
 11
-181.2368510642319
 21
5.503621217225145
 31
0.0
 11
-179.7573120511945
 21
5.960893300875909
 31
0.0
 11
-176.0775591407875
 21
5.633290339225595
 31
0.0
 11
-169.3467509983821
 21
2.427153509826553
 31
0.0
 11
-162.6689859455337
 21
-2.957959072644049
 31
0.0
  0
SPLINE
  5
5F
100
AcDbEntity
  8
0
100
AcDbSpline
210
0.0
220
0.0
230
-1.0
 70
     8
 71
     3
 72
    13
 73
     9
 74
     7
 42
0.0000001
 43
0.0000001
 44
0.0000000001
 40
0.0
 40
0.0
 40
0.0
 40
0.0
 40
0.8341723334485209
 40
3.508839211475433
 40
5.650133988276584
 40
10.12945478534513
 40
18.63147246685347
 40
21.25399799072523
 40
21.25399799072523
 40
21.25399799072523
 40
21.25399799072523
 10
-181.9052471714277
 20
-3.545116071293691
 30
0.0
 10
-181.6268162662081
 20
-3.550464561091818
 30
0.0
 10
-180.4556322809009
 20
-3.572962299236957
 30
0.0
 10
-178.6016457347379
 20
-3.152034863998627
 30
0.0
 10
-175.6053943841262
 20
-2.326625493683097
 30
0.0
 10
-170.4976637541119
 20
-2.667496877463928
 30
0.0
 10
-165.3814006733931
 20
-4.89631118999342
 30
0.0
 10
-163.0900595398147
 20
-7.83055742751141
 30
0.0
 10
-162.5498934857335
 20
-8.522283416538456
 30
0.0
 11
-181.9052471714277
 21
-3.545116071293691
 31
0.0
 11
-181.0710748379792
 21
-3.545116071293691
 31
0.0
 11
-178.4352308325453
 21
-3.091057388486774
 31
0.0
 11
-176.3483618692782
 21
-2.611347839584027
 31
0.0
 11
-171.871600772576
 21
-2.762757502763065
 31
0.0
 11
-164.2457629601346
 21
-6.521866747653362
 31
0.0
 11
-162.5498934857335
 21
-8.522283416538456
 31
0.0
  0
SPLINE
  5
60
100
AcDbEntity
  8
0
100
AcDbSpline
210
0.0
220
0.0
230
-1.0
 70
     8
 71
     3
 72
     9
 73
     5
 74
     0
 42
0.0000001
 43
0.0000001
 40
16.04107159407998
 40
16.04107159407998
 40
16.04107159407998
 40
16.04107159407998
 40
18.36949836706613
 40
22.9779782321937
 40
22.9779782321937
 40
22.9779782321937
 40
22.9779782321937
 10
-175.2273886614451
 20
0.6275677481073743
 30
0.0
 10
-175.9832238195893
 20
0.8128704571224796
 30
0.0
 10
-178.2646663239808
 20
1.232982810987056
 30
0.0
 10
-180.3703371953405
 20
1.207181736897533
 30
0.0
 10
-181.9064971503831
 20
1.207181736897533
 30
0.0
  0
SPLINE
  5
61
100
AcDbEntity
  8
0
100
AcDbSpline
210
0.0
220
0.0
230
1.0
 70
     8
 71
     3
 72
    11
 73
     7
 74
     5
 42
0.0000001
 43
0.0000001
 44
0.0000000001
 12
-0.124192450081545
 22
-0.9922581495471543
 32
0.0
 13
-1.0
 23
0.0
 33
0.0
 40
0.0
 40
0.0
 40
0.0
 40
0.0
 40
0.5837736046780464
 40
1.326015893679949
 40
3.348945654417204
 40
7.941353443851465
 40
7.941353443851465
 40
7.941353443851465
 40
7.941353443851465
 10
-174.8746903863513
 20
1.439892328507546
 30
0.0
 10
-174.8988571444373
 20
1.24680762293011
 30
0.0
 10
-174.9930000889134
 20
0.7914391549714336
 30
0.0
 10
-175.9050261825603
 20
0.0619302588329516
 30
0.0
 10
-178.1316356874909
 20
-0.9364522152505603
 30
0.0
 10
-180.3753482014787
 20
-1.294838919229604
 30
0.0
 10
-181.9061507979568
 20
-1.294838919229604
 30
0.0
 11
-174.8746903863513
 21
1.439892328507546
 31
0.0
 11
-175.0334933666517
 21
0.8781332743157008
 31
0.0
 11
-175.5622896177813
 21
0.3572703937280985
 31
0.0
 11
-177.3766435499969
 21
-0.5373606059195204
 31
0.0
 11
-181.9061507979568
 21
-1.294838919229604
 31
0.0
  0
SPLINE
  5
62
100
AcDbEntity
  8
0
100
AcDbSpline
210
-0.9334729286854443
220
0.3586478654772944
230
0.0
 70
    24
 71
     3
 72
     8
 73
     4
 74
     0
 42
0.0000001
 43
0.0000001
 40
12.21773818354586
 40
12.21773818354586
 40
12.21773818354586
 40
12.21773818354586
 40
12.21844610194143
 40
12.21844610194143
 40
12.21844610194143
 40
12.21844610194143
 10
-172.7142155398241
 20
6.964605189921812
 30
0.0
 10
-172.7143000580866
 20
6.964384985888786
 30
0.0
 10
-172.7143846702068
 20
6.964164761154385
 30
0.0
 10
-172.7144693762103
 20
6.963944515712647
 30
0.0
  0
SPLINE
  5
63
100
AcDbEntity
  8
0
100
AcDbSpline
210
0.0
220
0.0
230
-1.0
 70
     8
 71
     3
 72
    13
 73
     9
 74
     0
 42
0.0000001
 43
0.0000001
 40
0.0
 40
0.0
 40
0.0
 40
0.0
 40
0.9628479674610252
 40
2.049377187260978
 40
2.967969711922498
 40
4.153531508707476
 40
5.466529339551013
 40
6.228848186142242
 40
6.228848186142242
 40
6.228848186142242
 40
6.228848186142242
 10
-181.9077471293384
 20
14.45488392870631
 30
0.0
 10
-182.0698530675897
 20
14.45488392870631
 30
0.0
 10
-182.9213832872747
 20
14.37893953148926
 30
0.0
 10
-183.7833976054645
 20
13.80129730715279
 30
0.0
 10
-184.3988940093838
 20
12.92105664849009
 30
0.0
 10
-185.8726643305152
 20
11.84855482124589
 30
0.0
 10
-186.8385154493745
 20
11.30777306214026
 30
0.0
 10
-187.4416247823445
 20
10.81695578878465
 30
0.0
 10
-187.6513465929641
 20
10.63351841389715
 30
0.0
  0
SPLINE
  5
64
100
AcDbEntity
  8
0
100
AcDbSpline
210
0.0
220
0.0
230
-1.0
 70
     8
 71
     3
 72
    13
 73
     9
 74
     0
 42
0.0000001
 43
0.0000001
 40
0.0
 40
0.0
 40
0.0
 40
0.0
 40
0.9628479674610252
 40
2.049377187260978
 40
2.967969711922498
 40
4.153531508707476
 40
5.466529339551013
 40
6.228848186142242
 40
6.228848186142242
 40
6.228848186142242
 40
6.228848186142242
 10
-181.9077471293384
 20
14.45488392870631
 30
0.0
 10
-181.7456411910871
 20
14.45488392870631
 30
0.0
 10
-180.8941109714021
 20
14.37893953148926
 30
0.0
 10
-180.0320966532124
 20
13.80129730715279
 30
0.0
 10
-179.416600249293
 20
12.92105664849009
 30
0.0
 10
-178.1615799281617
 20
11.84855482124589
 30
0.0
 10
-177.1957288093024
 20
11.30777306214026
 30
0.0
 10
-176.5926194763324
 20
10.81695578878465
 30
0.0
 10
-176.3828976657127
 20
10.63351841389715
 30
0.0
  0
ENDSEC
  0
SECTION
  2
OBJECTS
  0
DICTIONARY
  5
30
102
{ACAD_XDICTIONARY
360
31
102
}
100
AcDbDictionary
  3
ACAD_GROUP
350
2C
  3
ACAD_MLINESTYLE
350
2D
  0
DICTIONARY
  5
1F
100
AcDbDictionary
280
     1
  3
ACAD_XREC_ROUNDTRIP
360
20
  0
DICTIONARY
  5
22
100
AcDbDictionary
280
     1
  3
ACAD_XREC_ROUNDTRIP
360
23
  0
DICTIONARY
  5
9
100
AcDbDictionary
280
     1
  3
ACAD_XREC_ROUNDTRIP
360
A
  0
DICTIONARY
  5
13
100
AcDbDictionary
280
     1
  3
ACAD_LAYERFILTERS
360
14
  0
DICTIONARY
  5
48
100
AcDbDictionary
280
     1
  3
ACAD_XREC_ROUNDTRIP
360
49
  0
DICTIONARY
  5
1B
100
AcDbDictionary
280
     1
  3
ACAD_XREC_ROUNDTRIP
360
1C
  0
DICTIONARY
  5
34
100
AcDbDictionary
280
     1
  3
ACAD_XREC_ROUNDTRIP
360
35
  0
DICTIONARY
  5
39
100
AcDbDictionary
280
     1
  3
ACAD_XREC_ROUNDTRIP
360
3A
  0
DICTIONARY
  5
3
100
AcDbDictionary
280
     1
  3
ACAD_LAYOUTSELFREF
360
4
  3
ACAD_XREC_ROUNDTRIP
360
5
  0
DICTIONARY
  5
D
100
AcDbDictionary
280
     1
  3
ACAD_LAYOUTSELFREF
360
E
  3
ACAD_XREC_ROUNDTRIP
360
F
  0
DICTIONARY
  5
31
100
AcDbDictionary
280
     1
  3
ACAD_XREC_ROUNDTRIP
360
32
  0
DICTIONARY
  5
2C
102
{ACAD_REACTORS
330
30
102
}
100
AcDbDictionary
  0
DICTIONARY
  5
2D
102
{ACAD_XDICTIONARY
360
2E
102
}
102
{ACAD_REACTORS
330
30
102
}
100
AcDbDictionary
  3
STANDARD
350
37
  0
XRECORD
  5
20
102
{ACAD_REACTORS
330
1F
102
}
100
AcDbXrecord
102
EXTNAMES
  1
BYBLOCK
  2
ByBlock
  0
XRECORD
  5
23
102
{ACAD_REACTORS
330
22
102
}
100
AcDbXrecord
102
EXTNAMES
  1
BYLAYER
  2
ByLayer
  0
XRECORD
  5
A
102
{ACAD_REACTORS
330
9
102
}
100
AcDbXrecord
102
EXTNAMES
  1
CONTINUOUS
  2
Continuous
  0
DICTIONARY
  5
14
102
{ACAD_XDICTIONARY
360
15
102
}
102
{ACAD_REACTORS
330
13
102
}
100
AcDbDictionary
280
     1
  3
DIM-1_12
360
17
  3
DIM-1_16
360
18
  0
XRECORD
  5
49
102
{ACAD_REACTORS
330
48
102
}
100
AcDbXrecord
102
LINEWEIGHT
280
     3
  0
XRECORD
  5
1C
102
{ACAD_REACTORS
330
1B
102
}
100
AcDbXrecord
102
EXTNAMES
  1
STANDARD
  2
Standard
  0
XRECORD
  5
35
102
{ACAD_REACTORS
330
34
102
}
100
AcDbXrecord
102
EXTNAMES
  1
ROMANS
  2
romans
  0
XRECORD
  5
3A
102
{ACAD_REACTORS
330
39
102
}
100
AcDbXrecord
102
ACADR14ROUNDTRIP
1000
DSTYLE
1002
{
1070
    79
 70
     1
1070
   276
 70
     1
1070
   277
 70
     5
1002
}
  0
XRECORD
  5
4
102
{ACAD_REACTORS
330
3
102
}
100
AcDbXrecord
340
2
  0
XRECORD
  5
5
102
{ACAD_REACTORS
330
3
102
}
100
AcDbXrecord
102
EXTNAMES
  1
*MODEL_SPACE
  2
*Model_Space
  0
XRECORD
  5
E
102
{ACAD_REACTORS
330
D
102
}
100
AcDbXrecord
340
C
  0
XRECORD
  5
F
102
{ACAD_REACTORS
330
D
102
}
100
AcDbXrecord
102
EXTNAMES
  1
*PAPER_SPACE
  2
*Paper_Space
  0
XRECORD
  5
32
102
{ACAD_REACTORS
330
31
102
}
100
AcDbXrecord
102
EXTNAMES
  1
ACDBVARIABLEDICTIONARY
  2
AcDbVariableDictionary
  0
DICTIONARY
  5
2E
100
AcDbDictionary
280
     1
  3
ACAD_XREC_ROUNDTRIP
360
2F
  0
MLINESTYLE
  5
37
102
{ACAD_REACTORS
330
2D
102
}
100
AcDbMlineStyle
  2
STANDARD
 70
     0
  3

 62
   256
 51
90.0
 52
90.0
 71
     2
 49
0.5
 62
   256
  6
BYLAYER
 49
-0.5
 62
   256
  6
BYLAYER
  0
DICTIONARY
  5
15
100
AcDbDictionary
280
     1
  3
ACAD_XREC_ROUNDTRIP
360
16
  0
XRECORD
  5
17
102
{ACAD_REACTORS
330
14
102
}
100
AcDbXrecord
  1
DIM-1_12
  1
DIM-1_12
  1
*
  1
*
 70
     0
  1
*
  1
*
  0
XRECORD
  5
18
102
{ACAD_REACTORS
330
14
102
}
100
AcDbXrecord
  1
dim-1_16
  1
*
  1
*
  1
*
 70
     0
  1
*
  1
*
  0
XRECORD
  5
2F
102
{ACAD_REACTORS
330
2E
102
}
100
AcDbXrecord
102
EXTNAMES
  1
STANDARD
  2
Standard
  0
XRECORD
  5
16
102
{ACAD_REACTORS
330
15
102
}
100
AcDbXrecord
102
EXTNAMES
  1
DIM-1_16
  2
dim-1_16
  0
ENDSEC
  0
EOF
