  0
SECTION
  2
HEADER
  9
$ACADVER
  1
AC1014
  9
$ACADMAINTVER
 70
     9
  9
$DWGCODEPAGE
  3
ANSI_1252
  9
$INSBASE
 10
74.37261884494566
 20
-22.41674392697183
 30
0.0
  9
$EXTMIN
 10
23.6312021700233
 20
-24.44942762579927
 30
-0.0015258207003583
  9
$EXTMAX
 10
83.60952420474211
 20
-0.7800307900624262
 30
0.0000000349246037
  9
$LIMMIN
 10
0.0
 20
0.0
  9
$LIMMAX
 10
187.3118571637889
 20
134.3269220688476
  9
$ORTHOMODE
 70
     1
  9
$REGENMODE
 70
     1
  9
$FILLMODE
 70
     1
  9
$QTEXTMODE
 70
     0
  9
$MIRRTEXT
 70
     1
  9
$DRAGMODE
 70
     2
  9
$LTSCALE
 40
2.0
  9
$OSMODE
 70
    55
  9
$ATTMODE
 70
     1
  9
$TEXTSIZE
 40
2.0
  9
$TRACEWID
 40
1.0
  9
$TEXTSTYLE
  7
CARTOUCHE
  9
$CLAYER
  8
0
  9
$CELTYPE
  6
BYLAYER
  9
$CECOLOR
 62
   256
  9
$CELTSCALE
 40
1.0
  9
$DELOBJ
 70
     1
  9
$DISPSILH
 70
     0
  9
$DIMSCALE
 40
16.0
  9
$DIMASZ
 40
0.1
  9
$DIMEXO
 40
0.0625
  9
$DIMDLI
 40
0.25
  9
$DIMRND
 40
0.0
  9
$DIMDLE
 40
0.0
  9
$DIMEXE
 40
0.1
  9
$DIMTP
 40
0.0
  9
$DIMTM
 40
0.0
  9
$DIMTXT
 40
0.1
  9
$DIMCEN
 40
0.09
  9
$DIMTSZ
 40
0.0
  9
$DIMTOL
 70
     0
  9
$DIMLIM
 70
     0
  9
$DIMTIH
 70
     1
  9
$DIMTOH
 70
     1
  9
$DIMSE1
 70
     0
  9
$DIMSE2
 70
     0
  9
$DIMTAD
 70
     0
  9
$DIMZIN
 70
     4
  9
$DIMBLK
  1

  9
$DIMASO
 70
     1
  9
$DIMSHO
 70
     1
  9
$DIMPOST
  1
\X
  9
$DIMAPOST
  1
cm
  9
$DIMALT
 70
     1
  9
$DIMALTD
 70
     1
  9
$DIMALTF
 40
2.54
  9
$DIMLFAC
 40
1.0
  9
$DIMTOFL
 70
     0
  9
$DIMTVP
 40
0.0
  9
$DIMTIX
 70
     0
  9
$DIMSOXD
 70
     0
  9
$DIMSAH
 70
     0
  9
$DIMBLK1
  1

  9
$DIMBLK2
  1

  9
$DIMSTYLE
  2
STANDARD
  9
$DIMCLRD
 70
     0
  9
$DIMCLRE
 70
     0
  9
$DIMCLRT
 70
     0
  9
$DIMTFAC
 40
1.0
  9
$DIMGAP
 40
0.08
  9
$DIMJUST
 70
     0
  9
$DIMSD1
 70
     0
  9
$DIMSD2
 70
     0
  9
$DIMTOLJ
 70
     1
  9
$DIMTZIN
 70
     4
  9
$DIMALTZ
 70
     4
  9
$DIMALTTZ
 70
     4
  9
$DIMFIT
 70
     1
  9
$DIMUPT
 70
     0
  9
$DIMUNIT
 70
     5
  9
$DIMDEC
 70
     3
  9
$DIMTDEC
 70
     3
  9
$DIMALTU
 70
     2
  9
$DIMALTTD
 70
     1
  9
$DIMTXSTY
  7
ROMANS
  9
$DIMAUNIT
 70
     0
  9
$LUNITS
 70
     2
  9
$LUPREC
 70
     2
  9
$SKETCHINC
 40
1.0
  9
$FILLETRAD
 40
0.5
  9
$AUNITS
 70
     0
  9
$AUPREC
 70
     0
  9
$MENU
  1
.
  9
$ELEVATION
 40
0.0
  9
$PELEVATION
 40
0.0
  9
$THICKNESS
 40
0.0
  9
$LIMCHECK
 70
     0
  9
$BLIPMODE
 70
     0
  9
$CHAMFERA
 40
0.0
  9
$CHAMFERB
 40
0.0
  9
$CHAMFERC
 40
20.0
  9
$CHAMFERD
 40
0.0
  9
$SKPOLY
 70
     0
  9
$TDCREATE
 40
2452072.673626736
  9
$TDUPDATE
 40
2453690.411133692
  9
$TDINDWG
 40
1.2458702778
  9
$TDUSRTIMER
 40
1.2458607870
  9
$USRTIMER
 70
     1
  9
$ANGBASE
 50
0.0
  9
$ANGDIR
 70
     0
  9
$PDMODE
 70
    33
  9
$PDSIZE
 40
0.25
  9
$PLINEWID
 40
0.0
  9
$COORDS
 70
     1
  9
$SPLFRAME
 70
     0
  9
$SPLINETYPE
 70
     6
  9
$SPLINESEGS
 70
     8
  9
$ATTDIA
 70
     0
  9
$ATTREQ
 70
     1
  9
$HANDLING
 70
 22529
  9
$HANDSEED
  5
15C
  9
$SURFTAB1
 70
     6
  9
$SURFTAB2
 70
     6
  9
$SURFTYPE
 70
     6
  9
$SURFU
 70
     6
  9
$SURFV
 70
     6
  9
$UCSNAME
  2

  9
$UCSORG
 10
0.0
 20
0.0
 30
0.0
  9
$UCSXDIR
 10
1.0
 20
0.0
 30
0.0
  9
$UCSYDIR
 10
0.0
 20
1.0
 30
0.0
  9
$PUCSNAME
  2

  9
$PUCSORG
 10
0.0
 20
0.0
 30
0.0
  9
$PUCSXDIR
 10
1.0
 20
0.0
 30
0.0
  9
$PUCSYDIR
 10
0.0
 20
1.0
 30
0.0
  9
$USERI1
 70
     0
  9
$USERI2
 70
     0
  9
$USERI3
 70
     0
  9
$USERI4
 70
     0
  9
$USERI5
 70
     0
  9
$USERR1
 40
0.0
  9
$USERR2
 40
0.0
  9
$USERR3
 40
0.0
  9
$USERR4
 40
0.0
  9
$USERR5
 40
0.0
  9
$WORLDVIEW
 70
     1
  9
$SHADEDGE
 70
     3
  9
$SHADEDIF
 70
    70
  9
$TILEMODE
 70
     1
  9
$MAXACTVP
 70
    48
  9
$PINSBASE
 10
0.0
 20
0.0
 30
0.0
  9
$PLIMCHECK
 70
     0
  9
$PEXTMIN
 10
0.0
 20
0.0
 30
0.0
  9
$PEXTMAX
 10
0.0
 20
0.0
 30
0.0
  9
$PLIMMIN
 10
0.0
 20
0.0
  9
$PLIMMAX
 10
12.0
 20
9.0
  9
$UNITMODE
 70
     0
  9
$VISRETAIN
 70
     1
  9
$PLINEGEN
 70
     0
  9
$PSLTSCALE
 70
     1
  9
$TREEDEPTH
 70
  3020
  9
$PICKSTYLE
 70
     1
  9
$CMLSTYLE
  2
STANDARD
  9
$CMLJUST
 70
     0
  9
$CMLSCALE
 40
20.0
  9
$PROXYGRAPHICS
 70
     1
  9
$MEASUREMENT
 70
     0
  0
ENDSEC
  0
SECTION
  2
CLASSES
  0
CLASS
  1
ACDBDICTIONARYWDFLT
  2
AcDbDictionaryWithDefault
  3
AutoCAD 2000
 90
        0
280
     0
281
     0
  0
CLASS
  1
ACDBPLACEHOLDER
  2
AcDbPlaceHolder
  3
AutoCAD 2000
 90
        0
280
     0
281
     0
  0
CLASS
  1
LAYOUT
  2
AcDbLayout
  3
AutoCAD 2000
 90
        0
280
     0
281
     0
  0
CLASS
  1
DICTIONARYVAR
  2
AcDbDictionaryVar
  3
AutoCAD 2000
 90
        0
280
     0
281
     0
  0
CLASS
  1
IMAGEDEF
  2
AcDbRasterImageDef
  3
ISM
 90
        0
280
     0
281
     0
  0
CLASS
  1
LONG_TRANSACTION
  2
AcDbLongTransaction
  3
AutoCAD 2000
 90
        0
280
     0
281
     0
  0
CLASS
  1
LWPOLYLINE
  2
AcDbPolyline
  3
AutoCAD 2000
 90
        0
280
     0
281
     1
  0
CLASS
  1
HATCH
  2
AcDbHatch
  3
AutoCAD 2000
 90
        0
280
     0
281
     1
  0
CLASS
  1
XRECORD
  2
AcDbXrecord
  3
AutoCAD 2000
 90
        0
280
     0
281
     0
  0
CLASS
  1
LONG_TRANSACTION
  2
AcDbLongTransaction
  3
AutoCAD 2000
 90
        0
280
     0
281
     0
  0
CLASS
  1
LWPOLYLINE
  2
AcDbPolyline
  3
AutoCAD 2000
 90
        0
280
     0
281
     1
  0
CLASS
  1
HATCH
  2
AcDbHatch
  3
AutoCAD 2000
 90
        0
280
     0
281
     1
  0
CLASS
  1
XRECORD
  2
AcDbXrecord
  3
AutoCAD 2000
 90
        0
280
     0
281
     0
  0
ENDSEC
  0
SECTION
  2
TABLES
  0
TABLE
  2
VPORT
  5
1D
330
0
100
AcDbSymbolTable
 70
     3
  0
VPORT
  5
138
330
1D
100
AcDbSymbolTableRecord
100
AcDbViewportTableRecord
  2
*ACTIVE
 70
     0
 10
0.0
 20
0.0
 11
1.0
 21
1.0
 12
53.62036309097364
 22
-12.61472927988949
 13
0.0
 23
0.0
 14
10.0
 24
10.0
 15
10.0
 25
10.0
 16
0.0
 26
0.0
 36
1.0
 17
0.0
 27
0.0
 37
0.0
 40
39.86024676161405
 41
1.786792452830188
 42
50.0
 43
0.0
 44
0.0
 50
0.0
 51
0.0
 71
     0
 72
   100
 73
     1
 74
     3
 75
     0
 76
     0
 77
     0
 78
     2
  0
ENDTAB
  0
TABLE
  2
LTYPE
  5
18
330
0
100
AcDbSymbolTable
 70
     3
  0
LTYPE
  5
19
330
18
100
AcDbSymbolTableRecord
100
AcDbLinetypeTableRecord
  2
BYBLOCK
 70
     0
  3

 72
    65
 73
     0
 40
0.0
  0
LTYPE
  5
1A
330
18
100
AcDbSymbolTableRecord
100
AcDbLinetypeTableRecord
  2
BYLAYER
 70
     0
  3

 72
    65
 73
     0
 40
0.0
  0
LTYPE
  5
8
330
18
100
AcDbSymbolTableRecord
100
AcDbLinetypeTableRecord
  2
CONTINUOUS
 70
     0
  3
Solid line
 72
    65
 73
     0
 40
0.0
  0
LTYPE
  5
3D
330
18
100
AcDbSymbolTableRecord
100
AcDbLinetypeTableRecord
  2
CENTER
 70
     0
  3
Center ____ _ ____ _ ____ _ ____ _ ____ _ ____
 72
    65
 73
     4
 40
50.8
 49
31.75
 74
     0
 49
-6.349999999999999
 74
     0
 49
6.349999999999999
 74
     0
 49
-6.349999999999999
 74
     0
  0
LTYPE
  5
67
330
18
100
AcDbSymbolTableRecord
100
AcDbLinetypeTableRecord
  2
HIDDEN
 70
     0
  3
Hidden __ __ __ __ __ __ __ __ __ __ __ __ __ _
 72
    65
 73
     2
 40
0.375
 49
0.25
 74
     0
 49
-0.125
 74
     0
  0
ENDTAB
  0
TABLE
  2
LAYER
  5
10
102
{ACAD_XDICTIONARY
360
11
102
}
330
0
100
AcDbSymbolTable
 70
     2
  0
LAYER
  5
4
330
10
100
AcDbSymbolTableRecord
100
AcDbLayerTableRecord
  2
0
 70
     0
 62
     7
  6
CONTINUOUS
  0
LAYER
  5
3C
330
10
100
AcDbSymbolTableRecord
100
AcDbLayerTableRecord
  2
CENTER
 70
     0
 62
     1
  6
CENTER
  0
ENDTAB
  0
TABLE
  2
STYLE
  5
15
330
0
100
AcDbSymbolTable
 70
     4
  0
STYLE
  5
16
330
15
100
AcDbSymbolTableRecord
100
AcDbTextStyleTableRecord
  2
STANDARD
 70
     0
 40
0.0
 41
1.0
 50
0.0
 71
     0
 42
0.125
  3
txt
  4

  0
STYLE
  5
2B
330
15
100
AcDbSymbolTableRecord
100
AcDbTextStyleTableRecord
  2
CARTOUCHE
 70
     0
 40
0.0
 41
1.0
 50
0.0
 71
     0
 42
2.0
  3
romans.shx
  4

  0
STYLE
  5
23
330
15
100
AcDbSymbolTableRecord
100
AcDbTextStyleTableRecord
  2
ROMANS
 70
     0
 40
0.0
 41
1.0
 50
0.0
 71
     0
 42
1.0
  3
romans.shx
  4

  0
ENDTAB
  0
TABLE
  2
VIEW
  5
1B
330
0
100
AcDbSymbolTable
 70
     0
  0
ENDTAB
  0
TABLE
  2
UCS
  5
1C
330
0
100
AcDbSymbolTable
 70
     0
  0
ENDTAB
  0
TABLE
  2
APPID
  5
1F
330
0
100
AcDbSymbolTable
 70
     1
  0
APPID
  5
20
330
1F
100
AcDbSymbolTableRecord
100
AcDbRegAppTableRecord
  2
ACAD
 70
     0
  0
ENDTAB
  0
TABLE
  2
DIMSTYLE
  5
21
330
0
100
AcDbSymbolTable
 70
     1
  0
DIMSTYLE
105
22
330
21
100
AcDbSymbolTableRecord
100
AcDbDimStyleTableRecord
  2
STANDARD
 70
     0
  3
\X
  4
cm
  5

  6

  7

 40
16.0
 41
0.1
 42
0.0625
 43
0.25
 44
0.1
 45
0.0
 46
0.0
 47
0.0
 48
0.0
140
0.1
141
0.09
142
0.0
143
2.54
144
1.0
145
0.0
146
1.0
147
0.08
 71
     0
 72
     0
 73
     1
 74
     1
 75
     0
 76
     0
 77
     0
 78
     4
170
     1
171
     1
172
     0
173
     0
174
     0
175
     0
176
     0
177
     0
178
     0
270
     5
271
     3
272
     3
273
     2
274
     1
340
23
275
     0
280
     0
281
     0
282
     0
283
     1
284
     4
285
     4
286
     4
287
     1
288
     0
  0
ENDTAB
  0
TABLE
  2
BLOCK_RECORD
  5
1
330
0
100
AcDbSymbolTable
 70
     0
  0
BLOCK_RECORD
  5
2
102
{ACAD_XDICTIONARY
360
B0
102
}
330
1
100
AcDbSymbolTableRecord
100
AcDbBlockTableRecord
  2
*MODEL_SPACE
  0
BLOCK_RECORD
  5
60
102
{ACAD_XDICTIONARY
360
B2
102
}
330
1
100
AcDbSymbolTableRecord
100
AcDbBlockTableRecord
  2
*PAPER_SPACE
  0
ENDTAB
  0
ENDSEC
  0
SECTION
  2
BLOCKS
  0
BLOCK
  5
3
330
2
100
AcDbEntity
  8
0
100
AcDbBlockBegin
  2
*MODEL_SPACE
 70
     0
 10
0.0
 20
0.0
 30
0.0
  3
*MODEL_SPACE
  1

  0
ENDBLK
  5
9
330
2
100
AcDbEntity
  8
0
100
AcDbBlockEnd
  0
BLOCK
  5
62
330
60
100
AcDbEntity
 67
     1
  8
0
100
AcDbBlockBegin
  2
*PAPER_SPACE
 70
     0
 10
0.0
 20
0.0
 30
0.0
  3
*PAPER_SPACE
  1

  0
ENDBLK
  5
63
330
60
100
AcDbEntity
 67
     1
  8
0
100
AcDbBlockEnd
  0
ENDSEC
  0
SECTION
  2
ENTITIES
  0
ARC
  5
2D
330
2
100
AcDbEntity
  8
0
 48
0.1
100
AcDbCircle
 10
16.59952933904007
 20
-24.80890636115899
 30
0.0
 40
19.83624537733072
100
AcDbArc
 50
18.13806247629458
 51
37.14914942148982
  0
ARC
  5
2E
330
2
100
AcDbEntity
  8
0
 48
0.1
100
AcDbCircle
 10
54.12047755635527
 20
-236.5466356933375
 30
0.0
 40
224.7676191495254
100
AcDbArc
 50
90.67703632524438
 51
95.54280088214731
  0
SPLINE
  5
2F
330
2
100
AcDbEntity
  8
0
 48
0.1
100
AcDbSpline
210
0.0
220
0.0
230
1.0
 70
     8
 71
     3
 72
    10
 73
     6
 74
     4
 42
0.0000000001
 43
0.0000000001
 44
0.0000000001
 40
0.0
 40
0.0
 40
0.0
 40
0.0
 40
11.66586697719554
 40
15.12211582650381
 40
15.21256106788902
 40
15.21256106788902
 40
15.21256106788902
 40
15.21256106788902
 10
41.31163068949139
 20
-2.294708510329144
 30
0.0
 10
37.41624818843727
 20
-2.163177698219478
 30
0.0
 10
32.36677989905707
 20
-1.992678224895754
 30
0.0
 10
27.39119768088171
 20
-0.8303970262108073
 30
0.0
 10
26.20935395784633
 20
-0.7955959815362935
 30
0.0
 10
26.17921542938118
 20
-0.7947085103291478
 30
0.0
 11
41.31163068949139
 21
-2.294708510329144
 31
0.0
 11
29.68705971536179
 21
-1.313993466575279
 31
0.0
 11
26.26961682217439
 21
-0.7975245128639266
 31
0.0
 11
26.17921542938118
 21
-0.7947085103291478
 31
0.0
  0
LINE
  5
30
330
2
100
AcDbEntity
  8
0
 48
0.1
100
AcDbLine
 10
24.24761884494564
 20
-2.294708510329147
 30
0.0
 11
82.99761884494564
 21
-2.294708510329144
 31
0.0
  0
LINE
  5
31
330
2
100
AcDbEntity
  8
0
 48
0.1
100
AcDbLine
 10
23.74761884494565
 20
-3.794708510329144
 30
0.0
 11
83.49761884494565
 21
-3.794708510329147
 31
0.0
  0
ARC
  5
32
330
2
100
AcDbEntity
  8
0
 48
0.1
100
AcDbCircle
 10
24.24761884494564
 20
-2.794708510329144
 30
0.0
 40
0.5
100
AcDbArc
 50
90.0
 51
180.0
  0
LINE
  5
33
330
2
100
AcDbEntity
  8
0
 48
0.1
100
AcDbLine
 10
23.74761884494565
 20
-3.794708510329144
 30
0.0
 11
23.74761884494565
 21
-2.794708510329144
 31
0.0
  0
LINE
  5
34
330
2
100
AcDbEntity
  8
0
  6
HIDDEN
100
AcDbLine
 10
27.49766262706244
 20
-2.294708510328916
 30
0.0
 11
28.19712411429505
 21
-3.794708510329145
 31
0.0
  0
LINE
  5
35
330
2
100
AcDbEntity
  8
0
 48
0.1
100
AcDbLine
 10
28.19712411429505
 20
-3.794708510329145
 30
0.0
 11
32.41032990600797
 21
-12.82995748818848
 31
0.0
  0
SPLINE
  5
36
330
2
100
AcDbEntity
  8
0
  6
HIDDEN
100
AcDbSpline
210
0.0
220
0.0
230
1.0
 70
     8
 71
     3
 72
    11
 73
     7
 74
     0
 42
0.0000000001
 43
0.0000000001
 40
0.0
 40
0.0
 40
0.0
 40
0.0
 40
0.6855292327799777
 40
1.329392374611849
 40
2.0212280891851
 40
2.10895590136084
 40
2.10895590136084
 40
2.10895590136084
 40
2.10895590136084
 10
27.49766262706244
 20
-2.294708510329147
 30
0.0
 10
27.3994888023226
 20
-2.089553420744504
 30
0.0
 10
27.20910810408985
 20
-1.691712455450218
 30
0.0
 10
26.95490599385938
 20
-1.04984502506933
 30
0.0
 10
26.48433039927546
 20
-0.8016441802767246
 30
0.0
 10
26.22241149897435
 20
-0.79065235358458
 30
0.0
 10
26.1929630824643
 20
-0.7909015877401444
 30
0.0
  0
SPLINE
  5
37
330
2
100
AcDbEntity
  8
0
 48
0.1
100
AcDbSpline
210
0.0
220
0.0
230
1.0
 70
     8
 71
     3
 72
    10
 73
     6
 74
     0
 42
0.0000000001
 43
0.0000000001
 40
2.10895590136084
 40
2.10895590136084
 40
2.10895590136084
 40
2.10895590136084
 40
2.673500431711596
 40
3.296879254411118
 40
4.213013886881895
 40
4.213013886881895
 40
4.213013886881895
 40
4.213013886881895
 10
26.1929630824643
 20
-0.7909015877401444
 30
0.0
 10
26.00345713154719
 20
-0.7925054551547213
 30
0.0
 10
25.60700520105254
 20
-0.9253856486723499
 30
0.0
 10
25.07997165709026
 20
-1.442687823368892
 30
0.0
 10
25.02844901956116
 20
-1.972088451012396
 30
0.0
 10
24.99778889610586
 20
-2.287124508545474
 30
0.0
  0
LINE
  5
38
330
2
100
AcDbEntity
  8
0
 48
0.1
100
AcDbLine
 10
76.70892755815528
 20
-21.41970851032914
 30
0.0
 11
38.26434771078078
 21
-20.74865587295517
 31
0.0
  0
ARC
  5
39
330
2
100
AcDbEntity
  8
0
100
AcDbCircle
 10
75.64406545436165
 20
-21.62617746600074
 30
0.0
 40
0.25
100
AcDbArc
 50
270.0
 51
315.0
  0
ARC
  5
3A
330
2
100
AcDbEntity
  8
0
 48
0.1
100
AcDbCircle
 10
39.76803746909782
 20
-600.7796913773561
 30
0.0
 40
589.1516475852252
100
AcDbArc
 50
86.33954911120062
 51
88.63712458676786
  0
LINE
  5
3B
330
2
100
AcDbEntity
  8
CENTER
 48
0.05
100
AcDbLine
 10
82.48868338669337
 20
-5.794708510329162
 30
0.0
 11
77.40063255568505
 21
-5.794708510329162
 31
0.0
  0
LINE
  5
3E
330
2
100
AcDbEntity
  8
0
 48
0.1
100
AcDbLine
 10
56.899395214587
 20
-22.41970851032916
 30
0.0
 11
40.21493632887998
 21
-22.41970851032916
 31
0.0
  0
LINE
  5
3F
330
2
100
AcDbEntity
  8
0
 48
0.1
100
AcDbLine
 10
53.62261884494564
 20
-22.41970851032915
 30
0.0
 11
74.37261884494565
 21
-22.41684724616446
 31
0.0
  0
LINE
  5
40
330
2
100
AcDbEntity
  8
0
 48
0.1
100
AcDbLine
 10
47.88912002606706
 20
-12.35828505411875
 30
0.0
 11
48.74336512238645
 21
-20.94034601531752
 31
0.0
  0
ARC
  5
41
330
2
100
AcDbEntity
  8
0
 48
0.1
100
AcDbCircle
 10
40.21493632887998
 20
-21.41970851032916
 30
0.0
 40
1.0
100
AcDbArc
 50
192.0773902765354
 51
270.0
  0
ARC
  5
42
330
2
100
AcDbEntity
  8
0
 48
0.1
100
AcDbCircle
 10
38.31670493009264
 20
-17.749112787486
 30
0.0
 40
3.0
100
AcDbArc
 50
197.1498540503484
 51
268.9999999999999
  0
LINE
  5
43
330
2
100
AcDbEntity
  8
0
 48
0.1
100
AcDbLine
 10
39.23707044980968
 20
-21.62894120985306
 30
0.0
 11
39.12317372343517
 21
-20.7636467367681
 31
0.0
  0
LINE
  5
44
330
2
100
AcDbEntity
  8
0
 48
0.1
100
AcDbLine
 10
47.16232832458819
 20
-3.794708510329169
 30
0.0
 11
47.68831067642763
 21
-10.56211350234195
 31
0.0
  0
ARC
  5
45
330
2
100
AcDbEntity
  8
0
 48
0.1
100
AcDbCircle
 10
49.17822007544661
 20
-10.41054360584384
 30
0.0
 40
1.497599229036111
100
AcDbArc
 50
185.8087703242368
 51
253.086478258133
  0
LINE
  5
46
330
2
100
AcDbEntity
  8
0
 48
0.1
100
AcDbLine
 10
57.35611766382426
 20
-12.35828505411875
 30
0.0
 11
56.50187256750487
 21
-20.94034601531752
 31
0.0
  0
LINE
  5
47
330
2
100
AcDbEntity
  8
CENTER
 48
0.05
100
AcDbLine
 10
74.37261884494565
 20
-19.30777225833917
 30
0.0
 11
74.37261884494567
 21
-24.4445826736623
 31
0.0
  0
ARC
  5
48
330
2
100
AcDbEntity
  8
0
100
AcDbCircle
 10
73.1011722355482
 20
-21.62617746600074
 30
0.0
 40
0.25
100
AcDbArc
 50
225.0
 51
270.0
  0
LINE
  5
49
330
2
100
AcDbEntity
  8
0
100
AcDbLine
 10
72.92439554025157
 20
-21.80295416129737
 30
0.0
 11
72.65435716698149
 21
-21.5329157880273
 31
0.0
  0
ARC
  5
4A
330
2
100
AcDbEntity
  8
0
100
AcDbCircle
 10
71.75361246421802
 20
-22.57024152805605
 30
0.0
 40
1.373821571559659
100
AcDbArc
 50
49.03112312576237
 51
61.9705564983409
  0
LINE
  5
4B
330
2
100
AcDbEntity
  8
0
100
AcDbLine
 10
75.64406545436165
 20
-21.87617746600074
 30
0.0
 11
73.1011722355482
 21
-21.87617746600074
 31
0.0
  0
ARC
  5
4C
330
2
100
AcDbEntity
  8
0
 48
0.1
100
AcDbCircle
 10
74.37261884495493
 20
-21.41674392697183
 30
0.0
 40
1.0
100
AcDbArc
 50
270.0
 51
332.6494391491551
  0
LINE
  5
4D
330
2
100
AcDbEntity
  8
0
100
AcDbLine
 10
73.1011722355482
 20
-21.87617746600074
 30
0.0
 11
75.64406545436165
 21
-21.87617746600074
 31
0.0
  0
LINE
  5
4E
330
2
100
AcDbEntity
  8
0
100
AcDbLine
 10
73.0693897990482
 20
-21.87414899003147
 30
0.0
 11
73.0693897990482
 21
-21.87414899003147
 31
0.0
  0
LINE
  5
4F
330
2
100
AcDbEntity
  8
0
 48
0.1
100
AcDbLine
 10
58.0829093653031
 20
-3.794708510329168
 30
0.0
 11
57.55692701346366
 21
-10.56211350234195
 31
0.0
  0
ARC
  5
50
330
2
100
AcDbEntity
  8
0
 48
0.1
100
AcDbCircle
 10
55.98796750385387
 20
-10.37142970642978
 30
0.0
 40
1.580504429863604
100
AcDbArc
 50
289.0069680368171
 51
353.0705309954865
  0
LINE
  5
51
330
2
100
AcDbEntity
  8
0
 48
0.1
100
AcDbLine
 10
80.11638584965677
 20
-3.794708510329148
 30
0.0
 11
78.70131695433878
 21
-19.59401999582446
 31
0.0
  0
ARC
  5
52
330
2
100
AcDbEntity
  8
0
 48
0.1
100
AcDbCircle
 10
76.70892755815528
 20
-19.41970851032914
 30
0.0
 40
2.0
100
AcDbArc
 50
270.0
 51
355.0
  0
LINE
  5
53
330
2
100
AcDbEntity
  8
0
100
AcDbLine
 10
75.67584789086166
 20
-21.87414899003147
 30
0.0
 11
75.67584789086166
 21
-21.87414899003147
 31
0.0
  0
LINE
  5
54
330
2
100
AcDbEntity
  8
0
100
AcDbLine
 10
75.82084214965829
 20
-21.80295416129737
 30
0.0
 11
76.09088052292836
 21
-21.53291578802732
 31
0.0
  0
ARC
  5
55
330
2
100
AcDbEntity
  8
0
100
AcDbCircle
 10
76.57952380082531
 20
-22.05192968456147
 30
0.0
 40
0.7128447782157437
100
AcDbArc
 50
110.9118490904299
 51
133.2736374136405
  0
LINE
  5
56
330
2
100
AcDbEntity
  8
0
  6
HIDDEN
100
AcDbLine
 10
80.24761884494564
 20
-2.294708510329144
 30
0.0
 11
80.11638584965677
 21
-3.794708510329148
 31
0.0
  0
LINE
  5
57
330
2
100
AcDbEntity
  8
0
 48
0.1
100
AcDbLine
 10
83.49761884494565
 20
-3.794708510329144
 30
0.0
 11
83.49761884494565
 21
-2.794708510329144
 31
0.0
  0
ARC
  5
58
330
2
100
AcDbEntity
  8
0
 48
0.1
100
AcDbCircle
 10
82.99761884494564
 20
-2.794708510329144
 30
0.0
 40
0.5
100
AcDbArc
 50
0.0
 51
90.0
  0
ENDSEC
  0
SECTION
  2
OBJECTS
  0
DICTIONARY
  5
7
330
0
100
AcDbDictionary
  3
ACAD_GROUP
350
28
  3
ACAD_LAYOUT
350
B
  3
ACAD_MLINESTYLE
350
29
  3
ACAD_PLOTSETTINGS
350
2A
  3
ACAD_PLOTSTYLENAME
350
6
  3
ACDBHEADERROUNDTRIPXREC
350
139
  3
ACDBVARIABLEDICTIONARY
350
59
  0
DICTIONARY
  5
11
330
10
100
AcDbDictionary
280
     1
  3
ACAD_LAYERFILTERS
360
12
  0
DICTIONARY
  5
B0
330
2
100
AcDbDictionary
280
     1
  3
ACAD_LAYOUTSELFREF
360
15A
  0
DICTIONARY
  5
B2
330
60
100
AcDbDictionary
280
     1
  3
ACAD_LAYOUTSELFREF
360
15B
  0
DICTIONARY
  5
28
102
{ACAD_REACTORS
330
7
102
}
330
7
100
AcDbDictionary
  0
DICTIONARY
  5
B
102
{ACAD_REACTORS
330
7
102
}
330
7
100
AcDbDictionary
  0
DICTIONARY
  5
29
102
{ACAD_REACTORS
330
7
102
}
330
7
100
AcDbDictionary
  3
STANDARD
350
2C
  0
DICTIONARY
  5
2A
102
{ACAD_REACTORS
330
7
102
}
330
7
100
AcDbDictionary
  0
ACDBDICTIONARYWDFLT
  5
6
102
{ACAD_REACTORS
330
7
102
}
330
7
100
AcDbDictionary
281
     1
  3
Normal
350
5
100
AcDbDictionaryWithDefault
340
5
  0
DICTIONARY
  5
139
102
{ACAD_REACTORS
330
7
102
}
330
7
100
AcDbDictionary
  3
CEPSNTYPE
350
143
  3
DIMSTYLEDATA
350
147
  3
FINGERPRINTGUID
350
144
  3
HYPERLINKBASE
350
13C
  3
INSUNITS
350
142
  3
LAYOUTDICT
350
13E
  3
LWETCUNION
350
141
  3
PLOTSETDICT
350
13F
  3
PLOTSTYLNAMDICT
350
140
  3
PSVPSCALE
350
146
  3
PUCSBASE
350
14A
  3
PUCSORGBACK
350
150
  3
PUCSORGBOTTOM
350
14C
  3
PUCSORGFRONT
350
14F
  3
PUCSORGLEFT
350
14D
  3
PUCSORGRIGHT
350
14E
  3
PUCSORGTOP
350
14B
  3
PUCSORTHOREF
350
148
  3
PUCSORTHOVIEW
350
149
  3
STYLESHEET
350
13D
  3
TSTACKALIGN
350
13A
  3
TSTACKSIZE
350
13B
  3
UCSBASE
350
153
  3
UCSORGBACK
350
159
  3
UCSORGBOTTOM
350
155
  3
UCSORGFRONT
350
158
  3
UCSORGLEFT
350
156
  3
UCSORGRIGHT
350
157
  3
UCSORGTOP
350
154
  3
UCSORTHOREF
350
151
  3
UCSORTHOVIEW
350
152
  3
VERSIONGUID
350
145
  0
DICTIONARY
  5
59
102
{ACAD_REACTORS
330
7
102
}
330
7
100
AcDbDictionary
  3
DIMASSOC
350
5B
  3
HIDETEXT
350
5A
  0
DICTIONARY
  5
12
102
{ACAD_REACTORS
330
11
102
}
330
11
100
AcDbDictionary
280
     1
  3
DIM-1_12
360
13
  3
DIM-1_16
360
14
  0
XRECORD
  5
15A
102
{ACAD_REACTORS
330
B0
102
}
330
B0
100
AcDbXrecord
340
2
  0
XRECORD
  5
15B
102
{ACAD_REACTORS
330
B2
102
}
330
B2
100
AcDbXrecord
340
60
  0
MLINESTYLE
  5
2C
102
{ACAD_REACTORS
330
29
102
}
330
29
100
AcDbMlineStyle
  2
STANDARD
 70
     0
  3

 62
   256
 51
90.0
 52
90.0
 71
     2
 49
0.5
 62
   256
  6
BYLAYER
 49
-0.5
 62
   256
  6
BYLAYER
  0
ACDBPLACEHOLDER
  5
5
102
{ACAD_REACTORS
330
6
102
}
330
6
100
AcDbPlaceHolder
280
     0
  0
XRECORD
  5
143
102
{ACAD_REACTORS
330
139
102
}
330
139
100
AcDbXrecord
 90
        0
  0
XRECORD
  5
147
102
{ACAD_REACTORS
330
139
102
}
330
139
100
AcDbXrecord
1000
DSTYLE
1002
{
1070
    79
 70
     1
1070
   276
 70
     1
1070
   277
 70
     5
1070
   289
 70
     1
1002
}
  0
XRECORD
  5
144
102
{ACAD_REACTORS
330
139
102
}
330
139
100
AcDbXrecord
  1
{6A4AC8E0-4F58-11D5-8420-0003476D26AB}
  0
XRECORD
  5
13C
102
{ACAD_REACTORS
330
139
102
}
330
139
100
AcDbXrecord
  1

  0
XRECORD
  5
142
102
{ACAD_REACTORS
330
139
102
}
330
139
100
AcDbXrecord
 90
        1
  0
XRECORD
  5
13E
102
{ACAD_REACTORS
330
139
102
}
330
139
100
AcDbXrecord
340
B
  0
XRECORD
  5
141
102
{ACAD_REACTORS
330
139
102
}
330
139
100
AcDbXrecord
 90
    10781
  0
XRECORD
  5
13F
102
{ACAD_REACTORS
330
139
102
}
330
139
100
AcDbXrecord
340
2A
  0
XRECORD
  5
140
102
{ACAD_REACTORS
330
139
102
}
330
139
100
AcDbXrecord
340
6
  0
XRECORD
  5
146
102
{ACAD_REACTORS
330
139
102
}
330
139
100
AcDbXrecord
 40
0.0
  0
XRECORD
  5
14A
102
{ACAD_REACTORS
330
139
102
}
330
139
100
AcDbXrecord
340
0
  0
XRECORD
  5
150
102
{ACAD_REACTORS
330
139
102
}
330
139
100
AcDbXrecord
 10
0.0
 20
0.0
 30
0.0
  0
XRECORD
  5
14C
102
{ACAD_REACTORS
330
139
102
}
330
139
100
AcDbXrecord
 10
0.0
 20
0.0
 30
0.0
  0
XRECORD
  5
14F
102
{ACAD_REACTORS
330
139
102
}
330
139
100
AcDbXrecord
 10
0.0
 20
0.0
 30
0.0
  0
XRECORD
  5
14D
102
{ACAD_REACTORS
330
139
102
}
330
139
100
AcDbXrecord
 10
0.0
 20
0.0
 30
0.0
  0
XRECORD
  5
14E
102
{ACAD_REACTORS
330
139
102
}
330
139
100
AcDbXrecord
 10
0.0
 20
0.0
 30
0.0
  0
XRECORD
  5
14B
102
{ACAD_REACTORS
330
139
102
}
330
139
100
AcDbXrecord
 10
0.0
 20
0.0
 30
0.0
  0
XRECORD
  5
148
102
{ACAD_REACTORS
330
139
102
}
330
139
100
AcDbXrecord
340
0
  0
XRECORD
  5
149
102
{ACAD_REACTORS
330
139
102
}
330
139
100
AcDbXrecord
 70
     0
  0
XRECORD
  5
13D
102
{ACAD_REACTORS
330
139
102
}
330
139
100
AcDbXrecord
  1

  0
XRECORD
  5
13A
102
{ACAD_REACTORS
330
139
102
}
330
139
100
AcDbXrecord
 90
        1
  0
XRECORD
  5
13B
102
{ACAD_REACTORS
330
139
102
}
330
139
100
AcDbXrecord
 90
       70
  0
XRECORD
  5
153
102
{ACAD_REACTORS
330
139
102
}
330
139
100
AcDbXrecord
340
0
  0
XRECORD
  5
159
102
{ACAD_REACTORS
330
139
102
}
330
139
100
AcDbXrecord
 10
0.0
 20
0.0
 30
0.0
  0
XRECORD
  5
155
102
{ACAD_REACTORS
330
139
102
}
330
139
100
AcDbXrecord
 10
0.0
 20
0.0
 30
0.0
  0
XRECORD
  5
158
102
{ACAD_REACTORS
330
139
102
}
330
139
100
AcDbXrecord
 10
0.0
 20
0.0
 30
0.0
  0
XRECORD
  5
156
102
{ACAD_REACTORS
330
139
102
}
330
139
100
AcDbXrecord
 10
0.0
 20
0.0
 30
0.0
  0
XRECORD
  5
157
102
{ACAD_REACTORS
330
139
102
}
330
139
100
AcDbXrecord
 10
0.0
 20
0.0
 30
0.0
  0
XRECORD
  5
154
102
{ACAD_REACTORS
330
139
102
}
330
139
100
AcDbXrecord
 10
0.0
 20
0.0
 30
0.0
  0
XRECORD
  5
151
102
{ACAD_REACTORS
330
139
102
}
330
139
100
AcDbXrecord
340
0
  0
XRECORD
  5
152
102
{ACAD_REACTORS
330
139
102
}
330
139
100
AcDbXrecord
 70
     1
  0
XRECORD
  5
145
102
{ACAD_REACTORS
330
139
102
}
330
139
100
AcDbXrecord
  1
{4F322D08-4B84-476D-96F4-ED425EC05C30}
  0
DICTIONARYVAR
  5
5B
102
{ACAD_REACTORS
330
59
102
}
330
59
100
DictionaryVariables
280
     0
  1
1
  0
DICTIONARYVAR
  5
5A
102
{ACAD_REACTORS
330
59
102
}
330
59
100
DictionaryVariables
280
     0
  1
1
  0
XRECORD
  5
13
102
{ACAD_REACTORS
330
12
102
}
330
12
100
AcDbXrecord
  1
DIM-1_12
  1
DIM-1_12
  1
*
  1
*
 70
     0
  1
*
  1
*
  0
XRECORD
  5
14
102
{ACAD_REACTORS
330
12
102
}
330
12
100
AcDbXrecord
  1
dim-1_16
  1
*
  1
*
  1
*
 70
     0
  1
*
  1
*
  0
ENDSEC
  0
EOF
