  0
SECTION
  2
HEADER
  9
$ACADVER
  1
AC1014
  9
$ACADMAINTVER
 70
     9
  9
$DWGCODEPAGE
  3
ANSI_1252
  9
$INSBASE
 10
74.37261884495493
 20
82.15572023980438
 30
0.0
  9
$EXTMIN
 10
23.74552825485108
 20
66.33334662584861
 30
-0.0015258207003583
  9
$EXTMAX
 10
83.50948888051783
 20
97.96994382888227
 30
0.0000000349246037
  9
$LIMMIN
 10
0.0
 20
0.0
  9
$LIMMAX
 10
187.3118571637889
 20
134.3269220688476
  9
$ORTHOMODE
 70
     1
  9
$REGENMODE
 70
     1
  9
$FILLMODE
 70
     1
  9
$QTEXTMODE
 70
     0
  9
$MIRRTEXT
 70
     1
  9
$DRAGMODE
 70
     2
  9
$LTSCALE
 40
2.0
  9
$OSMODE
 70
    55
  9
$ATTMODE
 70
     1
  9
$TEXTSIZE
 40
2.0
  9
$TRACEWID
 40
1.0
  9
$TEXTSTYLE
  7
CARTOUCHE
  9
$CLAYER
  8
0
  9
$CELTYPE
  6
BYLAYER
  9
$CECOLOR
 62
   256
  9
$CELTSCALE
 40
1.0
  9
$DELOBJ
 70
     1
  9
$DISPSILH
 70
     0
  9
$DIMSCALE
 40
16.0
  9
$DIMASZ
 40
0.1
  9
$DIMEXO
 40
0.0625
  9
$DIMDLI
 40
0.25
  9
$DIMRND
 40
0.0
  9
$DIMDLE
 40
0.0
  9
$DIMEXE
 40
0.1
  9
$DIMTP
 40
0.0
  9
$DIMTM
 40
0.0
  9
$DIMTXT
 40
0.1
  9
$DIMCEN
 40
0.09
  9
$DIMTSZ
 40
0.0
  9
$DIMTOL
 70
     0
  9
$DIMLIM
 70
     0
  9
$DIMTIH
 70
     1
  9
$DIMTOH
 70
     1
  9
$DIMSE1
 70
     0
  9
$DIMSE2
 70
     0
  9
$DIMTAD
 70
     0
  9
$DIMZIN
 70
     4
  9
$DIMBLK
  1

  9
$DIMASO
 70
     1
  9
$DIMSHO
 70
     1
  9
$DIMPOST
  1
\X
  9
$DIMAPOST
  1
cm
  9
$DIMALT
 70
     1
  9
$DIMALTD
 70
     1
  9
$DIMALTF
 40
2.54
  9
$DIMLFAC
 40
1.0
  9
$DIMTOFL
 70
     0
  9
$DIMTVP
 40
0.0
  9
$DIMTIX
 70
     0
  9
$DIMSOXD
 70
     0
  9
$DIMSAH
 70
     0
  9
$DIMBLK1
  1

  9
$DIMBLK2
  1

  9
$DIMSTYLE
  2
STANDARD
  9
$DIMCLRD
 70
     0
  9
$DIMCLRE
 70
     0
  9
$DIMCLRT
 70
     0
  9
$DIMTFAC
 40
1.0
  9
$DIMGAP
 40
0.08
  9
$DIMJUST
 70
     0
  9
$DIMSD1
 70
     0
  9
$DIMSD2
 70
     0
  9
$DIMTOLJ
 70
     1
  9
$DIMTZIN
 70
     4
  9
$DIMALTZ
 70
     4
  9
$DIMALTTZ
 70
     4
  9
$DIMFIT
 70
     1
  9
$DIMUPT
 70
     0
  9
$DIMUNIT
 70
     5
  9
$DIMDEC
 70
     3
  9
$DIMTDEC
 70
     3
  9
$DIMALTU
 70
     2
  9
$DIMALTTD
 70
     1
  9
$DIMTXSTY
  7
ROMANS
  9
$DIMAUNIT
 70
     0
  9
$LUNITS
 70
     2
  9
$LUPREC
 70
     2
  9
$SKETCHINC
 40
1.0
  9
$FILLETRAD
 40
0.5
  9
$AUNITS
 70
     0
  9
$AUPREC
 70
     0
  9
$MENU
  1
.
  9
$ELEVATION
 40
0.0
  9
$PELEVATION
 40
0.0
  9
$THICKNESS
 40
0.0
  9
$LIMCHECK
 70
     0
  9
$BLIPMODE
 70
     0
  9
$CHAMFERA
 40
0.0
  9
$CHAMFERB
 40
0.0
  9
$CHAMFERC
 40
20.0
  9
$CHAMFERD
 40
0.0
  9
$SKPOLY
 70
     0
  9
$TDCREATE
 40
2452072.673626736
  9
$TDUPDATE
 40
2453690.415566573
  9
$TDINDWG
 40
1.2432006944
  9
$TDUSRTIMER
 40
1.2431912037
  9
$USRTIMER
 70
     1
  9
$ANGBASE
 50
0.0
  9
$ANGDIR
 70
     0
  9
$PDMODE
 70
    33
  9
$PDSIZE
 40
0.25
  9
$PLINEWID
 40
0.0
  9
$COORDS
 70
     1
  9
$SPLFRAME
 70
     0
  9
$SPLINETYPE
 70
     6
  9
$SPLINESEGS
 70
     8
  9
$ATTDIA
 70
     0
  9
$ATTREQ
 70
     1
  9
$HANDLING
 70
 22529
  9
$HANDSEED
  5
125
  9
$SURFTAB1
 70
     6
  9
$SURFTAB2
 70
     6
  9
$SURFTYPE
 70
     6
  9
$SURFU
 70
     6
  9
$SURFV
 70
     6
  9
$UCSNAME
  2

  9
$UCSORG
 10
0.0
 20
0.0
 30
0.0
  9
$UCSXDIR
 10
1.0
 20
0.0
 30
0.0
  9
$UCSYDIR
 10
0.0
 20
1.0
 30
0.0
  9
$PUCSNAME
  2

  9
$PUCSORG
 10
0.0
 20
0.0
 30
0.0
  9
$PUCSXDIR
 10
1.0
 20
0.0
 30
0.0
  9
$PUCSYDIR
 10
0.0
 20
1.0
 30
0.0
  9
$USERI1
 70
     0
  9
$USERI2
 70
     0
  9
$USERI3
 70
     0
  9
$USERI4
 70
     0
  9
$USERI5
 70
     0
  9
$USERR1
 40
0.0
  9
$USERR2
 40
0.0
  9
$USERR3
 40
0.0
  9
$USERR4
 40
0.0
  9
$USERR5
 40
0.0
  9
$WORLDVIEW
 70
     1
  9
$SHADEDGE
 70
     3
  9
$SHADEDIF
 70
    70
  9
$TILEMODE
 70
     1
  9
$MAXACTVP
 70
    48
  9
$PINSBASE
 10
0.0
 20
0.0
 30
0.0
  9
$PLIMCHECK
 70
     0
  9
$PEXTMIN
 10
0.0
 20
0.0
 30
0.0
  9
$PEXTMAX
 10
0.0
 20
0.0
 30
0.0
  9
$PLIMMIN
 10
0.0
 20
0.0
  9
$PLIMMAX
 10
12.0
 20
9.0
  9
$UNITMODE
 70
     0
  9
$VISRETAIN
 70
     1
  9
$PLINEGEN
 70
     0
  9
$PSLTSCALE
 70
     1
  9
$TREEDEPTH
 70
  3020
  9
$PICKSTYLE
 70
     1
  9
$CMLSTYLE
  2
STANDARD
  9
$CMLJUST
 70
     0
  9
$CMLSCALE
 40
20.0
  9
$PROXYGRAPHICS
 70
     1
  9
$MEASUREMENT
 70
     0
  0
ENDSEC
  0
SECTION
  2
CLASSES
  0
CLASS
  1
ACDBDICTIONARYWDFLT
  2
AcDbDictionaryWithDefault
  3
AutoCAD 2000
 90
        0
280
     0
281
     0
  0
CLASS
  1
ACDBPLACEHOLDER
  2
AcDbPlaceHolder
  3
AutoCAD 2000
 90
        0
280
     0
281
     0
  0
CLASS
  1
LAYOUT
  2
AcDbLayout
  3
AutoCAD 2000
 90
        0
280
     0
281
     0
  0
CLASS
  1
DICTIONARYVAR
  2
AcDbDictionaryVar
  3
AutoCAD 2000
 90
        0
280
     0
281
     0
  0
CLASS
  1
IMAGEDEF
  2
AcDbRasterImageDef
  3
ISM
 90
        0
280
     0
281
     0
  0
CLASS
  1
LONG_TRANSACTION
  2
AcDbLongTransaction
  3
AutoCAD 2000
 90
        0
280
     0
281
     0
  0
CLASS
  1
LWPOLYLINE
  2
AcDbPolyline
  3
AutoCAD 2000
 90
        0
280
     0
281
     1
  0
CLASS
  1
HATCH
  2
AcDbHatch
  3
AutoCAD 2000
 90
        0
280
     0
281
     1
  0
CLASS
  1
XRECORD
  2
AcDbXrecord
  3
AutoCAD 2000
 90
        0
280
     0
281
     0
  0
CLASS
  1
LONG_TRANSACTION
  2
AcDbLongTransaction
  3
AutoCAD 2000
 90
        0
280
     0
281
     0
  0
CLASS
  1
LWPOLYLINE
  2
AcDbPolyline
  3
AutoCAD 2000
 90
        0
280
     0
281
     1
  0
CLASS
  1
HATCH
  2
AcDbHatch
  3
AutoCAD 2000
 90
        0
280
     0
281
     1
  0
CLASS
  1
XRECORD
  2
AcDbXrecord
  3
AutoCAD 2000
 90
        0
280
     0
281
     0
  0
ENDSEC
  0
SECTION
  2
TABLES
  0
TABLE
  2
VPORT
  5
1D
330
0
100
AcDbSymbolTable
 70
     3
  0
VPORT
  5
101
330
1D
100
AcDbSymbolTableRecord
100
AcDbViewportTableRecord
  2
*ACTIVE
 70
     0
 10
0.0
 20
0.0
 11
1.0
 21
1.0
 12
53.62750846114584
 22
82.1516451678122
 13
0.0
 23
0.0
 14
10.0
 24
10.0
 15
10.0
 25
10.0
 16
0.0
 26
0.0
 36
1.0
 17
0.0
 27
0.0
 37
0.0
 40
41.06415242041987
 41
1.786792452830188
 42
50.0
 43
0.0
 44
0.0
 50
0.0
 51
0.0
 71
     0
 72
   100
 73
     1
 74
     3
 75
     0
 76
     0
 77
     0
 78
     2
  0
ENDTAB
  0
TABLE
  2
LTYPE
  5
18
330
0
100
AcDbSymbolTable
 70
     2
  0
LTYPE
  5
19
330
18
100
AcDbSymbolTableRecord
100
AcDbLinetypeTableRecord
  2
BYBLOCK
 70
     0
  3

 72
    65
 73
     0
 40
0.0
  0
LTYPE
  5
1A
330
18
100
AcDbSymbolTableRecord
100
AcDbLinetypeTableRecord
  2
BYLAYER
 70
     0
  3

 72
    65
 73
     0
 40
0.0
  0
LTYPE
  5
8
330
18
100
AcDbSymbolTableRecord
100
AcDbLinetypeTableRecord
  2
CONTINUOUS
 70
     0
  3
Solid line
 72
    65
 73
     0
 40
0.0
  0
LTYPE
  5
36
330
18
100
AcDbSymbolTableRecord
100
AcDbLinetypeTableRecord
  2
CENTER
 70
     0
  3
Center ____ _ ____ _ ____ _ ____ _ ____ _ ____
 72
    65
 73
     4
 40
50.8
 49
31.75
 74
     0
 49
-6.349999999999999
 74
     0
 49
6.349999999999999
 74
     0
 49
-6.349999999999999
 74
     0
  0
ENDTAB
  0
TABLE
  2
LAYER
  5
10
102
{ACAD_XDICTIONARY
360
11
102
}
330
0
100
AcDbSymbolTable
 70
     2
  0
LAYER
  5
4
330
10
100
AcDbSymbolTableRecord
100
AcDbLayerTableRecord
  2
0
 70
     0
 62
     7
  6
CONTINUOUS
  0
LAYER
  5
35
330
10
100
AcDbSymbolTableRecord
100
AcDbLayerTableRecord
  2
CENTER
 70
     0
 62
     1
  6
CENTER
  0
ENDTAB
  0
TABLE
  2
STYLE
  5
15
330
0
100
AcDbSymbolTable
 70
     3
  0
STYLE
  5
16
330
15
100
AcDbSymbolTableRecord
100
AcDbTextStyleTableRecord
  2
STANDARD
 70
     0
 40
0.0
 41
1.0
 50
0.0
 71
     0
 42
0.125
  3
txt
  4

  0
STYLE
  5
2B
330
15
100
AcDbSymbolTableRecord
100
AcDbTextStyleTableRecord
  2
CARTOUCHE
 70
     0
 40
0.0
 41
1.0
 50
0.0
 71
     0
 42
2.0
  3
romans.shx
  4

  0
STYLE
  5
23
330
15
100
AcDbSymbolTableRecord
100
AcDbTextStyleTableRecord
  2
ROMANS
 70
     0
 40
0.0
 41
1.0
 50
0.0
 71
     0
 42
1.0
  3
romans.shx
  4

  0
ENDTAB
  0
TABLE
  2
VIEW
  5
1B
330
0
100
AcDbSymbolTable
 70
     0
  0
ENDTAB
  0
TABLE
  2
UCS
  5
1C
330
0
100
AcDbSymbolTable
 70
     0
  0
ENDTAB
  0
TABLE
  2
APPID
  5
1F
330
0
100
AcDbSymbolTable
 70
     1
  0
APPID
  5
20
330
1F
100
AcDbSymbolTableRecord
100
AcDbRegAppTableRecord
  2
ACAD
 70
     0
  0
ENDTAB
  0
TABLE
  2
DIMSTYLE
  5
21
330
0
100
AcDbSymbolTable
 70
     1
  0
DIMSTYLE
105
22
330
21
100
AcDbSymbolTableRecord
100
AcDbDimStyleTableRecord
  2
STANDARD
 70
     0
  3
\X
  4
cm
  5

  6

  7

 40
16.0
 41
0.1
 42
0.0625
 43
0.25
 44
0.1
 45
0.0
 46
0.0
 47
0.0
 48
0.0
140
0.1
141
0.09
142
0.0
143
2.54
144
1.0
145
0.0
146
1.0
147
0.08
 71
     0
 72
     0
 73
     1
 74
     1
 75
     0
 76
     0
 77
     0
 78
     4
170
     1
171
     1
172
     0
173
     0
174
     0
175
     0
176
     0
177
     0
178
     0
270
     5
271
     3
272
     3
273
     2
274
     1
340
23
275
     0
280
     0
281
     0
282
     0
283
     1
284
     4
285
     4
286
     4
287
     1
288
     0
  0
ENDTAB
  0
TABLE
  2
BLOCK_RECORD
  5
1
330
0
100
AcDbSymbolTable
 70
     0
  0
BLOCK_RECORD
  5
2
102
{ACAD_XDICTIONARY
360
78
102
}
330
1
100
AcDbSymbolTableRecord
100
AcDbBlockTableRecord
  2
*MODEL_SPACE
  0
BLOCK_RECORD
  5
6D
102
{ACAD_XDICTIONARY
360
7A
102
}
330
1
100
AcDbSymbolTableRecord
100
AcDbBlockTableRecord
  2
*PAPER_SPACE
  0
ENDTAB
  0
ENDSEC
  0
SECTION
  2
BLOCKS
  0
BLOCK
  5
3
330
2
100
AcDbEntity
  8
0
100
AcDbBlockBegin
  2
*MODEL_SPACE
 70
     0
 10
0.0
 20
0.0
 30
0.0
  3
*MODEL_SPACE
  1

  0
ENDBLK
  5
9
330
2
100
AcDbEntity
  8
0
100
AcDbBlockEnd
  0
BLOCK
  5
6F
330
6D
100
AcDbEntity
 67
     1
  8
0
100
AcDbBlockBegin
  2
*PAPER_SPACE
 70
     0
 10
0.0
 20
0.0
 30
0.0
  3
*PAPER_SPACE
  1

  0
ENDBLK
  5
70
330
6D
100
AcDbEntity
 67
     1
  8
0
100
AcDbBlockEnd
  0
ENDSEC
  0
SECTION
  2
ENTITIES
  0
SPLINE
  5
2D
330
2
100
AcDbEntity
  8
0
 48
0.1
100
AcDbSpline
210
0.0
220
0.0
230
1.0
 70
     8
 71
     3
 72
    11
 73
     7
 74
     0
 42
0.0000000001
 43
0.0000000001
 40
0.8456098166645407
 40
0.8456098166645407
 40
0.8456098166645407
 40
0.8456098166645407
 40
4.368264983605962
 40
11.76916454774717
 40
16.62676599646605
 40
18.24979191368044
 40
18.24979191368044
 40
18.24979191368044
 40
18.24979191368044
 10
27.49931448551615
 20
82.08127895837696
 30
0.0
 10
27.53033862111472
 20
84.17805676357195
 30
0.0
 10
27.91931032506214
 20
87.63619490057106
 30
0.0
 10
30.91288865251241
 20
92.47113757182829
 30
0.0
 10
35.23734607463373
 20
94.54270312461696
 30
0.0
 10
37.37304372619167
 20
94.87273858025007
 30
0.0
 10
37.90791364604444
 20
94.95539355604888
 30
0.0
  0
LWPOLYLINE
  5
2E
330
2
100
AcDbEntity
  8
0
 48
0.1
100
AcDbPolyline
 90
        4
 70
     1
 43
0.0
 10
23.7476188449549
 20
97.96822023980441
 10
83.49761884495491
 20
97.96822023980441
 10
83.49761884495491
 20
66.34322023980438
 10
23.7476188449549
 20
66.34322023980438
  0
SPLINE
  5
2F
330
2
100
AcDbEntity
  8
0
 48
0.1
100
AcDbSpline
210
0.0
220
0.0
230
1.0
 70
     8
 71
     3
 72
    12
 73
     8
 74
     6
 42
0.0000000001
 43
0.0000000001
 44
0.0000000001
 40
0.0
 40
0.0
 40
0.0
 40
0.0
 40
2.289226510117785
 40
5.426312583822818
 40
10.01566470928174
 40
14.00491433365401
 40
14.3208093778007
 40
14.3208093778007
 40
14.3208093778007
 40
14.3208093778007
 10
78.57970237514525
 20
82.15572023980438
 30
0.0
 10
78.57233879139783
 20
82.91630491869923
 30
0.0
 10
78.55488437744009
 20
84.71917160572607
 30
0.0
 10
78.10253140430757
 20
88.11544459573712
 30
0.0
 10
74.95047496637994
 20
91.10793853974469
 30
0.0
 10
71.91350015721496
 20
91.47284886730062
 30
0.0
 10
70.47932741387659
 20
91.46842053012793
 30
0.0
 10
70.37409330516388
 20
91.46809559568914
 30
0.0
 11
78.57970237514525
 21
82.15572023980438
 31
0.0
 11
78.5170996700906
 21
84.44409060229947
 31
0.0
 11
77.8829606195593
 21
87.51641491760626
 31
0.0
 11
74.61126745607464
 21
90.73482706887933
 31
0.0
 11
70.68998834931057
 21
91.46809559568914
 31
0.0
 11
70.37409330516388
 21
91.46809559568914
 31
0.0
  0
SPLINE
  5
30
330
2
100
AcDbEntity
  8
0
 48
0.1
100
AcDbSpline
210
0.0
220
0.0
230
1.0
 70
     8
 71
     3
 72
    10
 73
     6
 74
     0
 42
0.0000000001
 43
0.0000000001
 40
1.159984128284664
 40
1.159984128284664
 40
1.159984128284664
 40
1.159984128284664
 40
4.204175713420602
 40
6.286926439648645
 40
8.627012792015504
 40
8.627012792015504
 40
8.627012792015504
 40
8.627012792015504
 10
80.24761884495489
 20
82.1557202398044
 30
0.0
 10
80.26853033986094
 20
88.51247231275976
 30
0.0
 10
78.0864929200421
 20
92.60577914212753
 30
0.0
 10
74.30662223868376
 20
94.69316774342154
 30
0.0
 10
72.2680185347329
 20
94.93689669950121
 30
0.0
 10
71.11449083526131
 20
94.96814912629233
 30
0.0
  0
SPLINE
  5
31
330
2
100
AcDbEntity
  8
0
 48
0.1
100
AcDbSpline
210
0.0
220
0.0
230
1.0
 70
     8
 71
     3
 72
    13
 73
     9
 74
     7
 42
0.0000000001
 43
0.0000000001
 44
0.0000000001
 40
0.0
 40
0.0
 40
0.0
 40
0.0
 40
0.4102275888853911
 40
6.840869477843567
 40
12.29089107307036
 40
17.62112730739544
 40
21.49675449333858
 40
21.67245694755632
 40
21.67245694755632
 40
21.67245694755632
 40
21.67245694755632
 10
39.1226188449549
 20
94.9682202398044
 30
0.0
 10
38.98595872429727
 20
94.96848020799991
 30
0.0
 10
36.70704313311222
 20
94.97281538325866
 30
0.0
 10
32.48902754066647
 20
94.59094379748847
 30
0.0
 10
27.59701475445455
 20
91.20108492096747
 30
0.0
 10
25.09808443760612
 20
86.73936632524515
 30
0.0
 10
24.99695043866905
 20
83.56441527051208
 30
0.0
 10
24.99759106172018
 20
82.21427460338938
 30
0.0
 10
24.9976188449549
 20
82.1557202398044
 30
0.0
 11
39.1226188449549
 21
94.9682202398044
 31
0.0
 11
38.71239125606951
 21
94.9682202398044
 31
0.0
 11
32.35765968251508
 21
93.98305947521112
 31
0.0
 11
27.87633242992263
 21
90.88137582860714
 31
0.0
 11
25.3430174727194
 21
86.19162811243706
 31
0.0
 11
24.9976188449549
 21
82.33142269402213
 31
0.0
 11
24.9976188449549
 21
82.1557202398044
 31
0.0
  0
SPLINE
  5
32
330
2
100
AcDbEntity
  8
0
 48
0.1
100
AcDbSpline
210
0.0
220
0.0
230
1.0
 70
     8
 71
     3
 72
    12
 73
     8
 74
     6
 42
0.0000000001
 43
0.0000000001
 44
0.0000000001
 40
0.0
 40
0.0
 40
0.0
 40
0.0
 40
0.3760518134834996
 40
4.69137896884912
 40
8.326058450249686
 40
13.4365925464669
 40
13.75248759061361
 40
13.75248759061361
 40
13.75248759061361
 40
13.75248759061361
 10
35.70131695434803
 20
82.1557202398044
 30
0.0
 10
35.7011971859245
 20
82.28099553592377
 30
0.0
 10
35.69970303261053
 20
83.84384902700659
 30
0.0
 10
35.79629617025711
 20
86.67993798797926
 30
0.0
 10
38.24007449351317
 20
90.59676723912748
 30
0.0
 10
41.47144453270828
 20
91.47916149377431
 30
0.0
 10
43.27775370559279
 20
91.46870434961035
 30
0.0
 10
43.38290648675905
 20
91.46809559568914
 30
0.0
 11
35.70131695434803
 21
82.1557202398044
 31
0.0
 11
35.70131695434803
 21
82.53177205328789
 31
0.0
 11
36.21530678534929
 21
86.81637972628005
 31
0.0
 11
38.21999129904475
 21
89.84823310879443
 31
0.0
 11
43.06701144261234
 21
91.46809559568914
 31
0.0
 11
43.38290648675905
 21
91.46809559568914
 31
0.0
  0
SPLINE
  5
33
330
2
100
AcDbEntity
  8
0
 48
0.1
100
AcDbSpline
210
0.0
220
0.0
230
1.0
 70
     8
 71
     3
 72
    12
 73
     8
 74
     6
 42
0.0000000001
 43
0.0000000001
 44
0.0000000001
 40
0.0
 40
0.0
 40
0.0
 40
0.0
 40
0.4907015453858037
 40
4.237292683931967
 40
9.440459021099249
 40
15.00067390138242
 40
15.58444964863697
 40
15.58444964863697
 40
15.58444964863697
 40
15.58444964863697
 10
41.77416560715201
 20
92.10165181043823
 30
0.0
 10
41.61077987012115
 20
92.10208359155821
 30
0.0
 10
40.19991578238854
 20
92.10581209618181
 30
0.0
 10
36.96615689306872
 20
91.89892427544341
 30
0.0
 10
32.9994456486328
 20
88.32149100071024
 30
0.0
 10
32.39867950134652
 20
84.3955246311213
 30
0.0
 10
32.4093189874874
 20
82.35007055005658
 30
0.0
 10
32.41032990601721
 20
82.1557202398044
 30
0.0
 11
41.77416560715201
 21
92.10165181043823
 31
0.0
 11
41.2834640617662
 21
92.10165181043823
 31
0.0
 11
37.57357424065332
 21
91.5785240300292
 31
0.0
 11
33.65150884917676
 21
88.15940967142513
 31
0.0
 11
32.41032990601721
 21
82.73949598705895
 31
0.0
 11
32.41032990601721
 21
82.1557202398044
 31
0.0
  0
LINE
  5
34
330
2
100
AcDbEntity
  8
CENTER
 48
0.05
100
AcDbLine
 10
74.3726188449549
 20
86.35120054042998
 30
0.0
 11
74.37261884495493
 21
77.96023993917877
 31
0.0
  0
SPLINE
  5
37
330
2
100
AcDbEntity
  8
0
 48
0.1
100
AcDbSpline
210
0.0
220
0.0
230
1.0
 70
     8
 71
     3
 72
    11
 73
     7
 74
     0
 42
0.0000000001
 43
0.0000000001
 40
0.6500029529229482
 40
0.6500029529229482
 40
0.6500029529229482
 40
0.6500029529229482
 40
4.368264983605962
 40
11.76916454774717
 40
16.62676599646605
 40
18.24979191368044
 40
18.24979191368044
 40
18.24979191368044
 40
18.24979191368044
 10
27.49931448551615
 20
82.08127895837696
 30
0.0
 10
27.51694779016697
 20
80.26404363591142
 30
0.0
 10
27.88220502926975
 20
76.73517451970084
 30
0.0
 10
30.91288865251241
 20
71.84030290778048
 30
0.0
 10
35.23734607463373
 20
69.76873735499184
 30
0.0
 10
37.37304372619167
 20
69.43870189935869
 30
0.0
 10
37.90791364604444
 20
69.35604692355989
 30
0.0
  0
SPLINE
  5
38
330
2
100
AcDbEntity
  8
0
 48
0.1
100
AcDbSpline
210
0.0
220
0.0
230
1.0
 70
     8
 71
     3
 72
    12
 73
     8
 74
     6
 42
0.0000000001
 43
0.0000000001
 44
0.0000000001
 40
0.0
 40
0.0
 40
0.0
 40
0.0
 40
0.4907015453858037
 40
4.237292683931967
 40
9.440459021099249
 40
15.00067390138242
 40
15.58444964863697
 40
15.58444964863697
 40
15.58444964863697
 40
15.58444964863697
 10
41.77416560715201
 20
72.20978866917054
 30
0.0
 10
41.61077987012115
 20
72.20935688805055
 30
0.0
 10
40.19991578238854
 20
72.20562838342698
 30
0.0
 10
36.96615689306872
 20
72.4125162041653
 30
0.0
 10
32.9994456486328
 20
75.98994947889858
 30
0.0
 10
32.39867950134652
 20
79.91591584848743
 30
0.0
 10
32.4093189874874
 20
81.96136992955217
 30
0.0
 10
32.41032990601721
 20
82.15572023980437
 30
0.0
 11
41.77416560715201
 21
72.20978866917054
 31
0.0
 11
41.2834640617662
 21
72.20978866917054
 31
0.0
 11
37.57357424065332
 21
72.73291644957956
 31
0.0
 11
33.65150884917676
 21
76.15203080818364
 31
0.0
 11
32.41032990601721
 21
81.57194449254982
 31
0.0
 11
32.41032990601721
 21
82.15572023980437
 31
0.0
  0
SPLINE
  5
39
330
2
100
AcDbEntity
  8
0
 48
0.1
100
AcDbSpline
210
0.0
220
0.0
230
1.0
 70
     8
 71
     3
 72
    12
 73
     8
 74
     0
 42
0.0000000001
 43
0.0000000001
 40
0.5887279893384284
 40
0.5887279893384284
 40
0.5887279893384284
 40
0.5887279893384284
 40
0.5951014377935735
 40
4.154120156701507
 40
7.187372782734733
 40
10.18433935463363
 40
10.29301732549026
 40
10.29301732549026
 40
10.29301732549026
 40
10.29301732549026
 10
43.05133019509634
 20
69.95980905524695
 30
0.0
 10
42.76216248142683
 20
69.95981361654276
 30
0.0
 10
39.66385377825946
 20
70.06888505408759
 30
0.0
 10
37.48381550659036
 20
71.16865369394699
 30
0.0
 10
35.85921714951064
 20
72.32340558725926
 30
0.0
 10
34.34263140035784
 20
74.13083747931134
 30
0.0
 10
33.26675477242713
 20
76.75491935066824
 30
0.0
 10
33.00868433040418
 20
77.42748497122962
 30
0.0
  0
SPLINE
  5
3A
330
2
100
AcDbEntity
  8
0
 48
0.1
100
AcDbSpline
210
0.0
220
0.0
230
1.0
 70
     8
 71
     3
 72
    13
 73
     9
 74
     7
 42
0.0000000001
 43
0.0000000001
 44
0.0000000001
 40
0.0
 40
0.0
 40
0.0
 40
0.0
 40
0.4102275888853911
 40
6.840869477843567
 40
12.29089107307036
 40
17.62112730739544
 40
21.49675449333858
 40
21.67245694755632
 40
21.67245694755632
 40
21.67245694755632
 40
21.67245694755632
 10
39.1226188449549
 20
69.34322023980435
 30
0.0
 10
38.98595872429727
 20
69.34296027160886
 30
0.0
 10
36.70704313311222
 20
69.33862509635011
 30
0.0
 10
32.48902754066647
 20
69.72049668212029
 30
0.0
 10
27.59701475445455
 20
73.11035555864129
 30
0.0
 10
25.09808443760612
 20
77.57207415436361
 30
0.0
 10
24.99695043866905
 20
80.74702520909671
 30
0.0
 10
24.99759106172018
 20
82.09716587621938
 30
0.0
 10
24.9976188449549
 20
82.15572023980437
 30
0.0
 11
39.1226188449549
 21
69.34322023980435
 31
0.0
 11
38.71239125606951
 21
69.34322023980437
 31
0.0
 11
32.35765968251508
 21
70.32838100439764
 31
0.0
 11
27.87633242992263
 21
73.43006465100163
 31
0.0
 11
25.3430174727194
 21
78.1198123671717
 31
0.0
 11
24.9976188449549
 21
81.98001778558662
 31
0.0
 11
24.9976188449549
 21
82.15572023980437
 31
0.0
  0
CIRCLE
  5
3B
330
2
100
AcDbEntity
  8
0
 48
0.1
100
AcDbCircle
 10
74.37261884495493
 20
82.15572023980438
 30
0.0
 40
1.89014635623478
  0
SPLINE
  5
3C
330
2
100
AcDbEntity
  8
0
 48
0.1
100
AcDbSpline
210
0.0
220
0.0
230
1.0
 70
     8
 71
     3
 72
    10
 73
     6
 74
     0
 42
0.0000000001
 43
0.0000000001
 40
0.0
 40
0.0
 40
0.0
 40
0.0
 40
0.4907015453858037
 40
5.321796018512405
 40
6.630559957679454
 40
6.630559957679454
 40
6.630559957679454
 40
6.630559957679454
 10
71.12166106952748
 20
72.20978866917054
 30
0.0
 10
71.28477408810295
 20
72.20949354191906
 30
0.0
 10
73.05378056665415
 20
72.20629280402339
 30
0.0
 10
75.45749761064695
 20
72.33205396215257
 30
0.0
 10
77.07054798861006
 20
73.62922259981835
 30
0.0
 10
77.38152271085866
 20
73.94501876408876
 30
0.0
  0
SPLINE
  5
3D
330
2
100
AcDbEntity
  8
0
 48
0.1
100
AcDbSpline
210
0.0
220
0.0
230
1.0
 70
     8
 71
     3
 72
    11
 73
     7
 74
     0
 42
0.0000000001
 43
0.0000000001
 40
0.5887279893384284
 40
0.5887279893384284
 40
0.5887279893384284
 40
0.5887279893384284
 40
0.5951014377935735
 40
4.154120156701507
 40
7.187372782734733
 40
7.926135499759047
 40
7.926135499759047
 40
7.926135499759047
 40
7.926135499759047
 10
69.84449618494136
 20
69.9598481793927
 30
0.0
 10
70.13366389862643
 20
69.95984962155645
 30
0.0
 10
72.64964762934858
 20
70.07817980591076
 30
0.0
 10
74.13689032296281
 20
70.64205328674674
 30
0.0
 10
75.41899596199176
 20
71.41097237874058
 30
0.0
 10
76.68744970035891
 20
72.78059409216147
 30
0.0
 10
77.38152271100307
 20
73.94501876423543
 30
0.0
  0
SPLINE
  5
3E
330
2
100
AcDbEntity
  8
0
 48
0.1
100
AcDbSpline
210
0.0
220
0.0
230
1.0
 70
     8
 71
     3
 72
    10
 73
     6
 74
     0
 42
0.0000000001
 43
0.0000000001
 40
1.159984128284664
 40
1.159984128284664
 40
1.159984128284664
 40
1.159984128284664
 40
4.204175713420602
 40
6.286926439648645
 40
8.627012792015504
 40
8.627012792015504
 40
8.627012792015504
 40
8.627012792015504
 10
80.24761884495489
 20
82.15572023980437
 30
0.0
 10
80.26853033986094
 20
75.79896816684899
 30
0.0
 10
78.0864929200421
 20
71.70566133748123
 30
0.0
 10
74.30662223868376
 20
69.61827273618722
 30
0.0
 10
72.2680185347329
 20
69.37454378010754
 30
0.0
 10
71.11449083526131
 20
69.34329135331643
 30
0.0
  0
SPLINE
  5
3F
330
2
100
AcDbEntity
  8
0
 48
0.1
100
AcDbSpline
210
0.0
220
0.0
230
1.0
 70
     8
 71
     3
 72
    12
 73
     8
 74
     6
 42
0.0000000001
 43
0.0000000001
 44
0.0000000001
 40
0.0
 40
0.0
 40
0.0
 40
0.0
 40
2.289226510117785
 40
5.426312583822818
 40
10.01566470928174
 40
14.00491433365401
 40
14.3208093778007
 40
14.3208093778007
 40
14.3208093778007
 40
14.3208093778007
 10
78.57970237514525
 20
82.15572023980438
 30
0.0
 10
78.57233879139783
 20
81.39513556090951
 30
0.0
 10
78.55488437744009
 20
79.59226887388267
 30
0.0
 10
78.10253140430757
 20
76.19599588387171
 30
0.0
 10
74.95047496637994
 20
73.20350193986403
 30
0.0
 10
71.91350015721496
 20
72.83859161230822
 30
0.0
 10
70.47932741387659
 20
72.84301994948084
 30
0.0
 10
70.37409330516388
 20
72.84334488391961
 30
0.0
 11
78.57970237514525
 21
82.15572023980438
 31
0.0
 11
78.5170996700906
 21
79.8673498773093
 31
0.0
 11
77.8829606195593
 21
76.79502556200251
 31
0.0
 11
74.61126745607464
 21
73.57661341072944
 31
0.0
 11
70.68998834931057
 21
72.84334488391961
 31
0.0
 11
70.37409330516388
 21
72.84334488391961
 31
0.0
  0
LINE
  5
40
330
2
100
AcDbEntity
  8
CENTER
 48
0.05
100
AcDbLine
 10
78.56809914558076
 20
82.1557202398044
 30
0.0
 11
70.17713854432955
 21
82.15572023980437
 31
0.0
  0
ARC
  5
41
330
2
100
AcDbEntity
  8
0
 48
0.1
100
AcDbCircle
 10
52.62261884495491
 20
56.65624051014939
 30
0.0
 40
13.81210437360585
100
AcDbArc
 50
50.69100824015313
 51
90.00000000000003
  0
ARC
  5
42
330
2
100
AcDbEntity
  8
0
 48
0.1
100
AcDbCircle
 10
52.71314923582519
 20
80.58205741237193
 30
0.0
 40
9.25031030849767
100
AcDbArc
 50
269.4392520956241
 51
295.1659708760313
  0
ARC
  5
43
330
2
100
AcDbEntity
  8
0
 48
0.1
100
AcDbCircle
 10
52.71314923582519
 20
80.58205741237193
 30
0.0
 40
8.616754093748578
100
AcDbArc
 50
269.4392520956241
 51
296.0904803637927
  0
ARC
  5
44
330
2
100
AcDbEntity
  8
0
 48
0.1
100
AcDbCircle
 10
52.78171957455481
 20
57.77460134577143
 30
0.0
 40
13.22118897277582
100
AcDbArc
 50
67.16714838568615
 51
90.68950079821794
  0
LINE
  5
45
330
2
100
AcDbEntity
  8
0
 48
0.1
100
AcDbLine
 10
39.1226188449549
 20
69.34322023980435
 30
0.0
 11
47.16232832459745
 21
69.34322023980437
 31
0.0
  0
LINE
  5
46
330
2
100
AcDbEntity
  8
0
 48
0.1
100
AcDbLine
 10
42.7642479919029
 20
69.95981358364618
 30
0.0
 11
47.33300187729473
 21
69.95974151668654
 31
0.0
  0
ARC
  5
47
330
2
100
AcDbEntity
  8
0
 48
0.1
100
AcDbCircle
 10
52.6226188449549
 20
56.65624051014939
 30
0.0
 40
13.81210437360585
100
AcDbArc
 50
90.00000000000003
 51
129.3089917598468
  0
LINE
  5
48
330
2
100
AcDbEntity
  8
0
 48
0.1
100
AcDbLine
 10
41.2834640617662
 20
72.20978866917052
 30
0.0
 11
48.59846965009362
 21
72.20978866917052
 31
0.0
  0
LINE
  5
49
330
2
100
AcDbEntity
  8
0
 48
0.1
100
AcDbLine
 10
43.06701144261234
 20
72.84334488391961
 30
0.0
 11
48.7425265382284
 21
72.84334488391961
 31
0.0
  0
SPLINE
  5
4A
330
2
100
AcDbEntity
  8
0
 48
0.1
100
AcDbSpline
210
0.0
220
0.0
230
1.0
 70
     8
 71
     3
 72
    12
 73
     8
 74
     6
 42
0.0000000001
 43
0.0000000001
 44
0.0000000001
 40
0.0
 40
0.0
 40
0.0
 40
0.0
 40
0.3760518134834996
 40
4.877599612319805
 40
8.357413711387655
 40
13.46794780760487
 40
13.78384285175158
 40
13.78384285175158
 40
13.78384285175158
 40
13.78384285175158
 10
35.70131695434803
 20
82.15572023980437
 30
0.0
 10
35.70131000552793
 20
82.03048843866966
 30
0.0
 10
35.70121987549528
 20
80.40616284638913
 30
0.0
 10
35.7070746212205
 20
77.52026020849855
 30
0.0
 10
38.33325916458948
 20
73.7220001851263
 30
0.0
 10
41.4709539919832
 20
72.83198938935732
 30
0.0
 10
43.27772672011112
 20
72.84272019880245
 30
0.0
 10
43.38290648675905
 20
72.84334488391961
 30
0.0
 11
35.70131695434803
 21
82.15572023980437
 31
0.0
 11
35.70131695434803
 21
81.77966842632086
 31
0.0
 11
36.21530678534929
 21
77.30756075332871
 31
0.0
 11
38.21999129904475
 21
74.46320737081433
 31
0.0
 11
43.06701144261234
 21
72.84334488391961
 31
0.0
 11
43.38290648675905
 21
72.84334488391961
 31
0.0
  0
ARC
  5
4B
330
2
100
AcDbEntity
  8
0
 48
0.1
100
AcDbCircle
 10
52.53208845408463
 20
80.58205741237193
 30
0.0
 40
9.25031030849767
100
AcDbArc
 50
244.8340291239685
 51
270.5607479043758
  0
ARC
  5
4C
330
2
100
AcDbEntity
  8
0
 48
0.1
100
AcDbCircle
 10
52.53208845408463
 20
80.58205741237193
 30
0.0
 40
8.616754093748578
100
AcDbArc
 50
243.9095196362072
 51
270.5607479043758
  0
ARC
  5
4D
330
2
100
AcDbEntity
  8
0
 48
0.1
100
AcDbCircle
 10
52.463518115355
 20
57.77460134577143
 30
0.0
 40
13.22118897277582
100
AcDbArc
 50
89.31049920178208
 51
112.8333782022219
  0
LINE
  5
4E
330
2
100
AcDbEntity
  8
0
 48
0.1
100
AcDbLine
 10
70.68963042748501
 20
72.84334488391962
 30
0.0
 11
56.50271115168141
 21
72.84334488391961
 31
0.0
  0
LINE
  5
4F
330
2
100
AcDbEntity
  8
0
 48
0.1
100
AcDbLine
 10
71.61282281157195
 20
72.20978866917054
 30
0.0
 11
56.64676803981619
 21
72.20978866917052
 31
0.0
  0
LINE
  5
50
330
2
100
AcDbEntity
  8
0
 48
0.1
100
AcDbLine
 10
69.84450141481381
 20
69.95984817941878
 30
0.0
 11
57.91212382251837
 21
69.95978866917055
 31
0.0
  0
LINE
  5
51
330
2
100
AcDbEntity
  8
0
 48
0.1
100
AcDbLine
 10
71.11449083526129
 20
69.34329135331643
 30
0.0
 11
58.08290936531237
 21
69.34322023980437
 31
0.0
  0
CIRCLE
  5
52
330
2
100
AcDbEntity
  8
0
 48
0.1
100
AcDbCircle
 10
74.37261884495493
 20
82.15572023980438
 30
0.0
 40
1.25
  0
SPLINE
  5
53
330
2
100
AcDbEntity
  8
0
 48
0.1
100
AcDbSpline
210
0.0
220
0.0
230
1.0
 70
     8
 71
     3
 72
    12
 73
     8
 74
     0
 42
0.0000000001
 43
0.0000000001
 40
0.5887279893384284
 40
0.5887279893384284
 40
0.5887279893384284
 40
0.5887279893384284
 40
0.5951014377935735
 40
4.154120156701507
 40
7.187372782734733
 40
10.18433935463363
 40
10.29301732549026
 40
10.29301732549026
 40
10.29301732549026
 40
10.29301732549026
 10
43.05133019509634
 20
94.35163142436181
 30
0.0
 10
42.76216248142683
 20
94.351626863066
 30
0.0
 10
39.66385377825946
 20
94.24255542552117
 30
0.0
 10
37.48381550659036
 20
93.14278678566177
 30
0.0
 10
35.85921714951064
 20
91.98803489234951
 30
0.0
 10
34.34263140035784
 20
90.18060300029743
 30
0.0
 10
33.26675477242713
 20
87.55652112894052
 30
0.0
 10
33.00868433040418
 20
86.88395550837915
 30
0.0
  0
SPLINE
  5
54
330
2
100
AcDbEntity
  8
0
 48
0.1
100
AcDbSpline
210
0.0
220
0.0
230
1.0
 70
     8
 71
     3
 72
    11
 73
     7
 74
     0
 42
0.0000000001
 43
0.0000000001
 40
0.5887279893384284
 40
0.5887279893384284
 40
0.5887279893384284
 40
0.5887279893384284
 40
0.5951014377935735
 40
4.154120156701507
 40
7.187372782734733
 40
7.926135499759047
 40
7.926135499759047
 40
7.926135499759047
 40
7.926135499759047
 10
69.84449618494136
 20
94.35159230021605
 30
0.0
 10
70.13366389862643
 20
94.3515908580523
 30
0.0
 10
72.64964762934858
 20
94.23326067369799
 30
0.0
 10
74.13689032296281
 20
93.66938719286201
 30
0.0
 10
75.41899596199176
 20
92.90046810086819
 30
0.0
 10
76.68744970035891
 20
91.53084638744729
 30
0.0
 10
77.38152271100307
 20
90.36642171537334
 30
0.0
  0
SPLINE
  5
55
330
2
100
AcDbEntity
  8
0
 48
0.1
100
AcDbSpline
210
0.0
220
0.0
230
1.0
 70
     8
 71
     3
 72
    10
 73
     6
 74
     0
 42
0.0000000001
 43
0.0000000001
 40
0.0
 40
0.0
 40
0.0
 40
0.0
 40
0.4907015453858037
 40
5.321796018512405
 40
6.630559957679454
 40
6.630559957679454
 40
6.630559957679454
 40
6.630559957679454
 10
71.12166106952748
 20
92.10165181043823
 30
0.0
 10
71.28477408810295
 20
92.1019469376897
 30
0.0
 10
73.05378056665415
 20
92.10514767558537
 30
0.0
 10
75.45749761064695
 20
91.97938651745619
 30
0.0
 10
77.07054798861006
 20
90.68221787979041
 30
0.0
 10
77.38152271085866
 20
90.36642171552001
 30
0.0
  0
ARC
  5
56
330
2
100
AcDbEntity
  8
0
 48
0.1
100
AcDbCircle
 10
52.71314923582519
 20
83.72938306723682
 30
0.0
 40
9.25031030849767
100
AcDbArc
 50
64.83402912396861
 51
90.56074790437582
  0
ARC
  5
57
330
2
100
AcDbEntity
  8
0
 48
0.1
100
AcDbCircle
 10
52.71314923582519
 20
83.72938306723682
 30
0.0
 40
8.616754093748578
100
AcDbArc
 50
63.90951963620723
 51
90.56074790437582
  0
ARC
  5
58
330
2
100
AcDbEntity
  8
0
 48
0.1
100
AcDbCircle
 10
52.78171957455481
 20
106.5368391338373
 30
0.0
 40
13.22118897277582
100
AcDbArc
 50
269.310499201782
 51
292.8328516143139
  0
ARC
  5
59
330
2
100
AcDbEntity
  8
0
 48
0.1
100
AcDbCircle
 10
52.62261884495491
 20
107.6551999694593
 30
0.0
 40
13.81210437360585
100
AcDbArc
 50
270.0
 51
309.3089917598469
  0
LINE
  5
5A
330
2
100
AcDbEntity
  8
0
 48
0.1
100
AcDbLine
 10
41.2834640617662
 20
92.10165181043825
 30
0.0
 11
48.59846965009362
 21
92.10165181043825
 31
0.0
  0
ARC
  5
5B
330
2
100
AcDbEntity
  8
0
 48
0.1
100
AcDbCircle
 10
52.6226188449549
 20
107.6551999694593
 30
0.0
 40
13.81210437360585
100
AcDbArc
 50
230.6910082401531
 51
270.0
  0
LINE
  5
5C
330
2
100
AcDbEntity
  8
0
 48
0.1
100
AcDbLine
 10
43.06701144261234
 20
91.46809559568914
 30
0.0
 11
48.7425265382284
 21
91.46809559568914
 31
0.0
  0
LINE
  5
5D
330
2
100
AcDbEntity
  8
0
 48
0.1
100
AcDbLine
 10
42.7642479919029
 20
94.35162689596259
 30
0.0
 11
47.33300187729473
 21
94.35169896292221
 31
0.0
  0
LINE
  5
5E
330
2
100
AcDbEntity
  8
0
 48
0.1
100
AcDbLine
 10
39.1226188449549
 20
94.9682202398044
 30
0.0
 11
47.16232832459745
 21
94.9682202398044
 31
0.0
  0
ARC
  5
5F
330
2
100
AcDbEntity
  8
0
 48
0.1
100
AcDbCircle
 10
52.53208845408463
 20
83.72938306723682
 30
0.0
 40
8.616754093748578
100
AcDbArc
 50
89.43925209562419
 51
116.0904803637927
  0
ARC
  5
60
330
2
100
AcDbEntity
  8
0
 48
0.1
100
AcDbCircle
 10
52.53208845408463
 20
83.72938306723682
 30
0.0
 40
9.25031030849767
100
AcDbArc
 50
89.43925209562419
 51
115.1659708760314
  0
ARC
  5
61
330
2
100
AcDbEntity
  8
0
 48
0.1
100
AcDbCircle
 10
52.463518115355
 20
106.5368391338373
 30
0.0
 40
13.22118897277582
100
AcDbArc
 50
247.166621797778
 51
270.6895007982179
  0
LINE
  5
62
330
2
100
AcDbEntity
  8
0
 48
0.1
100
AcDbLine
 10
71.61282281157195
 20
92.10165181043823
 30
0.0
 11
56.64676803981619
 21
92.10165181043825
 31
0.0
  0
LINE
  5
63
330
2
100
AcDbEntity
  8
0
 48
0.1
100
AcDbLine
 10
70.68963042748501
 20
91.46809559568913
 30
0.0
 11
56.50271115168141
 21
91.46809559568914
 31
0.0
  0
LINE
  5
64
330
2
100
AcDbEntity
  8
0
 48
0.1
100
AcDbLine
 10
71.11449083526129
 20
94.96814912629233
 30
0.0
 11
58.08290936531237
 21
94.9682202398044
 31
0.0
  0
LINE
  5
65
330
2
100
AcDbEntity
  8
0
 48
0.1
100
AcDbLine
 10
69.84450141481381
 20
94.35159230018998
 30
0.0
 11
57.91212382251837
 21
94.35165181043821
 31
0.0
  0
ENDSEC
  0
SECTION
  2
OBJECTS
  0
DICTIONARY
  5
7
330
0
100
AcDbDictionary
  3
ACAD_GROUP
350
28
  3
ACAD_LAYOUT
350
B
  3
ACAD_MLINESTYLE
350
29
  3
ACAD_PLOTSETTINGS
350
2A
  3
ACAD_PLOTSTYLENAME
350
6
  3
ACDBHEADERROUNDTRIPXREC
350
102
  3
ACDBVARIABLEDICTIONARY
350
66
  0
DICTIONARY
  5
11
330
10
100
AcDbDictionary
280
     1
  3
ACAD_LAYERFILTERS
360
12
  0
DICTIONARY
  5
78
330
2
100
AcDbDictionary
280
     1
  3
ACAD_LAYOUTSELFREF
360
123
  0
DICTIONARY
  5
7A
330
6D
100
AcDbDictionary
280
     1
  3
ACAD_LAYOUTSELFREF
360
124
  0
DICTIONARY
  5
28
102
{ACAD_REACTORS
330
7
102
}
330
7
100
AcDbDictionary
  0
DICTIONARY
  5
B
102
{ACAD_REACTORS
330
7
102
}
330
7
100
AcDbDictionary
  0
DICTIONARY
  5
29
102
{ACAD_REACTORS
330
7
102
}
330
7
100
AcDbDictionary
  3
STANDARD
350
2C
  0
DICTIONARY
  5
2A
102
{ACAD_REACTORS
330
7
102
}
330
7
100
AcDbDictionary
  0
ACDBDICTIONARYWDFLT
  5
6
102
{ACAD_REACTORS
330
7
102
}
330
7
100
AcDbDictionary
281
     1
  3
Normal
350
5
100
AcDbDictionaryWithDefault
340
5
  0
DICTIONARY
  5
102
102
{ACAD_REACTORS
330
7
102
}
330
7
100
AcDbDictionary
  3
CEPSNTYPE
350
10C
  3
DIMSTYLEDATA
350
110
  3
FINGERPRINTGUID
350
10D
  3
HYPERLINKBASE
350
105
  3
INSUNITS
350
10B
  3
LAYOUTDICT
350
107
  3
LWETCUNION
350
10A
  3
PLOTSETDICT
350
108
  3
PLOTSTYLNAMDICT
350
109
  3
PSVPSCALE
350
10F
  3
PUCSBASE
350
113
  3
PUCSORGBACK
350
119
  3
PUCSORGBOTTOM
350
115
  3
PUCSORGFRONT
350
118
  3
PUCSORGLEFT
350
116
  3
PUCSORGRIGHT
350
117
  3
PUCSORGTOP
350
114
  3
PUCSORTHOREF
350
111
  3
PUCSORTHOVIEW
350
112
  3
STYLESHEET
350
106
  3
TSTACKALIGN
350
103
  3
TSTACKSIZE
350
104
  3
UCSBASE
350
11C
  3
UCSORGBACK
350
122
  3
UCSORGBOTTOM
350
11E
  3
UCSORGFRONT
350
121
  3
UCSORGLEFT
350
11F
  3
UCSORGRIGHT
350
120
  3
UCSORGTOP
350
11D
  3
UCSORTHOREF
350
11A
  3
UCSORTHOVIEW
350
11B
  3
VERSIONGUID
350
10E
  0
DICTIONARY
  5
66
102
{ACAD_REACTORS
330
7
102
}
330
7
100
AcDbDictionary
  3
DIMASSOC
350
68
  3
HIDETEXT
350
67
  0
DICTIONARY
  5
12
102
{ACAD_REACTORS
330
11
102
}
330
11
100
AcDbDictionary
280
     1
  3
DIM-1_12
360
13
  3
DIM-1_16
360
14
  0
XRECORD
  5
123
102
{ACAD_REACTORS
330
78
102
}
330
78
100
AcDbXrecord
340
2
  0
XRECORD
  5
124
102
{ACAD_REACTORS
330
7A
102
}
330
7A
100
AcDbXrecord
340
6D
  0
MLINESTYLE
  5
2C
102
{ACAD_REACTORS
330
29
102
}
330
29
100
AcDbMlineStyle
  2
STANDARD
 70
     0
  3

 62
   256
 51
90.0
 52
90.0
 71
     2
 49
0.5
 62
   256
  6
BYLAYER
 49
-0.5
 62
   256
  6
BYLAYER
  0
ACDBPLACEHOLDER
  5
5
102
{ACAD_REACTORS
330
6
102
}
330
6
100
AcDbPlaceHolder
280
     0
  0
XRECORD
  5
10C
102
{ACAD_REACTORS
330
102
102
}
330
102
100
AcDbXrecord
 90
        0
  0
XRECORD
  5
110
102
{ACAD_REACTORS
330
102
102
}
330
102
100
AcDbXrecord
1000
DSTYLE
1002
{
1070
    79
 70
     1
1070
   276
 70
     1
1070
   277
 70
     5
1070
   289
 70
     1
1002
}
  0
XRECORD
  5
10D
102
{ACAD_REACTORS
330
102
102
}
330
102
100
AcDbXrecord
  1
{6A4AC8E0-4F58-11D5-8420-0003476D26AB}
  0
XRECORD
  5
105
102
{ACAD_REACTORS
330
102
102
}
330
102
100
AcDbXrecord
  1

  0
XRECORD
  5
10B
102
{ACAD_REACTORS
330
102
102
}
330
102
100
AcDbXrecord
 90
        1
  0
XRECORD
  5
107
102
{ACAD_REACTORS
330
102
102
}
330
102
100
AcDbXrecord
340
B
  0
XRECORD
  5
10A
102
{ACAD_REACTORS
330
102
102
}
330
102
100
AcDbXrecord
 90
    10781
  0
XRECORD
  5
108
102
{ACAD_REACTORS
330
102
102
}
330
102
100
AcDbXrecord
340
2A
  0
XRECORD
  5
109
102
{ACAD_REACTORS
330
102
102
}
330
102
100
AcDbXrecord
340
6
  0
XRECORD
  5
10F
102
{ACAD_REACTORS
330
102
102
}
330
102
100
AcDbXrecord
 40
0.0
  0
XRECORD
  5
113
102
{ACAD_REACTORS
330
102
102
}
330
102
100
AcDbXrecord
340
0
  0
XRECORD
  5
119
102
{ACAD_REACTORS
330
102
102
}
330
102
100
AcDbXrecord
 10
0.0
 20
0.0
 30
0.0
  0
XRECORD
  5
115
102
{ACAD_REACTORS
330
102
102
}
330
102
100
AcDbXrecord
 10
0.0
 20
0.0
 30
0.0
  0
XRECORD
  5
118
102
{ACAD_REACTORS
330
102
102
}
330
102
100
AcDbXrecord
 10
0.0
 20
0.0
 30
0.0
  0
XRECORD
  5
116
102
{ACAD_REACTORS
330
102
102
}
330
102
100
AcDbXrecord
 10
0.0
 20
0.0
 30
0.0
  0
XRECORD
  5
117
102
{ACAD_REACTORS
330
102
102
}
330
102
100
AcDbXrecord
 10
0.0
 20
0.0
 30
0.0
  0
XRECORD
  5
114
102
{ACAD_REACTORS
330
102
102
}
330
102
100
AcDbXrecord
 10
0.0
 20
0.0
 30
0.0
  0
XRECORD
  5
111
102
{ACAD_REACTORS
330
102
102
}
330
102
100
AcDbXrecord
340
0
  0
XRECORD
  5
112
102
{ACAD_REACTORS
330
102
102
}
330
102
100
AcDbXrecord
 70
     0
  0
XRECORD
  5
106
102
{ACAD_REACTORS
330
102
102
}
330
102
100
AcDbXrecord
  1

  0
XRECORD
  5
103
102
{ACAD_REACTORS
330
102
102
}
330
102
100
AcDbXrecord
 90
        1
  0
XRECORD
  5
104
102
{ACAD_REACTORS
330
102
102
}
330
102
100
AcDbXrecord
 90
       70
  0
XRECORD
  5
11C
102
{ACAD_REACTORS
330
102
102
}
330
102
100
AcDbXrecord
340
0
  0
XRECORD
  5
122
102
{ACAD_REACTORS
330
102
102
}
330
102
100
AcDbXrecord
 10
0.0
 20
0.0
 30
0.0
  0
XRECORD
  5
11E
102
{ACAD_REACTORS
330
102
102
}
330
102
100
AcDbXrecord
 10
0.0
 20
0.0
 30
0.0
  0
XRECORD
  5
121
102
{ACAD_REACTORS
330
102
102
}
330
102
100
AcDbXrecord
 10
0.0
 20
0.0
 30
0.0
  0
XRECORD
  5
11F
102
{ACAD_REACTORS
330
102
102
}
330
102
100
AcDbXrecord
 10
0.0
 20
0.0
 30
0.0
  0
XRECORD
  5
120
102
{ACAD_REACTORS
330
102
102
}
330
102
100
AcDbXrecord
 10
0.0
 20
0.0
 30
0.0
  0
XRECORD
  5
11D
102
{ACAD_REACTORS
330
102
102
}
330
102
100
AcDbXrecord
 10
0.0
 20
0.0
 30
0.0
  0
XRECORD
  5
11A
102
{ACAD_REACTORS
330
102
102
}
330
102
100
AcDbXrecord
340
0
  0
XRECORD
  5
11B
102
{ACAD_REACTORS
330
102
102
}
330
102
100
AcDbXrecord
 70
     1
  0
XRECORD
  5
10E
102
{ACAD_REACTORS
330
102
102
}
330
102
100
AcDbXrecord
  1
{72A92975-00C0-42E9-A825-850400B810BD}
  0
DICTIONARYVAR
  5
68
102
{ACAD_REACTORS
330
66
102
}
330
66
100
DictionaryVariables
280
     0
  1
1
  0
DICTIONARYVAR
  5
67
102
{ACAD_REACTORS
330
66
102
}
330
66
100
DictionaryVariables
280
     0
  1
1
  0
XRECORD
  5
13
102
{ACAD_REACTORS
330
12
102
}
330
12
100
AcDbXrecord
  1
DIM-1_12
  1
DIM-1_12
  1
*
  1
*
 70
     0
  1
*
  1
*
  0
XRECORD
  5
14
102
{ACAD_REACTORS
330
12
102
}
330
12
100
AcDbXrecord
  1
dim-1_16
  1
*
  1
*
  1
*
 70
     0
  1
*
  1
*
  0
ENDSEC
  0
EOF
