  0
SECTION
  2
HEADER
  9
$ACADVER
  1
AC1014
  9
$ACADMAINTVER
 70
     9
  9
$DWGCODEPAGE
  3
ANSI_1252
  9
$INSBASE
 10
-9.991912272591648
 20
-8.652972315672858
 30
0.0
  9
$EXTMIN
 10
-43.23453538071317
 20
-10.7503335386097
 30
-1.082809321517763
  9
$EXTMAX
 10
23.25096641548321
 20
13.20120450170651
 30
1.082809341684813
  9
$LIMMIN
 10
0.0
 20
0.0
  9
$LIMMAX
 10
187.3118571637889
 20
134.3269220688476
  9
$ORTHOMODE
 70
     1
  9
$REGENMODE
 70
     1
  9
$FILLMODE
 70
     1
  9
$QTEXTMODE
 70
     0
  9
$MIRRTEXT
 70
     1
  9
$DRAGMODE
 70
     2
  9
$LTSCALE
 40
2.0
  9
$OSMODE
 70
    55
  9
$ATTMODE
 70
     1
  9
$TEXTSIZE
 40
0.08
  9
$TRACEWID
 40
1.0
  9
$TEXTSTYLE
  7
CARTOUCHE
  9
$CLAYER
  8
0
  9
$CELTYPE
  6
BYLAYER
  9
$CECOLOR
 62
   256
  9
$CELTSCALE
 40
1.0
  9
$DELOBJ
 70
     1
  9
$DISPSILH
 70
     0
  9
$DIMSCALE
 40
16.0
  9
$DIMASZ
 40
0.1
  9
$DIMEXO
 40
0.0625
  9
$DIMDLI
 40
0.25
  9
$DIMRND
 40
0.0
  9
$DIMDLE
 40
0.0
  9
$DIMEXE
 40
0.1
  9
$DIMTP
 40
0.0
  9
$DIMTM
 40
0.0
  9
$DIMTXT
 40
0.1
  9
$DIMCEN
 40
0.09
  9
$DIMTSZ
 40
0.0
  9
$DIMTOL
 70
     0
  9
$DIMLIM
 70
     0
  9
$DIMTIH
 70
     1
  9
$DIMTOH
 70
     1
  9
$DIMSE1
 70
     0
  9
$DIMSE2
 70
     0
  9
$DIMTAD
 70
     0
  9
$DIMZIN
 70
     4
  9
$DIMBLK
  1

  9
$DIMASO
 70
     1
  9
$DIMSHO
 70
     1
  9
$DIMPOST
  1
\X
  9
$DIMAPOST
  1
cm
  9
$DIMALT
 70
     1
  9
$DIMALTD
 70
     1
  9
$DIMALTF
 40
2.54
  9
$DIMLFAC
 40
1.0
  9
$DIMTOFL
 70
     0
  9
$DIMTVP
 40
0.0
  9
$DIMTIX
 70
     0
  9
$DIMSOXD
 70
     0
  9
$DIMSAH
 70
     0
  9
$DIMBLK1
  1

  9
$DIMBLK2
  1

  9
$DIMSTYLE
  2
STANDARD
  9
$DIMCLRD
 70
     0
  9
$DIMCLRE
 70
     0
  9
$DIMCLRT
 70
     0
  9
$DIMTFAC
 40
1.0
  9
$DIMGAP
 40
0.08
  9
$DIMJUST
 70
     0
  9
$DIMSD1
 70
     0
  9
$DIMSD2
 70
     0
  9
$DIMTOLJ
 70
     1
  9
$DIMTZIN
 70
     4
  9
$DIMALTZ
 70
     4
  9
$DIMALTTZ
 70
     4
  9
$DIMFIT
 70
     1
  9
$DIMUPT
 70
     0
  9
$DIMUNIT
 70
     5
  9
$DIMDEC
 70
     3
  9
$DIMTDEC
 70
     3
  9
$DIMALTU
 70
     2
  9
$DIMALTTD
 70
     1
  9
$DIMTXSTY
  7
ROMANS
  9
$DIMAUNIT
 70
     0
  9
$LUNITS
 70
     2
  9
$LUPREC
 70
     2
  9
$SKETCHINC
 40
1.0
  9
$FILLETRAD
 40
2.0
  9
$AUNITS
 70
     0
  9
$AUPREC
 70
     0
  9
$MENU
  1
.
  9
$ELEVATION
 40
0.0
  9
$PELEVATION
 40
0.0
  9
$THICKNESS
 40
0.0
  9
$LIMCHECK
 70
     0
  9
$BLIPMODE
 70
     0
  9
$CHAMFERA
 40
0.0
  9
$CHAMFERB
 40
0.0
  9
$CHAMFERC
 40
20.0
  9
$CHAMFERD
 40
0.0
  9
$SKPOLY
 70
     0
  9
$TDCREATE
 40
2452072.673626736
  9
$TDUPDATE
 40
2453690.419349560
  9
$TDINDWG
 40
0.9243119329
  9
$TDUSRTIMER
 40
0.9243024421
  9
$USRTIMER
 70
     1
  9
$ANGBASE
 50
0.0
  9
$ANGDIR
 70
     0
  9
$PDMODE
 70
    33
  9
$PDSIZE
 40
0.25
  9
$PLINEWID
 40
0.0
  9
$COORDS
 70
     1
  9
$SPLFRAME
 70
     0
  9
$SPLINETYPE
 70
     6
  9
$SPLINESEGS
 70
     8
  9
$ATTDIA
 70
     0
  9
$ATTREQ
 70
     1
  9
$HANDLING
 70
 22529
  9
$HANDSEED
  5
340
  9
$SURFTAB1
 70
     6
  9
$SURFTAB2
 70
     6
  9
$SURFTYPE
 70
     6
  9
$SURFU
 70
     6
  9
$SURFV
 70
     6
  9
$UCSNAME
  2

  9
$UCSORG
 10
62.86525627826465
 20
-3.044708510329144
 30
0.0
  9
$UCSXDIR
 10
1.0
 20
0.0
 30
0.0
  9
$UCSYDIR
 10
0.0
 20
1.0
 30
0.0
  9
$PUCSNAME
  2

  9
$PUCSORG
 10
0.0
 20
0.0
 30
0.0
  9
$PUCSXDIR
 10
1.0
 20
0.0
 30
0.0
  9
$PUCSYDIR
 10
0.0
 20
1.0
 30
0.0
  9
$USERI1
 70
     0
  9
$USERI2
 70
     0
  9
$USERI3
 70
     0
  9
$USERI4
 70
     0
  9
$USERI5
 70
     0
  9
$USERR1
 40
0.0
  9
$USERR2
 40
0.0
  9
$USERR3
 40
0.0
  9
$USERR4
 40
0.0
  9
$USERR5
 40
0.0
  9
$WORLDVIEW
 70
     1
  9
$SHADEDGE
 70
     3
  9
$SHADEDIF
 70
    70
  9
$TILEMODE
 70
     1
  9
$MAXACTVP
 70
    48
  9
$PINSBASE
 10
0.0
 20
0.0
 30
0.0
  9
$PLIMCHECK
 70
     0
  9
$PEXTMIN
 10
0.0
 20
0.0
 30
0.0
  9
$PEXTMAX
 10
0.0
 20
0.0
 30
0.0
  9
$PLIMMIN
 10
0.0
 20
0.0
  9
$PLIMMAX
 10
12.0
 20
9.0
  9
$UNITMODE
 70
     0
  9
$VISRETAIN
 70
     1
  9
$PLINEGEN
 70
     0
  9
$PSLTSCALE
 70
     1
  9
$TREEDEPTH
 70
  3020
  9
$PICKSTYLE
 70
     1
  9
$CMLSTYLE
  2
STANDARD
  9
$CMLJUST
 70
     0
  9
$CMLSCALE
 40
20.0
  9
$PROXYGRAPHICS
 70
     1
  9
$MEASUREMENT
 70
     0
  0
ENDSEC
  0
SECTION
  2
CLASSES
  0
CLASS
  1
ACDBDICTIONARYWDFLT
  2
AcDbDictionaryWithDefault
  3
AutoCAD 2000
 90
        0
280
     0
281
     0
  0
CLASS
  1
ACDBPLACEHOLDER
  2
AcDbPlaceHolder
  3
AutoCAD 2000
 90
        0
280
     0
281
     0
  0
CLASS
  1
LAYOUT
  2
AcDbLayout
  3
AutoCAD 2000
 90
        0
280
     0
281
     0
  0
CLASS
  1
DICTIONARYVAR
  2
AcDbDictionaryVar
  3
AutoCAD 2000
 90
        0
280
     0
281
     0
  0
CLASS
  1
IMAGEDEF
  2
AcDbRasterImageDef
  3
ISM
 90
        0
280
     0
281
     0
  0
CLASS
  1
LONG_TRANSACTION
  2
AcDbLongTransaction
  3
AutoCAD 2000
 90
        0
280
     0
281
     0
  0
CLASS
  1
LWPOLYLINE
  2
AcDbPolyline
  3
AutoCAD 2000
 90
        0
280
     0
281
     1
  0
CLASS
  1
HATCH
  2
AcDbHatch
  3
AutoCAD 2000
 90
        0
280
     0
281
     1
  0
CLASS
  1
XRECORD
  2
AcDbXrecord
  3
AutoCAD 2000
 90
        0
280
     0
281
     0
  0
CLASS
  1
LONG_TRANSACTION
  2
AcDbLongTransaction
  3
AutoCAD 2000
 90
        0
280
     0
281
     0
  0
CLASS
  1
LWPOLYLINE
  2
AcDbPolyline
  3
AutoCAD 2000
 90
        0
280
     0
281
     1
  0
CLASS
  1
HATCH
  2
AcDbHatch
  3
AutoCAD 2000
 90
        0
280
     0
281
     1
  0
CLASS
  1
XRECORD
  2
AcDbXrecord
  3
AutoCAD 2000
 90
        0
280
     0
281
     0
  0
CLASS
  1
LONG_TRANSACTION
  2
AcDbLongTransaction
  3
AutoCAD 2000
 90
        0
280
     0
281
     0
  0
CLASS
  1
LWPOLYLINE
  2
AcDbPolyline
  3
AutoCAD 2000
 90
        0
280
     0
281
     1
  0
CLASS
  1
HATCH
  2
AcDbHatch
  3
AutoCAD 2000
 90
        0
280
     0
281
     1
  0
CLASS
  1
XRECORD
  2
AcDbXrecord
  3
AutoCAD 2000
 90
        0
280
     0
281
     0
  0
ENDSEC
  0
SECTION
  2
TABLES
  0
TABLE
  2
VPORT
  5
1D
330
0
100
AcDbSymbolTable
 70
     4
  0
VPORT
  5
31C
330
1D
100
AcDbSymbolTableRecord
100
AcDbViewportTableRecord
  2
*ACTIVE
 70
     0
 10
0.0
 20
0.0
 11
1.0
 21
1.0
 12
-9.991784612251166
 22
1.225435402555142
 13
0.0
 23
0.0
 14
10.0
 24
10.0
 15
10.0
 25
10.0
 16
0.0
 26
0.0
 36
1.0
 17
0.0
 27
0.0
 37
0.0
 40
46.05700842614204
 41
1.786792452830188
 42
50.0
 43
0.0
 44
0.0
 50
0.0
 51
0.0
 71
     0
 72
   100
 73
     1
 74
     3
 75
     0
 76
     0
 77
     0
 78
     2
  0
ENDTAB
  0
TABLE
  2
LTYPE
  5
18
330
0
100
AcDbSymbolTable
 70
     3
  0
LTYPE
  5
19
330
18
100
AcDbSymbolTableRecord
100
AcDbLinetypeTableRecord
  2
BYBLOCK
 70
     0
  3

 72
    65
 73
     0
 40
0.0
  0
LTYPE
  5
1A
330
18
100
AcDbSymbolTableRecord
100
AcDbLinetypeTableRecord
  2
BYLAYER
 70
     0
  3

 72
    65
 73
     0
 40
0.0
  0
LTYPE
  5
8
330
18
100
AcDbSymbolTableRecord
100
AcDbLinetypeTableRecord
  2
CONTINUOUS
 70
     0
  3
Solid line
 72
    65
 73
     0
 40
0.0
  0
LTYPE
  5
1C4
330
18
100
AcDbSymbolTableRecord
100
AcDbLinetypeTableRecord
  2
CENTER
 70
     0
  3
Center ____ _ ____ _ ____ _ ____ _ ____ _ ____
 72
    65
 73
     4
 40
50.8
 49
31.75
 74
     0
 49
-6.349999999999999
 74
     0
 49
6.349999999999999
 74
     0
 49
-6.349999999999999
 74
     0
  0
LTYPE
  5
F0
330
18
100
AcDbSymbolTableRecord
100
AcDbLinetypeTableRecord
  2
HIDDEN
 70
     0
  3
Hidden __ __ __ __ __ __ __ __ __ __ __ __ __ _
 72
    65
 73
     2
 40
9.524999999999998
 49
6.349999999999999
 74
     0
 49
-3.174999999999999
 74
     0
  0
ENDTAB
  0
TABLE
  2
LAYER
  5
10
102
{ACAD_XDICTIONARY
360
11
102
}
330
0
100
AcDbSymbolTable
 70
     3
  0
LAYER
  5
4
330
10
100
AcDbSymbolTableRecord
100
AcDbLayerTableRecord
  2
0
 70
     0
 62
     7
  6
CONTINUOUS
  0
LAYER
  5
1C3
330
10
100
AcDbSymbolTableRecord
100
AcDbLayerTableRecord
  2
CENTER
 70
     0
 62
     1
  6
CENTER
  0
LAYER
  5
28B
330
10
100
AcDbSymbolTableRecord
100
AcDbLayerTableRecord
  2
DEFPOINTS
 70
     0
 62
     7
  6
CONTINUOUS
  0
ENDTAB
  0
TABLE
  2
STYLE
  5
15
330
0
100
AcDbSymbolTable
 70
     3
  0
STYLE
  5
16
330
15
100
AcDbSymbolTableRecord
100
AcDbTextStyleTableRecord
  2
STANDARD
 70
     0
 40
0.0
 41
1.0
 50
0.0
 71
     0
 42
0.125
  3
txt
  4

  0
STYLE
  5
2A
330
15
100
AcDbSymbolTableRecord
100
AcDbTextStyleTableRecord
  2
CARTOUCHE
 70
     0
 40
0.0
 41
1.0
 50
0.0
 71
     0
 42
0.08
  3
romans.shx
  4

  0
STYLE
  5
23
330
15
100
AcDbSymbolTableRecord
100
AcDbTextStyleTableRecord
  2
ROMANS
 70
     0
 40
0.0
 41
1.0
 50
0.0
 71
     0
 42
1.0
  3
romans.shx
  4

  0
ENDTAB
  0
TABLE
  2
VIEW
  5
1B
330
0
100
AcDbSymbolTable
 70
     0
  0
ENDTAB
  0
TABLE
  2
UCS
  5
1C
330
0
100
AcDbSymbolTable
 70
     0
  0
ENDTAB
  0
TABLE
  2
APPID
  5
1F
330
0
100
AcDbSymbolTable
 70
     1
  0
APPID
  5
20
330
1F
100
AcDbSymbolTableRecord
100
AcDbRegAppTableRecord
  2
ACAD
 70
     0
  0
ENDTAB
  0
TABLE
  2
DIMSTYLE
  5
21
330
0
100
AcDbSymbolTable
 70
     1
  0
DIMSTYLE
105
22
330
21
100
AcDbSymbolTableRecord
100
AcDbDimStyleTableRecord
  2
STANDARD
 70
     0
  3
\X
  4
cm
  5

  6

  7

 40
16.0
 41
0.1
 42
0.0625
 43
0.25
 44
0.1
 45
0.0
 46
0.0
 47
0.0
 48
0.0
140
0.1
141
0.09
142
0.0
143
2.54
144
1.0
145
0.0
146
1.0
147
0.08
 71
     0
 72
     0
 73
     1
 74
     1
 75
     0
 76
     0
 77
     0
 78
     4
170
     1
171
     1
172
     0
173
     0
174
     0
175
     0
176
     0
177
     0
178
     0
270
     5
271
     3
272
     3
273
     2
274
     1
340
23
275
     0
280
     0
281
     0
282
     0
283
     1
284
     4
285
     4
286
     4
287
     1
288
     0
  0
ENDTAB
  0
TABLE
  2
BLOCK_RECORD
  5
1
330
0
100
AcDbSymbolTable
 70
     1
  0
BLOCK_RECORD
  5
2
102
{ACAD_XDICTIONARY
360
1F8
102
}
330
1
100
AcDbSymbolTableRecord
100
AcDbBlockTableRecord
  2
*MODEL_SPACE
  0
BLOCK_RECORD
  5
1ED
102
{ACAD_XDICTIONARY
360
1FA
102
}
330
1
100
AcDbSymbolTableRecord
100
AcDbBlockTableRecord
  2
*PAPER_SPACE
  0
ENDTAB
  0
ENDSEC
  0
SECTION
  2
BLOCKS
  0
BLOCK
  5
3
330
2
100
AcDbEntity
  8
0
100
AcDbBlockBegin
  2
*MODEL_SPACE
 70
     0
 10
0.0
 20
0.0
 30
0.0
  3
*MODEL_SPACE
  1

  0
ENDBLK
  5
9
330
2
100
AcDbEntity
  8
0
100
AcDbBlockEnd
  0
BLOCK
  5
1EF
330
1ED
100
AcDbEntity
 67
     1
  8
0
100
AcDbBlockBegin
  2
*PAPER_SPACE
 70
     0
 10
0.0
 20
0.0
 30
0.0
  3
*PAPER_SPACE
  1

  0
ENDBLK
  5
1F0
330
1ED
100
AcDbEntity
 67
     1
  8
0
100
AcDbBlockEnd
  0
ENDSEC
  0
SECTION
  2
ENTITIES
  0
LINE
  5
E6
330
2
100
AcDbEntity
  8
0
 48
0.1
100
AcDbLine
 10
-9.991912272591633
 20
11.34702768432714
 30
1.082677164828
 11
-9.991912272591633
 21
11.34702768432714
 31
-1.082677164828
210
0.0
220
1.0
230
-0.0000000000000002
  0
LINE
  5
E9
330
2
100
AcDbEntity
  8
0
 48
0.1
100
AcDbLine
 10
-42.61691227259165
 20
11.34702768432714
 30
0.0
 11
22.63308772740833
 21
11.34702768432714
 31
0.0
  0
SPLINE
  5
EA
330
2
100
AcDbEntity
  8
0
 48
0.1
100
AcDbSpline
210
0.0
220
0.0
230
1.0
 70
     8
 71
     3
 72
    10
 73
     6
 74
     4
 42
0.0000000001
 43
0.0000000001
 44
0.0000000001
 40
0.0
 40
0.0
 40
0.0
 40
0.0
 40
11.66586697719552
 40
15.1221158265038
 40
15.212561067889
 40
15.212561067889
 40
15.212561067889
 40
15.212561067889
 10
-22.74873649042756
 20
11.34702768432714
 30
0.0
 10
-26.64411899148165
 20
11.47855849643677
 30
0.0
 10
-31.69358728086182
 20
11.64905796976045
 30
0.0
 10
-36.66916949903725
 20
12.81133916844552
 30
0.0
 10
-37.85101322207261
 20
12.84614021311999
 30
0.0
 10
-37.88115175053775
 20
12.84702768432713
 30
0.0
 11
-22.74873649042756
 21
11.34702768432714
 31
0.0
 11
-34.37330746455714
 21
12.327742728081
 31
0.0
 11
-37.79075035774454
 21
12.84421168179235
 31
0.0
 11
-37.88115175053775
 21
12.84702768432713
 31
0.0
  0
LINE
  5
EB
330
2
100
AcDbEntity
  8
0
 48
0.1
100
AcDbLine
 10
-33.32092460556018
 20
0.8117787064678054
 30
0.0
 11
-35.74191227259162
 21
9.847027684327141
 31
0.0
  0
LINE
  5
EC
330
2
100
AcDbEntity
  8
0
 48
0.1
100
AcDbLine
 10
-43.11691227259164
 20
9.847027684327144
 30
0.0
 11
23.13308772740833
 21
9.847027684327144
 31
0.0
  0
ARC
  5
ED
330
2
100
AcDbEntity
  8
0
 48
0.1
100
AcDbCircle
 10
-42.61691227259165
 20
10.84702768432714
 30
0.0
 40
0.5
100
AcDbArc
 50
90.0
 51
180.0
  0
LINE
  5
EE
330
2
100
AcDbEntity
  8
0
 48
0.1
100
AcDbLine
 10
-43.11691227259164
 20
9.847027684327144
 30
0.0
 11
-43.11691227259164
 21
10.84702768432714
 31
0.0
  0
ARC
  5
EF
330
2
100
AcDbEntity
  8
0
  6
HIDDEN
 48
23.0
100
AcDbCircle
 10
-37.94672566065342
 20
11.01499069433002
 30
0.0
 40
1.833210154457356
100
AcDbArc
 50
10.43519305375028
 51
87.95009320300721
  0
ARC
  5
F1
330
2
100
AcDbEntity
  8
0
 48
0.1
100
AcDbCircle
 10
-37.94287472235009
 20
11.01945089135199
 30
0.0
 40
1.828618784621517
100
AcDbArc
 50
88.06567793775878
 51
169.680391681002
  0
LINE
  5
F2
330
2
100
AcDbEntity
  8
0
  6
HIDDEN
 48
23.0
100
AcDbLine
 10
-36.1438360612383
 20
11.34702768432714
 30
0.0
 11
-35.74191227259162
 21
9.847027684327144
 31
0.0
  0
ARC
  5
F3
330
2
100
AcDbEntity
  8
0
 48
0.1
100
AcDbCircle
 10
6.692546613115368
 20
-7.652972315672858
 30
0.0
 40
1.0
100
AcDbArc
 50
270.0
 51
347.922609723465
  0
LINE
  5
F4
330
2
100
AcDbEntity
  8
0
 48
0.1
100
AcDbLine
 10
8.792627903107671
 20
-7.325086947259311
 30
0.0
 11
-9.991912272591662
 21
-7.652972315672858
 31
0.0
  0
ARC
  5
F5
330
2
100
AcDbEntity
  8
0
 48
0.1
100
AcDbCircle
 10
-16.32211714008056
 20
-388.5092667237193
 30
0.0
 40
390.4491587643617
100
AcDbArc
 50
85.643513501479
 51
88.75034963898981
  0
SPLINE
  5
F6
330
2
100
AcDbEntity
  8
0
 48
0.1
100
AcDbSpline
210
0.0
220
0.0
230
1.0
 70
     8
 71
     3
 72
    10
 73
     6
 74
     4
 42
0.0000000001
 43
0.0000000001
 44
0.0000000001
 40
0.0
 40
0.0
 40
0.0
 40
0.0
 40
11.66586697719552
 40
15.1221158265038
 40
15.212561067889
 40
15.212561067889
 40
15.212561067889
 40
15.212561067889
 10
2.764911945244278
 20
11.34702768432714
 30
0.0
 10
6.660294446298365
 20
11.47855849643677
 30
0.0
 10
11.70976273567852
 20
11.64905796976045
 30
0.0
 10
16.68534495385398
 20
12.81133916844552
 30
0.0
 10
17.86718867688932
 20
12.84614021311999
 30
0.0
 10
17.89732720535447
 20
12.84702768432713
 30
0.0
 11
2.764911945244278
 21
11.34702768432714
 31
0.0
 11
14.38948291937386
 21
12.327742728081
 31
0.0
 11
17.80692581256126
 21
12.84421168179235
 31
0.0
 11
17.89732720535447
 21
12.84702768432713
 31
0.0
  0
LINE
  5
1B1
330
2
100
AcDbEntity
  8
0
 48
0.1
100
AcDbLine
 10
-28.77645244829096
 20
-7.325086947259318
 30
0.0
 11
-9.991912272591633
 21
-7.652972315672858
 31
0.0
  0
LINE
  5
1B2
330
2
100
AcDbEntity
  8
0
 48
0.1
100
AcDbLine
 10
-9.991912272591648
 20
-8.652972315672858
 30
0.0
 11
-26.67637115829866
 21
-8.652972315672858
 31
0.0
  0
ARC
  5
1B3
330
2
100
AcDbEntity
  8
0
 48
0.1
100
AcDbCircle
 10
-3.661707405102731
 20
-388.5092667237193
 30
0.0
 40
390.4491587643617
100
AcDbArc
 50
91.24965036101016
 51
94.35648649852101
  0
LINE
  5
1B4
330
2
100
AcDbEntity
  8
0
  6
HIDDEN
 62
     8
 48
0.05
100
AcDbLine
 10
0.0
 20
9.472027684327144
 30
0.0
 11
-19.98382454518333
 21
9.472027684327144
 31
0.0
  0
LINE
  5
1B5
330
2
100
AcDbEntity
  8
0
  6
HIDDEN
 62
     8
 48
0.05
100
AcDbLine
 10
-19.98382454518332
 20
10.59702768432714
 30
0.0
 11
0.0
 21
10.59702768432714
 31
0.0
  0
LINE
  5
1B6
330
2
100
AcDbEntity
  8
0
 48
0.1
100
AcDbLine
 10
-14.92334253883099
 20
1.777449875644947
 30
0.0
 11
-13.98291072704596
 21
-7.583309178521943
 31
0.0
  0
ARC
  5
1B7
330
2
100
AcDbEntity
  8
0
 48
0.1
100
AcDbCircle
 10
-54.89600523014637
 20
-6.75833582745067
 30
0.0
 40
23.28492877757009
100
AcDbArc
 50
5.389381274031038
 51
13.80980595504548
  0
ARC
  5
1B8
330
2
100
AcDbEntity
  8
0
 48
0.1
100
AcDbCircle
 10
-28.72409522897912
 20
-4.325543861790141
 30
0.0
 40
3.0
100
AcDbArc
 50
184.699375064469
 51
268.9999999999998
  0
ARC
  5
1B9
330
2
100
AcDbEntity
  8
0
 48
0.1
100
AcDbCircle
 10
-26.67637115829866
 20
-7.652972315672858
 30
0.0
 40
1.0
100
AcDbArc
 50
192.0773902765354
 51
270.0
  0
LINE
  5
1BA
330
2
100
AcDbEntity
  8
0
 48
0.1
100
AcDbLine
 10
-27.65423703736898
 20
-7.862205015196757
 30
0.0
 11
-27.76538733272299
 21
-7.342735154498207
 31
0.0
  0
ARC
  5
1BB
330
2
100
AcDbEntity
  8
0
 48
0.1
100
AcDbCircle
 10
-36.41519615099419
 20
-2.055776080127129
 30
0.0
 40
4.218694922722673
100
AcDbArc
 50
11.70065328997915
 51
42.82220138404833
  0
LINE
  5
1BC
330
2
100
AcDbEntity
  8
0
 48
0.1
100
AcDbLine
 10
-15.97626687438456
 20
9.847027684327137
 30
0.0
 11
-15.45028452254511
 21
3.079622692314355
 31
0.0
  0
ARC
  5
1BD
330
2
100
AcDbEntity
  8
0
 48
0.1
100
AcDbCircle
 10
-14.14937330394001
 20
3.137676517008134
 30
0.0
 40
1.302205915074203
100
AcDbArc
 50
182.5551580530953
 51
277.6391251337501
  0
LINE
  5
1BE
330
2
100
AcDbEntity
  8
0
  6
HIDDEN
 62
     8
 48
0.05
100
AcDbLine
 10
-19.98382454518333
 20
9.472027684327144
 30
0.0
 11
-19.98382454518333
 21
10.59702768432714
 31
0.0
  0
LINE
  5
1BF
330
2
100
AcDbEntity
  8
0
  6
HIDDEN
 62
     8
 48
0.05
100
AcDbLine
 10
-17.48382454518331
 20
10.59702768432714
 30
0.0
 11
-17.48382454518331
 21
9.472027684327144
 31
0.0
  0
LINE
  5
1C0
330
2
100
AcDbEntity
  8
0
 48
0.1
100
AcDbLine
 10
-5.060482006352302
 20
1.777449875644947
 30
0.0
 11
-6.000913818137334
 21
-7.583309178521943
 31
0.0
  0
LINE
  5
1C1
330
2
100
AcDbEntity
  8
0
 48
0.1
100
AcDbLine
 10
-9.991912272591648
 20
-8.652972315672858
 30
0.0
 11
6.692546613115368
 21
-8.652972315672858
 31
0.0
  0
LINE
  5
1C2
330
2
100
AcDbEntity
  8
CENTER
 48
0.05
100
AcDbLine
 10
-9.991912272591648
 20
-10.74147980646656
 30
0.0
 11
-9.991912272591648
 21
-5.483331902936971
 31
0.0
  0
ARC
  5
1C5
330
2
100
AcDbEntity
  8
0
 48
0.1
100
AcDbCircle
 10
-8.720465663184924
 20
-7.862405854701766
 30
0.0
 40
0.25
100
AcDbArc
 50
270.0
 51
314.9999999999999
  0
ARC
  5
1C6
330
2
100
AcDbEntity
  8
0
 48
0.1
100
AcDbCircle
 10
-11.26335888199837
 20
-7.862405854701766
 30
0.0
 40
0.25
100
AcDbArc
 50
225.0
 51
270.0
  0
ARC
  5
1C7
330
2
100
AcDbEntity
  8
0
 48
0.1
100
AcDbCircle
 10
-12.06372734115835
 20
-8.122697567321626
 30
0.0
 40
0.5
100
AcDbArc
 50
45.00000000000135
 51
69.95947944193142
  0
LINE
  5
1C8
330
2
100
AcDbEntity
  8
0
 48
0.1
100
AcDbLine
 10
-11.440135577295
 20
-8.039182549998404
 30
0.0
 11
-11.71017395056507
 21
-7.76914417672835
 31
0.0
  0
LINE
  5
1C9
330
2
100
AcDbEntity
  8
0
 48
0.1
100
AcDbLine
 10
-11.440135577295
 20
-8.039182549998404
 30
0.0
 11
-11.71017395056507
 21
-7.769144176728335
 31
0.0
  0
ARC
  5
1CA
330
2
100
AcDbEntity
  8
0
 48
0.1
100
AcDbCircle
 10
-13.70655528075467
 20
-7.652972315672858
 30
0.0
 40
1.0
100
AcDbArc
 50
270.0
 51
347.9226097234645
  0
LINE
  5
1CB
330
2
100
AcDbEntity
  8
0
 48
0.1
100
AcDbLine
 10
-12.72868940168434
 20
-7.862205015196757
 30
0.0
 11
-12.68392015112856
 21
-7.652972315672858
 31
0.0
  0
LINE
  5
1CC
330
2
100
AcDbEntity
  8
0
 48
0.1
100
AcDbLine
 10
-8.688683226684915
 20
-8.110377378732497
 30
0.0
 11
-8.688683226684915
 21
-8.110377378732497
 31
0.0
  0
LINE
  5
1CD
330
2
100
AcDbEntity
  8
0
 48
0.1
100
AcDbLine
 10
-11.26335888199837
 20
-8.112405854701766
 30
0.0
 11
-8.720465663184924
 21
-8.112405854701766
 31
0.0
  0
LINE
  5
1CE
330
2
100
AcDbEntity
  8
0
 48
0.1
100
AcDbLine
 10
-8.720465663184924
 20
-8.112405854701766
 30
0.0
 11
-11.26335888199837
 21
-8.112405854701766
 31
0.0
  0
LINE
  5
1CF
330
2
100
AcDbEntity
  8
0
 48
0.1
100
AcDbLine
 10
-8.543688967888286
 20
-8.039182549998404
 30
0.0
 11
-8.273650594618217
 21
-7.76914417672835
 31
0.0
  0
ARC
  5
1D0
330
2
100
AcDbEntity
  8
0
 48
0.1
100
AcDbCircle
 10
-7.920097204024941
 20
-8.122697567321626
 30
0.0
 40
0.5
100
AcDbArc
 50
109.6746738800378
 51
134.9999999999986
  0
ARC
  5
1D1
330
2
100
AcDbEntity
  8
0
 48
0.1
100
AcDbCircle
 10
-6.277269264428625
 20
-7.652972315672858
 30
0.0
 40
1.0
100
AcDbArc
 50
192.0773902765354
 51
270.0
  0
LINE
  5
1D2
330
2
100
AcDbEntity
  8
0
 48
0.1
100
AcDbLine
 10
-7.255135143498947
 20
-7.862205015196757
 30
0.0
 11
-7.299904394054735
 21
-7.652972315672858
 31
0.0
  0
LINE
  5
1D3
330
2
100
AcDbEntity
  8
0
 48
0.1
100
AcDbLine
 10
-4.007557670798732
 20
9.847027684327137
 30
0.0
 11
-4.533540022638177
 21
3.079622692314355
 31
0.0
  0
LINE
  5
1D4
330
2
100
AcDbEntity
  8
CENTER
 48
0.05
100
AcDbLine
 10
-9.991912272591648
 20
5.151028611037931
 30
0.0
 11
-9.991912272591648
 21
10.66802675761635
 31
0.0
  0
ARC
  5
1D5
330
2
100
AcDbEntity
  8
0
 48
0.1
100
AcDbCircle
 10
-5.834451241243286
 20
3.137676517008134
 30
0.0
 40
1.302205915074203
100
AcDbArc
 50
262.3608748662498
 51
357.4448419469046
  0
LINE
  5
1D6
330
2
100
AcDbEntity
  8
0
 48
0.1
100
AcDbLine
 10
-12.74781778408863
 20
11.34702768432714
 30
-0.0000000000000003
 11
-7.236006761094635
 21
11.34702768432714
 31
0.0000000000000003
210
0.0
220
1.0
230
-0.0000000000000002
  0
LINE
  5
1D7
330
2
100
AcDbEntity
  8
CENTER
 48
0.05
100
AcDbLine
 10
-12.71288692366477
 20
7.909527684327144
 30
0.0
 11
-7.27093762151852
 21
7.909527684327144
 31
0.0
  0
CIRCLE
  5
1D8
330
2
100
AcDbEntity
  8
0
 48
0.1
100
AcDbCircle
 10
-9.991912272591648
 20
7.909527684327144
 30
0.0
 40
1.1875
  0
LINE
  5
1D9
330
2
100
AcDbEntity
  8
0
  6
HIDDEN
 62
     8
 48
0.05
100
AcDbLine
 10
0.0
 20
10.59702768432714
 30
0.0
 11
0.0
 21
9.472027684327144
 31
0.0
  0
LINE
  5
1DA
330
2
100
AcDbEntity
  8
0
  6
HIDDEN
 62
     8
 48
0.05
100
AcDbLine
 10
-2.5
 20
10.59702768432714
 30
0.0
 11
-2.5
 21
9.472027684327144
 31
0.0
  0
ARC
  5
1DB
330
2
100
AcDbEntity
  8
0
 48
0.1
100
AcDbCircle
 10
34.91218068496306
 20
-6.758335827450739
 30
0.0
 40
23.2849287775701
100
AcDbArc
 50
166.1901940449543
 51
174.6106187259687
  0
ARC
  5
1DC
330
2
100
AcDbEntity
  8
0
 48
0.1
100
AcDbCircle
 10
8.740270683795827
 20
-4.325543861790141
 30
0.0
 40
3.0
100
AcDbArc
 50
271.0000000000001
 51
355.3006249355309
  0
LINE
  5
1DD
330
2
100
AcDbEntity
  8
0
 48
0.1
100
AcDbLine
 10
7.67041249218569
 20
-7.862205015196757
 30
0.0
 11
7.781562787539684
 21
-7.34273515449821
 31
0.0
  0
ARC
  5
1DE
330
2
100
AcDbEntity
  8
0
  6
HIDDEN
 48
23.0
100
AcDbCircle
 10
17.95905017716681
 20
11.01945089135199
 30
0.0
 40
1.828618784621517
100
AcDbArc
 50
91.93432206224123
 51
169.680391681002
  0
LINE
  5
1DF
330
2
100
AcDbEntity
  8
0
 48
0.1
100
AcDbLine
 10
13.33710006037688
 20
0.8117787064678054
 30
0.0
 11
15.75808772740832
 21
9.847027684327141
 31
0.0
  0
LINE
  5
1E0
330
2
100
AcDbEntity
  8
0
 48
0.1
100
AcDbLine
 10
15.75808772740836
 20
9.847027684327137
 30
0.0
 11
14.15039257282163
 21
3.847027684327137
 31
0.0
  0
ARC
  5
1E1
330
2
100
AcDbEntity
  8
0
 48
0.1
100
AcDbCircle
 10
16.43137160581089
 20
-2.055776080127129
 30
0.0
 40
4.218694922722673
100
AcDbArc
 50
137.1777986159516
 51
168.2993467100208
  0
LINE
  5
1E2
330
2
100
AcDbEntity
  8
0
  6
HIDDEN
 48
23.0
100
AcDbLine
 10
16.16001151605506
 20
11.34702768432714
 30
0.0
 11
15.75808772740836
 21
9.847027684327137
 31
0.0
  0
ARC
  5
1E3
330
2
100
AcDbEntity
  8
0
 48
0.1
100
AcDbCircle
 10
22.63308772740833
 20
10.84702768432714
 30
0.0
 40
0.5
100
AcDbArc
 50
0.0
 51
90.0
  0
ARC
  5
1E4
330
2
100
AcDbEntity
  8
0
 48
0.1
100
AcDbCircle
 10
17.95905017716681
 20
11.01945089135199
 30
0.0
 40
1.828618784621517
100
AcDbArc
 50
10.31960831899794
 51
91.93432206224123
  0
LINE
  5
1E5
330
2
100
AcDbEntity
  8
0
 48
0.1
100
AcDbLine
 10
23.13308772740833
 20
9.847027684327144
 30
0.0
 11
23.13308772740833
 21
10.84702768432714
 31
0.0
  0
ENDSEC
  0
SECTION
  2
OBJECTS
  0
DICTIONARY
  5
7
330
0
100
AcDbDictionary
  3
ACAD_GROUP
350
27
  3
ACAD_LAYOUT
350
B
  3
ACAD_MLINESTYLE
350
28
  3
ACAD_PLOTSETTINGS
350
29
  3
ACAD_PLOTSTYLENAME
350
6
  3
ACDBHEADERROUNDTRIPXREC
350
31D
  3
ACDBVARIABLEDICTIONARY
350
1E6
  0
DICTIONARY
  5
11
330
10
100
AcDbDictionary
280
     1
  3
ACAD_LAYERFILTERS
360
12
  0
DICTIONARY
  5
1F8
330
2
100
AcDbDictionary
280
     1
  3
ACAD_LAYOUTSELFREF
360
33E
  0
DICTIONARY
  5
1FA
330
1ED
100
AcDbDictionary
280
     1
  3
ACAD_LAYOUTSELFREF
360
33F
  0
DICTIONARY
  5
27
102
{ACAD_REACTORS
330
7
102
}
330
7
100
AcDbDictionary
  0
DICTIONARY
  5
B
102
{ACAD_REACTORS
330
7
102
}
330
7
100
AcDbDictionary
  0
DICTIONARY
  5
28
102
{ACAD_REACTORS
330
7
102
}
330
7
100
AcDbDictionary
  3
STANDARD
350
2B
  0
DICTIONARY
  5
29
102
{ACAD_REACTORS
330
7
102
}
330
7
100
AcDbDictionary
  0
ACDBDICTIONARYWDFLT
  5
6
102
{ACAD_REACTORS
330
7
102
}
330
7
100
AcDbDictionary
281
     1
  3
Normal
350
5
100
AcDbDictionaryWithDefault
340
5
  0
DICTIONARY
  5
31D
102
{ACAD_REACTORS
330
7
102
}
330
7
100
AcDbDictionary
  3
CEPSNTYPE
350
327
  3
DIMSTYLEDATA
350
32B
  3
FINGERPRINTGUID
350
328
  3
HYPERLINKBASE
350
320
  3
INSUNITS
350
326
  3
LAYOUTDICT
350
322
  3
LWETCUNION
350
325
  3
PLOTSETDICT
350
323
  3
PLOTSTYLNAMDICT
350
324
  3
PSVPSCALE
350
32A
  3
PUCSBASE
350
32E
  3
PUCSORGBACK
350
334
  3
PUCSORGBOTTOM
350
330
  3
PUCSORGFRONT
350
333
  3
PUCSORGLEFT
350
331
  3
PUCSORGRIGHT
350
332
  3
PUCSORGTOP
350
32F
  3
PUCSORTHOREF
350
32C
  3
PUCSORTHOVIEW
350
32D
  3
STYLESHEET
350
321
  3
TSTACKALIGN
350
31E
  3
TSTACKSIZE
350
31F
  3
UCSBASE
350
337
  3
UCSORGBACK
350
33D
  3
UCSORGBOTTOM
350
339
  3
UCSORGFRONT
350
33C
  3
UCSORGLEFT
350
33A
  3
UCSORGRIGHT
350
33B
  3
UCSORGTOP
350
338
  3
UCSORTHOREF
350
335
  3
UCSORTHOVIEW
350
336
  3
VERSIONGUID
350
329
  0
DICTIONARY
  5
1E6
102
{ACAD_REACTORS
330
7
102
}
330
7
100
AcDbDictionary
  3
DIMASSOC
350
1E8
  3
HIDETEXT
350
1E7
  0
DICTIONARY
  5
12
102
{ACAD_REACTORS
330
11
102
}
330
11
100
AcDbDictionary
280
     1
  3
DIM-1_12
360
13
  3
DIM-1_16
360
14
  0
XRECORD
  5
33E
102
{ACAD_REACTORS
330
1F8
102
}
330
1F8
100
AcDbXrecord
340
2
  0
XRECORD
  5
33F
102
{ACAD_REACTORS
330
1FA
102
}
330
1FA
100
AcDbXrecord
340
1ED
  0
MLINESTYLE
  5
2B
102
{ACAD_REACTORS
330
28
102
}
330
28
100
AcDbMlineStyle
  2
STANDARD
 70
     0
  3

 62
   256
 51
90.0
 52
90.0
 71
     2
 49
0.5
 62
   256
  6
BYLAYER
 49
-0.5
 62
   256
  6
BYLAYER
  0
ACDBPLACEHOLDER
  5
5
102
{ACAD_REACTORS
330
6
102
}
330
6
100
AcDbPlaceHolder
280
     0
  0
XRECORD
  5
327
102
{ACAD_REACTORS
330
31D
102
}
330
31D
100
AcDbXrecord
 90
        0
  0
XRECORD
  5
32B
102
{ACAD_REACTORS
330
31D
102
}
330
31D
100
AcDbXrecord
1000
DSTYLE
1002
{
1070
    79
 70
     1
1070
   276
 70
     1
1070
   277
 70
     5
1070
   289
 70
     1
1002
}
  0
XRECORD
  5
328
102
{ACAD_REACTORS
330
31D
102
}
330
31D
100
AcDbXrecord
  1
{6A4AC8E0-4F58-11D5-8420-0003476D26AB}
  0
XRECORD
  5
320
102
{ACAD_REACTORS
330
31D
102
}
330
31D
100
AcDbXrecord
  1

  0
XRECORD
  5
326
102
{ACAD_REACTORS
330
31D
102
}
330
31D
100
AcDbXrecord
 90
        1
  0
XRECORD
  5
322
102
{ACAD_REACTORS
330
31D
102
}
330
31D
100
AcDbXrecord
340
B
  0
XRECORD
  5
325
102
{ACAD_REACTORS
330
31D
102
}
330
31D
100
AcDbXrecord
 90
    10781
  0
XRECORD
  5
323
102
{ACAD_REACTORS
330
31D
102
}
330
31D
100
AcDbXrecord
340
29
  0
XRECORD
  5
324
102
{ACAD_REACTORS
330
31D
102
}
330
31D
100
AcDbXrecord
340
6
  0
XRECORD
  5
32A
102
{ACAD_REACTORS
330
31D
102
}
330
31D
100
AcDbXrecord
 40
0.0
  0
XRECORD
  5
32E
102
{ACAD_REACTORS
330
31D
102
}
330
31D
100
AcDbXrecord
340
0
  0
XRECORD
  5
334
102
{ACAD_REACTORS
330
31D
102
}
330
31D
100
AcDbXrecord
 10
0.0
 20
0.0
 30
0.0
  0
XRECORD
  5
330
102
{ACAD_REACTORS
330
31D
102
}
330
31D
100
AcDbXrecord
 10
0.0
 20
0.0
 30
0.0
  0
XRECORD
  5
333
102
{ACAD_REACTORS
330
31D
102
}
330
31D
100
AcDbXrecord
 10
0.0
 20
0.0
 30
0.0
  0
XRECORD
  5
331
102
{ACAD_REACTORS
330
31D
102
}
330
31D
100
AcDbXrecord
 10
0.0
 20
0.0
 30
0.0
  0
XRECORD
  5
332
102
{ACAD_REACTORS
330
31D
102
}
330
31D
100
AcDbXrecord
 10
0.0
 20
0.0
 30
0.0
  0
XRECORD
  5
32F
102
{ACAD_REACTORS
330
31D
102
}
330
31D
100
AcDbXrecord
 10
0.0
 20
0.0
 30
0.0
  0
XRECORD
  5
32C
102
{ACAD_REACTORS
330
31D
102
}
330
31D
100
AcDbXrecord
340
0
  0
XRECORD
  5
32D
102
{ACAD_REACTORS
330
31D
102
}
330
31D
100
AcDbXrecord
 70
     0
  0
XRECORD
  5
321
102
{ACAD_REACTORS
330
31D
102
}
330
31D
100
AcDbXrecord
  1

  0
XRECORD
  5
31E
102
{ACAD_REACTORS
330
31D
102
}
330
31D
100
AcDbXrecord
 90
        1
  0
XRECORD
  5
31F
102
{ACAD_REACTORS
330
31D
102
}
330
31D
100
AcDbXrecord
 90
       70
  0
XRECORD
  5
337
102
{ACAD_REACTORS
330
31D
102
}
330
31D
100
AcDbXrecord
340
0
  0
XRECORD
  5
33D
102
{ACAD_REACTORS
330
31D
102
}
330
31D
100
AcDbXrecord
 10
0.0
 20
0.0
 30
0.0
  0
XRECORD
  5
339
102
{ACAD_REACTORS
330
31D
102
}
330
31D
100
AcDbXrecord
 10
0.0
 20
0.0
 30
0.0
  0
XRECORD
  5
33C
102
{ACAD_REACTORS
330
31D
102
}
330
31D
100
AcDbXrecord
 10
0.0
 20
0.0
 30
0.0
  0
XRECORD
  5
33A
102
{ACAD_REACTORS
330
31D
102
}
330
31D
100
AcDbXrecord
 10
0.0
 20
0.0
 30
0.0
  0
XRECORD
  5
33B
102
{ACAD_REACTORS
330
31D
102
}
330
31D
100
AcDbXrecord
 10
0.0
 20
0.0
 30
0.0
  0
XRECORD
  5
338
102
{ACAD_REACTORS
330
31D
102
}
330
31D
100
AcDbXrecord
 10
62.86525627826465
 20
-3.044708510329144
 30
0.0
  0
XRECORD
  5
335
102
{ACAD_REACTORS
330
31D
102
}
330
31D
100
AcDbXrecord
340
0
  0
XRECORD
  5
336
102
{ACAD_REACTORS
330
31D
102
}
330
31D
100
AcDbXrecord
 70
     1
  0
XRECORD
  5
329
102
{ACAD_REACTORS
330
31D
102
}
330
31D
100
AcDbXrecord
  1
{2A55C030-262E-48E5-B2D6-8C69D5D9947B}
  0
DICTIONARYVAR
  5
1E8
102
{ACAD_REACTORS
330
1E6
102
}
330
1E6
100
DictionaryVariables
280
     0
  1
1
  0
DICTIONARYVAR
  5
1E7
102
{ACAD_REACTORS
330
1E6
102
}
330
1E6
100
DictionaryVariables
280
     0
  1
1
  0
XRECORD
  5
13
102
{ACAD_REACTORS
330
12
102
}
330
12
100
AcDbXrecord
  1
DIM-1_12
  1
DIM-1_12
  1
*
  1
*
 70
     0
  1
*
  1
*
  0
XRECORD
  5
14
102
{ACAD_REACTORS
330
12
102
}
330
12
100
AcDbXrecord
  1
dim-1_16
  1
*
  1
*
  1
*
 70
     0
  1
*
  1
*
  0
ENDSEC
  0
EOF
