  0
SECTION
  2
HEADER
  9
$ACADVER
  1
AC1014
  9
$ACADMAINTVER
 70
     9
  9
$DWGCODEPAGE
  3
ANSI_1252
  9
$INSBASE
 10
52.52988583183162
 20
-8.652972315672855
 30
0.0
  9
$EXTMIN
 10
42.16631867272849
 20
-11.48456745483696
 30
-2.75624191034378
  9
$EXTMAX
 10
75.89251347886642
 20
12.85516964174058
 30
2.756241961678117
  9
$LIMMIN
 10
0.0
 20
0.0
  9
$LIMMAX
 10
187.3118571637889
 20
134.3269220688476
  9
$ORTHOMODE
 70
     1
  9
$REGENMODE
 70
     1
  9
$FILLMODE
 70
     1
  9
$QTEXTMODE
 70
     0
  9
$MIRRTEXT
 70
     1
  9
$DRAGMODE
 70
     2
  9
$LTSCALE
 40
2.0
  9
$OSMODE
 70
    55
  9
$ATTMODE
 70
     1
  9
$TEXTSIZE
 40
0.08
  9
$TRACEWID
 40
1.0
  9
$TEXTSTYLE
  7
CARTOUCHE
  9
$CLAYER
  8
0
  9
$CELTYPE
  6
BYLAYER
  9
$CECOLOR
 62
   256
  9
$CELTSCALE
 40
1.0
  9
$DELOBJ
 70
     1
  9
$DISPSILH
 70
     0
  9
$DIMSCALE
 40
16.0
  9
$DIMASZ
 40
0.1
  9
$DIMEXO
 40
0.0625
  9
$DIMDLI
 40
0.25
  9
$DIMRND
 40
0.0
  9
$DIMDLE
 40
0.0
  9
$DIMEXE
 40
0.1
  9
$DIMTP
 40
0.0
  9
$DIMTM
 40
0.0
  9
$DIMTXT
 40
0.1
  9
$DIMCEN
 40
0.09
  9
$DIMTSZ
 40
0.0
  9
$DIMTOL
 70
     0
  9
$DIMLIM
 70
     0
  9
$DIMTIH
 70
     1
  9
$DIMTOH
 70
     1
  9
$DIMSE1
 70
     0
  9
$DIMSE2
 70
     0
  9
$DIMTAD
 70
     0
  9
$DIMZIN
 70
     4
  9
$DIMBLK
  1

  9
$DIMASO
 70
     1
  9
$DIMSHO
 70
     1
  9
$DIMPOST
  1
\X
  9
$DIMAPOST
  1
cm
  9
$DIMALT
 70
     1
  9
$DIMALTD
 70
     1
  9
$DIMALTF
 40
2.54
  9
$DIMLFAC
 40
1.0
  9
$DIMTOFL
 70
     0
  9
$DIMTVP
 40
0.0
  9
$DIMTIX
 70
     0
  9
$DIMSOXD
 70
     0
  9
$DIMSAH
 70
     0
  9
$DIMBLK1
  1

  9
$DIMBLK2
  1

  9
$DIMSTYLE
  2
STANDARD
  9
$DIMCLRD
 70
     0
  9
$DIMCLRE
 70
     0
  9
$DIMCLRT
 70
     0
  9
$DIMTFAC
 40
1.0
  9
$DIMGAP
 40
0.08
  9
$DIMJUST
 70
     0
  9
$DIMSD1
 70
     0
  9
$DIMSD2
 70
     0
  9
$DIMTOLJ
 70
     1
  9
$DIMTZIN
 70
     4
  9
$DIMALTZ
 70
     4
  9
$DIMALTTZ
 70
     4
  9
$DIMFIT
 70
     1
  9
$DIMUPT
 70
     0
  9
$DIMUNIT
 70
     5
  9
$DIMDEC
 70
     3
  9
$DIMTDEC
 70
     3
  9
$DIMALTU
 70
     2
  9
$DIMALTTD
 70
     1
  9
$DIMTXSTY
  7
ROMANS
  9
$DIMAUNIT
 70
     0
  9
$LUNITS
 70
     2
  9
$LUPREC
 70
     2
  9
$SKETCHINC
 40
1.0
  9
$FILLETRAD
 40
2.0
  9
$AUNITS
 70
     0
  9
$AUPREC
 70
     0
  9
$MENU
  1
.
  9
$ELEVATION
 40
0.0
  9
$PELEVATION
 40
0.0
  9
$THICKNESS
 40
0.0
  9
$LIMCHECK
 70
     0
  9
$BLIPMODE
 70
     0
  9
$CHAMFERA
 40
0.0
  9
$CHAMFERB
 40
0.0
  9
$CHAMFERC
 40
20.0
  9
$CHAMFERD
 40
0.0
  9
$SKPOLY
 70
     0
  9
$TDCREATE
 40
2452072.673626736
  9
$TDUPDATE
 40
2453690.421488738
  9
$TDINDWG
 40
0.9236571875
  9
$TDUSRTIMER
 40
0.9236476968
  9
$USRTIMER
 70
     1
  9
$ANGBASE
 50
0.0
  9
$ANGDIR
 70
     0
  9
$PDMODE
 70
    33
  9
$PDSIZE
 40
0.25
  9
$PLINEWID
 40
0.0
  9
$COORDS
 70
     1
  9
$SPLFRAME
 70
     0
  9
$SPLINETYPE
 70
     6
  9
$SPLINESEGS
 70
     8
  9
$ATTDIA
 70
     0
  9
$ATTREQ
 70
     1
  9
$HANDLING
 70
 22529
  9
$HANDSEED
  5
31D
  9
$SURFTAB1
 70
     6
  9
$SURFTAB2
 70
     6
  9
$SURFTYPE
 70
     6
  9
$SURFU
 70
     6
  9
$SURFV
 70
     6
  9
$UCSNAME
  2

  9
$UCSORG
 10
62.86525627826465
 20
-3.044708510329144
 30
0.0
  9
$UCSXDIR
 10
1.0
 20
0.0
 30
0.0
  9
$UCSYDIR
 10
0.0
 20
1.0
 30
0.0
  9
$PUCSNAME
  2

  9
$PUCSORG
 10
0.0
 20
0.0
 30
0.0
  9
$PUCSXDIR
 10
1.0
 20
0.0
 30
0.0
  9
$PUCSYDIR
 10
0.0
 20
1.0
 30
0.0
  9
$USERI1
 70
     0
  9
$USERI2
 70
     0
  9
$USERI3
 70
     0
  9
$USERI4
 70
     0
  9
$USERI5
 70
     0
  9
$USERR1
 40
0.0
  9
$USERR2
 40
0.0
  9
$USERR3
 40
0.0
  9
$USERR4
 40
0.0
  9
$USERR5
 40
0.0
  9
$WORLDVIEW
 70
     1
  9
$SHADEDGE
 70
     3
  9
$SHADEDIF
 70
    70
  9
$TILEMODE
 70
     1
  9
$MAXACTVP
 70
    48
  9
$PINSBASE
 10
0.0
 20
0.0
 30
0.0
  9
$PLIMCHECK
 70
     0
  9
$PEXTMIN
 10
0.0
 20
0.0
 30
0.0
  9
$PEXTMAX
 10
0.0
 20
0.0
 30
0.0
  9
$PLIMMIN
 10
0.0
 20
0.0
  9
$PLIMMAX
 10
12.0
 20
9.0
  9
$UNITMODE
 70
     0
  9
$VISRETAIN
 70
     1
  9
$PLINEGEN
 70
     0
  9
$PSLTSCALE
 70
     1
  9
$TREEDEPTH
 70
  3020
  9
$PICKSTYLE
 70
     1
  9
$CMLSTYLE
  2
STANDARD
  9
$CMLJUST
 70
     0
  9
$CMLSCALE
 40
20.0
  9
$PROXYGRAPHICS
 70
     1
  9
$MEASUREMENT
 70
     0
  0
ENDSEC
  0
SECTION
  2
CLASSES
  0
CLASS
  1
ACDBDICTIONARYWDFLT
  2
AcDbDictionaryWithDefault
  3
AutoCAD 2000
 90
        0
280
     0
281
     0
  0
CLASS
  1
ACDBPLACEHOLDER
  2
AcDbPlaceHolder
  3
AutoCAD 2000
 90
        0
280
     0
281
     0
  0
CLASS
  1
LAYOUT
  2
AcDbLayout
  3
AutoCAD 2000
 90
        0
280
     0
281
     0
  0
CLASS
  1
DICTIONARYVAR
  2
AcDbDictionaryVar
  3
AutoCAD 2000
 90
        0
280
     0
281
     0
  0
CLASS
  1
IMAGEDEF
  2
AcDbRasterImageDef
  3
ISM
 90
        0
280
     0
281
     0
  0
CLASS
  1
LONG_TRANSACTION
  2
AcDbLongTransaction
  3
AutoCAD 2000
 90
        0
280
     0
281
     0
  0
CLASS
  1
LWPOLYLINE
  2
AcDbPolyline
  3
AutoCAD 2000
 90
        0
280
     0
281
     1
  0
CLASS
  1
HATCH
  2
AcDbHatch
  3
AutoCAD 2000
 90
        0
280
     0
281
     1
  0
CLASS
  1
XRECORD
  2
AcDbXrecord
  3
AutoCAD 2000
 90
        0
280
     0
281
     0
  0
CLASS
  1
LONG_TRANSACTION
  2
AcDbLongTransaction
  3
AutoCAD 2000
 90
        0
280
     0
281
     0
  0
CLASS
  1
LWPOLYLINE
  2
AcDbPolyline
  3
AutoCAD 2000
 90
        0
280
     0
281
     1
  0
CLASS
  1
HATCH
  2
AcDbHatch
  3
AutoCAD 2000
 90
        0
280
     0
281
     1
  0
CLASS
  1
XRECORD
  2
AcDbXrecord
  3
AutoCAD 2000
 90
        0
280
     0
281
     0
  0
CLASS
  1
LONG_TRANSACTION
  2
AcDbLongTransaction
  3
AutoCAD 2000
 90
        0
280
     0
281
     0
  0
CLASS
  1
LWPOLYLINE
  2
AcDbPolyline
  3
AutoCAD 2000
 90
        0
280
     0
281
     1
  0
CLASS
  1
HATCH
  2
AcDbHatch
  3
AutoCAD 2000
 90
        0
280
     0
281
     1
  0
CLASS
  1
XRECORD
  2
AcDbXrecord
  3
AutoCAD 2000
 90
        0
280
     0
281
     0
  0
ENDSEC
  0
SECTION
  2
TABLES
  0
TABLE
  2
VPORT
  5
1D
330
0
100
AcDbSymbolTable
 70
     3
  0
VPORT
  5
2F9
330
1D
100
AcDbSymbolTableRecord
100
AcDbViewportTableRecord
  2
*ACTIVE
 70
     0
 10
0.0
 20
0.0
 11
1.0
 21
1.0
 12
59.02941598402737
 22
0.6853010314631725
 13
0.0
 23
0.0
 14
10.0
 24
10.0
 15
10.0
 25
10.0
 16
0.0
 26
0.0
 36
1.0
 17
0.0
 27
0.0
 37
0.0
 40
32.24533876066169
 41
1.786792452830188
 42
50.0
 43
0.0
 44
0.0
 50
0.0
 51
0.0
 71
     0
 72
   100
 73
     1
 74
     3
 75
     0
 76
     0
 77
     0
 78
     2
  0
ENDTAB
  0
TABLE
  2
LTYPE
  5
18
330
0
100
AcDbSymbolTable
 70
     3
  0
LTYPE
  5
19
330
18
100
AcDbSymbolTableRecord
100
AcDbLinetypeTableRecord
  2
BYBLOCK
 70
     0
  3

 72
    65
 73
     0
 40
0.0
  0
LTYPE
  5
1A
330
18
100
AcDbSymbolTableRecord
100
AcDbLinetypeTableRecord
  2
BYLAYER
 70
     0
  3

 72
    65
 73
     0
 40
0.0
  0
LTYPE
  5
8
330
18
100
AcDbSymbolTableRecord
100
AcDbLinetypeTableRecord
  2
CONTINUOUS
 70
     0
  3
Solid line
 72
    65
 73
     0
 40
0.0
  0
LTYPE
  5
3A
330
18
100
AcDbSymbolTableRecord
100
AcDbLinetypeTableRecord
  2
CENTER
 70
     0
  3
Center ____ _ ____ _ ____ _ ____ _ ____ _ ____
 72
    65
 73
     4
 40
50.8
 49
31.75
 74
     0
 49
-6.349999999999999
 74
     0
 49
6.349999999999999
 74
     0
 49
-6.349999999999999
 74
     0
  0
LTYPE
  5
36
330
18
100
AcDbSymbolTableRecord
100
AcDbLinetypeTableRecord
  2
HIDDEN
 70
     0
  3
Hidden __ __ __ __ __ __ __ __ __ __ __ __ __ _
 72
    65
 73
     2
 40
9.524999999999998
 49
6.349999999999999
 74
     0
 49
-3.174999999999999
 74
     0
  0
ENDTAB
  0
TABLE
  2
LAYER
  5
10
102
{ACAD_XDICTIONARY
360
11
102
}
330
0
100
AcDbSymbolTable
 70
     2
  0
LAYER
  5
4
330
10
100
AcDbSymbolTableRecord
100
AcDbLayerTableRecord
  2
0
 70
     0
 62
     7
  6
CONTINUOUS
  0
LAYER
  5
39
330
10
100
AcDbSymbolTableRecord
100
AcDbLayerTableRecord
  2
CENTER
 70
     0
 62
     1
  6
CENTER
  0
ENDTAB
  0
TABLE
  2
STYLE
  5
15
330
0
100
AcDbSymbolTable
 70
     3
  0
STYLE
  5
16
330
15
100
AcDbSymbolTableRecord
100
AcDbTextStyleTableRecord
  2
STANDARD
 70
     0
 40
0.0
 41
1.0
 50
0.0
 71
     0
 42
0.125
  3
txt
  4

  0
STYLE
  5
2A
330
15
100
AcDbSymbolTableRecord
100
AcDbTextStyleTableRecord
  2
CARTOUCHE
 70
     0
 40
0.0
 41
1.0
 50
0.0
 71
     0
 42
0.08
  3
romans.shx
  4

  0
STYLE
  5
23
330
15
100
AcDbSymbolTableRecord
100
AcDbTextStyleTableRecord
  2
ROMANS
 70
     0
 40
0.0
 41
1.0
 50
0.0
 71
     0
 42
1.0
  3
romans.shx
  4

  0
ENDTAB
  0
TABLE
  2
VIEW
  5
1B
330
0
100
AcDbSymbolTable
 70
     0
  0
ENDTAB
  0
TABLE
  2
UCS
  5
1C
330
0
100
AcDbSymbolTable
 70
     0
  0
ENDTAB
  0
TABLE
  2
APPID
  5
1F
330
0
100
AcDbSymbolTable
 70
     1
  0
APPID
  5
20
330
1F
100
AcDbSymbolTableRecord
100
AcDbRegAppTableRecord
  2
ACAD
 70
     0
  0
ENDTAB
  0
TABLE
  2
DIMSTYLE
  5
21
330
0
100
AcDbSymbolTable
 70
     1
  0
DIMSTYLE
105
22
330
21
100
AcDbSymbolTableRecord
100
AcDbDimStyleTableRecord
  2
STANDARD
 70
     0
  3
\X
  4
cm
  5

  6

  7

 40
16.0
 41
0.1
 42
0.0625
 43
0.25
 44
0.1
 45
0.0
 46
0.0
 47
0.0
 48
0.0
140
0.1
141
0.09
142
0.0
143
2.54
144
1.0
145
0.0
146
1.0
147
0.08
 71
     0
 72
     0
 73
     1
 74
     1
 75
     0
 76
     0
 77
     0
 78
     4
170
     1
171
     1
172
     0
173
     0
174
     0
175
     0
176
     0
177
     0
178
     0
270
     5
271
     3
272
     3
273
     2
274
     1
340
23
275
     0
280
     0
281
     0
282
     0
283
     1
284
     4
285
     4
286
     4
287
     1
288
     0
  0
ENDTAB
  0
TABLE
  2
BLOCK_RECORD
  5
1
330
0
100
AcDbSymbolTable
 70
     0
  0
BLOCK_RECORD
  5
2
102
{ACAD_XDICTIONARY
360
226
102
}
330
1
100
AcDbSymbolTableRecord
100
AcDbBlockTableRecord
  2
*MODEL_SPACE
  0
BLOCK_RECORD
  5
1DB
102
{ACAD_XDICTIONARY
360
228
102
}
330
1
100
AcDbSymbolTableRecord
100
AcDbBlockTableRecord
  2
*PAPER_SPACE
  0
ENDTAB
  0
ENDSEC
  0
SECTION
  2
BLOCKS
  0
BLOCK
  5
3
330
2
100
AcDbEntity
  8
0
100
AcDbBlockBegin
  2
*MODEL_SPACE
 70
     0
 10
0.0
 20
0.0
 30
0.0
  3
*MODEL_SPACE
  1

  0
ENDBLK
  5
9
330
2
100
AcDbEntity
  8
0
100
AcDbBlockEnd
  0
BLOCK
  5
1DD
330
1DB
100
AcDbEntity
 67
     1
  8
0
100
AcDbBlockBegin
  2
*PAPER_SPACE
 70
     0
 10
0.0
 20
0.0
 30
0.0
  3
*PAPER_SPACE
  1

  0
ENDBLK
  5
1DE
330
1DB
100
AcDbEntity
 67
     1
  8
0
100
AcDbBlockEnd
  0
ENDSEC
  0
SECTION
  2
ENTITIES
  0
ARC
  5
2C
330
2
100
AcDbEntity
  8
0
 48
0.1
100
AcDbCircle
 10
50.74214543918222
 20
-5.878774018260351
 30
0.0
 40
2.0
100
AcDbArc
 50
184.9999999999993
 51
270.5
  0
ARC
  5
2D
330
2
100
AcDbEntity
  8
0
 48
0.1
100
AcDbCircle
 10
50.24962109064848
 20
-5.883072213133722
 30
0.0
 40
2.0
100
AcDbArc
 50
184.9999999999995
 51
270.5
  0
ARC
  5
2E
330
2
100
AcDbEntity
  8
0
 48
0.1
100
AcDbCircle
 10
44.55382733190861
 20
-77.42332147284376
 30
0.0
 40
79.24409608481223
100
AcDbArc
 50
80.84705679345713
 51
88.64307570225911
  0
LINE
  5
2F
330
2
100
AcDbEntity
  8
0
 48
0.1
100
AcDbLine
 10
75.77988583183159
 20
9.847027684327144
 30
0.0
 11
42.27988583183161
 21
9.847027684327144
 31
0.0
  0
LINE
  5
30
330
2
100
AcDbEntity
  8
0
 48
0.1
100
AcDbLine
 10
75.27988583183159
 20
11.34702768432714
 30
0.0
 11
42.7798858318316
 21
11.34702768432714
 31
0.0
  0
ARC
  5
31
330
2
100
AcDbEntity
  8
0
 48
0.1
100
AcDbCircle
 10
58.94856399042932
 20
-50.17992392293439
 30
0.0
 40
63.02696674190841
100
AcDbArc
 50
77.47472222990696
 51
102.525277770093
  0
LINE
  5
32
330
2
100
AcDbEntity
  8
0
 48
0.1
100
AcDbLine
 10
48.02378807017254
 20
1.74476639577827
 30
0.0
 11
48.74975604299874
 21
-6.053085503755625
 31
0.0
  0
LINE
  5
33
330
2
100
AcDbEntity
  8
0
 48
0.1
100
AcDbLine
 10
47.52912624899008
 20
1.764899625075628
 30
0.0
 11
48.25723169446499
 21
-6.057383698629024
 31
0.0
  0
LINE
  5
34
330
2
100
AcDbEntity
  8
0
 48
0.1
100
AcDbLine
 10
45.27988583183172
 20
9.847027684327144
 30
0.0
 11
45.94411666181727
 21
2.254834556485491
 31
0.0
  0
LINE
  5
35
330
2
100
AcDbEntity
  8
0
  6
HIDDEN
 48
23.0
100
AcDbLine
 10
46.73073043338918
 20
10.89060555570094
 30
0.0
 11
47.52912624899008
 21
1.764899625075628
 31
0.0
  0
ARC
  5
37
330
2
100
AcDbEntity
  8
0
 48
0.1
100
AcDbCircle
 10
46.44221401086318
 20
2.298412427859312
 30
0.0
 40
0.5
100
AcDbArc
 50
185.0
 51
268.6430757022607
  0
LINE
  5
38
330
2
100
AcDbEntity
  8
CENTER
 48
0.05
100
AcDbLine
 10
42.81176852157116
 20
7.909527684327144
 30
0.0
 11
48.08702171325522
 21
7.909527684327144
 31
0.0
  0
ARC
  5
3B
330
2
100
AcDbEntity
  8
0
 48
0.1
100
AcDbCircle
 10
42.77988583183159
 20
10.84702768432713
 30
0.0
 40
0.5
100
AcDbArc
 50
90.0
 51
180.0
  0
LINE
  5
3C
330
2
100
AcDbEntity
  8
0
 48
0.1
100
AcDbLine
 10
42.27988583183161
 20
10.84702768432714
 30
0.0
 11
42.27988583183161
 21
9.847027684327144
 31
0.0
  0
ARC
  5
3D
330
2
100
AcDbEntity
  8
0
  6
HIDDEN
 48
23.0
100
AcDbCircle
 10
46.23263308434329
 20
10.84702768432713
 30
0.0
 40
0.5
100
AcDbArc
 50
4.9999999999996
 51
90.0
  0
LINE
  5
3E
330
2
100
AcDbEntity
  8
0
 48
0.1
100
AcDbLine
 10
73.15488583183159
 20
11.34702768432714
 30
-2.755905511496985
 11
73.15488583183159
 21
11.34702768432714
 31
2.755905511497013
210
0.0000000000000002
220
1.0
230
-0.0000000000000002
  0
LINE
  5
1B5
330
2
100
AcDbEntity
  8
0
 48
0.1
100
AcDbLine
 10
70.28064541467327
 20
1.764899625075628
 30
0.0
 11
69.56576669170448
 21
-5.90620156858975
 31
0.0
  0
ARC
  5
1B6
330
2
100
AcDbEntity
  8
0
 48
0.1
100
AcDbCircle
 10
73.25594433175464
 20
-77.42332147284376
 30
0.0
 40
79.24409608481223
100
AcDbArc
 50
91.3569242977409
 51
99.15294320654288
  0
LINE
  5
1B7
330
2
100
AcDbEntity
  8
0
 48
0.1
100
AcDbLine
 10
69.78598359349075
 20
1.74476639577827
 30
0.0
 11
69.07248968186221
 21
-5.91050633183886
 31
0.0
  0
ARC
  5
1B8
330
2
100
AcDbEntity
  8
0
 48
0.1
100
AcDbCircle
 10
59.40488583183165
 20
-8.152972315672862
 30
0.0
 40
0.5
100
AcDbArc
 50
270.0
 51
348.4701659727361
  0
LINE
  5
1B9
330
2
100
AcDbEntity
  8
0
 48
0.1
100
AcDbLine
 10
67.59083036651773
 20
-7.731813929222795
 30
0.0
 11
50.26707416164521
 21
-7.882996059262069
 31
0.0
  0
LINE
  5
1BA
330
2
100
AcDbEntity
  8
CENTER
 48
0.05
100
AcDbLine
 10
52.5298858318316
 20
-5.329971107576504
 30
0.0
 11
52.52988583183164
 21
-11.47566891408201
 31
0.0
  0
LINE
  5
1BB
330
2
100
AcDbEntity
  8
0
 48
0.1
100
AcDbLine
 10
53.70345338244051
 20
-8.402820010829259
 30
0.0
 11
51.35631828122273
 21
-8.402820010829259
 31
0.0
  0
ARC
  5
1BC
330
2
100
AcDbEntity
  8
0
 48
0.1
100
AcDbCircle
 10
51.77092617113787
 20
-8.152972315672862
 30
0.0
 40
0.5
100
AcDbArc
 50
209.8851979913575
 51
270.0
  0
LINE
  5
1BD
330
2
100
AcDbEntity
  8
0
 48
0.1
100
AcDbLine
 10
51.1181710242228
 20
-8.228885009241196
 30
0.0
 11
51.00757828893158
 21
-7.882636970017017
 31
0.0
  0
ARC
  5
1BE
330
2
100
AcDbEntity
  8
0
 48
0.1
100
AcDbCircle
 10
51.35631828122273
 20
-8.152820010829238
 30
0.0
 40
0.25
100
AcDbArc
 50
197.7136489003373
 51
270.0
  0
LINE
  5
1BF
330
2
100
AcDbEntity
  8
0
 48
0.1
100
AcDbLine
 10
51.77092617113787
 20
-8.652972315672855
 30
0.0
 11
52.77092617113787
 21
-8.652972315672855
 31
0.0
  0
LINE
  5
1C0
330
2
100
AcDbEntity
  8
0
 48
0.1
100
AcDbLine
 10
53.94160063944044
 20
-8.228885009241196
 30
0.0
 11
54.05219337473169
 21
-7.882636970017017
 31
0.0
  0
ARC
  5
1C1
330
2
100
AcDbEntity
  8
0
 48
0.1
100
AcDbCircle
 10
53.70345338244051
 20
-8.152820010829238
 30
0.0
 40
0.25
100
AcDbArc
 50
270.0
 51
342.2863510996626
  0
ARC
  5
1C2
330
2
100
AcDbEntity
  8
0
 48
0.1
100
AcDbCircle
 10
52.77092617113787
 20
-8.152972315672862
 30
0.0
 40
0.5
100
AcDbArc
 50
270.0
 51
330.0201507692708
  0
ARC
  5
1C3
330
2
100
AcDbEntity
  8
0
 48
0.1
100
AcDbCircle
 10
57.18010988120844
 20
-8.402820010829238
 30
0.0
 40
0.75
100
AcDbArc
 50
11.52983402726375
 51
51.16995904293916
  0
ARC
  5
1C4
330
2
100
AcDbEntity
  8
0
 48
0.1
100
AcDbCircle
 10
58.40488583183165
 20
-8.152972315672862
 30
0.0
 40
0.5
100
AcDbArc
 50
191.5298340272635
 51
270.0
  0
LINE
  5
1C5
330
2
100
AcDbEntity
  8
0
 48
0.1
100
AcDbLine
 10
59.40488583183165
 20
-8.652972315672855
 30
0.0
 11
58.40488583183165
 21
-8.652972315672855
 31
0.0
  0
LINE
  5
1C6
330
2
100
AcDbEntity
  8
0
 48
0.1
100
AcDbLine
 10
58.40488583183165
 20
-8.652972315672855
 30
0.0
 11
59.40488583183162
 21
-8.652972315672855
 31
0.0
  0
ARC
  5
1C7
330
2
100
AcDbEntity
  8
0
 48
0.1
100
AcDbCircle
 10
64.91384549252538
 20
-8.152972315672862
 30
0.0
 40
0.5
100
AcDbArc
 50
191.5298340272635
 51
270.0
  0
ARC
  5
1C8
330
2
100
AcDbEntity
  8
0
 48
0.1
100
AcDbCircle
 10
60.62966178245486
 20
-8.402820010829238
 30
0.0
 40
0.75
100
AcDbArc
 50
126.0464114822357
 51
168.4701659727362
  0
ARC
  5
1C9
330
2
100
AcDbEntity
  8
0
 48
0.1
100
AcDbCircle
 10
63.68906954190217
 20
-8.402820010829238
 30
0.0
 40
0.75
100
AcDbArc
 50
11.52983402726375
 51
58.62934626628488
  0
ARC
  5
1CA
330
2
100
AcDbEntity
  8
0
 48
0.1
100
AcDbCircle
 10
67.573377295521
 20
-5.73189008309445
 30
0.0
 40
2.0
100
AcDbArc
 50
270.4999999999996
 51
355.0000000000002
  0
ARC
  5
1CB
330
2
100
AcDbEntity
  8
0
 48
0.1
100
AcDbCircle
 10
67.08010028567873
 20
-5.736194846343559
 30
0.0
 40
2.0
100
AcDbArc
 50
270.4999999999996
 51
355.0000000000006
  0
ARC
  5
1CC
330
2
100
AcDbEntity
  8
0
 48
0.1
100
AcDbCircle
 10
67.13862144314859
 20
-8.402820010829238
 30
0.0
 40
0.75
100
AcDbArc
 50
117.7046734684138
 51
168.4701659727362
  0
LINE
  5
1CD
330
2
100
AcDbEntity
  8
0
 48
0.1
100
AcDbLine
 10
65.91384549252538
 20
-8.652972315672855
 30
0.0
 11
64.91384549252538
 21
-8.652972315672855
 31
0.0
  0
ARC
  5
1CE
330
2
100
AcDbEntity
  8
0
 48
0.1
100
AcDbCircle
 10
65.91384549252538
 20
-8.152972315672862
 30
0.0
 40
0.5
100
AcDbArc
 50
270.0
 51
348.4701659727361
  0
LINE
  5
1CF
330
2
100
AcDbEntity
  8
0
 48
0.1
100
AcDbLine
 10
72.52988583183159
 20
9.847027684327144
 30
0.0
 11
71.86565500184602
 21
2.254834556485491
 31
0.0
  0
ARC
  5
1D0
330
2
100
AcDbEntity
  8
0
 48
0.1
100
AcDbCircle
 10
71.36755765280011
 20
2.298412427859307
 30
0.0
 40
0.5
100
AcDbArc
 50
271.3569242977392
 51
355.0
  0
ARC
  5
1D1
330
2
100
AcDbEntity
  8
0
 48
0.1
100
AcDbCircle
 10
75.27988583183159
 20
10.84702768432713
 30
0.0
 40
0.5
100
AcDbArc
 50
0.0
 51
90.0
  0
LINE
  5
1D2
330
2
100
AcDbEntity
  8
0
 48
0.1
100
AcDbLine
 10
72.07220866700359
 20
11.34702768432714
 30
0.0000000000000141
 11
74.23756299665959
 21
11.34702768432714
 31
0.0000000000000143
210
0.0000000000000002
220
1.0
230
-0.0000000000000002
  0
LINE
  5
1D3
330
2
100
AcDbEntity
  8
0
 48
0.1
100
AcDbLine
 10
75.77988583183159
 20
10.84702768432714
 30
0.0
 11
75.77988583183159
 21
9.847027684327144
 31
0.0
  0
ENDSEC
  0
SECTION
  2
OBJECTS
  0
DICTIONARY
  5
7
330
0
100
AcDbDictionary
  3
ACAD_GROUP
350
27
  3
ACAD_LAYOUT
350
B
  3
ACAD_MLINESTYLE
350
28
  3
ACAD_PLOTSETTINGS
350
29
  3
ACAD_PLOTSTYLENAME
350
6
  3
ACDBHEADERROUNDTRIPXREC
350
2FA
  3
ACDBVARIABLEDICTIONARY
350
1D4
  0
DICTIONARY
  5
11
330
10
100
AcDbDictionary
280
     1
  3
ACAD_LAYERFILTERS
360
12
  0
DICTIONARY
  5
226
330
2
100
AcDbDictionary
280
     1
  3
ACAD_LAYOUTSELFREF
360
31B
  0
DICTIONARY
  5
228
330
1DB
100
AcDbDictionary
280
     1
  3
ACAD_LAYOUTSELFREF
360
31C
  0
DICTIONARY
  5
27
102
{ACAD_REACTORS
330
7
102
}
330
7
100
AcDbDictionary
  0
DICTIONARY
  5
B
102
{ACAD_REACTORS
330
7
102
}
330
7
100
AcDbDictionary
  0
DICTIONARY
  5
28
102
{ACAD_REACTORS
330
7
102
}
330
7
100
AcDbDictionary
  3
STANDARD
350
2B
  0
DICTIONARY
  5
29
102
{ACAD_REACTORS
330
7
102
}
330
7
100
AcDbDictionary
  0
ACDBDICTIONARYWDFLT
  5
6
102
{ACAD_REACTORS
330
7
102
}
330
7
100
AcDbDictionary
281
     1
  3
Normal
350
5
100
AcDbDictionaryWithDefault
340
5
  0
DICTIONARY
  5
2FA
102
{ACAD_REACTORS
330
7
102
}
330
7
100
AcDbDictionary
  3
CEPSNTYPE
350
304
  3
DIMSTYLEDATA
350
308
  3
FINGERPRINTGUID
350
305
  3
HYPERLINKBASE
350
2FD
  3
INSUNITS
350
303
  3
LAYOUTDICT
350
2FF
  3
LWETCUNION
350
302
  3
PLOTSETDICT
350
300
  3
PLOTSTYLNAMDICT
350
301
  3
PSVPSCALE
350
307
  3
PUCSBASE
350
30B
  3
PUCSORGBACK
350
311
  3
PUCSORGBOTTOM
350
30D
  3
PUCSORGFRONT
350
310
  3
PUCSORGLEFT
350
30E
  3
PUCSORGRIGHT
350
30F
  3
PUCSORGTOP
350
30C
  3
PUCSORTHOREF
350
309
  3
PUCSORTHOVIEW
350
30A
  3
STYLESHEET
350
2FE
  3
TSTACKALIGN
350
2FB
  3
TSTACKSIZE
350
2FC
  3
UCSBASE
350
314
  3
UCSORGBACK
350
31A
  3
UCSORGBOTTOM
350
316
  3
UCSORGFRONT
350
319
  3
UCSORGLEFT
350
317
  3
UCSORGRIGHT
350
318
  3
UCSORGTOP
350
315
  3
UCSORTHOREF
350
312
  3
UCSORTHOVIEW
350
313
  3
VERSIONGUID
350
306
  0
DICTIONARY
  5
1D4
102
{ACAD_REACTORS
330
7
102
}
330
7
100
AcDbDictionary
  3
DIMASSOC
350
1D6
  3
HIDETEXT
350
1D5
  0
DICTIONARY
  5
12
102
{ACAD_REACTORS
330
11
102
}
330
11
100
AcDbDictionary
280
     1
  3
DIM-1_12
360
13
  3
DIM-1_16
360
14
  0
XRECORD
  5
31B
102
{ACAD_REACTORS
330
226
102
}
330
226
100
AcDbXrecord
340
2
  0
XRECORD
  5
31C
102
{ACAD_REACTORS
330
228
102
}
330
228
100
AcDbXrecord
340
1DB
  0
MLINESTYLE
  5
2B
102
{ACAD_REACTORS
330
28
102
}
330
28
100
AcDbMlineStyle
  2
STANDARD
 70
     0
  3

 62
   256
 51
90.0
 52
90.0
 71
     2
 49
0.5
 62
   256
  6
BYLAYER
 49
-0.5
 62
   256
  6
BYLAYER
  0
ACDBPLACEHOLDER
  5
5
102
{ACAD_REACTORS
330
6
102
}
330
6
100
AcDbPlaceHolder
280
     0
  0
XRECORD
  5
304
102
{ACAD_REACTORS
330
2FA
102
}
330
2FA
100
AcDbXrecord
 90
        0
  0
XRECORD
  5
308
102
{ACAD_REACTORS
330
2FA
102
}
330
2FA
100
AcDbXrecord
1000
DSTYLE
1002
{
1070
    79
 70
     1
1070
   276
 70
     1
1070
   277
 70
     5
1070
   289
 70
     1
1002
}
  0
XRECORD
  5
305
102
{ACAD_REACTORS
330
2FA
102
}
330
2FA
100
AcDbXrecord
  1
{6A4AC8E0-4F58-11D5-8420-0003476D26AB}
  0
XRECORD
  5
2FD
102
{ACAD_REACTORS
330
2FA
102
}
330
2FA
100
AcDbXrecord
  1

  0
XRECORD
  5
303
102
{ACAD_REACTORS
330
2FA
102
}
330
2FA
100
AcDbXrecord
 90
        1
  0
XRECORD
  5
2FF
102
{ACAD_REACTORS
330
2FA
102
}
330
2FA
100
AcDbXrecord
340
B
  0
XRECORD
  5
302
102
{ACAD_REACTORS
330
2FA
102
}
330
2FA
100
AcDbXrecord
 90
    10781
  0
XRECORD
  5
300
102
{ACAD_REACTORS
330
2FA
102
}
330
2FA
100
AcDbXrecord
340
29
  0
XRECORD
  5
301
102
{ACAD_REACTORS
330
2FA
102
}
330
2FA
100
AcDbXrecord
340
6
  0
XRECORD
  5
307
102
{ACAD_REACTORS
330
2FA
102
}
330
2FA
100
AcDbXrecord
 40
0.0
  0
XRECORD
  5
30B
102
{ACAD_REACTORS
330
2FA
102
}
330
2FA
100
AcDbXrecord
340
0
  0
XRECORD
  5
311
102
{ACAD_REACTORS
330
2FA
102
}
330
2FA
100
AcDbXrecord
 10
0.0
 20
0.0
 30
0.0
  0
XRECORD
  5
30D
102
{ACAD_REACTORS
330
2FA
102
}
330
2FA
100
AcDbXrecord
 10
0.0
 20
0.0
 30
0.0
  0
XRECORD
  5
310
102
{ACAD_REACTORS
330
2FA
102
}
330
2FA
100
AcDbXrecord
 10
0.0
 20
0.0
 30
0.0
  0
XRECORD
  5
30E
102
{ACAD_REACTORS
330
2FA
102
}
330
2FA
100
AcDbXrecord
 10
0.0
 20
0.0
 30
0.0
  0
XRECORD
  5
30F
102
{ACAD_REACTORS
330
2FA
102
}
330
2FA
100
AcDbXrecord
 10
0.0
 20
0.0
 30
0.0
  0
XRECORD
  5
30C
102
{ACAD_REACTORS
330
2FA
102
}
330
2FA
100
AcDbXrecord
 10
0.0
 20
0.0
 30
0.0
  0
XRECORD
  5
309
102
{ACAD_REACTORS
330
2FA
102
}
330
2FA
100
AcDbXrecord
340
0
  0
XRECORD
  5
30A
102
{ACAD_REACTORS
330
2FA
102
}
330
2FA
100
AcDbXrecord
 70
     0
  0
XRECORD
  5
2FE
102
{ACAD_REACTORS
330
2FA
102
}
330
2FA
100
AcDbXrecord
  1

  0
XRECORD
  5
2FB
102
{ACAD_REACTORS
330
2FA
102
}
330
2FA
100
AcDbXrecord
 90
        1
  0
XRECORD
  5
2FC
102
{ACAD_REACTORS
330
2FA
102
}
330
2FA
100
AcDbXrecord
 90
       70
  0
XRECORD
  5
314
102
{ACAD_REACTORS
330
2FA
102
}
330
2FA
100
AcDbXrecord
340
0
  0
XRECORD
  5
31A
102
{ACAD_REACTORS
330
2FA
102
}
330
2FA
100
AcDbXrecord
 10
0.0
 20
0.0
 30
0.0
  0
XRECORD
  5
316
102
{ACAD_REACTORS
330
2FA
102
}
330
2FA
100
AcDbXrecord
 10
0.0
 20
0.0
 30
0.0
  0
XRECORD
  5
319
102
{ACAD_REACTORS
330
2FA
102
}
330
2FA
100
AcDbXrecord
 10
0.0
 20
0.0
 30
0.0
  0
XRECORD
  5
317
102
{ACAD_REACTORS
330
2FA
102
}
330
2FA
100
AcDbXrecord
 10
0.0
 20
0.0
 30
0.0
  0
XRECORD
  5
318
102
{ACAD_REACTORS
330
2FA
102
}
330
2FA
100
AcDbXrecord
 10
0.0
 20
0.0
 30
0.0
  0
XRECORD
  5
315
102
{ACAD_REACTORS
330
2FA
102
}
330
2FA
100
AcDbXrecord
 10
62.86525627826465
 20
-3.044708510329144
 30
0.0
  0
XRECORD
  5
312
102
{ACAD_REACTORS
330
2FA
102
}
330
2FA
100
AcDbXrecord
340
0
  0
XRECORD
  5
313
102
{ACAD_REACTORS
330
2FA
102
}
330
2FA
100
AcDbXrecord
 70
     1
  0
XRECORD
  5
306
102
{ACAD_REACTORS
330
2FA
102
}
330
2FA
100
AcDbXrecord
  1
{6E1585CF-1AD3-4B31-8870-CAE7D9ECF2C6}
  0
DICTIONARYVAR
  5
1D6
102
{ACAD_REACTORS
330
1D4
102
}
330
1D4
100
DictionaryVariables
280
     0
  1
1
  0
DICTIONARYVAR
  5
1D5
102
{ACAD_REACTORS
330
1D4
102
}
330
1D4
100
DictionaryVariables
280
     0
  1
1
  0
XRECORD
  5
13
102
{ACAD_REACTORS
330
12
102
}
330
12
100
AcDbXrecord
  1
DIM-1_12
  1
DIM-1_12
  1
*
  1
*
 70
     0
  1
*
  1
*
  0
XRECORD
  5
14
102
{ACAD_REACTORS
330
12
102
}
330
12
100
AcDbXrecord
  1
dim-1_16
  1
*
  1
*
  1
*
 70
     0
  1
*
  1
*
  0
ENDSEC
  0
EOF
