  0
SECTION
  2
HEADER
  9
$ACADVER
  1
AC1014
  9
$ACADMAINTVER
 70
     9
  9
$DWGCODEPAGE
  3
ANSI_1252
  9
$INSBASE
 10
-9.991912272591648
 20
78.82542875013354
 30
0.0
  9
$EXTMIN
 10
-43.13097567010828
 20
68.5674827529466
 30
-0.0000000349181948
  9
$EXTMAX
 10
23.14885277305177
 20
102.0795245030395
 30
0.0000000814935746
  9
$LIMMIN
 10
0.0
 20
0.0
  9
$LIMMAX
 10
187.3118571637889
 20
134.3269220688476
  9
$ORTHOMODE
 70
     1
  9
$REGENMODE
 70
     1
  9
$FILLMODE
 70
     1
  9
$QTEXTMODE
 70
     0
  9
$MIRRTEXT
 70
     1
  9
$DRAGMODE
 70
     2
  9
$LTSCALE
 40
0.01
  9
$OSMODE
 70
    55
  9
$ATTMODE
 70
     1
  9
$TEXTSIZE
 40
0.08
  9
$TRACEWID
 40
1.0
  9
$TEXTSTYLE
  7
CARTOUCHE
  9
$CLAYER
  8
0
  9
$CELTYPE
  6
BYLAYER
  9
$CECOLOR
 62
   256
  9
$CELTSCALE
 40
1.0
  9
$DELOBJ
 70
     1
  9
$DISPSILH
 70
     0
  9
$DIMSCALE
 40
16.0
  9
$DIMASZ
 40
0.1
  9
$DIMEXO
 40
0.0625
  9
$DIMDLI
 40
0.25
  9
$DIMRND
 40
0.0
  9
$DIMDLE
 40
0.0
  9
$DIMEXE
 40
0.1
  9
$DIMTP
 40
0.0
  9
$DIMTM
 40
0.0
  9
$DIMTXT
 40
0.1
  9
$DIMCEN
 40
0.09
  9
$DIMTSZ
 40
0.0
  9
$DIMTOL
 70
     0
  9
$DIMLIM
 70
     0
  9
$DIMTIH
 70
     1
  9
$DIMTOH
 70
     1
  9
$DIMSE1
 70
     0
  9
$DIMSE2
 70
     0
  9
$DIMTAD
 70
     0
  9
$DIMZIN
 70
     4
  9
$DIMBLK
  1

  9
$DIMASO
 70
     1
  9
$DIMSHO
 70
     1
  9
$DIMPOST
  1
\X
  9
$DIMAPOST
  1
cm
  9
$DIMALT
 70
     1
  9
$DIMALTD
 70
     1
  9
$DIMALTF
 40
2.54
  9
$DIMLFAC
 40
1.0
  9
$DIMTOFL
 70
     0
  9
$DIMTVP
 40
0.0
  9
$DIMTIX
 70
     0
  9
$DIMSOXD
 70
     0
  9
$DIMSAH
 70
     0
  9
$DIMBLK1
  1

  9
$DIMBLK2
  1

  9
$DIMSTYLE
  2
STANDARD
  9
$DIMCLRD
 70
     0
  9
$DIMCLRE
 70
     0
  9
$DIMCLRT
 70
     0
  9
$DIMTFAC
 40
1.0
  9
$DIMGAP
 40
0.08
  9
$DIMJUST
 70
     0
  9
$DIMSD1
 70
     0
  9
$DIMSD2
 70
     0
  9
$DIMTOLJ
 70
     1
  9
$DIMTZIN
 70
     4
  9
$DIMALTZ
 70
     4
  9
$DIMALTTZ
 70
     4
  9
$DIMFIT
 70
     1
  9
$DIMUPT
 70
     0
  9
$DIMUNIT
 70
     5
  9
$DIMDEC
 70
     3
  9
$DIMTDEC
 70
     3
  9
$DIMALTU
 70
     2
  9
$DIMALTTD
 70
     1
  9
$DIMTXSTY
  7
ROMANS
  9
$DIMAUNIT
 70
     0
  9
$LUNITS
 70
     2
  9
$LUPREC
 70
     2
  9
$SKETCHINC
 40
1.0
  9
$FILLETRAD
 40
2.0
  9
$AUNITS
 70
     0
  9
$AUPREC
 70
     0
  9
$MENU
  1
.
  9
$ELEVATION
 40
0.0
  9
$PELEVATION
 40
0.0
  9
$THICKNESS
 40
0.0
  9
$LIMCHECK
 70
     0
  9
$BLIPMODE
 70
     0
  9
$CHAMFERA
 40
0.0
  9
$CHAMFERB
 40
0.0
  9
$CHAMFERC
 40
20.0
  9
$CHAMFERD
 40
0.0
  9
$SKPOLY
 70
     0
  9
$TDCREATE
 40
2452072.673626736
  9
$TDUPDATE
 40
2453690.423962442
  9
$TDINDWG
 40
0.9214916088
  9
$TDUSRTIMER
 40
0.9214821181
  9
$USRTIMER
 70
     1
  9
$ANGBASE
 50
0.0
  9
$ANGDIR
 70
     0
  9
$PDMODE
 70
    33
  9
$PDSIZE
 40
0.25
  9
$PLINEWID
 40
0.0
  9
$COORDS
 70
     1
  9
$SPLFRAME
 70
     0
  9
$SPLINETYPE
 70
     6
  9
$SPLINESEGS
 70
     8
  9
$ATTDIA
 70
     0
  9
$ATTREQ
 70
     1
  9
$HANDLING
 70
 22529
  9
$HANDSEED
  5
2FB
  9
$SURFTAB1
 70
     6
  9
$SURFTAB2
 70
     6
  9
$SURFTYPE
 70
     6
  9
$SURFU
 70
     6
  9
$SURFV
 70
     6
  9
$UCSNAME
  2

  9
$UCSORG
 10
62.86525627826465
 20
-3.044708510329144
 30
0.0
  9
$UCSXDIR
 10
1.0
 20
0.0
 30
0.0
  9
$UCSYDIR
 10
0.0
 20
1.0
 30
0.0
  9
$PUCSNAME
  2

  9
$PUCSORG
 10
0.0
 20
0.0
 30
0.0
  9
$PUCSXDIR
 10
1.0
 20
0.0
 30
0.0
  9
$PUCSYDIR
 10
0.0
 20
1.0
 30
0.0
  9
$USERI1
 70
     0
  9
$USERI2
 70
     0
  9
$USERI3
 70
     0
  9
$USERI4
 70
     0
  9
$USERI5
 70
     0
  9
$USERR1
 40
0.0
  9
$USERR2
 40
0.0
  9
$USERR3
 40
0.0
  9
$USERR4
 40
0.0
  9
$USERR5
 40
0.0
  9
$WORLDVIEW
 70
     1
  9
$SHADEDGE
 70
     3
  9
$SHADEDIF
 70
    70
  9
$TILEMODE
 70
     1
  9
$MAXACTVP
 70
    48
  9
$PINSBASE
 10
0.0
 20
0.0
 30
0.0
  9
$PLIMCHECK
 70
     0
  9
$PEXTMIN
 10
0.0
 20
0.0
 30
0.0
  9
$PEXTMAX
 10
0.0
 20
0.0
 30
0.0
  9
$PLIMMIN
 10
0.0
 20
0.0
  9
$PLIMMAX
 10
12.0
 20
9.0
  9
$UNITMODE
 70
     0
  9
$VISRETAIN
 70
     1
  9
$PLINEGEN
 70
     0
  9
$PSLTSCALE
 70
     1
  9
$TREEDEPTH
 70
  3020
  9
$PICKSTYLE
 70
     1
  9
$CMLSTYLE
  2
STANDARD
  9
$CMLJUST
 70
     0
  9
$CMLSCALE
 40
20.0
  9
$PROXYGRAPHICS
 70
     1
  9
$MEASUREMENT
 70
     0
  0
ENDSEC
  0
SECTION
  2
CLASSES
  0
CLASS
  1
ACDBDICTIONARYWDFLT
  2
AcDbDictionaryWithDefault
  3
AutoCAD 2000
 90
        0
280
     0
281
     0
  0
CLASS
  1
ACDBPLACEHOLDER
  2
AcDbPlaceHolder
  3
AutoCAD 2000
 90
        0
280
     0
281
     0
  0
CLASS
  1
LAYOUT
  2
AcDbLayout
  3
AutoCAD 2000
 90
        0
280
     0
281
     0
  0
CLASS
  1
DICTIONARYVAR
  2
AcDbDictionaryVar
  3
AutoCAD 2000
 90
        0
280
     0
281
     0
  0
CLASS
  1
IMAGEDEF
  2
AcDbRasterImageDef
  3
ISM
 90
        0
280
     0
281
     0
  0
CLASS
  1
LONG_TRANSACTION
  2
AcDbLongTransaction
  3
AutoCAD 2000
 90
        0
280
     0
281
     0
  0
CLASS
  1
LWPOLYLINE
  2
AcDbPolyline
  3
AutoCAD 2000
 90
        0
280
     0
281
     1
  0
CLASS
  1
HATCH
  2
AcDbHatch
  3
AutoCAD 2000
 90
        0
280
     0
281
     1
  0
CLASS
  1
XRECORD
  2
AcDbXrecord
  3
AutoCAD 2000
 90
        0
280
     0
281
     0
  0
CLASS
  1
LONG_TRANSACTION
  2
AcDbLongTransaction
  3
AutoCAD 2000
 90
        0
280
     0
281
     0
  0
CLASS
  1
LWPOLYLINE
  2
AcDbPolyline
  3
AutoCAD 2000
 90
        0
280
     0
281
     1
  0
CLASS
  1
HATCH
  2
AcDbHatch
  3
AutoCAD 2000
 90
        0
280
     0
281
     1
  0
CLASS
  1
XRECORD
  2
AcDbXrecord
  3
AutoCAD 2000
 90
        0
280
     0
281
     0
  0
CLASS
  1
LONG_TRANSACTION
  2
AcDbLongTransaction
  3
AutoCAD 2000
 90
        0
280
     0
281
     0
  0
CLASS
  1
LWPOLYLINE
  2
AcDbPolyline
  3
AutoCAD 2000
 90
        0
280
     0
281
     1
  0
CLASS
  1
HATCH
  2
AcDbHatch
  3
AutoCAD 2000
 90
        0
280
     0
281
     1
  0
CLASS
  1
XRECORD
  2
AcDbXrecord
  3
AutoCAD 2000
 90
        0
280
     0
281
     0
  0
ENDSEC
  0
SECTION
  2
TABLES
  0
TABLE
  2
VPORT
  5
1D
330
0
100
AcDbSymbolTable
 70
     3
  0
VPORT
  5
2D7
330
1D
100
AcDbSymbolTableRecord
100
AcDbViewportTableRecord
  2
*ACTIVE
 70
     0
 10
0.0
 20
0.0
 11
1.0
 21
1.0
 12
-9.991061510134294
 22
85.32350351689396
 13
0.0
 23
0.0
 14
10.0
 24
10.0
 15
10.0
 25
10.0
 16
0.0
 26
0.0
 36
1.0
 17
0.0
 27
0.0
 37
0.0
 40
46.28781956988019
 41
1.786792452830188
 42
50.0
 43
0.0
 44
0.0
 50
0.0
 51
0.0
 71
     0
 72
   100
 73
     1
 74
     3
 75
     0
 76
     0
 77
     0
 78
     2
  0
ENDTAB
  0
TABLE
  2
LTYPE
  5
18
330
0
100
AcDbSymbolTable
 70
     2
  0
LTYPE
  5
19
330
18
100
AcDbSymbolTableRecord
100
AcDbLinetypeTableRecord
  2
BYBLOCK
 70
     0
  3

 72
    65
 73
     0
 40
0.0
  0
LTYPE
  5
1A
330
18
100
AcDbSymbolTableRecord
100
AcDbLinetypeTableRecord
  2
BYLAYER
 70
     0
  3

 72
    65
 73
     0
 40
0.0
  0
LTYPE
  5
8
330
18
100
AcDbSymbolTableRecord
100
AcDbLinetypeTableRecord
  2
CONTINUOUS
 70
     0
  3
Solid line
 72
    65
 73
     0
 40
0.0
  0
LTYPE
  5
3B
330
18
100
AcDbSymbolTableRecord
100
AcDbLinetypeTableRecord
  2
CENTER
 70
     0
  3
Center ____ _ ____ _ ____ _ ____ _ ____ _ ____
 72
    65
 73
     4
 40
50.8
 49
31.75
 74
     0
 49
-6.349999999999999
 74
     0
 49
6.349999999999999
 74
     0
 49
-6.349999999999999
 74
     0
  0
ENDTAB
  0
TABLE
  2
LAYER
  5
10
102
{ACAD_XDICTIONARY
360
11
102
}
330
0
100
AcDbSymbolTable
 70
     2
  0
LAYER
  5
4
330
10
100
AcDbSymbolTableRecord
100
AcDbLayerTableRecord
  2
0
 70
     0
 62
     7
  6
CONTINUOUS
  0
LAYER
  5
3A
330
10
100
AcDbSymbolTableRecord
100
AcDbLayerTableRecord
  2
CENTER
 70
     0
 62
     1
  6
CENTER
  0
ENDTAB
  0
TABLE
  2
STYLE
  5
15
330
0
100
AcDbSymbolTable
 70
     3
  0
STYLE
  5
16
330
15
100
AcDbSymbolTableRecord
100
AcDbTextStyleTableRecord
  2
STANDARD
 70
     0
 40
0.0
 41
1.0
 50
0.0
 71
     0
 42
0.125
  3
txt
  4

  0
STYLE
  5
2A
330
15
100
AcDbSymbolTableRecord
100
AcDbTextStyleTableRecord
  2
CARTOUCHE
 70
     0
 40
0.0
 41
1.0
 50
0.0
 71
     0
 42
0.08
  3
romans.shx
  4

  0
STYLE
  5
23
330
15
100
AcDbSymbolTableRecord
100
AcDbTextStyleTableRecord
  2
ROMANS
 70
     0
 40
0.0
 41
1.0
 50
0.0
 71
     0
 42
1.0
  3
romans.shx
  4

  0
ENDTAB
  0
TABLE
  2
VIEW
  5
1B
330
0
100
AcDbSymbolTable
 70
     0
  0
ENDTAB
  0
TABLE
  2
UCS
  5
1C
330
0
100
AcDbSymbolTable
 70
     0
  0
ENDTAB
  0
TABLE
  2
APPID
  5
1F
330
0
100
AcDbSymbolTable
 70
     1
  0
APPID
  5
20
330
1F
100
AcDbSymbolTableRecord
100
AcDbRegAppTableRecord
  2
ACAD
 70
     0
  0
ENDTAB
  0
TABLE
  2
DIMSTYLE
  5
21
330
0
100
AcDbSymbolTable
 70
     1
  0
DIMSTYLE
105
22
330
21
100
AcDbSymbolTableRecord
100
AcDbDimStyleTableRecord
  2
STANDARD
 70
     0
  3
\X
  4
cm
  5

  6

  7

 40
16.0
 41
0.1
 42
0.0625
 43
0.25
 44
0.1
 45
0.0
 46
0.0
 47
0.0
 48
0.0
140
0.1
141
0.09
142
0.0
143
2.54
144
1.0
145
0.0
146
1.0
147
0.08
 71
     0
 72
     0
 73
     1
 74
     1
 75
     0
 76
     0
 77
     0
 78
     4
170
     1
171
     1
172
     0
173
     0
174
     0
175
     0
176
     0
177
     0
178
     0
270
     5
271
     3
272
     3
273
     2
274
     1
340
23
275
     0
280
     0
281
     0
282
     0
283
     1
284
     4
285
     4
286
     4
287
     1
288
     0
  0
ENDTAB
  0
TABLE
  2
BLOCK_RECORD
  5
1
330
0
100
AcDbSymbolTable
 70
     0
  0
BLOCK_RECORD
  5
2
102
{ACAD_XDICTIONARY
360
200
102
}
330
1
100
AcDbSymbolTableRecord
100
AcDbBlockTableRecord
  2
*MODEL_SPACE
  0
BLOCK_RECORD
  5
1F5
102
{ACAD_XDICTIONARY
360
202
102
}
330
1
100
AcDbSymbolTableRecord
100
AcDbBlockTableRecord
  2
*PAPER_SPACE
  0
ENDTAB
  0
ENDSEC
  0
SECTION
  2
BLOCKS
  0
BLOCK
  5
3
330
2
100
AcDbEntity
  8
0
100
AcDbBlockBegin
  2
*MODEL_SPACE
 70
     0
 10
0.0
 20
0.0
 30
0.0
  3
*MODEL_SPACE
  1

  0
ENDBLK
  5
9
330
2
100
AcDbEntity
  8
0
100
AcDbBlockEnd
  0
BLOCK
  5
1F7
330
1F5
100
AcDbEntity
 67
     1
  8
0
100
AcDbBlockBegin
  2
*PAPER_SPACE
 70
     0
 10
0.0
 20
0.0
 30
0.0
  3
*PAPER_SPACE
  1

  0
ENDBLK
  5
1F8
330
1F5
100
AcDbEntity
 67
     1
  8
0
100
AcDbBlockEnd
  0
ENDSEC
  0
SECTION
  2
ENTITIES
  0
SPLINE
  5
2C
330
2
100
AcDbEntity
  8
0
 48
0.1
100
AcDbSpline
210
0.0
220
0.0
230
1.0
 70
     8
 71
     3
 72
    36
 73
    32
 74
     0
 42
0.0000000001
 43
0.0000000001
 40
0.0
 40
0.0
 40
0.0
 40
0.0
 40
1.279517869204363
 40
1.279517869204363
 40
3.230888140341495
 40
3.230888140341495
 40
5.870125566345924
 40
5.870125566345924
 40
8.509362992350354
 40
8.509362992350354
 40
11.82317636690337
 40
11.82317636690337
 40
15.13698974145639
 40
15.13698974145639
 40
17.88152067915357
 40
17.88152067915357
 40
20.62605161685075
 40
20.62605161685075
 40
23.07130994205255
 40
23.07130994205255
 40
24.84600755263504
 40
24.84600755263504
 40
26.62070516321754
 40
26.62070516321754
 40
27.6148012439877
 40
27.6148012439877
 40
28.37075652715808
 40
28.37075652715808
 40
28.94196382179082
 40
28.94196382179082
 40
29.54662450936354
 40
29.54662450936354
 40
29.54662450936354
 40
29.54662450936354
 10
3.109770994224632
 20
71.57533813709069
 30
0.0
 10
3.535827899555144
 20
71.57864965550721
 30
0.0
 10
3.954370855195875
 20
71.58193090946922
 30
0.0
 10
4.992634451866976
 20
71.59779683488618
 30
0.0
 10
5.602541741287822
 20
71.61444069305781
 30
0.0
 10
6.999190263900871
 20
71.69205192539959
 30
0.0
 10
7.787937163587898
 20
71.76812297225987
 30
0.0
 10
9.332279639549383
 20
71.99774645888334
 30
0.0
 10
10.08529467540196
 20
72.15107736547811
 30
0.0
 10
11.72124453099189
 20
72.59583308873423
 30
0.0
 10
12.58562508034752
 20
72.91179329003799
 30
0.0
 10
14.21946598707651
 20
73.70494420884759
 30
0.0
 10
14.98628133614569
 20
74.1802210196819
 30
0.0
 10
16.24390760115592
 20
75.17498860176681
 30
0.0
 10
16.7552785213102
 20
75.66958164464927
 30
0.0
 10
17.69087425203809
 20
76.77857231182446
 30
0.0
 10
18.11118777753628
 20
77.3880574132594
 30
0.0
 10
18.79762060488748
 20
78.61190452458076
 30
0.0
 10
19.0755096958154
 20
79.21836232594213
 30
0.0
 10
19.46683640207147
 20
80.29191951158377
 30
0.0
 10
19.60394631087872
 20
80.75060014744769
 30
0.0
 10
19.83036244934049
 20
81.69541729062171
 30
0.0
 10
19.91920571870825
 20
82.17966401285856
 30
0.0
 10
20.02210476889811
 20
82.9494882664972
 30
0.0
 10
20.05186921507078
 20
83.22874635108755
 30
0.0
 10
20.09214164460081
 20
83.72439627448658
 30
0.0
 10
20.10555509210874
 20
83.93982077807452
 30
0.0
 10
20.12236076916841
 20
84.44486512287486
 30
0.0
 10
20.12740119266803
 20
84.60903418629783
 30
0.0
 10
20.13339918620694
 20
84.94796731144599
 30
0.0
 10
20.13356428508599
 20
85.11692847830358
 30
0.0
 10
20.13309583245514
 20
85.3184552133705
 30
0.0
  0
SPLINE
  5
2D
330
2
100
AcDbEntity
  8
0
 48
0.1
100
AcDbSpline
210
0.0
220
0.0
230
1.0
 70
     8
 71
     3
 72
    13
 73
     9
 74
     7
 42
0.0000000001
 43
0.0000000001
 44
0.0000000001
 40
0.0
 40
0.0
 40
0.0
 40
0.0
 40
3.411341042276923
 40
10.91717837424424
 40
16.54425778113462
 40
23.71798977811012
 40
29.35634976708267
 40
29.67032503283336
 40
29.67032503283336
 40
29.67032503283336
 40
29.67032503283336
 10
3.133087727408579
 20
68.57542875013354
 30
0.0
 10
4.268992368448098
 20
68.58425832456849
 30
0.0
 10
7.904182585044929
 20
68.6125152586834
 30
0.0
 10
13.45208510355218
 20
69.59686731126133
 30
0.0
 10
19.31779839324008
 20
73.29419228046827
 30
0.0
 10
22.61487578319941
 20
78.82425013160283
 30
0.0
 10
23.13755355690568
 20
83.23697788810887
 30
0.0
 10
23.13331148906181
 20
85.22078632740823
 30
0.0
 10
23.13308772740835
 20
85.32542875013353
 30
0.0
 11
3.133087727408579
 21
68.57542875013354
 31
0.0
 11
6.543315316293742
 21
68.66258090862371
 31
0.0
 11
13.88271119159789
 21
70.23447856417343
 31
0.0
 11
18.59882198277098
 21
73.30405860985241
 31
0.0
 11
22.33113689489
 21
79.43041610523284
 31
0.0
 11
23.13308772740835
 21
85.01145348438285
 31
0.0
 11
23.13308772740835
 21
85.32542875013353
 31
0.0
  0
SPLINE
  5
2E
330
2
100
AcDbEntity
  8
0
 48
0.1
100
AcDbSpline
210
0.0
220
0.0
230
1.0
 70
     8
 71
     3
 72
    11
 73
     7
 74
     0
 42
0.0000000001
 43
0.0000000001
 40
1.159984128284664
 40
1.159984128284664
 40
1.159984128284664
 40
1.159984128284664
 40
4.204175713420602
 40
6.286926439648645
 40
8.866450054358811
 40
10.03786712379333
 40
10.03786712379333
 40
10.03786712379333
 40
10.03786712379333
 10
13.08947029075821
 20
79.67309745480389
 30
0.0
 10
12.03097565466488
 20
76.6673207436167
 30
0.0
 10
9.37129843368389
 20
73.76957128281969
 30
0.0
 10
6.756347753355512
 20
72.64220636203919
 30
0.0
 10
4.891264716197738
 20
72.08971444490032
 30
0.0
 10
2.944654158351212
 20
72.07185879540372
 30
0.0
 10
2.123438746800346
 20
72.07552848410229
 30
0.0
  0
SPLINE
  5
2F
330
2
100
AcDbEntity
  8
0
 48
0.1
100
AcDbSpline
210
0.0
220
0.0
230
1.0
 70
     8
 71
     3
 72
    12
 73
     8
 74
     6
 42
0.0000000001
 43
0.0000000001
 44
0.0000000001
 40
0.0
 40
0.0
 40
0.0
 40
0.0
 40
0.5428858828535681
 40
7.92451378313761
 40
12.28247244542456
 40
15.1145238820572
 40
15.35306488473893
 40
15.35306488473893
 40
15.35306488473893
 40
15.35306488473893
 10
12.61579877857847
 20
85.32542875013353
 30
0.0
 10
12.6168464909664
 20
85.14484535469954
 30
0.0
 10
12.63213996519572
 20
82.50886668713757
 30
0.0
 10
11.61782637498196
 20
78.04821153546297
 30
0.0
 10
7.26865194044063
 20
75.27401771648832
 30
0.0
 10
4.780379988895642
 20
74.9465508965909
 30
0.0
 10
3.756982005574604
 20
74.9501492125783
 30
0.0
 10
3.677478656983552
 20
74.95042875013353
 30
0.0
 11
12.61579877857847
 21
85.32542875013353
 31
0.0
 11
12.61579877857847
 21
84.78254286727997
 31
0.0
 11
10.36610484037898
 21
77.7520871464408
 31
0.0
 11
6.71682585861977
 21
75.36995226035807
 31
0.0
 11
3.91601965966528
 21
74.95042875013353
 31
0.0
 11
3.677478656983552
 21
74.95042875013353
 31
0.0
  0
SPLINE
  5
30
330
2
100
AcDbEntity
  8
0
 48
0.1
100
AcDbSpline
210
0.0
220
0.0
230
1.0
 70
     8
 71
     3
 72
    13
 73
     9
 74
     0
 42
0.0000000001
 43
0.0000000001
 40
0.0
 40
0.0
 40
0.0
 40
0.0
 40
0.3307334096703869
 40
2.898573574059241
 40
10.70458291618026
 40
15.42993306510672
 40
19.08959108087722
 40
20.31880829410857
 40
20.31880829410857
 40
20.31880829410857
 40
20.31880829410857
 10
16.53501151605503
 20
85.32542875013355
 30
0.0
 10
16.53520900453922
 20
85.21517389203108
 30
0.0
 10
16.53693980912295
 20
84.24889165756916
 30
0.0
 10
16.37527307053953
 20
80.56420128300951
 30
0.0
 10
14.26960033215866
 20
75.56041869381461
 30
0.0
 10
9.689132087548216
 20
72.39986173583758
 30
0.0
 10
6.517117564703838
 20
71.65263475194706
 30
0.0
 10
4.889067556853561
 20
71.59814641668863
 30
0.0
 10
4.479440180789566
 20
71.59003746410919
 30
0.0
  0
SPLINE
  5
31
330
2
100
AcDbEntity
  8
0
 48
0.1
100
AcDbSpline
210
0.0
220
0.0
230
1.0
 70
     8
 71
     3
 72
    11
 73
     7
 74
     0
 42
0.0000000001
 43
0.0000000001
 40
0.0
 40
0.0
 40
0.0
 40
0.0
 40
0.456596708339049
 40
3.910958522561494
 40
8.839072144315458
 40
10.43359682106056
 40
10.43359682106056
 40
10.43359682106056
 40
10.43359682106056
 10
4.74759099679035
 20
74.29829067701212
 30
0.0
 10
4.899723706562909
 20
74.29696456083921
 30
0.0
 10
6.20280957419817
 20
74.28560577253962
 30
0.0
 10
9.180812971738831
 20
74.91960467342129
 30
0.0
 10
11.78769270697235
 20
77.26271029915688
 30
0.0
 10
12.87172807898694
 20
79.1862033530652
 30
0.0
 10
13.09813336407029
 20
79.6730974548257
 30
0.0
  0
SPLINE
  5
32
330
2
100
AcDbEntity
  8
0
 48
0.1
100
AcDbSpline
210
0.0
220
0.0
230
1.0
 70
     8
 71
     3
 72
    13
 73
     9
 74
     0
 42
0.0000000001
 43
0.0000000001
 40
0.0
 40
0.0
 40
0.0
 40
0.0
 40
0.3307334096703869
 40
2.898573574059241
 40
10.70458291618026
 40
15.42993306510672
 40
19.08959108087722
 40
20.31880829410857
 40
20.31880829410857
 40
20.31880829410857
 40
20.31880829410857
 10
-36.51883606123833
 20
85.32542875013355
 30
0.0
 10
-36.51903354972252
 20
85.21517389203108
 30
0.0
 10
-36.52076435430625
 20
84.24889165756916
 30
0.0
 10
-36.35909761572284
 20
80.56420128300951
 30
0.0
 10
-34.25342487734195
 20
75.56041869381461
 30
0.0
 10
-29.67295663273151
 20
72.39986173583758
 30
0.0
 10
-26.50094210988713
 20
71.65263475194706
 30
0.0
 10
-24.87289210203686
 20
71.59814641668863
 30
0.0
 10
-24.46326472597286
 20
71.59003746410919
 30
0.0
  0
SPLINE
  5
33
330
2
100
AcDbEntity
  8
0
 48
0.1
100
AcDbSpline
210
0.0
220
0.0
230
1.0
 70
     8
 71
     3
 72
    12
 73
     8
 74
     6
 42
0.0000000001
 43
0.0000000001
 44
0.0000000001
 40
0.0
 40
0.0
 40
0.0
 40
0.0
 40
0.5428858828535681
 40
7.924513783137608
 40
12.28247244542456
 40
15.1145238820572
 40
15.35306488473893
 40
15.35306488473893
 40
15.35306488473893
 40
15.35306488473893
 10
-32.59962332376177
 20
85.32542875013353
 30
0.0
 10
-32.60067103614969
 20
85.14484535469952
 30
0.0
 10
-32.615964510379
 20
82.50886668713752
 30
0.0
 10
-31.60165092016526
 20
78.04821153546297
 30
0.0
 10
-27.25247648562392
 20
75.2740177164883
 30
0.0
 10
-24.76420453407894
 20
74.9465508965909
 30
0.0
 10
-23.74080655075789
 20
74.9501492125783
 30
0.0
 10
-23.66130320216684
 20
74.95042875013353
 30
0.0
 11
-32.59962332376177
 21
85.32542875013353
 31
0.0
 11
-32.59962332376177
 21
84.78254286727997
 31
0.0
 11
-30.34992938556227
 21
77.7520871464408
 31
0.0
 11
-26.70065040380306
 21
75.36995226035807
 31
0.0
 11
-23.89984420484857
 21
74.95042875013353
 31
0.0
 11
-23.66130320216684
 21
74.95042875013353
 31
0.0
  0
SPLINE
  5
34
330
2
100
AcDbEntity
  8
0
 48
0.1
100
AcDbSpline
210
0.0
220
0.0
230
1.0
 70
     8
 71
     3
 72
    36
 73
    32
 74
     0
 42
0.0000000001
 43
0.0000000001
 40
0.0
 40
0.0
 40
0.0
 40
0.0
 40
1.279517869204363
 40
1.279517869204363
 40
3.230888140341495
 40
3.230888140341495
 40
5.870125566345924
 40
5.870125566345924
 40
8.509362992350354
 40
8.509362992350354
 40
11.82317636690337
 40
11.82317636690337
 40
15.13698974145639
 40
15.13698974145639
 40
17.88152067915357
 40
17.88152067915357
 40
20.62605161685075
 40
20.62605161685075
 40
23.07130994205255
 40
23.07130994205255
 40
24.84600755263504
 40
24.84600755263504
 40
26.62070516321754
 40
26.62070516321754
 40
27.6148012439877
 40
27.6148012439877
 40
28.37075652715808
 40
28.37075652715808
 40
28.94196382179082
 40
28.94196382179082
 40
29.54662450936354
 40
29.54662450936354
 40
29.54662450936354
 40
29.54662450936354
 10
-23.09359553940793
 20
71.57533813709069
 30
0.0
 10
-23.51965244473845
 20
71.57864965550721
 30
0.0
 10
-23.93819540037916
 20
71.58193090946922
 30
0.0
 10
-24.97645899705027
 20
71.59779683488618
 30
0.0
 10
-25.58636628647112
 20
71.61444069305781
 30
0.0
 10
-26.98301480908416
 20
71.69205192539959
 30
0.0
 10
-27.77176170877119
 20
71.76812297225987
 30
0.0
 10
-29.31610418473267
 20
71.99774645888334
 30
0.0
 10
-30.06911922058526
 20
72.15107736547811
 30
0.0
 10
-31.70506907617519
 20
72.59583308873423
 30
0.0
 10
-32.56944962553082
 20
72.91179329003799
 30
0.0
 10
-34.20329053225981
 20
73.70494420884759
 30
0.0
 10
-34.97010588132899
 20
74.1802210196819
 30
0.0
 10
-36.22773214633921
 20
75.17498860176681
 30
0.0
 10
-36.7391030664935
 20
75.66958164464927
 30
0.0
 10
-37.67469879722139
 20
76.77857231182446
 30
0.0
 10
-38.09501232271958
 20
77.3880574132594
 30
0.0
 10
-38.78144515007078
 20
78.61190452458076
 30
0.0
 10
-39.0593342409987
 20
79.21836232594213
 30
0.0
 10
-39.45066094725477
 20
80.29191951158377
 30
0.0
 10
-39.58777085606202
 20
80.75060014744769
 30
0.0
 10
-39.81418699452379
 20
81.69541729062171
 30
0.0
 10
-39.90303026389154
 20
82.17966401285856
 30
0.0
 10
-40.00592931408141
 20
82.9494882664972
 30
0.0
 10
-40.03569376025407
 20
83.22874635108755
 30
0.0
 10
-40.07596618978411
 20
83.72439627448658
 30
0.0
 10
-40.08937963729204
 20
83.93982077807452
 30
0.0
 10
-40.1061853143517
 20
84.44486512287486
 30
0.0
 10
-40.11122573785132
 20
84.60903418629783
 30
0.0
 10
-40.11722373139024
 20
84.94796731144599
 30
0.0
 10
-40.11738883026928
 20
85.11692847830358
 30
0.0
 10
-40.11692037763843
 20
85.3184552133705
 30
0.0
  0
SPLINE
  5
35
330
2
100
AcDbEntity
  8
0
 48
0.1
100
AcDbSpline
210
0.0
220
0.0
230
1.0
 70
     8
 71
     3
 72
    13
 73
     9
 74
     7
 42
0.0000000001
 43
0.0000000001
 44
0.0000000001
 40
0.0
 40
0.0
 40
0.0
 40
0.0
 40
3.411341042276917
 40
10.91717837424423
 40
16.54425778113461
 40
23.71798977811011
 40
29.35634976708266
 40
29.67032503283335
 40
29.67032503283335
 40
29.67032503283335
 40
29.67032503283335
 10
-23.11691227259188
 20
68.57542875013354
 30
0.0
 10
-24.2528169136314
 20
68.58425832456849
 30
0.0
 10
-27.88800713022822
 20
68.61251525868337
 30
0.0
 10
-33.43590964873548
 20
69.59686731126133
 30
0.0
 10
-39.30162293842337
 20
73.29419228046827
 30
0.0
 10
-42.59870032838273
 20
78.82425013160283
 30
0.0
 10
-43.12137810208895
 20
83.23697788810887
 30
0.0
 10
-43.11713603424511
 20
85.22078632740823
 30
0.0
 10
-43.11691227259164
 20
85.32542875013353
 30
0.0
 11
-23.11691227259188
 21
68.57542875013354
 31
0.0
 11
-26.52713986147704
 21
68.66258090862371
 31
0.0
 11
-33.86653573678119
 21
70.23447856417343
 31
0.0
 11
-38.58264652795428
 21
73.30405860985241
 31
0.0
 11
-42.3149614400733
 21
79.43041610523284
 31
0.0
 11
-43.11691227259164
 21
85.01145348438285
 31
0.0
 11
-43.11691227259164
 21
85.32542875013353
 31
0.0
  0
SPLINE
  5
36
330
2
100
AcDbEntity
  8
0
 48
0.1
100
AcDbSpline
210
0.0
220
0.0
230
1.0
 70
     8
 71
     3
 72
    11
 73
     7
 74
     0
 42
0.0000000001
 43
0.0000000001
 40
1.159984128284664
 40
1.159984128284664
 40
1.159984128284664
 40
1.159984128284664
 40
4.204175713420602
 40
6.286926439648645
 40
8.866450054358811
 40
10.03786712379333
 40
10.03786712379333
 40
10.03786712379333
 40
10.03786712379333
 10
-33.07329483594151
 20
79.67309745480389
 30
0.0
 10
-32.01480019984818
 20
76.6673207436167
 30
0.0
 10
-29.35512297886718
 20
73.76957128281969
 30
0.0
 10
-26.7401722985388
 20
72.64220636203919
 30
0.0
 10
-24.87508926138103
 20
72.08971444490032
 30
0.0
 10
-22.92847870353451
 20
72.07185879540372
 30
0.0
 10
-22.10726329198365
 20
72.07552848410229
 30
0.0
  0
SPLINE
  5
37
330
2
100
AcDbEntity
  8
0
 48
0.1
100
AcDbSpline
210
0.0
220
0.0
230
1.0
 70
     8
 71
     3
 72
    11
 73
     7
 74
     0
 42
0.0000000001
 43
0.0000000001
 40
0.0
 40
0.0
 40
0.0
 40
0.0
 40
0.456596708339049
 40
3.910958522561494
 40
8.839072144315458
 40
10.35125805584171
 40
10.35125805584171
 40
10.35125805584171
 40
10.35125805584171
 10
-24.73141554197364
 20
74.29829067701212
 30
0.0
 10
-24.8835482517462
 20
74.29696456083921
 30
0.0
 10
-26.18663411938139
 20
74.28560577253962
 30
0.0
 10
-29.16463751692217
 20
74.91960467342129
 30
0.0
 10
-31.7500030438718
 20
77.24337298114338
 30
0.0
 10
-32.82808506276817
 20
79.13770319235209
 30
0.0
 10
-33.04657570488267
 20
79.59780443496573
 30
0.0
  0
CIRCLE
  5
38
330
2
100
AcDbEntity
  8
0
 48
0.1
100
AcDbCircle
 10
-9.991912272591655
 20
78.82542875013354
 30
0.0
 40
1.89014635623478
  0
LINE
  5
39
330
2
100
AcDbEntity
  8
CENTER
 48
0.65
100
AcDbLine
 10
-9.991912272591648
 20
82.7784661946471
 30
0.0
 11
-9.991912272591648
 21
74.87239130561995
 31
0.0
  0
LWPOLYLINE
  5
3C
330
2
100
AcDbEntity
  8
0
 48
0.1
100
AcDbPolyline
 90
        2
 70
     0
 43
0.0
 10
-23.11691227259188
 20
68.57542875013354
 10
-9.991912272591648
 20
68.57542875013354
  0
LINE
  5
3D
330
2
100
AcDbEntity
  8
0
 48
0.1
100
AcDbLine
 10
-23.66130320216684
 20
74.95042875013353
 30
0.0
 11
-13.81766842625306
 21
74.95042875013353
 31
0.0
  0
ARC
  5
3E
330
2
100
AcDbEntity
  8
0
 48
0.1
100
AcDbCircle
 10
-10.00261325534144
 20
57.84722547627566
 30
0.0
 40
14.85332281372685
100
AcDbArc
 50
89.95872161341056
 51
127.8517303388002
  0
ARC
  5
3F
330
2
100
AcDbEntity
  8
0
 48
0.1
100
AcDbCircle
 10
-9.991912272591648
 20
88.48070985495825
 30
0.0
 40
14.7314661636852
100
AcDbArc
 50
254.3080263071035
 51
270.0
  0
ARC
  5
40
330
2
100
AcDbEntity
  8
0
 48
0.1
100
AcDbCircle
 10
-10.15101300219154
 20
59.75680089729044
 30
0.0
 40
13.22118897277582
100
AcDbArc
 50
89.31049920178214
 51
111.2936336672439
  0
LINE
  5
41
330
2
100
AcDbEntity
  8
0
 48
0.1
100
AcDbLine
 10
-24.73141554197364
 20
74.2982906770121
 30
0.0
 11
-13.97626687438464
 21
74.29829067701216
 31
0.0
  0
LWPOLYLINE
  5
42
330
2
100
AcDbEntity
  8
0
 48
0.1
100
AcDbPolyline
 90
        2
 70
     0
 43
0.0
 10
-23.11851744254458
 20
71.57554443543863
 10
-15.4522027929491
 20
71.57541979132338
  0
LWPOLYLINE
  5
43
330
2
100
AcDbEntity
  8
0
 48
0.1
100
AcDbPolyline
 90
        2
 70
     0
 43
0.0
 10
-23.11851744254458
 20
71.57554443543863
 10
-15.4522027929491
 20
71.57541979132338
  0
LINE
  5
45
330
2
100
AcDbEntity
  8
0
 48
0.1
100
AcDbLine
 10
-22.11053188175644
 20
72.07553976190169
 30
0.0
 11
-14.95225743221721
 21
72.07540024043805
 31
0.0
  0
LWPOLYLINE
  5
46
330
2
100
AcDbEntity
  8
0
 48
0.1
100
AcDbPolyline
 90
        2
 70
     0
 43
0.0
 10
3.133087727408579
 20
68.57542875013354
 10
-9.991912272591648
 20
68.57542875013354
  0
LWPOLYLINE
  5
47
330
2
100
AcDbEntity
  8
0
 48
0.1
100
AcDbPolyline
 90
        2
 70
     0
 43
0.0
 10
3.13469289736129
 20
71.57554443543863
 10
-4.156621752234194
 20
71.57541979132338
  0
LWPOLYLINE
  5
48
330
2
100
AcDbEntity
  8
0
 48
0.1
100
AcDbPolyline
 90
        2
 70
     0
 43
0.0
 10
2.126707336573147
 20
72.07553976190169
 10
-5.031567112966087
 20
72.07540024043805
  0
ARC
  5
49
330
2
100
AcDbEntity
  8
0
 48
0.1
100
AcDbCircle
 10
-9.981211289841851
 20
57.84722547627567
 30
0.0
 40
14.85332281372684
100
AcDbArc
 50
52.14826966119972
 51
90.04127838658943
  0
LINE
  5
4A
330
2
100
AcDbEntity
  8
0
 48
0.1
100
AcDbLine
 10
3.677478656983552
 20
74.95042875013353
 30
0.0
 11
-6.166156118930231
 21
74.95042875013353
 31
0.0
  0
LINE
  5
4B
330
2
100
AcDbEntity
  8
0
 48
0.1
100
AcDbLine
 10
4.74759099679035
 20
74.2982906770121
 30
0.0
 11
-6.007557670798654
 21
74.29829067701216
 31
0.0
  0
ARC
  5
4C
330
2
100
AcDbEntity
  8
0
 48
0.1
100
AcDbCircle
 10
-9.991912272591648
 20
88.00482839812751
 30
0.0
 40
13.60344663373306
100
AcDbArc
 50
270.0
 51
286.3338869903267
  0
ARC
  5
4D
330
2
100
AcDbEntity
  8
0
 48
0.1
100
AcDbCircle
 10
-9.991912272591648
 20
88.48070985495825
 30
0.0
 40
14.7314661636852
100
AcDbArc
 50
270.0
 51
285.6919736928964
  0
ARC
  5
4E
330
2
100
AcDbEntity
  8
0
 48
0.1
100
AcDbCircle
 10
-9.832811542991755
 20
59.75680089729044
 30
0.0
 40
13.22118897277582
100
AcDbArc
 50
68.70636633275608
 51
90.68950079821787
  0
ARC
  5
4F
330
2
100
AcDbEntity
  8
0
 48
0.1
100
AcDbCircle
 10
-9.991912272591648
 20
88.00482839812751
 30
0.0
 40
13.60344663373306
100
AcDbArc
 50
253.6661130096731
 51
270.0
  0
SPLINE
  5
1C4
330
2
100
AcDbEntity
  8
0
 48
0.1
100
AcDbSpline
210
0.0
220
0.0
230
1.0
 70
     8
 71
     3
 72
    36
 73
    32
 74
     0
 42
0.0000000001
 43
0.0000000001
 40
0.0
 40
0.0
 40
0.0
 40
0.0
 40
1.279517869204363
 40
1.279517869204363
 40
3.230888140341495
 40
3.230888140341495
 40
5.870125566345924
 40
5.870125566345924
 40
8.509362992350354
 40
8.509362992350354
 40
11.82317636690337
 40
11.82317636690337
 40
15.13698974145639
 40
15.13698974145639
 40
17.88152067915357
 40
17.88152067915357
 40
20.62605161685075
 40
20.62605161685075
 40
23.07130994205255
 40
23.07130994205255
 40
24.84600755263504
 40
24.84600755263504
 40
26.62070516321754
 40
26.62070516321754
 40
27.6148012439877
 40
27.6148012439877
 40
28.37075652715808
 40
28.37075652715808
 40
28.94196382179082
 40
28.94196382179082
 40
29.54662450936354
 40
29.54662450936354
 40
29.54662450936354
 40
29.54662450936354
 10
-23.09359553940793
 20
99.07551936317638
 30
0.0
 10
-23.51965244473845
 20
99.07220784475988
 30
0.0
 10
-23.93819540037916
 20
99.06892659079787
 30
0.0
 10
-24.97645899705027
 20
99.0530606653809
 30
0.0
 10
-25.58636628647112
 20
99.03641680720927
 30
0.0
 10
-26.98301480908416
 20
98.95880557486748
 30
0.0
 10
-27.77176170877119
 20
98.88273452800721
 30
0.0
 10
-29.31610418473267
 20
98.65311104138374
 30
0.0
 10
-30.06911922058526
 20
98.49978013478896
 30
0.0
 10
-31.70506907617519
 20
98.05502441153285
 30
0.0
 10
-32.56944962553082
 20
97.73906421022909
 30
0.0
 10
-34.20329053225981
 20
96.9459132914195
 30
0.0
 10
-34.97010588132899
 20
96.47063648058519
 30
0.0
 10
-36.22773214633921
 20
95.47586889850027
 30
0.0
 10
-36.7391030664935
 20
94.9812758556178
 30
0.0
 10
-37.67469879722139
 20
93.87228518844262
 30
0.0
 10
-38.09501232271958
 20
93.26280008700768
 30
0.0
 10
-38.78144515007078
 20
92.03895297568632
 30
0.0
 10
-39.0593342409987
 20
91.43249517432495
 30
0.0
 10
-39.45066094725477
 20
90.35893798868331
 30
0.0
 10
-39.58777085606202
 20
89.90025735281937
 30
0.0
 10
-39.81418699452379
 20
88.95544020964537
 30
0.0
 10
-39.90303026389154
 20
88.47119348740852
 30
0.0
 10
-40.00592931408141
 20
87.70136923376988
 30
0.0
 10
-40.03569376025407
 20
87.42211114917953
 30
0.0
 10
-40.07596618978411
 20
86.9264612257805
 30
0.0
 10
-40.08937963729204
 20
86.71103672219256
 30
0.0
 10
-40.1061853143517
 20
86.33099237739221
 30
0.0
 10
-40.11122573785132
 20
86.16682331396924
 30
0.0
 10
-40.11722373139024
 20
85.70289018882109
 30
0.0
 10
-40.11738883026928
 20
85.5339290219635
 30
0.0
 10
-40.11692037763843
 20
85.33240228689658
 30
0.0
  0
SPLINE
  5
1C5
330
2
100
AcDbEntity
  8
0
 48
0.1
100
AcDbSpline
210
0.0
220
0.0
230
1.0
 70
     8
 71
     3
 72
    13
 73
     9
 74
     7
 42
0.0000000001
 43
0.0000000001
 44
0.0000000001
 40
0.0
 40
0.0
 40
0.0
 40
0.0
 40
3.411341042276917
 40
10.91717837424423
 40
16.54425778113461
 40
23.71798977811011
 40
29.35634976708266
 40
29.67032503283335
 40
29.67032503283335
 40
29.67032503283335
 40
29.67032503283335
 10
-23.11691227259188
 20
102.0754287501335
 30
0.0
 10
-24.2528169136314
 20
102.0665991756986
 30
0.0
 10
-27.88800713022822
 20
102.0383422415836
 30
0.0
 10
-33.43590964873548
 20
101.0539901890057
 30
0.0
 10
-39.30162293842337
 20
97.35666521979883
 30
0.0
 10
-42.59870032838273
 20
91.82660736866424
 30
0.0
 10
-43.12137810208895
 20
87.41387961215821
 30
0.0
 10
-43.11713603424511
 20
85.43007117285885
 30
0.0
 10
-43.11691227259164
 20
85.32542875013353
 30
0.0
 11
-23.11691227259188
 21
102.0754287501335
 31
0.0
 11
-26.52713986147704
 21
101.9882765916433
 31
0.0
 11
-33.86653573678119
 21
100.4163789360936
 31
0.0
 11
-38.58264652795428
 21
97.34679889041467
 31
0.0
 11
-42.3149614400733
 21
91.22044139503424
 31
0.0
 11
-43.11691227259164
 21
85.63940401588423
 31
0.0
 11
-43.11691227259164
 21
85.32542875013353
 31
0.0
  0
SPLINE
  5
1C6
330
2
100
AcDbEntity
  8
0
 48
0.1
100
AcDbSpline
210
0.0
220
0.0
230
1.0
 70
     8
 71
     3
 72
    13
 73
     9
 74
     0
 42
0.0000000001
 43
0.0000000001
 40
0.0
 40
0.0
 40
0.0
 40
0.0
 40
0.3307334096703869
 40
2.898573574059241
 40
10.70458291618026
 40
15.42993306510672
 40
19.08959108087722
 40
20.31880829410857
 40
20.31880829410857
 40
20.31880829410857
 40
20.31880829410857
 10
-36.51883606123833
 20
85.32542875013353
 30
0.0
 10
-36.51903354972252
 20
85.43568360823602
 30
0.0
 10
-36.52076435430625
 20
86.52696584269794
 30
0.0
 10
-36.35909761572283
 20
90.08665621725759
 30
0.0
 10
-34.25342487734195
 20
95.09043880645249
 30
0.0
 10
-29.6729566327315
 20
98.25099576442951
 30
0.0
 10
-26.50094210988712
 20
98.99822274832004
 30
0.0
 10
-24.87289210203685
 20
99.05271108357846
 30
0.0
 10
-24.46326472597286
 20
99.06082003615791
 30
0.0
  0
SPLINE
  5
1C7
330
2
100
AcDbEntity
  8
0
 48
0.1
100
AcDbSpline
210
0.0
220
0.0
230
1.0
 70
     8
 71
     3
 72
    36
 73
    32
 74
     0
 42
0.0000000001
 43
0.0000000001
 40
0.0
 40
0.0
 40
0.0
 40
0.0
 40
1.279517869204363
 40
1.279517869204363
 40
3.230888140341495
 40
3.230888140341495
 40
5.870125566345924
 40
5.870125566345924
 40
8.509362992350354
 40
8.509362992350354
 40
11.82317636690337
 40
11.82317636690337
 40
15.13698974145639
 40
15.13698974145639
 40
17.88152067915357
 40
17.88152067915357
 40
20.62605161685075
 40
20.62605161685075
 40
23.07130994205255
 40
23.07130994205255
 40
24.84600755263504
 40
24.84600755263504
 40
26.62070516321754
 40
26.62070516321754
 40
27.6148012439877
 40
27.6148012439877
 40
28.37075652715808
 40
28.37075652715808
 40
28.94196382179082
 40
28.94196382179082
 40
29.54662450936354
 40
29.54662450936354
 40
29.54662450936354
 40
29.54662450936354
 10
3.109770994224632
 20
99.07551936317638
 30
0.0
 10
3.535827899555144
 20
99.07220784475988
 30
0.0
 10
3.954370855195875
 20
99.06892659079787
 30
0.0
 10
4.992634451866976
 20
99.0530606653809
 30
0.0
 10
5.602541741287822
 20
99.03641680720927
 30
0.0
 10
6.999190263900871
 20
98.95880557486748
 30
0.0
 10
7.787937163587898
 20
98.88273452800721
 30
0.0
 10
9.332279639549383
 20
98.65311104138374
 30
0.0
 10
10.08529467540196
 20
98.49978013478896
 30
0.0
 10
11.72124453099189
 20
98.05502441153285
 30
0.0
 10
12.58562508034752
 20
97.73906421022909
 30
0.0
 10
14.21946598707651
 20
96.9459132914195
 30
0.0
 10
14.98628133614569
 20
96.47063648058519
 30
0.0
 10
16.24390760115592
 20
95.47586889850027
 30
0.0
 10
16.7552785213102
 20
94.9812758556178
 30
0.0
 10
17.69087425203809
 20
93.87228518844262
 30
0.0
 10
18.11118777753628
 20
93.26280008700768
 30
0.0
 10
18.79762060488748
 20
92.03895297568632
 30
0.0
 10
19.0755096958154
 20
91.43249517432495
 30
0.0
 10
19.46683640207147
 20
90.35893798868331
 30
0.0
 10
19.60394631087872
 20
89.90025735281937
 30
0.0
 10
19.83036244934049
 20
88.95544020964537
 30
0.0
 10
19.91920571870825
 20
88.47119348740852
 30
0.0
 10
20.02210476889811
 20
87.70136923376988
 30
0.0
 10
20.05186921507078
 20
87.42211114917953
 30
0.0
 10
20.09214164460081
 20
86.9264612257805
 30
0.0
 10
20.10555509210874
 20
86.71103672219256
 30
0.0
 10
20.12236076916841
 20
86.33099237739221
 30
0.0
 10
20.12740119266803
 20
86.16682331396924
 30
0.0
 10
20.13339918620694
 20
85.70289018882109
 30
0.0
 10
20.13356428508599
 20
85.5339290219635
 30
0.0
 10
20.13309583245514
 20
85.33240228689658
 30
0.0
  0
SPLINE
  5
1C8
330
2
100
AcDbEntity
  8
0
 48
0.1
100
AcDbSpline
210
0.0
220
0.0
230
1.0
 70
     8
 71
     3
 72
    13
 73
     9
 74
     7
 42
0.0000000001
 43
0.0000000001
 44
0.0000000001
 40
0.0
 40
0.0
 40
0.0
 40
0.0
 40
3.411341042276923
 40
10.91717837424424
 40
16.54425778113462
 40
23.71798977811012
 40
29.35634976708267
 40
29.67032503283336
 40
29.67032503283336
 40
29.67032503283336
 40
29.67032503283336
 10
3.133087727408579
 20
102.0754287501335
 30
0.0
 10
4.268992368448098
 20
102.0665991756986
 30
0.0
 10
7.904182585044929
 20
102.0383422415837
 30
0.0
 10
13.45208510355218
 20
101.0539901890057
 30
0.0
 10
19.31779839324008
 20
97.35666521979879
 30
0.0
 10
22.61487578319941
 20
91.82660736866424
 30
0.0
 10
23.13755355690568
 20
87.41387961215821
 30
0.0
 10
23.13331148906181
 20
85.43007117285885
 30
0.0
 10
23.13308772740835
 20
85.32542875013353
 30
0.0
 11
3.133087727408579
 21
102.0754287501335
 31
0.0
 11
6.543315316293742
 21
101.9882765916433
 31
0.0
 11
13.88271119159789
 21
100.4163789360936
 31
0.0
 11
18.59882198277098
 21
97.34679889041467
 31
0.0
 11
22.33113689489
 21
91.22044139503424
 31
0.0
 11
23.13308772740835
 21
85.63940401588423
 31
0.0
 11
23.13308772740835
 21
85.32542875013353
 31
0.0
  0
SPLINE
  5
1C9
330
2
100
AcDbEntity
  8
0
 48
0.1
100
AcDbSpline
210
0.0
220
0.0
230
1.0
 70
     8
 71
     3
 72
    11
 73
     7
 74
     0
 42
0.0000000001
 43
0.0000000001
 40
1.159984128284664
 40
1.159984128284664
 40
1.159984128284664
 40
1.159984128284664
 40
4.204175713420602
 40
6.286926439648645
 40
8.866450054358811
 40
10.03786712379333
 40
10.03786712379333
 40
10.03786712379333
 40
10.03786712379333
 10
13.08947029075821
 20
90.97776004546318
 30
0.0
 10
12.03097565466488
 20
93.98353675665038
 30
0.0
 10
9.37129843368389
 20
96.88128621744738
 30
0.0
 10
6.756347753355512
 20
98.00865113822789
 30
0.0
 10
4.891264716197738
 20
98.56114305536676
 30
0.0
 10
2.944654158351212
 20
98.57899870486336
 30
0.0
 10
2.123438746800346
 20
98.5753290161648
 30
0.0
  0
SPLINE
  5
1CA
330
2
100
AcDbEntity
  8
0
 48
0.1
100
AcDbSpline
210
0.0
220
0.0
230
1.0
 70
     8
 71
     3
 72
    12
 73
     8
 74
     6
 42
0.0000000001
 43
0.0000000001
 44
0.0000000001
 40
0.0
 40
0.0
 40
0.0
 40
0.0
 40
0.5428858828535681
 40
7.92451378313761
 40
12.28247244542456
 40
15.35063661764954
 40
15.8950275472246
 40
15.8950275472246
 40
15.8950275472246
 40
15.8950275472246
 10
12.61579877857847
 20
85.32542875013353
 30
0.0
 10
12.61684674938158
 20
85.5060216011909
 30
0.0
 10
12.63214399570127
 20
88.14213829263611
 30
0.0
 10
11.61758022802737
 20
92.59363924570607
 30
0.0
 10
7.198613754419157
 20
95.43767280504884
 30
0.0
 10
4.518082875822674
 20
95.7078819972436
 30
0.0
 10
3.314465784908252
 20
95.70140482249341
 30
0.0
 10
3.133087727408494
 20
95.70042875013355
 30
0.0
 11
12.61579877857847
 21
85.32542875013353
 31
0.0
 11
12.61579877857847
 21
85.86831463298711
 31
0.0
 11
10.36610484037898
 21
92.89877035382628
 31
0.0
 11
6.71682585861977
 21
95.28090523990901
 31
0.0
 11
3.677478656983552
 21
95.70042875013355
 31
0.0
 11
3.133087727408494
 21
95.70042875013355
 31
0.0
  0
SPLINE
  5
1CB
330
2
100
AcDbEntity
  8
0
 48
0.1
100
AcDbSpline
210
0.0
220
0.0
230
1.0
 70
     8
 71
     3
 72
    11
 73
     7
 74
     0
 42
0.0000000001
 43
0.0000000001
 40
0.0
 40
0.0
 40
0.0
 40
0.0
 40
0.456596708339049
 40
3.910958522561494
 40
8.839072144315458
 40
10.4133034449862
 40
10.4133034449862
 40
10.4133034449862
 40
10.4133034449862
 10
4.74759099679035
 20
96.33398496488263
 30
0.0
 10
4.899723706562909
 20
96.33531108105554
 30
0.0
 10
6.20280957419817
 20
96.34666986935524
 30
0.0
 10
9.180812971738831
 20
95.71267096847336
 30
0.0
 10
11.78239027234772
 20
93.37433125665066
 30
0.0
 10
12.86497672557871
 20
91.45803732579571
 30
0.0
 10
13.08947029075821
 20
90.97776004546316
 30
0.0
  0
SPLINE
  5
1CC
330
2
100
AcDbEntity
  8
0
 48
0.1
100
AcDbSpline
210
0.0
220
0.0
230
1.0
 70
     8
 71
     3
 72
    13
 73
     9
 74
     0
 42
0.0000000001
 43
0.0000000001
 40
0.0
 40
0.0
 40
0.0
 40
0.0
 40
0.3307334096703869
 40
2.898573574059241
 40
10.70458291618026
 40
15.42993306510672
 40
19.08959108087722
 40
20.31880829410857
 40
20.31880829410857
 40
20.31880829410857
 40
20.31880829410857
 10
16.53501151605503
 20
85.32542875013353
 30
0.0
 10
16.53520900453922
 20
85.43568360823602
 30
0.0
 10
16.53693980912295
 20
86.52696584269794
 30
0.0
 10
16.37527307053953
 20
90.08665621725759
 30
0.0
 10
14.26960033215866
 20
95.09043880645249
 30
0.0
 10
9.689132087548202
 20
98.25099576442951
 30
0.0
 10
6.517117564703838
 20
98.99822274832004
 30
0.0
 10
4.889067556853561
 20
99.05271108357846
 30
0.0
 10
4.479440180789566
 20
99.06082003615791
 30
0.0
  0
LWPOLYLINE
  5
1CD
330
2
100
AcDbEntity
  8
0
 48
0.1
100
AcDbPolyline
 90
        2
 70
     0
 43
0.0
 10
-23.11691227259188
 20
102.0754287501335
 10
-9.991912272591648
 20
102.0754287501335
  0
ARC
  5
1CE
330
2
100
AcDbEntity
  8
0
 48
0.1
100
AcDbCircle
 10
-10.00261325534144
 20
112.8036320239914
 30
0.0
 40
14.85332281372685
100
AcDbArc
 50
232.1482696611997
 51
270.0412783865894
  0
ARC
  5
1CF
330
2
100
AcDbEntity
  8
0
 48
0.1
100
AcDbCircle
 10
-10.00400966366627
 20
111.231304711419
 30
0.0
 40
15.96838054368171
100
AcDbArc
 50
229.5746011768922
 51
270.0434063752491
  0
ARC
  5
1D0
330
2
100
AcDbEntity
  8
0
 48
0.1
100
AcDbCircle
 10
-10.00084167542405
 20
111.4181661796979
 30
0.0
 40
14.96774009310089
100
AcDbArc
 50
235.5504968235341
 51
270.0341813208297
  0
LINE
  5
1D1
330
2
100
AcDbEntity
  8
0
 48
0.1
100
AcDbLine
 10
-23.66130320261027
 20
95.70042875013355
 30
0.0
 11
-13.81766842625309
 21
95.70042875013355
 31
0.0
  0
LINE
  5
1D2
330
2
100
AcDbEntity
  8
CENTER
 48
0.65
100
AcDbLine
 10
-6.038874828078071
 20
78.82542875013354
 30
0.0
 11
-13.94494971710523
 21
78.82542875013354
 31
0.0
  0
ARC
  5
1D3
330
2
100
AcDbEntity
  8
0
 48
0.1
100
AcDbCircle
 10
-10.15101300219154
 20
110.8940566029766
 30
0.0
 40
13.22118897277582
100
AcDbArc
 50
248.7066204685277
 51
270.6895007982178
  0
SPLINE
  5
1D4
330
2
100
AcDbEntity
  8
0
 48
0.1
100
AcDbSpline
210
0.0
220
0.0
230
1.0
 70
     8
 71
     3
 72
    11
 73
     7
 74
     0
 42
0.0000000001
 43
0.0000000001
 40
1.159984128284664
 40
1.159984128284664
 40
1.159984128284664
 40
1.159984128284664
 40
4.204175713420602
 40
6.286926439648645
 40
8.866450054358811
 40
10.03786712379333
 40
10.03786712379333
 40
10.03786712379333
 40
10.03786712379333
 10
-33.07329483594151
 20
90.97776004546318
 30
0.0
 10
-32.01480019984818
 20
93.98353675665038
 30
0.0
 10
-29.35512297886718
 20
96.88128621744738
 30
0.0
 10
-26.7401722985388
 20
98.00865113822789
 30
0.0
 10
-24.87508926138103
 20
98.56114305536676
 30
0.0
 10
-22.92847870353451
 20
98.57899870486336
 30
0.0
 10
-22.10726329198365
 20
98.5753290161648
 30
0.0
  0
SPLINE
  5
1D5
330
2
100
AcDbEntity
  8
0
 48
0.1
100
AcDbSpline
210
0.0
220
0.0
230
1.0
 70
     8
 71
     3
 72
    12
 73
     8
 74
     6
 42
0.0000000001
 43
0.0000000001
 44
0.0000000001
 40
0.0
 40
0.0
 40
0.0
 40
0.0
 40
0.5428858828535681
 40
7.924513783137608
 40
12.28247244542456
 40
15.35063661764954
 40
15.89502754722459
 40
15.89502754722459
 40
15.89502754722459
 40
15.89502754722459
 10
-32.59962332376177
 20
85.32542875013353
 30
0.0
 10
-32.60067129456487
 20
85.5060216011909
 30
0.0
 10
-32.61596854088455
 20
88.14213829263605
 30
0.0
 10
-31.60140477321067
 20
92.59363924570607
 30
0.0
 10
-27.18243829960245
 20
95.43767280504885
 30
0.0
 10
-24.50190742100598
 20
95.7078819972436
 30
0.0
 10
-23.29829033009154
 20
95.70140482249337
 30
0.0
 10
-23.11691227259179
 20
95.70042875013355
 30
0.0
 11
-32.59962332376177
 21
85.32542875013353
 31
0.0
 11
-32.59962332376177
 21
85.86831463298711
 31
0.0
 11
-30.34992938556227
 21
92.89877035382628
 31
0.0
 11
-26.70065040380306
 21
95.28090523990901
 31
0.0
 11
-23.66130320216684
 21
95.70042875013355
 31
0.0
 11
-23.11691227259179
 21
95.70042875013355
 31
0.0
  0
SPLINE
  5
1D6
330
2
100
AcDbEntity
  8
0
 48
0.1
100
AcDbSpline
210
0.0
220
0.0
230
1.0
 70
     8
 71
     3
 72
    11
 73
     7
 74
     0
 42
0.0000000001
 43
0.0000000001
 40
0.0
 40
0.0
 40
0.0
 40
0.0
 40
0.456596708339049
 40
3.910958522561494
 40
8.839072144315458
 40
10.4133034449702
 40
10.4133034449702
 40
10.4133034449702
 40
10.4133034449702
 10
-24.73141554197364
 20
96.33398496488263
 30
0.0
 10
-24.8835482517462
 20
96.33531108105554
 30
0.0
 10
-26.18663411938139
 20
96.34666986935524
 30
0.0
 10
-29.16463751692217
 20
95.71267096847336
 30
0.0
 10
-31.76621481752683
 20
93.37433125665439
 30
0.0
 10
-32.84880127075668
 20
91.45803732580512
 30
0.0
 10
-33.07329483593466
 20
90.97776004547782
 30
0.0
  0
LINE
  5
1D7
330
2
100
AcDbEntity
  8
0
 48
0.1
100
AcDbLine
 10
-15.93328676837612
 20
96.33398496488263
 30
0.0
 11
-25.18801225031269
 21
96.33398496488263
 31
0.0
  0
LWPOLYLINE
  5
1D8
330
2
100
AcDbEntity
  8
0
 48
0.1
100
AcDbPolyline
 90
        2
 70
     0
 43
0.0
 10
-23.11851744254458
 20
99.07531306482844
 10
-15.4522027929491
 20
99.0754377089437
  0
LINE
  5
1D9
330
2
100
AcDbEntity
  8
0
 48
0.1
100
AcDbLine
 10
-23.1185088951069
 20
98.57531306490152
 30
0.0
 11
-19.76908620121092
 21
98.5753658982815
 31
0.0
  0
LINE
  5
1DA
330
2
100
AcDbEntity
  8
0
 48
0.1
100
AcDbLine
 10
-17.72807952958931
 20
98.57539809286869
 30
0.0
 11
-14.9522027929491
 21
98.57543596400189
 31
0.0
  0
CIRCLE
  5
1DB
330
2
100
AcDbEntity
  8
0
 48
0.1
100
AcDbCircle
 10
-9.991912272591655
 20
78.82542875013354
 30
0.0
 40
1.25
  0
LWPOLYLINE
  5
1DC
330
2
100
AcDbEntity
  8
0
 48
0.1
100
AcDbPolyline
 90
        2
 70
     0
 43
0.0
 10
3.133087727408579
 20
102.0754287501335
 10
-9.991912272591648
 20
102.0754287501335
  0
LWPOLYLINE
  5
1DD
330
2
100
AcDbEntity
  8
0
 48
0.1
100
AcDbPolyline
 90
        2
 70
     0
 43
0.0
 10
3.13469289736129
 20
99.07531306482844
 10
-4.156621752234194
 20
99.0754377089437
  0
LWPOLYLINE
  5
1DE
330
2
100
AcDbEntity
  8
0
 48
0.1
100
AcDbPolyline
 90
        2
 70
     0
 43
0.0
 10
-2.25574501559398
 20
98.57539809286869
 10
-5.031621752234194
 20
98.57543596400189
  0
ARC
  5
1DF
330
2
100
AcDbEntity
  8
0
 48
0.1
100
AcDbCircle
 10
-9.981211289841851
 20
112.8036320239914
 30
0.0
 40
14.85332281372685
100
AcDbArc
 50
269.9587216134105
 51
307.8517303388002
  0
ARC
  5
1E0
330
2
100
AcDbEntity
  8
0
 48
0.1
100
AcDbCircle
 10
-9.98298286975924
 20
111.4181661796979
 30
0.0
 40
14.96774009310088
100
AcDbArc
 50
269.9658186791702
 51
304.4495031764658
  0
ARC
  5
1E1
330
2
100
AcDbEntity
  8
0
 48
0.1
100
AcDbCircle
 10
-9.979814881517022
 20
111.231304711419
 30
0.0
 40
15.96838054368172
100
AcDbArc
 50
269.9565936247509
 51
310.4253988231077
  0
LINE
  5
1E2
330
2
100
AcDbEntity
  8
0
 48
0.1
100
AcDbLine
 10
-4.050537776807168
 20
96.33398496488263
 30
0.0
 11
5.204187705129399
 21
96.33398496488263
 31
0.0
  0
LINE
  5
1E3
330
2
100
AcDbEntity
  8
0
 48
0.1
100
AcDbLine
 10
3.677478657426973
 20
95.70042875013355
 30
0.0
 11
-6.166156118930203
 21
95.70042875013355
 31
0.0
  0
ARC
  5
1E5
330
2
100
AcDbEntity
  8
0
 48
0.1
100
AcDbCircle
 10
-10.06611490002771
 20
82.15156578693651
 30
0.0
 40
14.7314661636852
100
AcDbArc
 50
80.18172489938397
 51
89.71139903444351
  0
ARC
  5
1E6
330
2
100
AcDbEntity
  8
0
 48
0.1
100
AcDbCircle
 10
-9.832811542991755
 20
110.8940566029766
 30
0.0
 40
13.22118897277582
100
AcDbArc
 50
269.3104992017821
 51
291.2933795314722
  0
ARC
  5
1E7
330
2
100
AcDbEntity
  8
0
 48
0.1
100
AcDbCircle
 10
-9.917709645155582
 20
82.15156578693651
 30
0.0
 40
14.7314661636852
100
AcDbArc
 50
90.28860096555648
 51
99.81827510061606
  0
ARC
  5
1E8
330
2
100
AcDbEntity
  8
0
 48
0.1
100
AcDbCircle
 10
-9.991912272591648
 20
82.64602910213957
 30
0.0
 40
13.60344663373306
100
AcDbArc
 50
105.8656441692157
 51
106.3338869903268
  0
ARC
  5
1E9
330
2
100
AcDbEntity
  8
0
 48
0.1
100
AcDbCircle
 10
-9.991912272591648
 20
82.64602910213957
 30
0.0
 40
13.60344663373306
100
AcDbArc
 50
105.8656441692157
 51
106.3338869903268
  0
LWPOLYLINE
  5
1EB
330
2
100
AcDbEntity
  8
0
 48
0.1
100
AcDbPolyline
 90
        2
 70
     0
 43
0.0
 10
3.134684349923603
 20
98.57531306490152
 10
-0.2147383439723711
 20
98.5753658982815
  0
ENDSEC
  0
SECTION
  2
OBJECTS
  0
DICTIONARY
  5
7
330
0
100
AcDbDictionary
  3
ACAD_GROUP
350
27
  3
ACAD_LAYOUT
350
B
  3
ACAD_MLINESTYLE
350
28
  3
ACAD_PLOTSETTINGS
350
29
  3
ACAD_PLOTSTYLENAME
350
6
  3
ACDBHEADERROUNDTRIPXREC
350
2D8
  3
ACDBVARIABLEDICTIONARY
350
1EE
  0
DICTIONARY
  5
11
330
10
100
AcDbDictionary
280
     1
  3
ACAD_LAYERFILTERS
360
12
  0
DICTIONARY
  5
200
330
2
100
AcDbDictionary
280
     1
  3
ACAD_LAYOUTSELFREF
360
2F9
  0
DICTIONARY
  5
202
330
1F5
100
AcDbDictionary
280
     1
  3
ACAD_LAYOUTSELFREF
360
2FA
  0
DICTIONARY
  5
27
102
{ACAD_REACTORS
330
7
102
}
330
7
100
AcDbDictionary
  0
DICTIONARY
  5
B
102
{ACAD_REACTORS
330
7
102
}
330
7
100
AcDbDictionary
  0
DICTIONARY
  5
28
102
{ACAD_REACTORS
330
7
102
}
330
7
100
AcDbDictionary
  3
STANDARD
350
2B
  0
DICTIONARY
  5
29
102
{ACAD_REACTORS
330
7
102
}
330
7
100
AcDbDictionary
  0
ACDBDICTIONARYWDFLT
  5
6
102
{ACAD_REACTORS
330
7
102
}
330
7
100
AcDbDictionary
281
     1
  3
Normal
350
5
100
AcDbDictionaryWithDefault
340
5
  0
DICTIONARY
  5
2D8
102
{ACAD_REACTORS
330
7
102
}
330
7
100
AcDbDictionary
  3
CEPSNTYPE
350
2E2
  3
DIMSTYLEDATA
350
2E6
  3
FINGERPRINTGUID
350
2E3
  3
HYPERLINKBASE
350
2DB
  3
INSUNITS
350
2E1
  3
LAYOUTDICT
350
2DD
  3
LWETCUNION
350
2E0
  3
PLOTSETDICT
350
2DE
  3
PLOTSTYLNAMDICT
350
2DF
  3
PSVPSCALE
350
2E5
  3
PUCSBASE
350
2E9
  3
PUCSORGBACK
350
2EF
  3
PUCSORGBOTTOM
350
2EB
  3
PUCSORGFRONT
350
2EE
  3
PUCSORGLEFT
350
2EC
  3
PUCSORGRIGHT
350
2ED
  3
PUCSORGTOP
350
2EA
  3
PUCSORTHOREF
350
2E7
  3
PUCSORTHOVIEW
350
2E8
  3
STYLESHEET
350
2DC
  3
TSTACKALIGN
350
2D9
  3
TSTACKSIZE
350
2DA
  3
UCSBASE
350
2F2
  3
UCSORGBACK
350
2F8
  3
UCSORGBOTTOM
350
2F4
  3
UCSORGFRONT
350
2F7
  3
UCSORGLEFT
350
2F5
  3
UCSORGRIGHT
350
2F6
  3
UCSORGTOP
350
2F3
  3
UCSORTHOREF
350
2F0
  3
UCSORTHOVIEW
350
2F1
  3
VERSIONGUID
350
2E4
  0
DICTIONARY
  5
1EE
102
{ACAD_REACTORS
330
7
102
}
330
7
100
AcDbDictionary
  3
DIMASSOC
350
1F0
  3
HIDETEXT
350
1EF
  0
DICTIONARY
  5
12
102
{ACAD_REACTORS
330
11
102
}
330
11
100
AcDbDictionary
280
     1
  3
DIM-1_12
360
13
  3
DIM-1_16
360
14
  0
XRECORD
  5
2F9
102
{ACAD_REACTORS
330
200
102
}
330
200
100
AcDbXrecord
340
2
  0
XRECORD
  5
2FA
102
{ACAD_REACTORS
330
202
102
}
330
202
100
AcDbXrecord
340
1F5
  0
MLINESTYLE
  5
2B
102
{ACAD_REACTORS
330
28
102
}
330
28
100
AcDbMlineStyle
  2
STANDARD
 70
     0
  3

 62
   256
 51
90.0
 52
90.0
 71
     2
 49
0.5
 62
   256
  6
BYLAYER
 49
-0.5
 62
   256
  6
BYLAYER
  0
ACDBPLACEHOLDER
  5
5
102
{ACAD_REACTORS
330
6
102
}
330
6
100
AcDbPlaceHolder
280
     0
  0
XRECORD
  5
2E2
102
{ACAD_REACTORS
330
2D8
102
}
330
2D8
100
AcDbXrecord
 90
        0
  0
XRECORD
  5
2E6
102
{ACAD_REACTORS
330
2D8
102
}
330
2D8
100
AcDbXrecord
1000
DSTYLE
1002
{
1070
    79
 70
     1
1070
   276
 70
     1
1070
   277
 70
     5
1070
   289
 70
     1
1002
}
  0
XRECORD
  5
2E3
102
{ACAD_REACTORS
330
2D8
102
}
330
2D8
100
AcDbXrecord
  1
{6A4AC8E0-4F58-11D5-8420-0003476D26AB}
  0
XRECORD
  5
2DB
102
{ACAD_REACTORS
330
2D8
102
}
330
2D8
100
AcDbXrecord
  1

  0
XRECORD
  5
2E1
102
{ACAD_REACTORS
330
2D8
102
}
330
2D8
100
AcDbXrecord
 90
        1
  0
XRECORD
  5
2DD
102
{ACAD_REACTORS
330
2D8
102
}
330
2D8
100
AcDbXrecord
340
B
  0
XRECORD
  5
2E0
102
{ACAD_REACTORS
330
2D8
102
}
330
2D8
100
AcDbXrecord
 90
    10781
  0
XRECORD
  5
2DE
102
{ACAD_REACTORS
330
2D8
102
}
330
2D8
100
AcDbXrecord
340
29
  0
XRECORD
  5
2DF
102
{ACAD_REACTORS
330
2D8
102
}
330
2D8
100
AcDbXrecord
340
6
  0
XRECORD
  5
2E5
102
{ACAD_REACTORS
330
2D8
102
}
330
2D8
100
AcDbXrecord
 40
0.0
  0
XRECORD
  5
2E9
102
{ACAD_REACTORS
330
2D8
102
}
330
2D8
100
AcDbXrecord
340
0
  0
XRECORD
  5
2EF
102
{ACAD_REACTORS
330
2D8
102
}
330
2D8
100
AcDbXrecord
 10
0.0
 20
0.0
 30
0.0
  0
XRECORD
  5
2EB
102
{ACAD_REACTORS
330
2D8
102
}
330
2D8
100
AcDbXrecord
 10
0.0
 20
0.0
 30
0.0
  0
XRECORD
  5
2EE
102
{ACAD_REACTORS
330
2D8
102
}
330
2D8
100
AcDbXrecord
 10
0.0
 20
0.0
 30
0.0
  0
XRECORD
  5
2EC
102
{ACAD_REACTORS
330
2D8
102
}
330
2D8
100
AcDbXrecord
 10
0.0
 20
0.0
 30
0.0
  0
XRECORD
  5
2ED
102
{ACAD_REACTORS
330
2D8
102
}
330
2D8
100
AcDbXrecord
 10
0.0
 20
0.0
 30
0.0
  0
XRECORD
  5
2EA
102
{ACAD_REACTORS
330
2D8
102
}
330
2D8
100
AcDbXrecord
 10
0.0
 20
0.0
 30
0.0
  0
XRECORD
  5
2E7
102
{ACAD_REACTORS
330
2D8
102
}
330
2D8
100
AcDbXrecord
340
0
  0
XRECORD
  5
2E8
102
{ACAD_REACTORS
330
2D8
102
}
330
2D8
100
AcDbXrecord
 70
     0
  0
XRECORD
  5
2DC
102
{ACAD_REACTORS
330
2D8
102
}
330
2D8
100
AcDbXrecord
  1

  0
XRECORD
  5
2D9
102
{ACAD_REACTORS
330
2D8
102
}
330
2D8
100
AcDbXrecord
 90
        1
  0
XRECORD
  5
2DA
102
{ACAD_REACTORS
330
2D8
102
}
330
2D8
100
AcDbXrecord
 90
       70
  0
XRECORD
  5
2F2
102
{ACAD_REACTORS
330
2D8
102
}
330
2D8
100
AcDbXrecord
340
0
  0
XRECORD
  5
2F8
102
{ACAD_REACTORS
330
2D8
102
}
330
2D8
100
AcDbXrecord
 10
0.0
 20
0.0
 30
0.0
  0
XRECORD
  5
2F4
102
{ACAD_REACTORS
330
2D8
102
}
330
2D8
100
AcDbXrecord
 10
0.0
 20
0.0
 30
0.0
  0
XRECORD
  5
2F7
102
{ACAD_REACTORS
330
2D8
102
}
330
2D8
100
AcDbXrecord
 10
0.0
 20
0.0
 30
0.0
  0
XRECORD
  5
2F5
102
{ACAD_REACTORS
330
2D8
102
}
330
2D8
100
AcDbXrecord
 10
0.0
 20
0.0
 30
0.0
  0
XRECORD
  5
2F6
102
{ACAD_REACTORS
330
2D8
102
}
330
2D8
100
AcDbXrecord
 10
0.0
 20
0.0
 30
0.0
  0
XRECORD
  5
2F3
102
{ACAD_REACTORS
330
2D8
102
}
330
2D8
100
AcDbXrecord
 10
62.86525627826465
 20
-3.044708510329144
 30
0.0
  0
XRECORD
  5
2F0
102
{ACAD_REACTORS
330
2D8
102
}
330
2D8
100
AcDbXrecord
340
0
  0
XRECORD
  5
2F1
102
{ACAD_REACTORS
330
2D8
102
}
330
2D8
100
AcDbXrecord
 70
     1
  0
XRECORD
  5
2E4
102
{ACAD_REACTORS
330
2D8
102
}
330
2D8
100
AcDbXrecord
  1
{2E53F771-24E1-44E6-8D96-A9077B0E10B2}
  0
DICTIONARYVAR
  5
1F0
102
{ACAD_REACTORS
330
1EE
102
}
330
1EE
100
DictionaryVariables
280
     0
  1
1
  0
DICTIONARYVAR
  5
1EF
102
{ACAD_REACTORS
330
1EE
102
}
330
1EE
100
DictionaryVariables
280
     0
  1
1
  0
XRECORD
  5
13
102
{ACAD_REACTORS
330
12
102
}
330
12
100
AcDbXrecord
  1
DIM-1_12
  1
DIM-1_12
  1
*
  1
*
 70
     0
  1
*
  1
*
  0
XRECORD
  5
14
102
{ACAD_REACTORS
330
12
102
}
330
12
100
AcDbXrecord
  1
dim-1_16
  1
*
  1
*
  1
*
 70
     0
  1
*
  1
*
  0
ENDSEC
  0
EOF
