  0
SECTION
  2
HEADER
  9
$ACADVER
  1
AC1014
  9
$ACADMAINTVER
 70
     0
  9
$DWGCODEPAGE
  3
ANSI_1252
  9
$INSBASE
 10
60.839031
 20
-62.089428
 30
0.0
  9
$EXTMIN
 10
47.752424
 20
-64.334912
 30
-2.743616
  9
$EXTMAX
 10
111.1442
 20
-38.671861
 30
2.743616
  9
$LIMMIN
 10
0.0
 20
0.0
  9
$LIMMAX
 10
100.502416
 20
51.698548
  9
$ORTHOMODE
 70
     1
  9
$REGENMODE
 70
     1
  9
$FILLMODE
 70
     1
  9
$QTEXTMODE
 70
     0
  9
$MIRRTEXT
 70
     1
  9
$DRAGMODE
 70
     2
  9
$LTSCALE
 40
2.0
  9
$OSMODE
 70
    37
  9
$ATTMODE
 70
     1
  9
$TEXTSIZE
 40
0.1
  9
$TRACEWID
 40
1.0
  9
$TEXTSTYLE
  7
CARTOUCHE
  9
$CLAYER
  8
0
  9
$CELTYPE
  6
BYLAYER
  9
$CECOLOR
 62
   256
  9
$CELTSCALE
 40
1.0
  9
$DELOBJ
 70
     1
  9
$DISPSILH
 70
     0
  9
$DIMSCALE
 40
16.0
  9
$DIMASZ
 40
0.1
  9
$DIMEXO
 40
0.0625
  9
$DIMDLI
 40
0.25
  9
$DIMRND
 40
0.0
  9
$DIMDLE
 40
0.0
  9
$DIMEXE
 40
0.1
  9
$DIMTP
 40
0.0
  9
$DIMTM
 40
0.0
  9
$DIMTXT
 40
0.1
  9
$DIMCEN
 40
0.09
  9
$DIMTSZ
 40
0.0
  9
$DIMTOL
 70
     0
  9
$DIMLIM
 70
     0
  9
$DIMTIH
 70
     1
  9
$DIMTOH
 70
     1
  9
$DIMSE1
 70
     0
  9
$DIMSE2
 70
     0
  9
$DIMTAD
 70
     0
  9
$DIMZIN
 70
     4
  9
$DIMBLK
  1

  9
$DIMASO
 70
     1
  9
$DIMSHO
 70
     1
  9
$DIMPOST
  1
\X
  9
$DIMAPOST
  1
cm
  9
$DIMALT
 70
     1
  9
$DIMALTD
 70
     1
  9
$DIMALTF
 40
2.54
  9
$DIMLFAC
 40
1.0
  9
$DIMTOFL
 70
     0
  9
$DIMTVP
 40
0.0
  9
$DIMTIX
 70
     0
  9
$DIMSOXD
 70
     0
  9
$DIMSAH
 70
     0
  9
$DIMBLK1
  1

  9
$DIMBLK2
  1

  9
$DIMSTYLE
  2
STANDARD
  9
$DIMCLRD
 70
     0
  9
$DIMCLRE
 70
     0
  9
$DIMCLRT
 70
     0
  9
$DIMTFAC
 40
1.0
  9
$DIMGAP
 40
0.08
  9
$DIMJUST
 70
     0
  9
$DIMSD1
 70
     0
  9
$DIMSD2
 70
     0
  9
$DIMTOLJ
 70
     1
  9
$DIMTZIN
 70
     4
  9
$DIMALTZ
 70
     4
  9
$DIMALTTZ
 70
     4
  9
$DIMFIT
 70
     1
  9
$DIMUPT
 70
     0
  9
$DIMUNIT
 70
     5
  9
$DIMDEC
 70
     3
  9
$DIMTDEC
 70
     3
  9
$DIMALTU
 70
     2
  9
$DIMALTTD
 70
     1
  9
$DIMTXSTY
  7
ROMANS
  9
$DIMAUNIT
 70
     0
  9
$LUNITS
 70
     2
  9
$LUPREC
 70
     2
  9
$SKETCHINC
 40
1.0
  9
$FILLETRAD
 40
2.0
  9
$AUNITS
 70
     0
  9
$AUPREC
 70
     0
  9
$MENU
  1
.
  9
$ELEVATION
 40
0.0
  9
$PELEVATION
 40
0.0
  9
$THICKNESS
 40
0.0
  9
$LIMCHECK
 70
     0
  9
$BLIPMODE
 70
     0
  9
$CHAMFERA
 40
0.0
  9
$CHAMFERB
 40
0.0
  9
$CHAMFERC
 40
20.0
  9
$CHAMFERD
 40
0.0
  9
$SKPOLY
 70
     0
  9
$TDCREATE
 40
2452062.343093519
  9
$TDUPDATE
 40
2453683.479854421
  9
$TDINDWG
 40
3.2172879977
  9
$TDUSRTIMER
 40
3.2172879977
  9
$USRTIMER
 70
     1
  9
$ANGBASE
 50
0.0
  9
$ANGDIR
 70
     0
  9
$PDMODE
 70
    34
  9
$PDSIZE
 40
-5.0
  9
$PLINEWID
 40
0.0
  9
$COORDS
 70
     1
  9
$SPLFRAME
 70
     0
  9
$SPLINETYPE
 70
     6
  9
$SPLINESEGS
 70
     8
  9
$ATTDIA
 70
     0
  9
$ATTREQ
 70
     1
  9
$HANDLING
 70
     1
  9
$HANDSEED
  5
29E
  9
$SURFTAB1
 70
     6
  9
$SURFTAB2
 70
     6
  9
$SURFTYPE
 70
     6
  9
$SURFU
 70
     6
  9
$SURFV
 70
     6
  9
$UCSNAME
  2

  9
$UCSORG
 10
-337.9432822465495
 20
-84.47558161658433
 30
0.0
  9
$UCSXDIR
 10
1.0
 20
0.0
 30
0.0
  9
$UCSYDIR
 10
0.0
 20
1.0
 30
0.0
  9
$PUCSNAME
  2

  9
$PUCSORG
 10
0.0
 20
0.0
 30
0.0
  9
$PUCSXDIR
 10
1.0
 20
0.0
 30
0.0
  9
$PUCSYDIR
 10
0.0
 20
1.0
 30
0.0
  9
$USERI1
 70
     0
  9
$USERI2
 70
     0
  9
$USERI3
 70
     0
  9
$USERI4
 70
     0
  9
$USERI5
 70
     0
  9
$USERR1
 40
0.0
  9
$USERR2
 40
0.0
  9
$USERR3
 40
0.0
  9
$USERR4
 40
0.0
  9
$USERR5
 40
0.0
  9
$WORLDVIEW
 70
     1
  9
$SHADEDGE
 70
     3
  9
$SHADEDIF
 70
    70
  9
$TILEMODE
 70
     1
  9
$MAXACTVP
 70
    48
  9
$PINSBASE
 10
0.0
 20
0.0
 30
0.0
  9
$PLIMCHECK
 70
     0
  9
$PEXTMIN
 10
0.0
 20
0.0
 30
0.0
  9
$PEXTMAX
 10
0.0
 20
0.0
 30
0.0
  9
$PLIMMIN
 10
0.0
 20
0.0
  9
$PLIMMAX
 10
12.0
 20
9.0
  9
$UNITMODE
 70
     0
  9
$VISRETAIN
 70
     1
  9
$PLINEGEN
 70
     0
  9
$PSLTSCALE
 70
     1
  9
$TREEDEPTH
 70
  3020
  9
$PICKSTYLE
 70
     1
  9
$CMLSTYLE
  2
STANDARD
  9
$CMLJUST
 70
     0
  9
$CMLSCALE
 40
20.0
  9
$PROXYGRAPHICS
 70
     1
  9
$MEASUREMENT
 70
     0
  0
ENDSEC
  0
SECTION
  2
CLASSES
  0
CLASS
  1
ACDBDICTIONARYWDFLT
  2
AcDbDictionaryWithDefault
  3
AutoCAD 2000
 90
        0
280
     0
281
     0
  0
CLASS
  1
ACDBPLACEHOLDER
  2
AcDbPlaceHolder
  3
AutoCAD 2000
 90
        0
280
     0
281
     0
  0
CLASS
  1
LAYOUT
  2
AcDbLayout
  3
AutoCAD 2000
 90
        0
280
     0
281
     0
  0
CLASS
  1
DICTIONARYVAR
  2
AcDbDictionaryVar
  3
"AutoCAD"
 90
        0
280
     0
281
     0
  0
CLASS
  1
IMAGEDEF
  2
AcDbRasterImageDef
  3
ISM
 90
        0
280
     0
281
     0
  0
CLASS
  1
LONG_TRANSACTION
  2
AcDbLongTransaction
  3
AutoCAD 2000
 90
        0
280
     0
281
     0
  0
CLASS
  1
LWPOLYLINE
  2
AcDbPolyline
  3
"AutoCAD"
 90
        0
280
     0
281
     1
  0
CLASS
  1
HATCH
  2
AcDbHatch
  3
"ACAD_SEDONA"
 90
        0
280
     0
281
     1
  0
CLASS
  1
XRECORD
  2
AcDbXrecord
  3
"<Built In>"
 90
        0
280
     0
281
     0
  0
CLASS
  1
LONG_TRANSACTION
  2
AcDbLongTransaction
  3
AutoCAD 2000
 90
        0
280
     0
281
     0
  0
CLASS
  1
LWPOLYLINE
  2
AcDbPolyline
  3
"AutoCAD"
 90
        0
280
     0
281
     1
  0
CLASS
  1
HATCH
  2
AcDbHatch
  3
"ACAD_SEDONA"
 90
        0
280
     0
281
     1
  0
CLASS
  1
XRECORD
  2
AcDbXrecord
  3
"<Built In>"
 90
        0
280
     0
281
     0
  0
ENDSEC
  0
SECTION
  2
TABLES
  0
TABLE
  2
VPORT
  5
1D
100
AcDbSymbolTable
 70
     4
  0
VPORT
  5
29D
100
AcDbSymbolTableRecord
100
AcDbViewportTableRecord
  2
*ACTIVE
 70
     0
 10
0.0
 20
0.0
 11
1.0
 21
1.0
 12
79.448312
 22
-51.503386
 13
0.0
 23
0.0
 14
10.0
 24
10.0
 15
10.0
 25
10.0
 16
0.0
 26
0.0
 36
1.0
 17
0.0
 27
0.0
 37
0.0
 40
48.802827
 41
1.487748
 42
50.0
 43
0.0
 44
0.0
 50
0.0
 51
0.0
 71
     0
 72
   100
 73
     1
 74
     3
 75
     0
 76
     0
 77
     0
 78
     2
  0
ENDTAB
  0
TABLE
  2
LTYPE
  5
18
100
AcDbSymbolTable
 70
     3
  0
LTYPE
  5
19
102
{ACAD_XDICTIONARY
360
249
102
}
100
AcDbSymbolTableRecord
100
AcDbLinetypeTableRecord
  2
BYBLOCK
 70
     0
  3

 72
    65
 73
     0
 40
0.0
  0
LTYPE
  5
1A
102
{ACAD_XDICTIONARY
360
24B
102
}
100
AcDbSymbolTableRecord
100
AcDbLinetypeTableRecord
  2
BYLAYER
 70
     0
  3

 72
    65
 73
     0
 40
0.0
  0
LTYPE
  5
8
102
{ACAD_XDICTIONARY
360
24D
102
}
100
AcDbSymbolTableRecord
100
AcDbLinetypeTableRecord
  2
CONTINUOUS
 70
     0
  3
Solid line
 72
    65
 73
     0
 40
0.0
  0
LTYPE
  5
157
100
AcDbSymbolTableRecord
100
AcDbLinetypeTableRecord
  2
CENTER
 70
     0
  3
Center ____ _ ____ _ ____ _ ____ _ ____ _ ____
 72
    65
 73
     4
 40
50.8
 49
31.75
 74
     0
 49
-6.35
 74
     0
 49
6.35
 74
     0
 49
-6.35
 74
     0
  0
LTYPE
  5
1F2
100
AcDbSymbolTableRecord
100
AcDbLinetypeTableRecord
  2
HIDDEN
 70
     0
  3
Hidden __ __ __ __ __ __ __ __ __ __ __ __ __ _
 72
    65
 73
     2
 40
0.375
 49
0.25
 74
     0
 49
-0.125
 74
     0
  0
ENDTAB
  0
TABLE
  2
LAYER
  5
10
102
{ACAD_XDICTIONARY
360
11
102
}
100
AcDbSymbolTable
 70
     3
  0
LAYER
  5
4
100
AcDbSymbolTableRecord
100
AcDbLayerTableRecord
  2
0
 70
     0
 62
     7
  6
CONTINUOUS
  0
LAYER
  5
156
102
{ACAD_XDICTIONARY
360
281
102
}
100
AcDbSymbolTableRecord
100
AcDbLayerTableRecord
  2
CENTER
 70
     0
 62
     1
  6
CENTER
  0
LAYER
  5
295
100
AcDbSymbolTableRecord
100
AcDbLayerTableRecord
  2
DEFPOINTS
 70
     0
 62
     7
  6
CONTINUOUS
  0
ENDTAB
  0
TABLE
  2
STYLE
  5
15
100
AcDbSymbolTable
 70
     3
  0
STYLE
  5
16
102
{ACAD_XDICTIONARY
360
24F
102
}
100
AcDbSymbolTableRecord
100
AcDbTextStyleTableRecord
  2
STANDARD
 70
     0
 40
0.0
 41
1.0
 50
0.0
 71
     0
 42
0.125
  3
txt
  4

  0
STYLE
  5
2D
100
AcDbSymbolTableRecord
100
AcDbTextStyleTableRecord
  2
CARTOUCHE
 70
     0
 40
0.0
 41
1.0
 50
0.0
 71
     0
 42
0.1
  3
romans.shx
  4

  0
STYLE
  5
23
102
{ACAD_XDICTIONARY
360
251
102
}
100
AcDbSymbolTableRecord
100
AcDbTextStyleTableRecord
  2
ROMANS
 70
     0
 40
0.0
 41
1.0
 50
0.0
 71
     0
 42
1.0
  3
romans.shx
  4

  0
ENDTAB
  0
TABLE
  2
VIEW
  5
1B
100
AcDbSymbolTable
 70
     0
  0
ENDTAB
  0
TABLE
  2
UCS
  5
1C
100
AcDbSymbolTable
 70
     0
  0
ENDTAB
  0
TABLE
  2
APPID
  5
1F
100
AcDbSymbolTable
 70
     1
  0
APPID
  5
20
100
AcDbSymbolTableRecord
100
AcDbRegAppTableRecord
  2
ACAD
 70
     0
  0
ENDTAB
  0
TABLE
  2
DIMSTYLE
  5
21
100
AcDbSymbolTable
 70
     1
  0
DIMSTYLE
105
22
102
{ACAD_XDICTIONARY
360
27D
102
}
100
AcDbSymbolTableRecord
100
AcDbDimStyleTableRecord
  2
STANDARD
 70
     0
  3
\X
  4
cm
  5

  6

  7

 40
16.0
 41
0.1
 42
0.0625
 43
0.25
 44
0.1
 45
0.0
 46
0.0
 47
0.0
 48
0.0
140
0.1
141
0.09
142
0.0
143
2.54
144
1.0
145
0.0
146
1.0
147
0.08
 71
     0
 72
     0
 73
     1
 74
     1
 75
     0
 76
     0
 77
     0
 78
     4
170
     1
171
     1
172
     0
173
     0
174
     0
175
     0
176
     0
177
     0
178
     0
270
     5
271
     3
272
     3
273
     2
274
     1
340
23
275
     0
280
     0
281
     0
282
     0
283
     1
284
     4
285
     4
286
     4
287
     1
288
     0
  0
ENDTAB
  0
TABLE
  2
BLOCK_RECORD
  5
1
100
AcDbSymbolTable
 70
     1
  0
BLOCK_RECORD
  5
2
102
{ACAD_XDICTIONARY
360
1FE
102
}
100
AcDbSymbolTableRecord
100
AcDbBlockTableRecord
  2
*MODEL_SPACE
  0
BLOCK_RECORD
  5
1F3
102
{ACAD_XDICTIONARY
360
200
102
}
100
AcDbSymbolTableRecord
100
AcDbBlockTableRecord
  2
*PAPER_SPACE
  0
ENDTAB
  0
ENDSEC
  0
SECTION
  2
BLOCKS
  0
BLOCK
  5
3
100
AcDbEntity
  8
0
100
AcDbBlockBegin
  2
*MODEL_SPACE
 70
     0
 10
0.0
 20
0.0
 30
0.0
  3
*MODEL_SPACE
  1

  0
ENDBLK
  5
9
100
AcDbEntity
  8
0
100
AcDbBlockEnd
  0
BLOCK
  5
1F5
100
AcDbEntity
 67
     1
  8
0
100
AcDbBlockBegin
  2
*PAPER_SPACE
 70
     0
 10
0.0
 20
0.0
 30
0.0
  3
*PAPER_SPACE
  1

  0
ENDBLK
  5
1F6
100
AcDbEntity
 67
     1
  8
0
100
AcDbBlockEnd
  0
ENDSEC
  0
SECTION
  2
ENTITIES
  0
LINE
  5
8E
100
AcDbEntity
  8
0
100
AcDbLine
 10
50.149468
 20
-40.866401
 30
2.743448
 11
50.672943
 21
-40.866401
 31
-2.743448
210
0.0000000000000031
220
1.0
230
-0.0000000000000002
  0
LINE
  5
8F
100
AcDbEntity
  8
0
100
AcDbLine
 10
51.488989
 20
-40.866401
 30
0.102825
 11
49.333422
 21
-40.866401
 31
-0.102825
210
0.0000000000000031
220
1.0
230
-0.0000000000000002
  0
LWPOLYLINE
  5
14A
100
AcDbEntity
  8
0
100
AcDbPolyline
 90
        4
 70
     0
 43
0.0
 10
111.140808
 20
-42.362747
 10
111.052435
 20
-41.098962
 42
0.39391
 10
110.803044
 20
-40.866401
 10
106.756634
 20
-40.866401
  0
LWPOLYLINE
  5
14B
100
AcDbEntity
  8
0
100
AcDbPolyline
 90
        5
 70
     0
 43
0.0
 10
111.140808
 20
-42.362747
 10
111.052435
 20
-41.098962
 42
0.39391
 10
110.803044
 20
-40.866401
 10
106.732829
 20
-40.866401
 10
106.596999
 20
-40.866401
  0
LINE
  5
14C
100
AcDbEntity
  8
0
100
AcDbLine
 10
100.522186
 20
-42.362747
 30
0.0
 11
111.140808
 21
-42.362747
 31
0.0
  0
ARC
  5
14D
100
AcDbEntity
  8
0
100
AcDbCircle
 10
68.731466
 20
-116.292135
 30
0.0
 40
77.175754
100
AcDbArc
 50
81.096381
 51
89.95939
  0
LINE
  5
14E
100
AcDbEntity
  8
0
100
AcDbLine
 10
62.766708
 20
-61.021038
 30
0.0
 11
78.788191
 21
-60.741382
 31
0.0
  0
LINE
  5
14F
100
AcDbEntity
  8
0
100
AcDbLine
 10
100.522186
 20
-42.362747
 30
0.0
 11
54.478582
 21
-42.362747
 31
0.0
  0
LINE
  5
150
100
AcDbEntity
  8
0
100
AcDbLine
 10
91.209261
 20
-40.866401
 30
0.0
 11
53.996796
 21
-40.866401
 31
0.0
  0
ARC
  5
151
100
AcDbEntity
  8
0
  6
HIDDEN
 62
     8
100
AcDbCircle
 10
52.842991
 20
-43.639476
 30
0.0
 40
1.0
100
AcDbArc
 50
270.0
 51
16.861552
  0
ARC
  5
152
100
AcDbEntity
  8
0
  6
HIDDEN
 62
     8
100
AcDbCircle
 10
52.633194
 20
-44.022917
 30
0.0
 40
2.0
100
AcDbArc
 50
268.581565
 51
25.227016
  0
LINE
  5
153
100
AcDbEntity
  8
0
100
AcDbLine
 10
52.446298
 20
-42.371993
 30
0.0
 11
52.74251
 21
-50.242129
 31
0.0
  0
LWPOLYLINE
  5
154
100
AcDbEntity
  8
0
100
AcDbPolyline
 90
        2
 70
     0
 43
0.0
 10
55.693172
 20
-53.918801
 10
54.479955
 20
-42.375813
  0
LINE
  5
155
100
AcDbEntity
  8
CENTER
 48
0.65
100
AcDbLine
 10
57.351151
 20
-44.866401
 30
0.0
 11
51.482287
 21
-44.866401
 31
0.0
  0
LWPOLYLINE
  5
158
100
AcDbEntity
  8
0
100
AcDbPolyline
 90
        2
 70
     0
 43
0.0
 10
56.218864
 20
-58.670425
 10
55.693172
 20
-53.918801
  0
LINE
  5
159
100
AcDbEntity
  8
0
100
AcDbLine
 10
59.412254
 20
-61.521939
 30
0.0
 11
62.265808
 21
-61.521939
 31
0.0
  0
LINE
  5
15A
100
AcDbEntity
  8
0
100
AcDbLine
 10
62.766708
 20
-61.021038
 30
0.0
 11
58.829484
 21
-61.021038
 31
0.0
  0
ARC
  5
15B
100
AcDbEntity
  8
0
 48
0.1
100
AcDbCircle
 10
61.438058
 20
-61.589428
 30
0.0
 40
0.5
100
AcDbArc
 50
270.0
 51
7.757422
  0
LINE
  5
15C
100
AcDbEntity
  8
CENTER
 48
0.65
100
AcDbLine
 10
60.839031
 20
-58.462506
 30
0.0
 11
60.839031
 21
-64.331371
 31
0.0
  0
ARC
  5
15D
100
AcDbEntity
  8
0
100
AcDbCircle
 10
58.829484
 20
-58.396038
 30
0.0
 40
2.625
100
AcDbArc
 50
186.0
 51
270.0
  0
LINE
  5
15E
100
AcDbEntity
  8
0
100
AcDbLine
 10
60.438058
 20
-62.089428
 30
0.0
 11
61.438058
 21
-62.089428
 31
0.0
  0
LINE
  5
15F
100
AcDbEntity
  8
0
100
AcDbLine
 10
59.412254
 20
-61.521939
 30
0.0
 11
58.910115
 21
-61.0198
 31
0.0
  0
ARC
  5
160
100
AcDbEntity
  8
0
 48
0.1
100
AcDbCircle
 10
60.438058
 20
-61.589428
 30
0.0
 40
0.5
100
AcDbArc
 50
172.242578
 51
270.0
  0
LINE
  5
161
100
AcDbEntity
  8
0
100
AcDbLine
 10
62.265808
 20
-61.521939
 30
0.0
 11
62.766708
 21
-61.021038
 31
0.0
  0
LINE
  5
162
100
AcDbEntity
  8
0
100
AcDbLine
 10
69.08097
 20
-62.089428
 30
0.0
 11
68.08097
 21
-62.089428
 31
0.0
  0
LINE
  5
163
100
AcDbEntity
  8
0
100
AcDbLine
 10
68.08097
 20
-62.089428
 30
0.0
 11
69.08097
 21
-62.089428
 31
0.0
  0
ARC
  5
164
100
AcDbEntity
  8
0
100
AcDbCircle
 10
69.08097
 20
-61.589428
 30
0.0
 40
0.5
100
AcDbArc
 50
270.0
 51
330.020151
  0
ARC
  5
165
100
AcDbEntity
  8
0
 48
0.1
100
AcDbCircle
 10
68.08097
 20
-61.589428
 30
0.0
 40
0.5
100
AcDbArc
 50
209.979849
 51
270.0
  0
LINE
  5
166
100
AcDbEntity
  8
0
 48
0.1
100
AcDbLine
 10
69.514071
 20
-61.839276
 30
0.0
 11
69.871147
 21
-60.89703
 31
0.0
  0
LINE
  5
167
100
AcDbEntity
  8
0
 48
0.1
100
AcDbLine
 10
67.647869
 20
-61.839276
 30
0.0
 11
67.30775
 21
-60.941774
 31
0.0
  0
ARC
  5
168
100
AcDbEntity
  8
0
100
AcDbCircle
 10
56.696268
 20
-50.091438
 30
0.0
 40
3.956629
100
AcDbArc
 50
182.155452
 51
255.313918
  0
LINE
  5
169
100
AcDbEntity
  8
0
100
AcDbLine
 10
54.479955
 20
-42.375813
 30
0.0
 11
47.839031
 21
-42.363339
 31
0.0
  0
LWPOLYLINE
  5
16A
100
AcDbEntity
  8
0
100
AcDbPolyline
 90
        2
 70
     0
 43
0.0
 10
53.996796
 20
-40.866401
 10
48.643052
 20
-40.866993
  0
ARC
  5
16B
100
AcDbEntity
  8
0
100
AcDbCircle
 10
48.643052
 20
-41.616993
 30
0.0
 40
0.75
100
AcDbArc
 50
90.0
 51
176.0
  0
LWPOLYLINE
  5
16C
100
AcDbEntity
  8
0
100
AcDbPolyline
 90
        2
 70
     0
 43
0.0
 10
47.894879
 20
-41.564676
 10
47.839031
 20
-42.363339
  0
ARC
  5
16D
100
AcDbEntity
  8
0
100
AcDbCircle
 10
68.731466
 20
-116.292135
 30
0.0
 40
77.175754
100
AcDbArc
 50
89.95939
 51
102.224827
  0
ARC
  5
16E
100
AcDbEntity
  8
0
  6
HIDDEN
 62
     8
100
AcDbCircle
 10
56.251699
 20
-42.318093
 30
0.0
 40
2.0
100
AcDbArc
 50
181.203053
 51
205.227016
  0
ARC
  5
16F
100
AcDbEntity
  8
0
  6
HIDDEN
 62
     8
100
AcDbCircle
 10
58.585042
 20
-41.899115
 30
0.0
 40
5.0
100
AcDbArc
 50
186.342594
 51
196.861552
  0
LINE
  5
170
100
AcDbEntity
  8
0
  6
HIDDEN
 62
     8
100
AcDbLine
 10
54.231499
 20
-42.097261
 30
0.0
 11
54.252139
 21
-42.360085
 31
0.0
  0
ARC
  5
171
100
AcDbEntity
  8
0
 62
     8
100
AcDbCircle
 10
54.609525
 20
-42.341008
 30
0.0
 40
1.0
100
AcDbArc
 50
180.0
 51
186.342594
  0
ARC
  5
172
100
AcDbEntity
  8
0
 62
     8
100
AcDbCircle
 10
51.908096
 20
-41.366401
 30
0.0
 40
0.5
100
AcDbArc
 50
2.155452
 51
90.0
  0
LINE
  5
173
100
AcDbEntity
  8
0
  6
HIDDEN
 62
     8
100
AcDbLine
 10
53.982233
 20
-41.866401
 30
0.0
 11
53.689085
 21
-41.866401
 31
0.0
  0
LINE
  5
174
100
AcDbEntity
  8
0
 62
     8
100
AcDbLine
 10
52.407742
 20
-41.347596
 30
0.0
 11
52.410783
 21
-41.44614
 31
0.0
  0
LINE
  5
175
100
AcDbEntity
  8
0
  6
HIDDEN
 62
     8
100
AcDbLine
 10
53.689085
 20
-41.866401
 30
0.0
 11
53.609525
 21
-42.341008
 31
0.0
  0
ARC
  5
176
100
AcDbEntity
  8
0
  6
HIDDEN
 62
     8
100
AcDbCircle
 10
53.982233
 20
-42.116401
 30
0.0
 40
0.25
100
AcDbArc
 50
4.390866
 51
90.0
  0
LWPOLYLINE
  5
177
100
AcDbEntity
  8
0
 62
     8
 48
0.3
100
AcDbPolyline
 90
        2
 70
     0
 43
0.0
 10
54.478582
 20
-42.362747
 10
54.428623
 20
-41.887419
  0
ARC
  5
178
100
AcDbEntity
  8
0
100
AcDbCircle
 10
83.485324
 20
-44.616401
 30
0.0
 40
0.625
100
AcDbArc
 50
90.0
 51
174.0
  0
LINE
  5
179
100
AcDbEntity
  8
0
100
AcDbLine
 10
89.423212
 20
-43.991401
 30
0.0
 11
82.742128
 21
-45.708207
 31
0.0
  0
LWPOLYLINE
  5
17A
100
AcDbEntity
  8
0
100
AcDbPolyline
 90
        8
 70
     0
 43
0.0
 10
100.374912
 20
-42.362747
 42
-0.196761
 10
97.593331
 20
-44.784984
 42
-0.502222
 10
96.748721
 20
-44.244655
 10
96.690801
 20
-43.428196
 42
0.641304
 10
95.139104
 20
-43.089836
 42
-0.000126
 10
95.138612
 20
-43.09049
 42
-0.236276
 10
93.338562
 20
-43.991401
 10
83.485324
 20
-43.991401
  0
LWPOLYLINE
  5
17B
100
AcDbEntity
  8
0
100
AcDbPolyline
 90
        2
 70
     0
 43
0.0
 10
82.863748
 20
-44.551071
 10
81.410324
 20
-58.129467
  0
LWPOLYLINE
  5
17C
100
AcDbEntity
  8
0
100
AcDbPolyline
 90
        2
 70
     0
 43
0.0
 10
81.411009
 20
-58.116401
 42
-0.414214
 10
78.786009
 20
-60.741401
 42
-0.414214
  0
LINE
  5
17D
100
AcDbEntity
  8
0
100
AcDbLine
 10
76.503981
 20
-62.089428
 30
0.0
 11
75.503981
 21
-62.089428
 31
0.0
  0
ARC
  5
17E
100
AcDbEntity
  8
0
 48
0.1
100
AcDbCircle
 10
75.503981
 20
-61.589428
 30
0.0
 40
0.5
100
AcDbArc
 50
191.529834
 51
270.0
  0
LINE
  5
17F
100
AcDbEntity
  8
0
 48
0.1
100
AcDbLine
 10
75.014071
 20
-61.689367
 30
0.0
 11
74.681981
 21
-60.813056
 31
0.0
  0
ARC
  5
180
100
AcDbEntity
  8
0
 48
0.1
100
AcDbCircle
 10
76.503981
 20
-61.589428
 30
0.0
 40
0.5
100
AcDbArc
 50
270.0
 51
348.470166
  0
LINE
  5
181
100
AcDbEntity
  8
0
 48
0.1
100
AcDbLine
 10
76.993891
 20
-61.689367
 30
0.0
 11
77.343587
 21
-60.766598
 31
0.0
  0
ARC
  5
182
100
AcDbEntity
  8
0
100
AcDbCircle
 10
91.209261
 20
27.188761
 30
0.0
 40
68.055162
100
AcDbArc
 50
261.096381
 51
270.0
  0
LINE
  5
183
100
AcDbEntity
  8
0
  6
HIDDEN
 62
     8
100
AcDbLine
 10
101.22282
 20
-40.959313
 30
0.0
 11
89.423212
 21
-43.991401
 31
0.0
  0
LWPOLYLINE
  5
184
100
AcDbEntity
  8
0
  6
HIDDEN
 62
     8
100
AcDbPolyline
 90
        5
 70
     0
 43
0.0
 10
102.580933
 20
-41.779258
 42
-0.38928
 10
102.331539
 20
-41.551044
 42
0.715449
 10
100.953072
 20
-41.211512
 42
-0.002074
 10
100.917771
 20
-41.257854
 42
-0.053661
 10
100.374912
 20
-42.362747
 42
-0.053661
  0
LINE
  5
185
100
AcDbEntity
  8
0
100
AcDbLine
 10
106.346999
 20
-40.866401
 30
0.0
 11
91.209261
 21
-40.866401
 31
0.0
  0
ARC
  5
186
100
AcDbEntity
  8
0
  6
HIDDEN
 62
     8
100
AcDbCircle
 10
102.580223
 20
-26.34462
 30
0.0
 40
15.434638
100
AcDbArc
 50
270.000118
 51
283.391344
  0
ARC
  5
187
100
AcDbEntity
  8
0
  6
HIDDEN
 62
     8
100
AcDbCircle
 10
106.596999
 20
-41.116401
 30
0.0
 40
0.25
100
AcDbArc
 50
90.0
 51
180.0
  0
LINE
  5
188
100
AcDbEntity
  8
0
 62
     8
100
AcDbLine
 10
106.756634
 20
-40.866401
 30
0.0
 11
106.346999
 21
-40.866401
 31
0.0
  0
LINE
  5
189
100
AcDbEntity
  8
0
  6
HIDDEN
 62
     8
100
AcDbLine
 10
106.346999
 20
-41.116401
 30
0.0
 11
106.346999
 21
-40.866401
 31
0.0
  0
LINE
  5
18A
100
AcDbEntity
  8
0
 62
     8
100
AcDbLine
 10
106.596999
 20
-40.866401
 30
0.0
 11
106.346999
 21
-40.866401
 31
0.0
  0
ARC
  5
18B
100
AcDbEntity
  8
0
  6
HIDDEN
 62
     8
100
AcDbCircle
 10
106.096999
 20
-41.116401
 30
0.0
 40
0.25
100
AcDbArc
 50
283.391344
 51
0.0
  0
LWPOLYLINE
  5
28A
100
AcDbEntity
  8
0
 62
     8
 48
0.3
100
AcDbPolyline
 90
        3
 70
     0
 43
0.0
 10
54.382242
 20
-41.44614
 10
54.368368
 20
-41.314137
 42
0.383864
 10
53.871107
 20
-40.866401
  0
LINE
  5
28B
100
AcDbEntity
  8
0
 62
     8
100
AcDbLine
 10
52.424402
 20
-41.887419
 30
0.0
 11
52.439356
 21
-42.37198
 31
0.0
  0
ENDSEC
  0
SECTION
  2
OBJECTS
  0
DICTIONARY
  5
7
102
{ACAD_XDICTIONARY
360
277
102
}
100
AcDbDictionary
  3
ACAD_GROUP
350
2A
  3
ACAD_LAYOUT
350
B
  3
ACAD_MLINESTYLE
350
2B
  3
ACAD_PLOTSETTINGS
350
2C
  3
ACAD_PLOTSTYLENAME
350
6
  3
ACDBHEADERROUNDTRIPXREC
350
255
  3
ACDBVARIABLEDICTIONARY
350
1E9
  0
DICTIONARY
  5
249
100
AcDbDictionary
280
     1
  3
ACAD_XREC_ROUNDTRIP
360
24A
  0
DICTIONARY
  5
24B
100
AcDbDictionary
280
     1
  3
ACAD_XREC_ROUNDTRIP
360
24C
  0
DICTIONARY
  5
24D
100
AcDbDictionary
280
     1
  3
ACAD_XREC_ROUNDTRIP
360
24E
  0
DICTIONARY
  5
11
100
AcDbDictionary
280
     1
  3
ACAD_LAYERFILTERS
360
12
  0
DICTIONARY
  5
281
100
AcDbDictionary
280
     1
  3
ACAD_XREC_ROUNDTRIP
360
282
  0
DICTIONARY
  5
24F
100
AcDbDictionary
280
     1
  3
ACAD_XREC_ROUNDTRIP
360
250
  0
DICTIONARY
  5
251
100
AcDbDictionary
280
     1
  3
ACAD_XREC_ROUNDTRIP
360
252
  0
DICTIONARY
  5
27D
100
AcDbDictionary
280
     1
  3
ACAD_XREC_ROUNDTRIP
360
27E
  0
DICTIONARY
  5
1FE
100
AcDbDictionary
280
     1
  3
ACAD_LAYOUTSELFREF
360
276
  3
ACAD_XREC_ROUNDTRIP
360
247
  0
DICTIONARY
  5
200
100
AcDbDictionary
280
     1
  3
ACAD_LAYOUTSELFREF
360
283
  3
ACAD_XREC_ROUNDTRIP
360
248
  0
DICTIONARY
  5
277
100
AcDbDictionary
280
     1
  3
ACAD_XREC_ROUNDTRIP
360
278
  0
DICTIONARY
  5
2A
102
{ACAD_REACTORS
330
7
102
}
100
AcDbDictionary
  0
DICTIONARY
  5
B
102
{ACAD_XDICTIONARY
360
279
102
}
102
{ACAD_REACTORS
330
7
102
}
100
AcDbDictionary
  3
LAYOUT1
350
1F4
  3
MODEL
350
A
  0
DICTIONARY
  5
2B
102
{ACAD_XDICTIONARY
360
27F
102
}
102
{ACAD_REACTORS
330
7
102
}
100
AcDbDictionary
  3
STANDARD
350
2E
  0
DICTIONARY
  5
2C
102
{ACAD_REACTORS
330
7
102
}
100
AcDbDictionary
  0
ACAD_PROXY_OBJECT
  5
6
102
{ACAD_REACTORS
330
7
102
}
100
AcDbProxyObject
 90
      499
 91
      500
 93
       86
310
405010041939BDC9B585B0
350
5
340
5
 94
        0
  0
DICTIONARY
  5
255
102
{ACAD_REACTORS
330
7
102
}
100
AcDbDictionary
  3
CEPSNTYPE
350
25F
  3
DIMSTYLEDATA
350
263
  3
FINGERPRINTGUID
350
260
  3
HYPERLINKBASE
350
258
  3
INSUNITS
350
25E
  3
LAYOUTDICT
350
25A
  3
LWETCUNION
350
25D
  3
PLOTSETDICT
350
25B
  3
PLOTSTYLNAMDICT
350
25C
  3
PSVPSCALE
350
262
  3
PUCSBASE
350
266
  3
PUCSORGBACK
350
26C
  3
PUCSORGBOTTOM
350
268
  3
PUCSORGFRONT
350
26B
  3
PUCSORGLEFT
350
269
  3
PUCSORGRIGHT
350
26A
  3
PUCSORGTOP
350
267
  3
PUCSORTHOREF
350
264
  3
PUCSORTHOVIEW
350
265
  3
STYLESHEET
350
259
  3
TSTACKALIGN
350
256
  3
TSTACKSIZE
350
257
  3
UCSBASE
350
26F
  3
UCSORGBACK
350
275
  3
UCSORGBOTTOM
350
271
  3
UCSORGFRONT
350
274
  3
UCSORGLEFT
350
272
  3
UCSORGRIGHT
350
273
  3
UCSORGTOP
350
270
  3
UCSORTHOREF
350
26D
  3
UCSORTHOVIEW
350
26E
  3
VERSIONGUID
350
261
  0
DICTIONARY
  5
1E9
102
{ACAD_REACTORS
330
7
102
}
100
AcDbDictionary
  3
DIMASSOC
350
1EB
  3
HIDETEXT
350
1EA
  0
XRECORD
  5
24A
102
{ACAD_REACTORS
330
249
102
}
100
AcDbXrecord
102
EXTNAMES
  1
BYBLOCK
  2
ByBlock
  0
XRECORD
  5
24C
102
{ACAD_REACTORS
330
24B
102
}
100
AcDbXrecord
102
EXTNAMES
  1
BYLAYER
  2
ByLayer
  0
XRECORD
  5
24E
102
{ACAD_REACTORS
330
24D
102
}
100
AcDbXrecord
102
EXTNAMES
  1
CONTINUOUS
  2
Continuous
  0
DICTIONARY
  5
12
102
{ACAD_XDICTIONARY
360
27B
102
}
102
{ACAD_REACTORS
330
11
102
}
100
AcDbDictionary
280
     1
  3
DIM-1_12
360
13
  3
DIM-1_16
360
14
  0
XRECORD
  5
282
102
{ACAD_REACTORS
330
281
102
}
100
AcDbXrecord
102
LINEWEIGHT
280
     3
  0
XRECORD
  5
250
102
{ACAD_REACTORS
330
24F
102
}
100
AcDbXrecord
102
EXTNAMES
  1
STANDARD
  2
Standard
  0
XRECORD
  5
252
102
{ACAD_REACTORS
330
251
102
}
100
AcDbXrecord
102
EXTNAMES
  1
ROMANS
  2
romans
  0
XRECORD
  5
27E
102
{ACAD_REACTORS
330
27D
102
}
100
AcDbXrecord
102
ACADR14ROUNDTRIP
1000
DSTYLE
1002
{
1070
    79
 70
     1
1070
   276
 70
     1
1070
   277
 70
     5
1070
   289
 70
     1
1002
}
  0
XRECORD
  5
276
102
{ACAD_REACTORS
330
1FE
102
}
100
AcDbXrecord
340
2
  0
XRECORD
  5
247
102
{ACAD_REACTORS
330
1FE
102
}
100
AcDbXrecord
102
EXTNAMES
  1
*MODEL_SPACE
  2
*Model_Space
  0
XRECORD
  5
283
102
{ACAD_REACTORS
330
200
102
}
100
AcDbXrecord
340
1F3
  0
XRECORD
  5
248
102
{ACAD_REACTORS
330
200
102
}
100
AcDbXrecord
102
EXTNAMES
  1
*PAPER_SPACE
  2
*Paper_Space
  0
XRECORD
  5
278
102
{ACAD_REACTORS
330
277
102
}
100
AcDbXrecord
102
EXTNAMES
  1
ACDBVARIABLEDICTIONARY
  2
AcDbVariableDictionary
  0
DICTIONARY
  5
279
100
AcDbDictionary
280
     1
  3
ACAD_XREC_ROUNDTRIP
360
27A
  0
ACAD_PROXY_OBJECT
  5
1F4
102
{ACAD_REACTORS
330
B
102
}
100
AcDbProxyObject
 90
      499
 91
      502
 93
      604
310
9104850204465736B4A65742031313230432C00AAAAAA416AA591069074C61796F75743140501A800000000000000000000000000000000000000000000A1000000000000008902A6A6AAAA0
330
1F3
330
0
340
0
340
0
 94
        0
  0
ACAD_PROXY_OBJECT
  5
A
102
{ACAD_REACTORS
330
B
102
}
100
AcDbProxyObject
 90
      499
 91
      502
 93
      668
310
91D4850204C617365724A65742038313030205365726965732050434C20362C01AAAAAAAAA5A69054D6F64656C901A800000000000000000000000000000000000000000000A1000000000000008902A6A6AAAA0
330
2
330
0
340
0
340
0
 94
        0
  0
DICTIONARY
  5
27F
100
AcDbDictionary
280
     1
  3
ACAD_XREC_ROUNDTRIP
360
280
  0
MLINESTYLE
  5
2E
102
{ACAD_REACTORS
330
2B
102
}
100
AcDbMlineStyle
  2
STANDARD
 70
     0
  3

 62
   256
 51
90.0
 52
90.0
 71
     2
 49
0.5
 62
   256
  6
BYLAYER
 49
-0.5
 62
   256
  6
BYLAYER
  0
ACAD_PROXY_OBJECT
  5
5
102
{ACAD_REACTORS
330
6
102
}
100
AcDbProxyObject
 90
      499
 91
      501
 93
        0
 94
        0
  0
XRECORD
  5
25F
102
{ACAD_REACTORS
330
255
102
}
100
AcDbXrecord
 90
        0
  0
XRECORD
  5
263
102
{ACAD_REACTORS
330
255
102
}
100
AcDbXrecord
1000
DSTYLE
1002
{
1070
    79
 70
     1
1070
   276
 70
     1
1070
   277
 70
     5
1070
   289
 70
     1
1002
}
  0
XRECORD
  5
260
102
{ACAD_REACTORS
330
255
102
}
100
AcDbXrecord
  1
{6A4AC8E0-4F58-11D5-8420-0003476D26AB}
  0
XRECORD
  5
258
102
{ACAD_REACTORS
330
255
102
}
100
AcDbXrecord
  1

  0
XRECORD
  5
25E
102
{ACAD_REACTORS
330
255
102
}
100
AcDbXrecord
 90
        1
  0
XRECORD
  5
25A
102
{ACAD_REACTORS
330
255
102
}
100
AcDbXrecord
340
B
  0
XRECORD
  5
25D
102
{ACAD_REACTORS
330
255
102
}
100
AcDbXrecord
 90
    10781
  0
XRECORD
  5
25B
102
{ACAD_REACTORS
330
255
102
}
100
AcDbXrecord
340
2C
  0
XRECORD
  5
25C
102
{ACAD_REACTORS
330
255
102
}
100
AcDbXrecord
340
6
  0
XRECORD
  5
262
102
{ACAD_REACTORS
330
255
102
}
100
AcDbXrecord
 40
0.0
  0
XRECORD
  5
266
102
{ACAD_REACTORS
330
255
102
}
100
AcDbXrecord
340
0
  0
XRECORD
  5
26C
102
{ACAD_REACTORS
330
255
102
}
100
AcDbXrecord
 10
0.0
 20
0.0
 30
0.0
  0
XRECORD
  5
268
102
{ACAD_REACTORS
330
255
102
}
100
AcDbXrecord
 10
0.0
 20
0.0
 30
0.0
  0
XRECORD
  5
26B
102
{ACAD_REACTORS
330
255
102
}
100
AcDbXrecord
 10
0.0
 20
0.0
 30
0.0
  0
XRECORD
  5
269
102
{ACAD_REACTORS
330
255
102
}
100
AcDbXrecord
 10
0.0
 20
0.0
 30
0.0
  0
XRECORD
  5
26A
102
{ACAD_REACTORS
330
255
102
}
100
AcDbXrecord
 10
0.0
 20
0.0
 30
0.0
  0
XRECORD
  5
267
102
{ACAD_REACTORS
330
255
102
}
100
AcDbXrecord
 10
0.0
 20
0.0
 30
0.0
  0
XRECORD
  5
264
102
{ACAD_REACTORS
330
255
102
}
100
AcDbXrecord
340
0
  0
XRECORD
  5
265
102
{ACAD_REACTORS
330
255
102
}
100
AcDbXrecord
 70
     0
  0
XRECORD
  5
259
102
{ACAD_REACTORS
330
255
102
}
100
AcDbXrecord
  1

  0
XRECORD
  5
256
102
{ACAD_REACTORS
330
255
102
}
100
AcDbXrecord
 90
        1
  0
XRECORD
  5
257
102
{ACAD_REACTORS
330
255
102
}
100
AcDbXrecord
 90
       70
  0
XRECORD
  5
26F
102
{ACAD_REACTORS
330
255
102
}
100
AcDbXrecord
340
0
  0
XRECORD
  5
275
102
{ACAD_REACTORS
330
255
102
}
100
AcDbXrecord
 10
0.0
 20
0.0
 30
0.0
  0
XRECORD
  5
271
102
{ACAD_REACTORS
330
255
102
}
100
AcDbXrecord
 10
0.0
 20
0.0
 30
0.0
  0
XRECORD
  5
274
102
{ACAD_REACTORS
330
255
102
}
100
AcDbXrecord
 10
0.0
 20
0.0
 30
0.0
  0
XRECORD
  5
272
102
{ACAD_REACTORS
330
255
102
}
100
AcDbXrecord
 10
0.0
 20
0.0
 30
0.0
  0
XRECORD
  5
273
102
{ACAD_REACTORS
330
255
102
}
100
AcDbXrecord
 10
0.0
 20
0.0
 30
0.0
  0
XRECORD
  5
270
102
{ACAD_REACTORS
330
255
102
}
100
AcDbXrecord
 10
-337.943282
 20
-84.475582
 30
0.0
  0
XRECORD
  5
26D
102
{ACAD_REACTORS
330
255
102
}
100
AcDbXrecord
340
0
  0
XRECORD
  5
26E
102
{ACAD_REACTORS
330
255
102
}
100
AcDbXrecord
 70
     1
  0
XRECORD
  5
261
102
{ACAD_REACTORS
330
255
102
}
100
AcDbXrecord
  1
{F9BBCE33-C584-4B22-8B12-B425C2E0655C}
  0
DICTIONARYVAR
  5
1EB
102
{ACAD_REACTORS
330
1E9
102
}
100
DictionaryVariables
280
     0
  1
1
  0
DICTIONARYVAR
  5
1EA
102
{ACAD_REACTORS
330
1E9
102
}
100
DictionaryVariables
280
     0
  1
1
  0
DICTIONARY
  5
27B
100
AcDbDictionary
280
     1
  3
ACAD_XREC_ROUNDTRIP
360
27C
  0
XRECORD
  5
13
102
{ACAD_REACTORS
330
12
102
}
100
AcDbXrecord
  1
DIM-1_12
  1
DIM-1_12
  1
*
  1
*
 70
     0
  1
*
  1
*
  0
XRECORD
  5
14
102
{ACAD_REACTORS
330
12
102
}
100
AcDbXrecord
  1
dim-1_16
  1
*
  1
*
  1
*
 70
     0
  1
*
  1
*
  0
XRECORD
  5
27A
102
{ACAD_REACTORS
330
279
102
}
100
AcDbXrecord
102
EXTNAMES
  1
LAYOUT1
  2
Layout1
  1
MODEL
  2
Model
  0
XRECORD
  5
280
102
{ACAD_REACTORS
330
27F
102
}
100
AcDbXrecord
102
EXTNAMES
  1
STANDARD
  2
Standard
  0
XRECORD
  5
27C
102
{ACAD_REACTORS
330
27B
102
}
100
AcDbXrecord
102
EXTNAMES
  1
DIM-1_16
  2
dim-1_16
  0
ENDSEC
  0
EOF
