  0
SECTION
  2
HEADER
  9
$ACADVER
  1
AC1014
  9
$ACADMAINTVER
 70
     0
  9
$DWGCODEPAGE
  3
ANSI_1252
  9
$INSBASE
 10
-93.168898
 20
53.753133
 30
0.0
  9
$EXTMIN
 10
-135.498417
 20
51.443701
 30
0.0
  9
$EXTMAX
 10
-50.832222
 20
77.081258
 30
0.0
  9
$LIMMIN
 10
0.0
 20
0.0
  9
$LIMMAX
 10
100.502416
 20
51.698548
  9
$ORTHOMODE
 70
     1
  9
$REGENMODE
 70
     1
  9
$FILLMODE
 70
     1
  9
$QTEXTMODE
 70
     0
  9
$MIRRTEXT
 70
     1
  9
$DRAGMODE
 70
     2
  9
$LTSCALE
 40
0.25
  9
$OSMODE
 70
    53
  9
$ATTMODE
 70
     1
  9
$TEXTSIZE
 40
0.1
  9
$TRACEWID
 40
1.0
  9
$TEXTSTYLE
  7
CARTOUCHE
  9
$CLAYER
  8
0
  9
$CELTYPE
  6
BYLAYER
  9
$CECOLOR
 62
   256
  9
$CELTSCALE
 40
1.0
  9
$DELOBJ
 70
     1
  9
$DISPSILH
 70
     0
  9
$DIMSCALE
 40
16.0
  9
$DIMASZ
 40
0.1
  9
$DIMEXO
 40
0.0625
  9
$DIMDLI
 40
0.25
  9
$DIMRND
 40
0.0
  9
$DIMDLE
 40
0.0
  9
$DIMEXE
 40
0.1
  9
$DIMTP
 40
0.0
  9
$DIMTM
 40
0.0
  9
$DIMTXT
 40
0.1
  9
$DIMCEN
 40
0.09
  9
$DIMTSZ
 40
0.0
  9
$DIMTOL
 70
     0
  9
$DIMLIM
 70
     0
  9
$DIMTIH
 70
     1
  9
$DIMTOH
 70
     1
  9
$DIMSE1
 70
     0
  9
$DIMSE2
 70
     0
  9
$DIMTAD
 70
     0
  9
$DIMZIN
 70
     4
  9
$DIMBLK
  1

  9
$DIMASO
 70
     1
  9
$DIMSHO
 70
     1
  9
$DIMPOST
  1

  9
$DIMAPOST
  1
cm
  9
$DIMALT
 70
     1
  9
$DIMALTD
 70
     2
  9
$DIMALTF
 40
2.54
  9
$DIMLFAC
 40
1.0
  9
$DIMTOFL
 70
     0
  9
$DIMTVP
 40
0.0
  9
$DIMTIX
 70
     0
  9
$DIMSOXD
 70
     0
  9
$DIMSAH
 70
     0
  9
$DIMBLK1
  1

  9
$DIMBLK2
  1

  9
$DIMSTYLE
  2
STANDARD
  9
$DIMCLRD
 70
     0
  9
$DIMCLRE
 70
     0
  9
$DIMCLRT
 70
     0
  9
$DIMTFAC
 40
1.0
  9
$DIMGAP
 40
0.08
  9
$DIMJUST
 70
     0
  9
$DIMSD1
 70
     0
  9
$DIMSD2
 70
     0
  9
$DIMTOLJ
 70
     1
  9
$DIMTZIN
 70
     0
  9
$DIMALTZ
 70
    12
  9
$DIMALTTZ
 70
     0
  9
$DIMFIT
 70
     3
  9
$DIMUPT
 70
     0
  9
$DIMUNIT
 70
     2
  9
$DIMDEC
 70
     4
  9
$DIMTDEC
 70
     4
  9
$DIMALTU
 70
     2
  9
$DIMALTTD
 70
     2
  9
$DIMTXSTY
  7
STANDARD
  9
$DIMAUNIT
 70
     0
  9
$LUNITS
 70
     2
  9
$LUPREC
 70
     2
  9
$SKETCHINC
 40
1.0
  9
$FILLETRAD
 40
0.25
  9
$AUNITS
 70
     0
  9
$AUPREC
 70
     0
  9
$MENU
  1
.
  9
$ELEVATION
 40
0.0
  9
$PELEVATION
 40
0.0
  9
$THICKNESS
 40
0.0
  9
$LIMCHECK
 70
     0
  9
$BLIPMODE
 70
     0
  9
$CHAMFERA
 40
0.0
  9
$CHAMFERB
 40
0.0
  9
$CHAMFERC
 40
20.0
  9
$CHAMFERD
 40
0.0
  9
$SKPOLY
 70
     0
  9
$TDCREATE
 40
2452062.343093519
  9
$TDUPDATE
 40
2453690.575942673
  9
$TDINDWG
 40
3.2277834722
  9
$TDUSRTIMER
 40
3.2277834722
  9
$USRTIMER
 70
     1
  9
$ANGBASE
 50
0.0
  9
$ANGDIR
 70
     0
  9
$PDMODE
 70
    34
  9
$PDSIZE
 40
-5.0
  9
$PLINEWID
 40
0.0
  9
$COORDS
 70
     1
  9
$SPLFRAME
 70
     0
  9
$SPLINETYPE
 70
     6
  9
$SPLINESEGS
 70
     8
  9
$ATTDIA
 70
     0
  9
$ATTREQ
 70
     1
  9
$HANDLING
 70
     1
  9
$HANDSEED
  5
95
  9
$SURFTAB1
 70
     6
  9
$SURFTAB2
 70
     6
  9
$SURFTYPE
 70
     6
  9
$SURFU
 70
     6
  9
$SURFV
 70
     6
  9
$UCSNAME
  2

  9
$UCSORG
 10
0.0
 20
0.0
 30
0.0
  9
$UCSXDIR
 10
1.0
 20
0.0
 30
0.0
  9
$UCSYDIR
 10
0.0
 20
1.0
 30
0.0
  9
$PUCSNAME
  2

  9
$PUCSORG
 10
0.0
 20
0.0
 30
0.0
  9
$PUCSXDIR
 10
1.0
 20
0.0
 30
0.0
  9
$PUCSYDIR
 10
0.0
 20
1.0
 30
0.0
  9
$USERI1
 70
     0
  9
$USERI2
 70
     0
  9
$USERI3
 70
     0
  9
$USERI4
 70
     0
  9
$USERI5
 70
     0
  9
$USERR1
 40
0.0
  9
$USERR2
 40
0.0
  9
$USERR3
 40
0.0
  9
$USERR4
 40
0.0
  9
$USERR5
 40
0.0
  9
$WORLDVIEW
 70
     1
  9
$SHADEDGE
 70
     3
  9
$SHADEDIF
 70
    70
  9
$TILEMODE
 70
     1
  9
$MAXACTVP
 70
    48
  9
$PINSBASE
 10
0.0
 20
0.0
 30
0.0
  9
$PLIMCHECK
 70
     0
  9
$PEXTMIN
 10
1.031083
 20
0.79375
 30
0.0
  9
$PEXTMAX
 10
9.27975
 20
7.14375
 30
0.0
  9
$PLIMMIN
 10
-0.53125
 20
-0.28125
  9
$PLIMMAX
 10
10.46875
 20
8.21875
  9
$UNITMODE
 70
     0
  9
$VISRETAIN
 70
     1
  9
$PLINEGEN
 70
     0
  9
$PSLTSCALE
 70
     1
  9
$TREEDEPTH
 70
  3020
  9
$PICKSTYLE
 70
     1
  9
$CMLSTYLE
  2
STANDARD
  9
$CMLJUST
 70
     0
  9
$CMLSCALE
 40
20.0
  9
$PROXYGRAPHICS
 70
     1
  9
$MEASUREMENT
 70
     0
  0
ENDSEC
  0
SECTION
  2
CLASSES
  0
CLASS
  1
ACDBDICTIONARYWDFLT
  2
AcDbDictionaryWithDefault
  3
AutoCAD 2000
 90
        0
280
     1
281
     0
  0
CLASS
  1
ACDBPLACEHOLDER
  2
AcDbPlaceHolder
  3
AutoCAD 2000
 90
        0
280
     1
281
     0
  0
CLASS
  1
LAYOUT
  2
AcDbLayout
  3
AutoCAD 2000
 90
        0
280
     1
281
     0
  0
CLASS
  1
DICTIONARYVAR
  2
AcDbDictionaryVar
  3
"AutoCAD"
 90
        0
280
     0
281
     0
  0
CLASS
  1
IMAGEDEF
  2
AcDbRasterImageDef
  3
ISM
 90
        0
280
     1
281
     0
  0
CLASS
  1
LONG_TRANSACTION
  2
AcDbLongTransaction
  3
AutoCAD 2000
 90
        0
280
     1
281
     0
  0
CLASS
  1
LWPOLYLINE
  2
AcDbPolyline
  3
"AutoCAD"
 90
        0
280
     0
281
     1
  0
CLASS
  1
HATCH
  2
AcDbHatch
  3
"ACAD_SEDONA"
 90
        0
280
     0
281
     1
  0
CLASS
  1
XRECORD
  2
AcDbXrecord
  3
"<Built In>"
 90
        0
280
     0
281
     0
  0
ENDSEC
  0
SECTION
  2
TABLES
  0
TABLE
  2
VPORT
  5
26
100
AcDbSymbolTable
 70
     2
  0
VPORT
  5
94
100
AcDbSymbolTableRecord
100
AcDbViewportTableRecord
  2
*ACTIVE
 70
     0
 10
0.0
 20
0.0
 11
1.0
 21
1.0
 12
-93.432816
 22
68.07609
 13
0.0
 23
0.0
 14
10.0
 24
10.0
 15
10.0
 25
10.0
 16
0.0
 26
0.0
 36
1.0
 17
0.0
 27
0.0
 37
0.0
 40
61.355119
 41
1.487748
 42
50.0
 43
0.0
 44
0.0
 50
0.0
 51
0.0
 71
     0
 72
   100
 73
     1
 74
     3
 75
     0
 76
     0
 77
     0
 78
     2
  0
ENDTAB
  0
TABLE
  2
LTYPE
  5
1D
100
AcDbSymbolTable
 70
     3
  0
LTYPE
  5
1E
102
{ACAD_XDICTIONARY
360
1F
102
}
100
AcDbSymbolTableRecord
100
AcDbLinetypeTableRecord
  2
BYBLOCK
 70
     0
  3

 72
    65
 73
     0
 40
0.0
  0
LTYPE
  5
21
102
{ACAD_XDICTIONARY
360
22
102
}
100
AcDbSymbolTableRecord
100
AcDbLinetypeTableRecord
  2
BYLAYER
 70
     0
  3

 72
    65
 73
     0
 40
0.0
  0
LTYPE
  5
8
102
{ACAD_XDICTIONARY
360
9
102
}
100
AcDbSymbolTableRecord
100
AcDbLinetypeTableRecord
  2
CONTINUOUS
 70
     0
  3
Solid line
 72
    65
 73
     0
 40
0.0
  0
LTYPE
  5
43
100
AcDbSymbolTableRecord
100
AcDbLinetypeTableRecord
  2
CENTER
 70
     0
  3
Center ____ _ ____ _ ____ _ ____ _ ____ _ ____
 72
    65
 73
     4
 40
50.8
 49
31.75
 74
     0
 49
-6.35
 74
     0
 49
6.35
 74
     0
 49
-6.35
 74
     0
  0
LTYPE
  5
5E
100
AcDbSymbolTableRecord
100
AcDbLinetypeTableRecord
  2
HIDDEN
 70
     0
  3
Hidden __ __ __ __ __ __ __ __ __ __ __ __ __ _
 72
    65
 73
     2
 40
9.525
 49
6.35
 74
     0
 49
-3.175
 74
     0
  0
ENDTAB
  0
TABLE
  2
LAYER
  5
12
102
{ACAD_XDICTIONARY
360
13
102
}
100
AcDbSymbolTable
 70
     2
  0
LAYER
  5
7
100
AcDbSymbolTableRecord
100
AcDbLayerTableRecord
  2
0
 70
     0
 62
     7
  6
CONTINUOUS
  0
LAYER
  5
40
102
{ACAD_XDICTIONARY
360
41
102
}
100
AcDbSymbolTableRecord
100
AcDbLayerTableRecord
  2
CENTER
 70
     0
 62
     1
  6
CENTER
  0
ENDTAB
  0
TABLE
  2
STYLE
  5
19
100
AcDbSymbolTable
 70
     2
  0
STYLE
  5
1A
102
{ACAD_XDICTIONARY
360
1B
102
}
100
AcDbSymbolTableRecord
100
AcDbTextStyleTableRecord
  2
STANDARD
 70
     0
 40
0.0
 41
1.0
 50
0.0
 71
     0
 42
0.125
  3
txt
  4

  0
STYLE
  5
33
100
AcDbSymbolTableRecord
100
AcDbTextStyleTableRecord
  2
CARTOUCHE
 70
     0
 40
0.0
 41
1.0
 50
0.0
 71
     0
 42
0.1
  3
romans.shx
  4

  0
ENDTAB
  0
TABLE
  2
VIEW
  5
24
100
AcDbSymbolTable
 70
     0
  0
ENDTAB
  0
TABLE
  2
UCS
  5
25
100
AcDbSymbolTable
 70
     0
  0
ENDTAB
  0
TABLE
  2
APPID
  5
28
100
AcDbSymbolTable
 70
     1
  0
APPID
  5
29
100
AcDbSymbolTableRecord
100
AcDbRegAppTableRecord
  2
ACAD
 70
     0
  0
ENDTAB
  0
TABLE
  2
DIMSTYLE
  5
2A
100
AcDbSymbolTable
 70
     1
  0
DIMSTYLE
105
35
102
{ACAD_XDICTIONARY
360
36
102
}
100
AcDbSymbolTableRecord
100
AcDbDimStyleTableRecord
  2
STANDARD
 70
     0
  3

  4
cm
  5

  6

  7

 40
16.0
 41
0.1
 42
0.0625
 43
0.25
 44
0.1
 45
0.0
 46
0.0
 47
0.0
 48
0.0
140
0.1
141
0.09
142
0.0
143
2.54
144
1.0
145
0.0
146
1.0
147
0.08
 71
     0
 72
     0
 73
     1
 74
     1
 75
     0
 76
     0
 77
     0
 78
     4
170
     1
171
     2
172
     0
173
     0
174
     0
175
     0
176
     0
177
     0
178
     0
270
     5
271
     4
272
     4
273
     2
274
     2
340
1A
275
     0
280
     0
281
     0
282
     0
283
     1
284
     0
285
    12
286
     0
287
     3
288
     0
  0
ENDTAB
  0
TABLE
  2
BLOCK_RECORD
  5
1
100
AcDbSymbolTable
 70
     0
  0
BLOCK_RECORD
  5
2
102
{ACAD_XDICTIONARY
360
3
102
}
100
AcDbSymbolTableRecord
100
AcDbBlockTableRecord
  2
*MODEL_SPACE
  0
BLOCK_RECORD
  5
C
102
{ACAD_XDICTIONARY
360
D
102
}
100
AcDbSymbolTableRecord
100
AcDbBlockTableRecord
  2
*PAPER_SPACE
  0
ENDTAB
  0
ENDSEC
  0
SECTION
  2
BLOCKS
  0
BLOCK
  5
6
100
AcDbEntity
  8
0
100
AcDbBlockBegin
  2
*MODEL_SPACE
 70
     0
 10
0.0
 20
0.0
 30
0.0
  3
*MODEL_SPACE
  1

  0
ENDBLK
  5
B
100
AcDbEntity
  8
0
100
AcDbBlockEnd
  0
BLOCK
  5
10
100
AcDbEntity
 67
     1
  8
0
100
AcDbBlockBegin
  2
*PAPER_SPACE
 70
     0
 10
0.0
 20
0.0
 30
0.0
  3
*PAPER_SPACE
  1

  0
ENDBLK
  5
11
100
AcDbEntity
 67
     1
  8
0
100
AcDbBlockEnd
  0
ENDSEC
  0
SECTION
  2
ENTITIES
  0
LINE
  5
38
100
AcDbEntity
  8
0
100
AcDbLine
 10
-124.196542
 20
73.506787
 30
0.0
 11
-61.909612
 21
73.506787
 31
0.0
  0
LINE
  5
39
100
AcDbEntity
  8
0
100
AcDbLine
 10
-57.396569
 20
75.003133
 30
0.0
 11
-128.947922
 21
75.003133
 31
0.0
  0
LINE
  5
3A
100
AcDbEntity
  8
0
 48
0.1
100
AcDbLine
 10
-71.97004
 20
53.753133
 30
0.0
 11
-112.549096
 21
53.753133
 31
0.0
  0
LINE
  5
3B
100
AcDbEntity
  8
0
100
AcDbLine
 10
-91.244475
 20
54.750779
 30
0.0
 11
-71.170067
 21
55.101179
 31
0.0
  0
LINE
  5
3C
100
AcDbEntity
  8
0
100
AcDbLine
 10
-91.297152
 20
54.874879
 30
0.0
 11
-71.172248
 21
55.22616
 31
0.0
  0
LINE
  5
3D
100
AcDbEntity
  8
0
100
AcDbLine
 10
-66.68272
 20
61.950733
 30
0.0
 11
-91.700672
 21
68.016954
 31
0.0
  0
LINE
  5
3E
100
AcDbEntity
  8
0
100
AcDbLine
 10
-88.633067
 20
75.003133
 30
0.0
 11
-109.332521
 21
75.003133
 31
0.0
  0
LINE
  5
3F
100
AcDbEntity
  8
CENTER
 48
0.25
100
AcDbLine
 10
-90.234465
 20
71.003133
 30
0.0
 11
-96.10333
 21
71.003133
 31
0.0
  0
LINE
  5
44
100
AcDbEntity
  8
0
100
AcDbLine
 10
-124.196542
 20
73.506787
 30
0.0
 11
-135.416853
 21
73.506787
 31
0.0
  0
ARC
  5
45
100
AcDbEntity
  8
0
100
AcDbCircle
 10
-126.963609
 20
75.003133
 30
0.0
 40
1.75
100
AcDbArc
 50
90.0
 51
172.819244
  0
LINE
  5
46
100
AcDbEntity
  8
0
100
AcDbLine
 10
-128.947922
 20
75.003133
 30
0.0
 11
-134.612832
 21
75.003133
 31
0.0
  0
LINE
  5
47
100
AcDbEntity
  8
0
100
AcDbLine
 10
-135.361005
 20
74.30545
 30
0.0
 11
-135.416853
 21
73.506787
 31
0.0
  0
ARC
  5
48
100
AcDbEntity
  8
0
100
AcDbCircle
 10
-134.612832
 20
74.253133
 30
0.0
 40
0.75
100
AcDbArc
 50
90.0
 51
176.0
  0
ARC
  5
49
100
AcDbEntity
  8
0
100
AcDbCircle
 10
-128.947922
 20
75.253133
 30
0.0
 40
0.25
100
AcDbArc
 50
270.0
 51
352.819244
  0
LINE
  5
4A
100
AcDbEntity
  8
CENTER
 48
0.25
100
AcDbLine
 10
-93.168898
 20
57.312565
 30
0.0
 11
-93.168898
 21
51.443701
 31
0.0
  0
ARC
  5
4B
100
AcDbEntity
  8
0
100
AcDbCircle
 10
-109.332522
 20
164.693897
 30
0.0
 40
89.690764
100
AcDbArc
 50
258.663174
 51
270.000001
  0
LINE
  5
4C
100
AcDbEntity
  8
0
100
AcDbLine
 10
-113.177647
 20
55.101183
 30
0.0
 11
-95.096664
 21
54.754123
 31
0.0
  0
LINE
  5
4D
100
AcDbEntity
  8
0
100
AcDbLine
 10
-113.175248
 20
55.22616
 30
0.0
 11
-95.043898
 21
54.878133
 31
0.0
  0
LINE
  5
4E
100
AcDbEntity
  8
0
100
AcDbLine
 10
-118.228466
 20
62.298275
 30
0.0
 11
-94.643825
 21
68.016954
 31
0.0
  0
LINE
  5
4F
100
AcDbEntity
  8
0
100
AcDbLine
 10
-124.338157
 20
73.506787
 30
0.0
 11
-115.800059
 21
57.471572
 31
0.0
  0
LINE
  5
50
100
AcDbEntity
  8
0
100
AcDbLine
 10
-124.196542
 20
73.506787
 30
0.0
 11
-115.675248
 21
57.503133
 31
0.0
  0
LWPOLYLINE
  5
51
100
AcDbEntity
  8
0
100
AcDbPolyline
 90
        2
 70
     0
 43
0.0
 10
-113.175248
 20
55.10116
 42
-0.428486
 10
-115.800059
 20
57.471572
 42
-0.410696
  0
LWPOLYLINE
  5
52
100
AcDbEntity
  8
0
100
AcDbPolyline
 90
        2
 70
     0
 43
0.0
 10
-113.175248
 20
55.22616
 42
-0.433081
 10
-115.675248
 20
57.503133
  0
LINE
  5
53
100
AcDbEntity
  8
0
 48
0.1
100
AcDbLine
 10
-113.531954
 20
54.5439
 30
0.0
 11
-113.66381
 21
55.160143
 31
0.0
  0
ARC
  5
54
100
AcDbEntity
  8
0
 48
0.1
100
AcDbCircle
 10
-112.554088
 20
54.753133
 30
0.0
 40
1.0
100
AcDbArc
 50
192.07739
 51
270.0
  0
ARC
  5
55
100
AcDbEntity
  8
0
 48
0.1
100
AcDbCircle
 10
-110.227059
 20
54.753133
 30
0.0
 40
1.0
100
AcDbArc
 50
192.07739
 51
270.0
  0
LINE
  5
56
100
AcDbEntity
  8
0
 48
0.1
100
AcDbLine
 10
-111.204925
 20
54.5439
 30
0.0
 11
-111.316523
 21
55.065459
 31
0.0
  0
LINE
  5
57
100
AcDbEntity
  8
0
100
AcDbLine
 10
-94.595674
 20
54.253133
 30
0.0
 11
-91.742121
 21
54.253133
 31
0.0
  0
LINE
  5
58
100
AcDbEntity
  8
0
100
AcDbLine
 10
-94.543898
 20
54.378133
 30
0.0
 11
-91.793898
 21
54.378133
 31
0.0
  0
LINE
  5
59
100
AcDbEntity
  8
0
100
AcDbLine
 10
-94.595674
 20
54.253133
 30
0.0
 11
-95.096664
 21
54.754123
 31
0.0
  0
LINE
  5
5A
100
AcDbEntity
  8
0
100
AcDbLine
 10
-94.543898
 20
54.378133
 30
0.0
 11
-95.043898
 21
54.878133
 31
0.0
  0
LINE
  5
5B
100
AcDbEntity
  8
0
100
AcDbLine
 10
-91.742121
 20
54.253133
 30
0.0
 11
-91.244475
 21
54.750779
 31
0.0
  0
LINE
  5
5C
100
AcDbEntity
  8
0
100
AcDbLine
 10
-91.793898
 20
54.378133
 30
0.0
 11
-91.297152
 21
54.874879
 31
0.0
  0
LINE
  5
5D
100
AcDbEntity
  8
0
  6
HIDDEN
 62
     8
 48
0.25
100
AcDbLine
 10
-106.795683
 20
71.310744
 30
0.0
 11
-96.811133
 21
73.986096
 31
0.0
  0
LINE
  5
5F
100
AcDbEntity
  8
0
  6
HIDDEN
 62
     8
 48
0.25
100
AcDbLine
 10
-106.519253
 20
70.283132
 30
0.0
 11
-96.536061
 21
72.95982
 31
0.0
  0
LINE
  5
60
100
AcDbEntity
  8
0
100
AcDbLine
 10
-94.261562
 20
75.003133
 30
0.0
 11
-109.332521
 21
75.003133
 31
0.0
  0
ARC
  5
61
100
AcDbEntity
  8
0
  6
HIDDEN
 62
     8
 48
0.25
100
AcDbCircle
 10
-106.666273
 20
70.827781
 30
0.0
 40
0.5
100
AcDbArc
 50
105.0
 51
195.0
  0
ARC
  5
62
100
AcDbEntity
  8
0
  6
HIDDEN
 62
     8
 48
0.25
100
AcDbCircle
 10
-105.20231
 20
71.15389
 30
0.0
 40
0.5
100
AcDbArc
 50
285.009104
 51
18.663948
  0
ARC
  5
63
100
AcDbEntity
  8
0
  6
HIDDEN
 62
     8
 48
0.25
100
AcDbCircle
 10
-106.649672
 20
70.765823
 30
0.0
 40
0.5
100
AcDbArc
 50
195.0
 51
285.119717
  0
LINE
  5
64
100
AcDbEntity
  8
0
  6
HIDDEN
 62
     8
 48
0.25
100
AcDbLine
 10
-107.149236
 20
70.698371
 30
0.0
 11
-107.13306
 21
70.638001
 31
0.0
  0
ARC
  5
65
100
AcDbEntity
  8
0
  6
HIDDEN
 62
     8
 48
0.25
100
AcDbCircle
 10
-105.218849
 20
71.215617
 30
0.0
 40
0.5
100
AcDbArc
 50
11.336052
 51
105.0
  0
LINE
  5
66
100
AcDbEntity
  8
0
  6
HIDDEN
 62
     8
 48
0.25
100
AcDbLine
 10
-104.719347
 20
71.2833
 30
0.0
 11
-104.735886
 21
71.345026
 31
0.0
  0
LINE
  5
67
100
AcDbEntity
  8
CENTER
 48
0.25
100
AcDbLine
 10
-93.168898
 20
73.937565
 30
0.0
 11
-93.168898
 21
68.068701
 31
0.0
  0
CIRCLE
  5
68
100
AcDbEntity
  8
0
 48
0.1
100
AcDbCircle
 10
-93.168898
 20
71.003133
 30
0.0
 40
1.3125
  0
ARC
  5
69
100
AcDbEntity
  8
0
  6
HIDDEN
 62
     8
 48
0.25
100
AcDbCircle
 10
-96.681723
 20
73.503133
 30
0.0
 40
0.5
100
AcDbArc
 50
15.0
 51
105.0
  0
ARC
  5
6A
100
AcDbEntity
  8
0
  6
HIDDEN
 62
     8
 48
0.25
100
AcDbCircle
 10
-97.287577
 20
73.275984
 30
0.0
 40
0.5
100
AcDbArc
 50
195.0
 51
285.009104
  0
ARC
  5
6B
100
AcDbEntity
  8
0
  6
HIDDEN
 62
     8
 48
0.25
100
AcDbCircle
 10
-96.665547
 20
73.442763
 30
0.0
 40
0.5
100
AcDbArc
 50
285.0
 51
15.0
  0
LINE
  5
6C
100
AcDbEntity
  8
0
  6
HIDDEN
 62
     8
 48
0.25
100
AcDbLine
 10
-96.596508
 20
72.943623
 30
0.0
 11
-96.5965
 21
72.943596
 31
0.0
  0
ARC
  5
6D
100
AcDbEntity
  8
0
  6
HIDDEN
 62
     8
 48
0.25
100
AcDbCircle
 10
-97.303774
 20
73.336431
 30
0.0
 40
0.5
100
AcDbArc
 50
105.0
 51
195.0
  0
LINE
  5
6E
100
AcDbEntity
  8
0
  6
HIDDEN
 62
     8
 48
0.25
100
AcDbLine
 10
-97.77054
 20
73.146575
 30
0.0
 11
-97.786736
 21
73.207022
 31
0.0
  0
LINE
  5
6F
100
AcDbEntity
  8
0
  6
HIDDEN
 62
     8
 48
0.25
100
AcDbLine
 10
-96.19876
 20
73.632542
 30
0.0
 11
-96.182584
 21
73.572172
 31
0.0
  0
LWPOLYLINE
  5
70
100
AcDbEntity
  8
0
100
AcDbPolyline
 90
        2
 70
     0
 43
0.0
 10
-51.717808
 20
75.003133
 10
-57.396569
 20
75.003133
  0
LINE
  5
71
100
AcDbEntity
  8
0
100
AcDbLine
 10
-50.913787
 20
73.506787
 30
0.0
 11
-61.909612
 21
73.506787
 31
0.0
  0
ARC
  5
72
100
AcDbEntity
  8
0
100
AcDbCircle
 10
-80.444326
 20
253.595608
 30
0.0
 40
178.092475
100
AcDbArc
 50
270.0
 51
276.792415
  0
ARC
  5
73
100
AcDbEntity
  8
0
100
AcDbCircle
 10
-77.005273
 20
164.693897
 30
0.0
 40
89.690764
100
AcDbArc
 50
269.999999
 51
281.336826
  0
ARC
  5
74
100
AcDbEntity
  8
0
 48
0.1
100
AcDbCircle
 10
-74.463639
 20
54.753133
 30
0.0
 40
1.0
100
AcDbArc
 50
270.0
 51
347.92261
  0
LINE
  5
75
100
AcDbEntity
  8
0
 48
0.1
100
AcDbLine
 10
-73.485773
 20
54.5439
 30
0.0
 11
-73.374767
 21
55.062696
 31
0.0
  0
LINE
  5
76
100
AcDbEntity
  8
0
  6
HIDDEN
 62
     8
 48
0.25
100
AcDbLine
 10
-79.818542
 20
70.283132
 30
0.0
 11
-89.801735
 21
72.95982
 31
0.0
  0
LINE
  5
77
100
AcDbEntity
  8
0
  6
HIDDEN
 62
     8
 48
0.25
100
AcDbLine
 10
-79.542113
 20
71.310744
 30
0.0
 11
-89.526663
 21
73.986096
 31
0.0
  0
ELLIPSE
  5
78
100
AcDbEntity
  8
0
100
AcDbEllipse
 10
-67.121754
 20
72.00408
 30
0.0
 11
-34.78764153314095
 21
0.076838949559101
 31
0.0
210
0.0
220
0.0
230
1.0
 40
0.107979
 41
-1.177550139421207
 42
-0.9039026852423415
  0
ARC
  5
79
100
AcDbEntity
  8
0
  6
HIDDEN
 62
     8
 48
0.25
100
AcDbCircle
 10
-89.656072
 20
73.503133
 30
0.0
 40
0.5
100
AcDbArc
 50
75.0
 51
165.0
  0
ARC
  5
7A
100
AcDbEntity
  8
0
  6
HIDDEN
 62
     8
 48
0.25
100
AcDbCircle
 10
-89.050219
 20
73.275984
 30
0.0
 40
0.5
100
AcDbArc
 50
254.990896
 51
345.0
  0
ARC
  5
7B
100
AcDbEntity
  8
0
  6
HIDDEN
 62
     8
 48
0.25
100
AcDbCircle
 10
-89.034022
 20
73.336431
 30
0.0
 40
0.5
100
AcDbArc
 50
345.0
 51
75.0
  0
ARC
  5
7C
100
AcDbEntity
  8
0
  6
HIDDEN
 62
     8
 48
0.25
100
AcDbCircle
 10
-89.672248
 20
73.442763
 30
0.0
 40
0.5
100
AcDbArc
 50
165.0
 51
255.0
  0
LINE
  5
7D
100
AcDbEntity
  8
0
  6
HIDDEN
 62
     8
 48
0.25
100
AcDbLine
 10
-89.741288
 20
72.943623
 30
0.0
 11
-89.741295
 21
72.943596
 31
0.0
  0
LINE
  5
7E
100
AcDbEntity
  8
0
  6
HIDDEN
 62
     8
 48
0.25
100
AcDbLine
 10
-90.139035
 20
73.632542
 30
0.0
 11
-90.155211
 21
73.572172
 31
0.0
  0
LINE
  5
7F
100
AcDbEntity
  8
0
  6
HIDDEN
 62
     8
 48
0.25
100
AcDbLine
 10
-88.567256
 20
73.146575
 30
0.0
 11
-88.551059
 21
73.207022
 31
0.0
  0
ARC
  5
80
100
AcDbEntity
  8
0
  6
HIDDEN
 62
     8
 48
0.25
100
AcDbCircle
 10
-79.671522
 20
70.827781
 30
0.0
 40
0.5
100
AcDbArc
 50
345.0
 51
75.0
  0
ARC
  5
81
100
AcDbEntity
  8
0
  6
HIDDEN
 62
     8
 48
0.25
100
AcDbCircle
 10
-81.135486
 20
71.15389
 30
0.0
 40
0.5
100
AcDbArc
 50
161.336052
 51
254.990896
  0
ARC
  5
82
100
AcDbEntity
  8
0
  6
HIDDEN
 62
     8
 48
0.25
100
AcDbCircle
 10
-79.688124
 20
70.765823
 30
0.0
 40
0.5
100
AcDbArc
 50
254.880283
 51
345.0
  0
LINE
  5
83
100
AcDbEntity
  8
0
  6
HIDDEN
 62
     8
 48
0.25
100
AcDbLine
 10
-79.188559
 20
70.698371
 30
0.0
 11
-79.204736
 21
70.638001
 31
0.0
  0
LINE
  5
84
100
AcDbEntity
  8
0
  6
HIDDEN
 62
     8
 48
0.25
100
AcDbLine
 10
-81.618449
 20
71.2833
 30
0.0
 11
-81.601909
 21
71.345026
 31
0.0
  0
ARC
  5
85
100
AcDbEntity
  8
0
  6
HIDDEN
 62
     8
 48
0.25
100
AcDbCircle
 10
-81.118946
 20
71.215617
 30
0.0
 40
0.5
100
AcDbArc
 50
75.0
 51
168.663948
  0
LINE
  5
86
100
AcDbEntity
  8
0
100
AcDbLine
 10
-61.773919
 20
73.506787
 30
0.0
 11
-68.544373
 21
57.477521
 31
0.0
  0
LINE
  5
87
100
AcDbEntity
  8
0
100
AcDbLine
 10
-61.909612
 20
73.506787
 30
0.0
 11
-68.669248
 21
57.503133
 31
0.0
  0
LWPOLYLINE
  5
88
100
AcDbEntity
  8
0
100
AcDbPolyline
 90
        2
 70
     0
 43
0.0
 10
-68.544373
 20
57.477521
 42
-0.429179
 10
-71.169248
 20
55.10116
  0
LWPOLYLINE
  5
89
100
AcDbEntity
  8
0
100
AcDbPolyline
 90
        2
 70
     0
 43
0.0
 10
-68.669248
 20
57.503133
 42
-0.433081
 10
-71.169248
 20
55.22616
  0
LINE
  5
8A
100
AcDbEntity
  8
0
 48
0.1
100
AcDbLine
 10
-70.992175
 20
54.5439
 30
0.0
 11
-70.860318
 21
55.160143
 31
0.0
  0
ARC
  5
8B
100
AcDbEntity
  8
0
 48
0.1
100
AcDbCircle
 10
-71.97004
 20
54.753133
 30
0.0
 40
1.0
100
AcDbArc
 50
270.0
 51
347.92261
  0
ARC
  5
8C
100
AcDbEntity
  8
0
100
AcDbCircle
 10
-59.380882
 20
75.003133
 30
0.0
 40
1.75
100
AcDbArc
 50
7.180756
 51
90.0
  0
ARC
  5
8D
100
AcDbEntity
  8
0
100
AcDbCircle
 10
-57.396569
 20
75.253133
 30
0.0
 40
0.25
100
AcDbArc
 50
187.180756
 51
270.0
  0
LINE
  5
8E
100
AcDbEntity
  8
0
100
AcDbLine
 10
-50.969635
 20
74.30545
 30
0.0
 11
-50.913787
 21
73.506787
 31
0.0
  0
ARC
  5
8F
100
AcDbEntity
  8
0
100
AcDbCircle
 10
-51.717808
 20
74.253133
 30
0.0
 40
0.75
100
AcDbArc
 50
4.0
 51
90.0
  0
ENDSEC
  0
SECTION
  2
OBJECTS
  0
DICTIONARY
  5
30
102
{ACAD_XDICTIONARY
360
31
102
}
100
AcDbDictionary
  3
ACAD_GROUP
350
2C
  3
ACAD_MLINESTYLE
350
2D
  0
DICTIONARY
  5
1F
100
AcDbDictionary
280
     1
  3
ACAD_XREC_ROUNDTRIP
360
20
  0
DICTIONARY
  5
22
100
AcDbDictionary
280
     1
  3
ACAD_XREC_ROUNDTRIP
360
23
  0
DICTIONARY
  5
9
100
AcDbDictionary
280
     1
  3
ACAD_XREC_ROUNDTRIP
360
A
  0
DICTIONARY
  5
13
100
AcDbDictionary
280
     1
  3
ACAD_LAYERFILTERS
360
14
  0
DICTIONARY
  5
41
100
AcDbDictionary
280
     1
  3
ACAD_XREC_ROUNDTRIP
360
42
  0
DICTIONARY
  5
1B
100
AcDbDictionary
280
     1
  3
ACAD_XREC_ROUNDTRIP
360
1C
  0
DICTIONARY
  5
36
100
AcDbDictionary
280
     1
  3
ACAD_XREC_ROUNDTRIP
360
37
  0
DICTIONARY
  5
3
100
AcDbDictionary
280
     1
  3
ACAD_LAYOUTSELFREF
360
4
  3
ACAD_XREC_ROUNDTRIP
360
5
  0
DICTIONARY
  5
D
100
AcDbDictionary
280
     1
  3
ACAD_LAYOUTSELFREF
360
E
  3
ACAD_XREC_ROUNDTRIP
360
F
  0
DICTIONARY
  5
31
100
AcDbDictionary
280
     1
  3
ACAD_XREC_ROUNDTRIP
360
32
  0
DICTIONARY
  5
2C
102
{ACAD_REACTORS
330
30
102
}
100
AcDbDictionary
  0
DICTIONARY
  5
2D
102
{ACAD_XDICTIONARY
360
2E
102
}
102
{ACAD_REACTORS
330
30
102
}
100
AcDbDictionary
  3
STANDARD
350
34
  0
XRECORD
  5
20
102
{ACAD_REACTORS
330
1F
102
}
100
AcDbXrecord
102
EXTNAMES
  1
BYBLOCK
  2
ByBlock
  0
XRECORD
  5
23
102
{ACAD_REACTORS
330
22
102
}
100
AcDbXrecord
102
EXTNAMES
  1
BYLAYER
  2
ByLayer
  0
XRECORD
  5
A
102
{ACAD_REACTORS
330
9
102
}
100
AcDbXrecord
102
EXTNAMES
  1
CONTINUOUS
  2
Continuous
  0
DICTIONARY
  5
14
102
{ACAD_XDICTIONARY
360
15
102
}
102
{ACAD_REACTORS
330
13
102
}
100
AcDbDictionary
280
     1
  3
DIM-1_12
360
17
  3
DIM-1_16
360
18
  0
XRECORD
  5
42
102
{ACAD_REACTORS
330
41
102
}
100
AcDbXrecord
102
LINEWEIGHT
280
     3
  0
XRECORD
  5
1C
102
{ACAD_REACTORS
330
1B
102
}
100
AcDbXrecord
102
EXTNAMES
  1
STANDARD
  2
Standard
  0
XRECORD
  5
37
102
{ACAD_REACTORS
330
36
102
}
100
AcDbXrecord
102
EXTNAMES
  1
STANDARD
  2
Standard
102
ACADR14ROUNDTRIP
1000
DSTYLE
1002
{
1070
    79
 70
     1
1070
   276
 70
     1
1070
   277
 70
     5
1002
}
  0
XRECORD
  5
4
102
{ACAD_REACTORS
330
3
102
}
100
AcDbXrecord
340
2
  0
XRECORD
  5
5
102
{ACAD_REACTORS
330
3
102
}
100
AcDbXrecord
102
EXTNAMES
  1
*MODEL_SPACE
  2
*Model_Space
  0
XRECORD
  5
E
102
{ACAD_REACTORS
330
D
102
}
100
AcDbXrecord
340
C
  0
XRECORD
  5
F
102
{ACAD_REACTORS
330
D
102
}
100
AcDbXrecord
102
EXTNAMES
  1
*PAPER_SPACE
  2
*Paper_Space
  0
XRECORD
  5
32
102
{ACAD_REACTORS
330
31
102
}
100
AcDbXrecord
102
EXTNAMES
  1
ACDBVARIABLEDICTIONARY
  2
AcDbVariableDictionary
  0
DICTIONARY
  5
2E
100
AcDbDictionary
280
     1
  3
ACAD_XREC_ROUNDTRIP
360
2F
  0
MLINESTYLE
  5
34
102
{ACAD_REACTORS
330
2D
102
}
100
AcDbMlineStyle
  2
STANDARD
 70
     0
  3

 62
   256
 51
90.0
 52
90.0
 71
     2
 49
0.5
 62
   256
  6
BYLAYER
 49
-0.5
 62
   256
  6
BYLAYER
  0
DICTIONARY
  5
15
100
AcDbDictionary
280
     1
  3
ACAD_XREC_ROUNDTRIP
360
16
  0
XRECORD
  5
17
102
{ACAD_REACTORS
330
14
102
}
100
AcDbXrecord
  1
DIM-1_12
  1
DIM-1_12
  1
*
  1
*
 70
     0
  1
*
  1
*
  0
XRECORD
  5
18
102
{ACAD_REACTORS
330
14
102
}
100
AcDbXrecord
  1
dim-1_16
  1
*
  1
*
  1
*
 70
     0
  1
*
  1
*
  0
XRECORD
  5
2F
102
{ACAD_REACTORS
330
2E
102
}
100
AcDbXrecord
102
EXTNAMES
  1
STANDARD
  2
Standard
  0
XRECORD
  5
16
102
{ACAD_REACTORS
330
15
102
}
100
AcDbXrecord
102
EXTNAMES
  1
DIM-1_16
  2
dim-1_16
  0
ENDSEC
  0
EOF
