  0
SECTION
  2
HEADER
  9
$ACADVER
  1
AC1014
  9
$ACADMAINTVER
 70
     0
  9
$DWGCODEPAGE
  3
ANSI_1252
  9
$INSBASE
 10
-93.168898
 20
103.733014
 30
0.0
  9
$EXTMIN
 10
-135.416853
 20
90.824607
 30
0.0
  9
$EXTMAX
 10
-50.913787
 20
154.230727
 30
0.0
  9
$LIMMIN
 10
0.0
 20
0.0
  9
$LIMMAX
 10
100.502416
 20
51.698548
  9
$ORTHOMODE
 70
     1
  9
$REGENMODE
 70
     1
  9
$FILLMODE
 70
     1
  9
$QTEXTMODE
 70
     0
  9
$MIRRTEXT
 70
     1
  9
$DRAGMODE
 70
     2
  9
$LTSCALE
 40
0.25
  9
$OSMODE
 70
    53
  9
$ATTMODE
 70
     1
  9
$TEXTSIZE
 40
0.1
  9
$TRACEWID
 40
1.0
  9
$TEXTSTYLE
  7
CARTOUCHE
  9
$CLAYER
  8
0
  9
$CELTYPE
  6
BYLAYER
  9
$CECOLOR
 62
   256
  9
$CELTSCALE
 40
1.0
  9
$DELOBJ
 70
     1
  9
$DISPSILH
 70
     0
  9
$DIMSCALE
 40
16.0
  9
$DIMASZ
 40
0.1
  9
$DIMEXO
 40
0.0625
  9
$DIMDLI
 40
0.25
  9
$DIMRND
 40
0.0
  9
$DIMDLE
 40
0.0
  9
$DIMEXE
 40
0.1
  9
$DIMTP
 40
0.0
  9
$DIMTM
 40
0.0
  9
$DIMTXT
 40
0.1
  9
$DIMCEN
 40
0.09
  9
$DIMTSZ
 40
0.0
  9
$DIMTOL
 70
     0
  9
$DIMLIM
 70
     0
  9
$DIMTIH
 70
     1
  9
$DIMTOH
 70
     1
  9
$DIMSE1
 70
     0
  9
$DIMSE2
 70
     0
  9
$DIMTAD
 70
     0
  9
$DIMZIN
 70
     4
  9
$DIMBLK
  1

  9
$DIMASO
 70
     1
  9
$DIMSHO
 70
     1
  9
$DIMPOST
  1

  9
$DIMAPOST
  1
cm
  9
$DIMALT
 70
     1
  9
$DIMALTD
 70
     2
  9
$DIMALTF
 40
2.54
  9
$DIMLFAC
 40
1.0
  9
$DIMTOFL
 70
     0
  9
$DIMTVP
 40
0.0
  9
$DIMTIX
 70
     0
  9
$DIMSOXD
 70
     0
  9
$DIMSAH
 70
     0
  9
$DIMBLK1
  1

  9
$DIMBLK2
  1

  9
$DIMSTYLE
  2
STANDARD
  9
$DIMCLRD
 70
     0
  9
$DIMCLRE
 70
     0
  9
$DIMCLRT
 70
     0
  9
$DIMTFAC
 40
1.0
  9
$DIMGAP
 40
0.08
  9
$DIMJUST
 70
     0
  9
$DIMSD1
 70
     0
  9
$DIMSD2
 70
     0
  9
$DIMTOLJ
 70
     1
  9
$DIMTZIN
 70
     0
  9
$DIMALTZ
 70
    12
  9
$DIMALTTZ
 70
     0
  9
$DIMFIT
 70
     3
  9
$DIMUPT
 70
     0
  9
$DIMUNIT
 70
     2
  9
$DIMDEC
 70
     4
  9
$DIMTDEC
 70
     4
  9
$DIMALTU
 70
     2
  9
$DIMALTTD
 70
     2
  9
$DIMTXSTY
  7
STANDARD
  9
$DIMAUNIT
 70
     0
  9
$LUNITS
 70
     2
  9
$LUPREC
 70
     2
  9
$SKETCHINC
 40
1.0
  9
$FILLETRAD
 40
0.25
  9
$AUNITS
 70
     0
  9
$AUPREC
 70
     0
  9
$MENU
  1
.
  9
$ELEVATION
 40
0.0
  9
$PELEVATION
 40
0.0
  9
$THICKNESS
 40
0.0
  9
$LIMCHECK
 70
     0
  9
$BLIPMODE
 70
     0
  9
$CHAMFERA
 40
0.0
  9
$CHAMFERB
 40
0.0
  9
$CHAMFERC
 40
20.0
  9
$CHAMFERD
 40
0.0
  9
$SKPOLY
 70
     0
  9
$TDCREATE
 40
2452062.343093519
  9
$TDUPDATE
 40
2453690.577499201
  9
$TDINDWG
 40
3.2277523611
  9
$TDUSRTIMER
 40
3.2277523611
  9
$USRTIMER
 70
     1
  9
$ANGBASE
 50
0.0
  9
$ANGDIR
 70
     0
  9
$PDMODE
 70
    34
  9
$PDSIZE
 40
-5.0
  9
$PLINEWID
 40
0.0
  9
$COORDS
 70
     1
  9
$SPLFRAME
 70
     0
  9
$SPLINETYPE
 70
     6
  9
$SPLINESEGS
 70
     8
  9
$ATTDIA
 70
     0
  9
$ATTREQ
 70
     1
  9
$HANDLING
 70
     1
  9
$HANDSEED
  5
7E
  9
$SURFTAB1
 70
     6
  9
$SURFTAB2
 70
     6
  9
$SURFTYPE
 70
     6
  9
$SURFU
 70
     6
  9
$SURFV
 70
     6
  9
$UCSNAME
  2

  9
$UCSORG
 10
0.0
 20
0.0
 30
0.0
  9
$UCSXDIR
 10
1.0
 20
0.0
 30
0.0
  9
$UCSYDIR
 10
0.0
 20
1.0
 30
0.0
  9
$PUCSNAME
  2

  9
$PUCSORG
 10
0.0
 20
0.0
 30
0.0
  9
$PUCSXDIR
 10
1.0
 20
0.0
 30
0.0
  9
$PUCSYDIR
 10
0.0
 20
1.0
 30
0.0
  9
$USERI1
 70
     0
  9
$USERI2
 70
     0
  9
$USERI3
 70
     0
  9
$USERI4
 70
     0
  9
$USERI5
 70
     0
  9
$USERR1
 40
0.0
  9
$USERR2
 40
0.0
  9
$USERR3
 40
0.0
  9
$USERR4
 40
0.0
  9
$USERR5
 40
0.0
  9
$WORLDVIEW
 70
     1
  9
$SHADEDGE
 70
     3
  9
$SHADEDIF
 70
    70
  9
$TILEMODE
 70
     1
  9
$MAXACTVP
 70
    48
  9
$PINSBASE
 10
0.0
 20
0.0
 30
0.0
  9
$PLIMCHECK
 70
     0
  9
$PEXTMIN
 10
1.031083
 20
0.79375
 30
0.0
  9
$PEXTMAX
 10
9.27975
 20
7.14375
 30
0.0
  9
$PLIMMIN
 10
-0.53125
 20
-0.28125
  9
$PLIMMAX
 10
10.46875
 20
8.21875
  9
$UNITMODE
 70
     0
  9
$VISRETAIN
 70
     1
  9
$PLINEGEN
 70
     0
  9
$PSLTSCALE
 70
     1
  9
$TREEDEPTH
 70
  3020
  9
$PICKSTYLE
 70
     1
  9
$CMLSTYLE
  2
STANDARD
  9
$CMLJUST
 70
     0
  9
$CMLSCALE
 40
20.0
  9
$PROXYGRAPHICS
 70
     1
  9
$MEASUREMENT
 70
     0
  0
ENDSEC
  0
SECTION
  2
CLASSES
  0
CLASS
  1
ACDBDICTIONARYWDFLT
  2
AcDbDictionaryWithDefault
  3
AutoCAD 2000
 90
        0
280
     1
281
     0
  0
CLASS
  1
ACDBPLACEHOLDER
  2
AcDbPlaceHolder
  3
AutoCAD 2000
 90
        0
280
     1
281
     0
  0
CLASS
  1
LAYOUT
  2
AcDbLayout
  3
AutoCAD 2000
 90
        0
280
     1
281
     0
  0
CLASS
  1
DICTIONARYVAR
  2
AcDbDictionaryVar
  3
"AutoCAD"
 90
        0
280
     0
281
     0
  0
CLASS
  1
IMAGEDEF
  2
AcDbRasterImageDef
  3
ISM
 90
        0
280
     1
281
     0
  0
CLASS
  1
LONG_TRANSACTION
  2
AcDbLongTransaction
  3
AutoCAD 2000
 90
        0
280
     1
281
     0
  0
CLASS
  1
LWPOLYLINE
  2
AcDbPolyline
  3
"AutoCAD"
 90
        0
280
     0
281
     1
  0
CLASS
  1
HATCH
  2
AcDbHatch
  3
"ACAD_SEDONA"
 90
        0
280
     0
281
     1
  0
CLASS
  1
XRECORD
  2
AcDbXrecord
  3
"<Built In>"
 90
        0
280
     0
281
     0
  0
ENDSEC
  0
SECTION
  2
TABLES
  0
TABLE
  2
VPORT
  5
26
100
AcDbSymbolTable
 70
     2
  0
VPORT
  5
7D
100
AcDbSymbolTableRecord
100
AcDbViewportTableRecord
  2
*ACTIVE
 70
     0
 10
0.0
 20
0.0
 11
1.0
 21
1.0
 12
-93.16638
 22
122.5256
 13
0.0
 23
0.0
 14
10.0
 24
10.0
 15
10.0
 25
10.0
 16
0.0
 26
0.0
 36
1.0
 17
0.0
 27
0.0
 37
0.0
 40
70.254728
 41
1.487748
 42
50.0
 43
0.0
 44
0.0
 50
0.0
 51
0.0
 71
     0
 72
   100
 73
     1
 74
     3
 75
     0
 76
     0
 77
     0
 78
     2
  0
ENDTAB
  0
TABLE
  2
LTYPE
  5
1D
100
AcDbSymbolTable
 70
     2
  0
LTYPE
  5
1E
102
{ACAD_XDICTIONARY
360
1F
102
}
100
AcDbSymbolTableRecord
100
AcDbLinetypeTableRecord
  2
BYBLOCK
 70
     0
  3

 72
    65
 73
     0
 40
0.0
  0
LTYPE
  5
21
102
{ACAD_XDICTIONARY
360
22
102
}
100
AcDbSymbolTableRecord
100
AcDbLinetypeTableRecord
  2
BYLAYER
 70
     0
  3

 72
    65
 73
     0
 40
0.0
  0
LTYPE
  5
8
102
{ACAD_XDICTIONARY
360
9
102
}
100
AcDbSymbolTableRecord
100
AcDbLinetypeTableRecord
  2
CONTINUOUS
 70
     0
  3
Solid line
 72
    65
 73
     0
 40
0.0
  0
LTYPE
  5
3C
100
AcDbSymbolTableRecord
100
AcDbLinetypeTableRecord
  2
CENTER
 70
     0
  3
Center ____ _ ____ _ ____ _ ____ _ ____ _ ____
 72
    65
 73
     4
 40
50.8
 49
31.75
 74
     0
 49
-6.35
 74
     0
 49
6.35
 74
     0
 49
-6.35
 74
     0
  0
ENDTAB
  0
TABLE
  2
LAYER
  5
12
102
{ACAD_XDICTIONARY
360
13
102
}
100
AcDbSymbolTable
 70
     2
  0
LAYER
  5
7
100
AcDbSymbolTableRecord
100
AcDbLayerTableRecord
  2
0
 70
     0
 62
     7
  6
CONTINUOUS
  0
LAYER
  5
39
102
{ACAD_XDICTIONARY
360
3A
102
}
100
AcDbSymbolTableRecord
100
AcDbLayerTableRecord
  2
CENTER
 70
     0
 62
     1
  6
CENTER
  0
ENDTAB
  0
TABLE
  2
STYLE
  5
19
100
AcDbSymbolTable
 70
     2
  0
STYLE
  5
1A
102
{ACAD_XDICTIONARY
360
1B
102
}
100
AcDbSymbolTableRecord
100
AcDbTextStyleTableRecord
  2
STANDARD
 70
     0
 40
0.0
 41
1.0
 50
0.0
 71
     0
 42
0.125
  3
txt
  4

  0
STYLE
  5
33
100
AcDbSymbolTableRecord
100
AcDbTextStyleTableRecord
  2
CARTOUCHE
 70
     0
 40
0.0
 41
1.0
 50
0.0
 71
     0
 42
0.1
  3
romans.shx
  4

  0
ENDTAB
  0
TABLE
  2
VIEW
  5
24
100
AcDbSymbolTable
 70
     0
  0
ENDTAB
  0
TABLE
  2
UCS
  5
25
100
AcDbSymbolTable
 70
     0
  0
ENDTAB
  0
TABLE
  2
APPID
  5
28
100
AcDbSymbolTable
 70
     1
  0
APPID
  5
29
100
AcDbSymbolTableRecord
100
AcDbRegAppTableRecord
  2
ACAD
 70
     0
  0
ENDTAB
  0
TABLE
  2
DIMSTYLE
  5
2A
100
AcDbSymbolTable
 70
     1
  0
DIMSTYLE
105
35
102
{ACAD_XDICTIONARY
360
36
102
}
100
AcDbSymbolTableRecord
100
AcDbDimStyleTableRecord
  2
STANDARD
 70
     0
  3

  4
cm
  5

  6

  7

 40
16.0
 41
0.1
 42
0.0625
 43
0.25
 44
0.1
 45
0.0
 46
0.0
 47
0.0
 48
0.0
140
0.1
141
0.09
142
0.0
143
2.54
144
1.0
145
0.0
146
1.0
147
0.08
 71
     0
 72
     0
 73
     1
 74
     1
 75
     0
 76
     0
 77
     0
 78
     4
170
     1
171
     2
172
     0
173
     0
174
     0
175
     0
176
     0
177
     0
178
     0
270
     5
271
     4
272
     4
273
     2
274
     2
340
1A
275
     0
280
     0
281
     0
282
     0
283
     1
284
     0
285
    12
286
     0
287
     3
288
     0
  0
ENDTAB
  0
TABLE
  2
BLOCK_RECORD
  5
1
100
AcDbSymbolTable
 70
     0
  0
BLOCK_RECORD
  5
2
102
{ACAD_XDICTIONARY
360
3
102
}
100
AcDbSymbolTableRecord
100
AcDbBlockTableRecord
  2
*MODEL_SPACE
  0
BLOCK_RECORD
  5
C
102
{ACAD_XDICTIONARY
360
D
102
}
100
AcDbSymbolTableRecord
100
AcDbBlockTableRecord
  2
*PAPER_SPACE
  0
ENDTAB
  0
ENDSEC
  0
SECTION
  2
BLOCKS
  0
BLOCK
  5
6
100
AcDbEntity
  8
0
100
AcDbBlockBegin
  2
*MODEL_SPACE
 70
     0
 10
0.0
 20
0.0
 30
0.0
  3
*MODEL_SPACE
  1

  0
ENDBLK
  5
B
100
AcDbEntity
  8
0
100
AcDbBlockEnd
  0
BLOCK
  5
10
100
AcDbEntity
 67
     1
  8
0
100
AcDbBlockBegin
  2
*PAPER_SPACE
 70
     0
 10
0.0
 20
0.0
 30
0.0
  3
*PAPER_SPACE
  1

  0
ENDBLK
  5
11
100
AcDbEntity
 67
     1
  8
0
100
AcDbBlockEnd
  0
ENDSEC
  0
SECTION
  2
ENTITIES
  0
LINE
  5
38
100
AcDbEntity
  8
CENTER
 48
0.3
100
AcDbLine
 10
-96.108639
 20
103.733014
 30
0.0
 11
-90.23948
 21
103.733014
 31
0.0
  0
LWPOLYLINE
  5
3D
100
AcDbEntity
  8
0
100
AcDbPolyline
 90
       13
 70
     0
 43
0.0
 10
-93.169879
 20
154.230727
 10
-50.913787
 20
111.974635
 10
-61.721294
 20
101.167128
 42
-0.040433
 10
-67.117831
 20
96.915574
 42
-0.080246
 10
-74.609805
 20
93.287655
 42
-0.046025
 10
-82.351544
 20
91.491882
 42
-0.029322
 10
-93.161742
 20
90.983097
 42
-0.029322
 10
-103.971939
 20
91.491882
 42
-0.046025
 10
-111.713678
 20
93.287655
 42
-0.080246
 10
-119.205652
 20
96.915574
 42
-0.040433
 10
-124.602189
 20
101.167128
 10
-135.416853
 20
111.981791
 10
-93.167916
 20
154.230727
  0
LWPOLYLINE
  5
3E
100
AcDbEntity
  8
0
100
AcDbPolyline
 90
        6
 70
     0
 43
0.0
 10
-93.168898
 20
97.736447
 42
-0.09539
 10
-90.569803
 20
97.23604
 42
0.09539
 10
-79.168898
 20
95.041009
 42
0.196259
 10
-65.725986
 20
100.528973
 42
0.362832
 10
-63.727215
 20
120.552124
 10
-83.001426
 20
139.826336
  0
LWPOLYLINE
  5
3F
100
AcDbEntity
  8
0
100
AcDbPolyline
 90
        4
 70
     0
 43
0.0
 10
-81.940766
 20
140.886996
 42
0.434242
 10
-99.869189
 20
140.278137
 42
0.421091
 10
-98.85743
 20
127.595652
 42
0.191381
 10
-93.168898
 20
125.736447
  0
CIRCLE
  5
40
100
AcDbEntity
  8
0
100
AcDbCircle
 10
-93.168898
 20
132.736447
 30
0.0
 40
7.0
  0
LWPOLYLINE
  5
41
100
AcDbEntity
  8
0
100
AcDbPolyline
 90
        6
 70
     1
 43
0.0
 10
-69.288424
 20
124.612745
 42
-0.146766
 10
-68.276443
 20
124.067824
 10
-67.581418
 20
123.372799
 42
0.158267
 10
-71.426454
 20
126.475528
 42
0.106768
 10
-78.168898
 20
127.931886
 42
0.099136
 10
-91.870585
 20
125.188254
  0
LWPOLYLINE
  5
42
100
AcDbEntity
  8
0
100
AcDbPolyline
 90
        2
 70
     0
 43
0.0
 10
-107.168898
 20
124.236447
 10
-78.665898
 20
124.236447
  0
LINE
  5
43
100
AcDbEntity
  8
0
100
AcDbLine
 10
-107.168898
 20
99.236447
 30
0.0
 11
-78.665898
 21
99.236447
 31
0.0
  0
LWPOLYLINE
  5
44
100
AcDbEntity
  8
0
100
AcDbPolyline
 90
        5
 70
     0
 43
0.0
 10
-90.015603
 20
97.57087
 42
-0.013966
 10
-91.870585
 20
98.284641
 10
-69.288424
 20
98.86015
 42
0.146766
 10
-68.276443
 20
99.405071
 10
-67.518219
 20
100.163295
  0
LWPOLYLINE
  5
45
100
AcDbEntity
  8
0
100
AcDbPolyline
 90
        2
 70
     0
 43
0.0
 10
-83.001426
 20
139.826336
 42
0.401111
 10
-99.640998
 20
140.532396
 42
0.401111
  0
ARC
  5
46
100
AcDbEntity
  8
0
100
AcDbCircle
 10
-92.108238
 20
140.590497
 30
0.0
 40
7.399144
100
AcDbArc
 50
45.0
 51
135.0
  0
LWPOLYLINE
  5
47
100
AcDbEntity
  8
0
100
AcDbPolyline
 90
        2
 70
     0
 43
0.0
 10
-97.340056
 20
145.822648
 10
-122.610581
 20
120.552124
  0
LWPOLYLINE
  5
48
100
AcDbEntity
  8
0
100
AcDbPolyline
 90
        6
 70
     0
 43
0.0
 10
-93.168898
 20
97.736447
 42
0.09539
 10
-95.767992
 20
97.23604
 42
-0.09539
 10
-107.168898
 20
95.041009
 42
-0.196259
 10
-120.61181
 20
100.528973
 42
-0.362832
 10
-122.610581
 20
120.552124
 10
-97.340223
 20
145.822482
  0
LWPOLYLINE
  5
49
100
AcDbEntity
  8
0
100
AcDbPolyline
 90
        5
 70
     0
 43
0.0
 10
-109.32917
 20
133.833534
 10
-126.047184
 20
119.236841
 42
0.011568
 10
-126.710674
 20
118.347863
 42
0.31924
 10
-126.710674
 20
105.125032
 42
0.242801
 10
-107.168898
 20
95.041009
  0
LWPOLYLINE
  5
4A
100
AcDbEntity
  8
0
100
AcDbPolyline
 90
        6
 70
     1
 43
0.0
 10
-118.131407
 20
123.357769
 42
-0.189447
 10
-115.550321
 20
125.949389
 42
-0.116658
 10
-107.168898
 20
127.931886
 42
-0.107855
 10
-94.583778
 20
125.185204
 10
-116.056694
 20
124.652996
 42
0.19248
 10
-117.421352
 20
124.067824
  0
ELLIPSE
  5
4B
100
AcDbEntity
  8
0
100
AcDbEllipse
 10
-107.168898
 20
111.736447
 30
0.0
 11
0.0000000000000009
 21
12.49999999999998
 31
0.0
210
0.0
220
0.0
230
1.0
 40
0.8
 41
0.0
 42
3.141592653589793
  0
LINE
  5
4C
100
AcDbEntity
  8
CENTER
 48
0.3
100
AcDbLine
 10
-93.168898
 20
101.105658
 30
0.0
 11
-93.168898
 21
106.066123
 31
0.0
  0
LWPOLYLINE
  5
4D
100
AcDbEntity
  8
0
100
AcDbPolyline
 90
        5
 70
     0
 43
0.0
 10
-96.316438
 20
97.557928
 42
0.015564
 10
-94.583778
 20
98.287691
 10
-116.056694
 20
98.819899
 42
-0.19248
 10
-117.421352
 20
99.405071
 10
-118.179576
 20
100.163295
  0
LWPOLYLINE
  5
4E
100
AcDbEntity
  8
0
100
AcDbPolyline
 90
        3
 70
     0
 43
0.0
 10
-118.131407
 20
100.115126
 42
0.189447
 10
-115.550321
 20
97.523506
 42
0.114358
 10
-107.338705
 20
95.54178
 42
0.114358
  0
LWPOLYLINE
  5
4F
100
AcDbEntity
  8
0
100
AcDbPolyline
 90
        2
 70
     0
 43
0.0
 10
-104.707528
 20
95.641462
 42
0.05001
 10
-98.779286
 20
96.729505
  0
ARC
  5
50
100
AcDbEntity
  8
0
100
AcDbCircle
 10
-101.660618
 20
79.94523
 30
0.0
 40
17.022233
100
AcDbArc
 50
81.96684
 51
95.014684
  0
ARC
  5
51
100
AcDbEntity
  8
0
100
AcDbCircle
 10
-102.980144
 20
73.384546
 30
0.0
 40
24.850791
100
AcDbArc
 50
79.666969
 51
86.67046
  0
LINE
  5
52
100
AcDbEntity
  8
0
100
AcDbLine
 10
-104.935257
 20
95.175232
 30
0.0
 11
-104.568025
 21
95.927065
 31
0.0
  0
ARC
  5
53
100
AcDbEntity
  8
0
100
AcDbCircle
 10
-106.434092
 20
95.115546
 30
0.0
 40
1.0
100
AcDbArc
 50
143.643903
 51
181.96684
  0
ELLIPSE
  5
54
100
AcDbEntity
  8
0
100
AcDbEllipse
 10
-105.759771
 20
95.146917
 30
0.0
 11
0.8245139578492675
 21
0.0283148955805085
 31
0.0
210
0.0
220
0.0
230
-1.0
 40
0.074165
 41
0.0
 42
1.570796326794896
  0
ELLIPSE
  5
55
100
AcDbEntity
  8
0
100
AcDbEllipse
 10
-106.684226
 20
95.11517
 30
0.0
 11
-0.7495581434993312
 21
-0.0257408141640985
 31
0.0
210
0.0
220
0.0
230
-1.0
 40
0.081581
 41
4.712388980384689
 42
6.283185307179586
  0
LINE
  5
56
100
AcDbEntity
  8
0
100
AcDbLine
 10
-106.682127
 20
95.05402
 30
0.0
 11
-105.757671
 21
95.085767
 31
0.0
  0
ARC
  5
57
100
AcDbEntity
  8
0
100
AcDbCircle
 10
-102.306682
 20
92.077436
 30
0.0
 40
6.125
100
AcDbArc
 50
89.776719
 51
143.643903
  0
ARC
  5
58
100
AcDbEntity
  8
0
100
AcDbCircle
 10
-101.948753
 20
94.971811
 30
0.0
 40
3.247805
100
AcDbArc
 50
82.713688
 51
95.903721
  0
ARC
  5
59
100
AcDbEntity
  8
0
100
AcDbCircle
 10
-102.99558
 20
95.159005
 30
0.0
 40
1.75
100
AcDbArc
 50
95.014684
 51
153.96684
  0
ARC
  5
5A
100
AcDbEntity
  8
0
100
AcDbCircle
 10
-97.742207
 20
101.686403
 30
0.0
 40
3.931689
100
AcDbArc
 50
258.550022
 51
282.590929
  0
LINE
  5
5B
100
AcDbEntity
  8
0
100
AcDbLine
 10
-97.863965
 20
96.600325
 30
0.0
 11
-99.281826
 21
96.800429
 31
0.0
  0
LINE
  5
5C
100
AcDbEntity
  8
0
100
AcDbLine
 10
-96.579643
 20
96.918702
 30
0.0
 11
-97.540291
 21
96.62561
 31
0.0
  0
ARC
  5
5D
100
AcDbEntity
  8
0
100
AcDbCircle
 10
-97.759155
 20
97.342965
 30
0.0
 40
0.75
100
AcDbArc
 50
261.96684
 51
286.96684
  0
ARC
  5
5E
100
AcDbEntity
  8
0
100
AcDbCircle
 10
-96.776149
 20
97.361291
 30
0.0
 40
0.5
100
AcDbArc
 50
16.96684
 51
102.590929
  0
ELLIPSE
  5
5F
100
AcDbEntity
  8
0
100
AcDbEllipse
 10
-96.647181
 20
96.934424
 30
0.0
 11
0.4782369041127856
 21
0.1459090934267514
 31
0.0
210
0.0
220
0.0
230
-1.0
 40
0.07
 41
6.283185307179586
 42
7.853981633974482
  0
LINE
  5
60
100
AcDbEntity
  8
0
100
AcDbLine
 10
-96.168944
 20
97.080333
 30
0.0
 11
-96.297912
 21
97.5072
 31
0.0
  0
CIRCLE
  5
61
100
AcDbEntity
  8
0
100
AcDbCircle
 10
-93.168898
 20
103.733014
 30
0.0
 40
1.375
  0
CIRCLE
  5
62
100
AcDbEntity
  8
0
100
AcDbCircle
 10
-93.168898
 20
103.733014
 30
0.0
 40
1.875
  0
LWPOLYLINE
  5
63
100
AcDbEntity
  8
0
100
AcDbPolyline
 90
        5
 70
     0
 43
0.0
 10
-81.940766
 20
140.886996
 10
-60.290612
 20
119.236841
 42
-0.011568
 10
-59.627122
 20
118.347863
 42
-0.31924
 10
-59.627122
 20
105.125032
 42
-0.242801
 10
-79.168898
 20
95.041009
  0
ELLIPSE
  5
64
100
AcDbEntity
  8
0
100
AcDbEllipse
 10
-78.665898
 20
111.736447
 30
0.0
 11
-0.0000000000000009
 21
12.49999999999998
 31
0.0
210
0.0
220
0.0
230
-1.0
 40
0.8
 41
0.0
 42
3.141592653589793
  0
LWPOLYLINE
  5
65
100
AcDbEntity
  8
0
100
AcDbPolyline
 90
        4
 70
     0
 43
0.0
 10
-67.581418
 20
100.100096
 42
-0.158267
 10
-71.426454
 20
96.997367
 42
-0.106768
 10
-78.168898
 20
95.541009
 42
-0.005863
 10
-79.003393
 20
95.550795
 42
-0.005863
  0
LWPOLYLINE
  5
66
100
AcDbEntity
  8
0
100
AcDbPolyline
 90
        2
 70
     0
 43
0.0
 10
-81.665306
 20
95.713196
 42
-0.040892
 10
-87.382154
 20
96.754394
  0
ARC
  5
67
100
AcDbEntity
  8
0
100
AcDbCircle
 10
-84.031113
 20
92.077436
 30
0.0
 40
6.125
100
AcDbArc
 50
36.356097
 51
90.223281
  0
ARC
  5
68
100
AcDbEntity
  8
0
100
AcDbCircle
 10
-83.342216
 20
95.159005
 30
0.0
 40
1.75
100
AcDbArc
 50
26.03316
 51
84.985316
  0
ARC
  5
69
100
AcDbEntity
  8
0
100
AcDbCircle
 10
-83.357651
 20
73.384546
 30
0.0
 40
24.850791
100
AcDbArc
 50
93.32954
 51
100.333031
  0
ARC
  5
6A
100
AcDbEntity
  8
0
100
AcDbCircle
 10
-84.677177
 20
79.94523
 30
0.0
 40
17.022233
100
AcDbArc
 50
84.985316
 51
98.03316
  0
LINE
  5
6B
100
AcDbEntity
  8
0
100
AcDbLine
 10
-89.758153
 20
96.918702
 30
0.0
 11
-88.797504
 21
96.62561
 31
0.0
  0
ARC
  5
6C
100
AcDbEntity
  8
0
100
AcDbCircle
 10
-88.595588
 20
101.686403
 30
0.0
 40
3.931689
100
AcDbArc
 50
257.409071
 51
281.449978
  0
LINE
  5
6D
100
AcDbEntity
  8
0
100
AcDbLine
 10
-90.168851
 20
97.080333
 30
0.0
 11
-90.039883
 21
97.5072
 31
0.0
  0
ARC
  5
6E
100
AcDbEntity
  8
0
100
AcDbCircle
 10
-89.561647
 20
97.361291
 30
0.0
 40
0.5
100
AcDbArc
 50
77.409071
 51
163.03316
  0
ELLIPSE
  5
6F
100
AcDbEntity
  8
0
100
AcDbEllipse
 10
-89.690614
 20
96.934424
 30
0.0
 11
-0.4782369041127856
 21
0.1459090934267514
 31
0.0
210
0.0
220
0.0
230
1.0
 40
0.07
 41
6.283185307179586
 42
7.853981633974482
  0
LINE
  5
70
100
AcDbEntity
  8
0
100
AcDbLine
 10
-88.473831
 20
96.600325
 30
0.0
 11
-87.05597
 21
96.800429
 31
0.0
  0
ARC
  5
71
100
AcDbEntity
  8
0
100
AcDbCircle
 10
-88.578641
 20
97.342965
 30
0.0
 40
0.75
100
AcDbArc
 50
253.03316
 51
278.03316
  0
ARC
  5
72
100
AcDbEntity
  8
0
100
AcDbCircle
 10
-84.389042
 20
94.971811
 30
0.0
 40
3.247805
100
AcDbArc
 50
84.096279
 51
97.286312
  0
LINE
  5
73
100
AcDbEntity
  8
0
100
AcDbLine
 10
-81.402538
 20
95.175232
 30
0.0
 11
-81.76977
 21
95.927065
 31
0.0
  0
ARC
  5
74
100
AcDbEntity
  8
0
100
AcDbCircle
 10
-79.903703
 20
95.115546
 30
0.0
 40
1.0
100
AcDbArc
 50
358.03316
 51
36.356097
  0
ELLIPSE
  5
75
100
AcDbEntity
  8
0
100
AcDbEllipse
 10
-79.653569
 20
95.11517
 30
0.0
 11
0.7495581434993312
 21
-0.0257408141640985
 31
0.0
210
0.0
220
0.0
230
1.0
 40
0.081581
 41
4.712388980384689
 42
6.283185307179586
  0
LINE
  5
76
100
AcDbEntity
  8
0
100
AcDbLine
 10
-79.655669
 20
95.05402
 30
0.0
 11
-80.580124
 21
95.085767
 31
0.0
  0
ELLIPSE
  5
77
100
AcDbEntity
  8
0
100
AcDbEllipse
 10
-80.578024
 20
95.146917
 30
0.0
 11
-0.8245139578492675
 21
0.0283148955805085
 31
0.0
210
0.0
220
0.0
230
1.0
 40
0.074165
 41
0.0
 42
1.570796326794896
  0
LINE
  5
78
100
AcDbEntity
  8
0
100
AcDbLine
 10
-86.876253
 20
145.822482
 30
0.0
 11
-85.242958
 21
144.189187
 31
0.0
  0
ENDSEC
  0
SECTION
  2
OBJECTS
  0
DICTIONARY
  5
30
102
{ACAD_XDICTIONARY
360
31
102
}
100
AcDbDictionary
  3
ACAD_GROUP
350
2C
  3
ACAD_MLINESTYLE
350
2D
  0
DICTIONARY
  5
1F
100
AcDbDictionary
280
     1
  3
ACAD_XREC_ROUNDTRIP
360
20
  0
DICTIONARY
  5
22
100
AcDbDictionary
280
     1
  3
ACAD_XREC_ROUNDTRIP
360
23
  0
DICTIONARY
  5
9
100
AcDbDictionary
280
     1
  3
ACAD_XREC_ROUNDTRIP
360
A
  0
DICTIONARY
  5
13
100
AcDbDictionary
280
     1
  3
ACAD_LAYERFILTERS
360
14
  0
DICTIONARY
  5
3A
100
AcDbDictionary
280
     1
  3
ACAD_XREC_ROUNDTRIP
360
3B
  0
DICTIONARY
  5
1B
100
AcDbDictionary
280
     1
  3
ACAD_XREC_ROUNDTRIP
360
1C
  0
DICTIONARY
  5
36
100
AcDbDictionary
280
     1
  3
ACAD_XREC_ROUNDTRIP
360
37
  0
DICTIONARY
  5
3
100
AcDbDictionary
280
     1
  3
ACAD_LAYOUTSELFREF
360
4
  3
ACAD_XREC_ROUNDTRIP
360
5
  0
DICTIONARY
  5
D
100
AcDbDictionary
280
     1
  3
ACAD_LAYOUTSELFREF
360
E
  3
ACAD_XREC_ROUNDTRIP
360
F
  0
DICTIONARY
  5
31
100
AcDbDictionary
280
     1
  3
ACAD_XREC_ROUNDTRIP
360
32
  0
DICTIONARY
  5
2C
102
{ACAD_REACTORS
330
30
102
}
100
AcDbDictionary
  0
DICTIONARY
  5
2D
102
{ACAD_XDICTIONARY
360
2E
102
}
102
{ACAD_REACTORS
330
30
102
}
100
AcDbDictionary
  3
STANDARD
350
34
  0
XRECORD
  5
20
102
{ACAD_REACTORS
330
1F
102
}
100
AcDbXrecord
102
EXTNAMES
  1
BYBLOCK
  2
ByBlock
  0
XRECORD
  5
23
102
{ACAD_REACTORS
330
22
102
}
100
AcDbXrecord
102
EXTNAMES
  1
BYLAYER
  2
ByLayer
  0
XRECORD
  5
A
102
{ACAD_REACTORS
330
9
102
}
100
AcDbXrecord
102
EXTNAMES
  1
CONTINUOUS
  2
Continuous
  0
DICTIONARY
  5
14
102
{ACAD_XDICTIONARY
360
15
102
}
102
{ACAD_REACTORS
330
13
102
}
100
AcDbDictionary
280
     1
  3
DIM-1_12
360
17
  3
DIM-1_16
360
18
  0
XRECORD
  5
3B
102
{ACAD_REACTORS
330
3A
102
}
100
AcDbXrecord
102
LINEWEIGHT
280
     3
  0
XRECORD
  5
1C
102
{ACAD_REACTORS
330
1B
102
}
100
AcDbXrecord
102
EXTNAMES
  1
STANDARD
  2
Standard
  0
XRECORD
  5
37
102
{ACAD_REACTORS
330
36
102
}
100
AcDbXrecord
102
EXTNAMES
  1
STANDARD
  2
Standard
102
ACADR14ROUNDTRIP
1000
DSTYLE
1002
{
1070
    79
 70
     1
1070
   276
 70
     1
1070
   277
 70
     5
1002
}
  0
XRECORD
  5
4
102
{ACAD_REACTORS
330
3
102
}
100
AcDbXrecord
340
2
  0
XRECORD
  5
5
102
{ACAD_REACTORS
330
3
102
}
100
AcDbXrecord
102
EXTNAMES
  1
*MODEL_SPACE
  2
*Model_Space
  0
XRECORD
  5
E
102
{ACAD_REACTORS
330
D
102
}
100
AcDbXrecord
340
C
  0
XRECORD
  5
F
102
{ACAD_REACTORS
330
D
102
}
100
AcDbXrecord
102
EXTNAMES
  1
*PAPER_SPACE
  2
*Paper_Space
  0
XRECORD
  5
32
102
{ACAD_REACTORS
330
31
102
}
100
AcDbXrecord
102
EXTNAMES
  1
ACDBVARIABLEDICTIONARY
  2
AcDbVariableDictionary
  0
DICTIONARY
  5
2E
100
AcDbDictionary
280
     1
  3
ACAD_XREC_ROUNDTRIP
360
2F
  0
MLINESTYLE
  5
34
102
{ACAD_REACTORS
330
2D
102
}
100
AcDbMlineStyle
  2
STANDARD
 70
     0
  3

 62
   256
 51
90.0
 52
90.0
 71
     2
 49
0.5
 62
   256
  6
BYLAYER
 49
-0.5
 62
   256
  6
BYLAYER
  0
DICTIONARY
  5
15
100
AcDbDictionary
280
     1
  3
ACAD_XREC_ROUNDTRIP
360
16
  0
XRECORD
  5
17
102
{ACAD_REACTORS
330
14
102
}
100
AcDbXrecord
  1
DIM-1_12
  1
DIM-1_12
  1
*
  1
*
 70
     0
  1
*
  1
*
  0
XRECORD
  5
18
102
{ACAD_REACTORS
330
14
102
}
100
AcDbXrecord
  1
dim-1_16
  1
*
  1
*
  1
*
 70
     0
  1
*
  1
*
  0
XRECORD
  5
2F
102
{ACAD_REACTORS
330
2E
102
}
100
AcDbXrecord
102
EXTNAMES
  1
STANDARD
  2
Standard
  0
XRECORD
  5
16
102
{ACAD_REACTORS
330
15
102
}
100
AcDbXrecord
102
EXTNAMES
  1
DIM-1_16
  2
dim-1_16
  0
ENDSEC
  0
EOF
