  0
SECTION
  2
HEADER
  9
$ACADVER
  1
AC1014
  9
$ACADMAINTVER
 70
     0
  9
$DWGCODEPAGE
  3
ANSI_1252
  9
$INSBASE
 10
83.733232
 20
-187.110138
 30
0.0
  9
$EXTMIN
 10
49.337478
 20
-189.381267
 30
-1.566658
  9
$EXTMAX
 10
133.855188
 20
-163.279369
 30
1.566625
  9
$LIMMIN
 10
0.0
 20
0.0
  9
$LIMMAX
 10
100.502416
 20
51.698548
  9
$ORTHOMODE
 70
     0
  9
$REGENMODE
 70
     1
  9
$FILLMODE
 70
     1
  9
$QTEXTMODE
 70
     0
  9
$MIRRTEXT
 70
     1
  9
$DRAGMODE
 70
     2
  9
$LTSCALE
 40
2.0
  9
$OSMODE
 70
    37
  9
$ATTMODE
 70
     1
  9
$TEXTSIZE
 40
0.1
  9
$TRACEWID
 40
1.0
  9
$TEXTSTYLE
  7
CARTOUCHE
  9
$CLAYER
  8
0
  9
$CELTYPE
  6
BYLAYER
  9
$CECOLOR
 62
   256
  9
$CELTSCALE
 40
1.0
  9
$DELOBJ
 70
     1
  9
$DISPSILH
 70
     0
  9
$DIMSCALE
 40
16.0
  9
$DIMASZ
 40
0.1
  9
$DIMEXO
 40
0.0625
  9
$DIMDLI
 40
0.25
  9
$DIMRND
 40
0.0
  9
$DIMDLE
 40
0.0
  9
$DIMEXE
 40
0.1
  9
$DIMTP
 40
0.0
  9
$DIMTM
 40
0.0
  9
$DIMTXT
 40
0.1
  9
$DIMCEN
 40
0.09
  9
$DIMTSZ
 40
0.0
  9
$DIMTOL
 70
     0
  9
$DIMLIM
 70
     0
  9
$DIMTIH
 70
     1
  9
$DIMTOH
 70
     1
  9
$DIMSE1
 70
     0
  9
$DIMSE2
 70
     0
  9
$DIMTAD
 70
     0
  9
$DIMZIN
 70
     4
  9
$DIMBLK
  1

  9
$DIMASO
 70
     1
  9
$DIMSHO
 70
     1
  9
$DIMPOST
  1
\X
  9
$DIMAPOST
  1
cm
  9
$DIMALT
 70
     1
  9
$DIMALTD
 70
     1
  9
$DIMALTF
 40
2.54
  9
$DIMLFAC
 40
1.0
  9
$DIMTOFL
 70
     0
  9
$DIMTVP
 40
0.0
  9
$DIMTIX
 70
     0
  9
$DIMSOXD
 70
     0
  9
$DIMSAH
 70
     0
  9
$DIMBLK1
  1

  9
$DIMBLK2
  1

  9
$DIMSTYLE
  2
STANDARD
  9
$DIMCLRD
 70
     0
  9
$DIMCLRE
 70
     0
  9
$DIMCLRT
 70
     0
  9
$DIMTFAC
 40
1.0
  9
$DIMGAP
 40
0.08
  9
$DIMJUST
 70
     0
  9
$DIMSD1
 70
     0
  9
$DIMSD2
 70
     0
  9
$DIMTOLJ
 70
     1
  9
$DIMTZIN
 70
     4
  9
$DIMALTZ
 70
     4
  9
$DIMALTTZ
 70
     4
  9
$DIMFIT
 70
     1
  9
$DIMUPT
 70
     0
  9
$DIMUNIT
 70
     2
  9
$DIMDEC
 70
     4
  9
$DIMTDEC
 70
     3
  9
$DIMALTU
 70
     2
  9
$DIMALTTD
 70
     1
  9
$DIMTXSTY
  7
ROMANS
  9
$DIMAUNIT
 70
     0
  9
$LUNITS
 70
     2
  9
$LUPREC
 70
     2
  9
$SKETCHINC
 40
1.0
  9
$FILLETRAD
 40
0.5
  9
$AUNITS
 70
     0
  9
$AUPREC
 70
     0
  9
$MENU
  1
.
  9
$ELEVATION
 40
0.0
  9
$PELEVATION
 40
0.0
  9
$THICKNESS
 40
0.0
  9
$LIMCHECK
 70
     0
  9
$BLIPMODE
 70
     0
  9
$CHAMFERA
 40
0.0
  9
$CHAMFERB
 40
0.0
  9
$CHAMFERC
 40
20.0
  9
$CHAMFERD
 40
0.0
  9
$SKPOLY
 70
     0
  9
$TDCREATE
 40
2452062.343093519
  9
$TDUPDATE
 40
2453689.511797164
  9
$TDINDWG
 40
3.9864538773
  9
$TDUSRTIMER
 40
3.9864538773
  9
$USRTIMER
 70
     1
  9
$ANGBASE
 50
0.0
  9
$ANGDIR
 70
     0
  9
$PDMODE
 70
    34
  9
$PDSIZE
 40
-5.0
  9
$PLINEWID
 40
0.0
  9
$COORDS
 70
     1
  9
$SPLFRAME
 70
     0
  9
$SPLINETYPE
 70
     6
  9
$SPLINESEGS
 70
     8
  9
$ATTDIA
 70
     0
  9
$ATTREQ
 70
     1
  9
$HANDLING
 70
     1
  9
$HANDSEED
  5
66F
  9
$SURFTAB1
 70
     6
  9
$SURFTAB2
 70
     6
  9
$SURFTYPE
 70
     6
  9
$SURFU
 70
     6
  9
$SURFV
 70
     6
  9
$UCSNAME
  2

  9
$UCSORG
 10
0.0
 20
0.0
 30
0.0
  9
$UCSXDIR
 10
1.0
 20
0.0
 30
0.0
  9
$UCSYDIR
 10
0.0
 20
1.0
 30
0.0
  9
$PUCSNAME
  2

  9
$PUCSORG
 10
0.0
 20
0.0
 30
0.0
  9
$PUCSXDIR
 10
1.0
 20
0.0
 30
0.0
  9
$PUCSYDIR
 10
0.0
 20
1.0
 30
0.0
  9
$USERI1
 70
     0
  9
$USERI2
 70
     0
  9
$USERI3
 70
     0
  9
$USERI4
 70
     0
  9
$USERI5
 70
     0
  9
$USERR1
 40
0.0
  9
$USERR2
 40
0.0
  9
$USERR3
 40
0.0
  9
$USERR4
 40
0.0
  9
$USERR5
 40
0.0
  9
$WORLDVIEW
 70
     1
  9
$SHADEDGE
 70
     3
  9
$SHADEDIF
 70
    70
  9
$TILEMODE
 70
     1
  9
$MAXACTVP
 70
    48
  9
$PINSBASE
 10
0.0
 20
0.0
 30
0.0
  9
$PLIMCHECK
 70
     0
  9
$PEXTMIN
 10
0.0
 20
0.0
 30
0.0
  9
$PEXTMAX
 10
0.0
 20
0.0
 30
0.0
  9
$PLIMMIN
 10
0.0
 20
0.0
  9
$PLIMMAX
 10
12.0
 20
9.0
  9
$UNITMODE
 70
     0
  9
$VISRETAIN
 70
     1
  9
$PLINEGEN
 70
     0
  9
$PSLTSCALE
 70
     1
  9
$TREEDEPTH
 70
  3020
  9
$PICKSTYLE
 70
     1
  9
$CMLSTYLE
  2
STANDARD
  9
$CMLJUST
 70
     0
  9
$CMLSCALE
 40
20.0
  9
$PROXYGRAPHICS
 70
     1
  9
$MEASUREMENT
 70
     0
  0
ENDSEC
  0
SECTION
  2
CLASSES
  0
CLASS
  1
ACDBDICTIONARYWDFLT
  2
AcDbDictionaryWithDefault
  3
AutoCAD 2000
 90
        0
280
     0
281
     0
  0
CLASS
  1
ACDBPLACEHOLDER
  2
AcDbPlaceHolder
  3
AutoCAD 2000
 90
        0
280
     0
281
     0
  0
CLASS
  1
LAYOUT
  2
AcDbLayout
  3
AutoCAD 2000
 90
        0
280
     0
281
     0
  0
CLASS
  1
DICTIONARYVAR
  2
AcDbDictionaryVar
  3
"AutoCAD"
 90
        0
280
     0
281
     0
  0
CLASS
  1
IMAGEDEF
  2
AcDbRasterImageDef
  3
ISM
 90
        0
280
     0
281
     0
  0
CLASS
  1
LONG_TRANSACTION
  2
AcDbLongTransaction
  3
AutoCAD 2000
 90
        0
280
     0
281
     0
  0
CLASS
  1
LWPOLYLINE
  2
AcDbPolyline
  3
"AutoCAD"
 90
        0
280
     0
281
     1
  0
CLASS
  1
HATCH
  2
AcDbHatch
  3
"ACAD_SEDONA"
 90
        0
280
     0
281
     1
  0
CLASS
  1
XRECORD
  2
AcDbXrecord
  3
"<Built In>"
 90
        0
280
     0
281
     0
  0
CLASS
  1
LONG_TRANSACTION
  2
AcDbLongTransaction
  3
AutoCAD 2000
 90
        0
280
     0
281
     0
  0
CLASS
  1
LWPOLYLINE
  2
AcDbPolyline
  3
"AutoCAD"
 90
        0
280
     0
281
     1
  0
CLASS
  1
HATCH
  2
AcDbHatch
  3
"ACAD_SEDONA"
 90
        0
280
     0
281
     1
  0
CLASS
  1
XRECORD
  2
AcDbXrecord
  3
"<Built In>"
 90
        0
280
     0
281
     0
  0
ENDSEC
  0
SECTION
  2
TABLES
  0
TABLE
  2
VPORT
  5
1D
100
AcDbSymbolTable
 70
     4
  0
VPORT
  5
66E
100
AcDbSymbolTableRecord
100
AcDbViewportTableRecord
  2
*ACTIVE
 70
     0
 10
0.0
 20
0.0
 11
1.0
 21
1.0
 12
91.596333
 22
-176.330318
 13
0.0
 23
0.0
 14
10.0
 24
10.0
 15
10.0
 25
10.0
 16
0.0
 26
0.0
 36
1.0
 17
0.0
 27
0.0
 37
0.0
 40
57.076185
 41
1.487748
 42
50.0
 43
0.0
 44
0.0
 50
0.0
 51
0.0
 71
     0
 72
   100
 73
     1
 74
     3
 75
     0
 76
     0
 77
     0
 78
     2
  0
ENDTAB
  0
TABLE
  2
LTYPE
  5
18
100
AcDbSymbolTable
 70
     3
  0
LTYPE
  5
19
102
{ACAD_XDICTIONARY
360
255
102
}
100
AcDbSymbolTableRecord
100
AcDbLinetypeTableRecord
  2
BYBLOCK
 70
     0
  3

 72
    65
 73
     0
 40
0.0
  0
LTYPE
  5
1A
102
{ACAD_XDICTIONARY
360
257
102
}
100
AcDbSymbolTableRecord
100
AcDbLinetypeTableRecord
  2
BYLAYER
 70
     0
  3

 72
    65
 73
     0
 40
0.0
  0
LTYPE
  5
8
102
{ACAD_XDICTIONARY
360
259
102
}
100
AcDbSymbolTableRecord
100
AcDbLinetypeTableRecord
  2
CONTINUOUS
 70
     0
  3
Solid line
 72
    65
 73
     0
 40
0.0
  0
LTYPE
  5
1D1
100
AcDbSymbolTableRecord
100
AcDbLinetypeTableRecord
  2
CENTER
 70
     0
  3
Center ____ _ ____ _ ____ _ ____ _ ____ _ ____
 72
    65
 73
     4
 40
50.8
 49
31.75
 74
     0
 49
-6.35
 74
     0
 49
6.35
 74
     0
 49
-6.35
 74
     0
  0
LTYPE
  5
1A5
100
AcDbSymbolTableRecord
100
AcDbLinetypeTableRecord
  2
HIDDEN
 70
     0
  3
Hidden __ __ __ __ __ __ __ __ __ __ __ __ __ _
 72
    65
 73
     2
 40
9.525
 49
6.35
 74
     0
 49
-3.175
 74
     0
  0
ENDTAB
  0
TABLE
  2
LAYER
  5
10
102
{ACAD_XDICTIONARY
360
11
102
}
100
AcDbSymbolTable
 70
     3
  0
LAYER
  5
4
100
AcDbSymbolTableRecord
100
AcDbLayerTableRecord
  2
0
 70
     0
 62
     7
  6
CONTINUOUS
  0
LAYER
  5
1D0
102
{ACAD_XDICTIONARY
360
28D
102
}
100
AcDbSymbolTableRecord
100
AcDbLayerTableRecord
  2
CENTER
 70
     0
 62
     1
  6
CENTER
  0
ENDTAB
  0
TABLE
  2
STYLE
  5
15
100
AcDbSymbolTable
 70
     3
  0
STYLE
  5
16
102
{ACAD_XDICTIONARY
360
25B
102
}
100
AcDbSymbolTableRecord
100
AcDbTextStyleTableRecord
  2
STANDARD
 70
     0
 40
0.0
 41
1.0
 50
0.0
 71
     0
 42
0.125
  3
txt
  4

  0
STYLE
  5
2A
100
AcDbSymbolTableRecord
100
AcDbTextStyleTableRecord
  2
CARTOUCHE
 70
     0
 40
0.0
 41
1.0
 50
0.0
 71
     0
 42
0.1
  3
romans.shx
  4

  0
STYLE
  5
23
102
{ACAD_XDICTIONARY
360
25D
102
}
100
AcDbSymbolTableRecord
100
AcDbTextStyleTableRecord
  2
ROMANS
 70
     0
 40
0.0
 41
1.0
 50
0.0
 71
     0
 42
1.0
  3
romans.shx
  4

  0
ENDTAB
  0
TABLE
  2
VIEW
  5
1B
100
AcDbSymbolTable
 70
     0
  0
ENDTAB
  0
TABLE
  2
UCS
  5
1C
100
AcDbSymbolTable
 70
     0
  0
ENDTAB
  0
TABLE
  2
APPID
  5
1F
100
AcDbSymbolTable
 70
     1
  0
APPID
  5
20
100
AcDbSymbolTableRecord
100
AcDbRegAppTableRecord
  2
ACAD
 70
     0
  0
ENDTAB
  0
TABLE
  2
DIMSTYLE
  5
21
100
AcDbSymbolTable
 70
     1
  0
DIMSTYLE
105
22
102
{ACAD_XDICTIONARY
360
289
102
}
100
AcDbSymbolTableRecord
100
AcDbDimStyleTableRecord
  2
STANDARD
 70
     0
  3
\X
  4
cm
  5

  6

  7

 40
16.0
 41
0.1
 42
0.0625
 43
0.25
 44
0.1
 45
0.0
 46
0.0
 47
0.0
 48
0.0
140
0.1
141
0.09
142
0.0
143
2.54
144
1.0
145
0.0
146
1.0
147
0.08
 71
     0
 72
     0
 73
     1
 74
     1
 75
     0
 76
     0
 77
     0
 78
     4
170
     1
171
     1
172
     0
173
     0
174
     0
175
     0
176
     0
177
     0
178
     0
270
     5
271
     3
272
     3
273
     2
274
     1
340
23
275
     0
280
     0
281
     0
282
     0
283
     1
284
     4
285
     4
286
     4
287
     1
288
     0
  0
ENDTAB
  0
TABLE
  2
BLOCK_RECORD
  5
1
100
AcDbSymbolTable
 70
     5
  0
BLOCK_RECORD
  5
2
102
{ACAD_XDICTIONARY
360
20F
102
}
100
AcDbSymbolTableRecord
100
AcDbBlockTableRecord
  2
*MODEL_SPACE
  0
BLOCK_RECORD
  5
209
102
{ACAD_XDICTIONARY
360
211
102
}
100
AcDbSymbolTableRecord
100
AcDbBlockTableRecord
  2
*PAPER_SPACE
  0
ENDTAB
  0
ENDSEC
  0
SECTION
  2
BLOCKS
  0
BLOCK
  5
3
100
AcDbEntity
  8
0
100
AcDbBlockBegin
  2
*MODEL_SPACE
 70
     0
 10
0.0
 20
0.0
 30
0.0
  3
*MODEL_SPACE
  1

  0
ENDBLK
  5
9
100
AcDbEntity
  8
0
100
AcDbBlockEnd
  0
BLOCK
  5
20B
100
AcDbEntity
 67
     1
  8
0
100
AcDbBlockBegin
  2
*PAPER_SPACE
 70
     0
 10
0.0
 20
0.0
 30
0.0
  3
*PAPER_SPACE
  1

  0
ENDBLK
  5
20C
100
AcDbEntity
 67
     1
  8
0
100
AcDbBlockEnd
  0
ENDSEC
  0
SECTION
  2
ENTITIES
  0
LINE
  5
2C
100
AcDbEntity
  8
0
100
AcDbLine
 10
91.759114
 20
-166.110138
 30
1.56627
 11
87.224
 21
-166.110138
 31
-1.56627
210
0.0
220
1.0
230
-0.0000000000000002
  0
LINE
  5
2D
100
AcDbEntity
  8
0
100
AcDbLine
 10
90.106877
 20
-166.110138
 30
-0.890826
 11
88.876237
 21
-166.110138
 31
0.890826
210
0.0
220
1.0
230
-0.0000000000000002
  0
ARC
  5
1A6
100
AcDbEntity
  8
0
 48
0.1
100
AcDbCircle
 10
75.476711
 20
-186.110138
 30
0.0
 40
1.0
100
AcDbArc
 50
270.0
 51
315.0
  0
LINE
  5
1A7
100
AcDbEntity
  8
0
 48
0.1
100
AcDbLine
 10
76.904909
 20
-186.096154
 30
0.0
 11
76.183818
 21
-186.817245
 31
0.0
  0
ARC
  5
1A8
100
AcDbEntity
  8
0
 48
0.1
100
AcDbCircle
 10
66.530633
 20
-186.110138
 30
0.0
 40
1.0
100
AcDbArc
 50
225.0
 51
270.0
  0
LINE
  5
1A9
100
AcDbEntity
  8
0
 48
0.1
100
AcDbLine
 10
64.892762
 20
-185.886481
 30
0.0
 11
65.823526
 21
-186.817245
 31
0.0
  0
LINE
  5
1AA
100
AcDbEntity
  8
0
100
AcDbLine
 10
66.530633
 20
-187.110138
 30
0.0
 11
75.476711
 21
-187.110138
 31
0.0
  0
ARC
  5
1AB
100
AcDbEntity
  8
0
 48
0.1
100
AcDbCircle
 10
102.824889
 20
-186.110138
 30
0.0
 40
1.0
100
AcDbArc
 50
270.0
 51
315.0
  0
LINE
  5
1AC
100
AcDbEntity
  8
0
 48
0.1
100
AcDbLine
 10
104.508906
 20
-185.840334
 30
0.0
 11
103.531995
 21
-186.817245
 31
0.0
  0
ARC
  5
1AD
100
AcDbEntity
  8
0
 48
0.1
100
AcDbCircle
 10
96.440089
 20
-186.110138
 30
0.0
 40
1.0
100
AcDbArc
 50
225.0
 51
270.0
  0
LINE
  5
1AE
100
AcDbEntity
  8
0
 48
0.1
100
AcDbLine
 10
90.518071
 20
-186.095722
 30
0.0
 11
90.176542
 21
-186.822734
 31
0.0
  0
LINE
  5
1AF
100
AcDbEntity
  8
0
 48
0.1
100
AcDbLine
 10
94.934373
 20
-186.018635
 30
0.0
 11
95.732982
 21
-186.817245
 31
0.0
  0
LINE
  5
1B0
100
AcDbEntity
  8
0
100
AcDbLine
 10
96.440089
 20
-187.110138
 30
0.0
 11
102.824889
 21
-187.110138
 31
0.0
  0
ARC
  5
1B1
100
AcDbEntity
  8
0
 48
0.1
100
AcDbCircle
 10
88.258764
 20
-186.610138
 30
0.0
 40
0.5
100
AcDbArc
 50
205.162773
 51
270.0
  0
LINE
  5
1B2
100
AcDbEntity
  8
0
 48
0.1
100
AcDbLine
 10
89.72399
 20
-187.110138
 30
0.0
 11
88.258764
 21
-187.110138
 31
0.0
  0
LINE
  5
1B3
100
AcDbEntity
  8
0
 48
0.1
100
AcDbLine
 10
88.258764
 20
-187.110138
 30
0.0
 11
89.198103
 21
-187.110138
 31
0.0
  0
LINE
  5
1B4
100
AcDbEntity
  8
0
 48
0.1
100
AcDbLine
 10
89.198103
 20
-187.110138
 30
0.0
 11
88.258764
 21
-187.110138
 31
0.0
  0
LINE
  5
1B5
100
AcDbEntity
  8
0
 48
0.1
100
AcDbLine
 10
87.489517
 20
-186.148586
 30
0.0
 11
87.806212
 21
-186.822734
 31
0.0
  0
ARC
  5
1B6
100
AcDbEntity
  8
0
 48
0.1
100
AcDbCircle
 10
89.72399
 20
-186.610138
 30
0.0
 40
0.5
100
AcDbArc
 50
270.0
 51
334.837227
  0
LINE
  5
1B7
100
AcDbEntity
  8
0
  6
HIDDEN
 62
     9
 48
0.05
100
AcDbLine
 10
97.800287
 20
-170.769383
 30
0.0
 11
97.559589
 21
-170.39874
 31
0.0
  0
LINE
  5
1B8
100
AcDbEntity
  8
0
  6
HIDDEN
 62
     9
 48
0.05
100
AcDbLine
 10
95.941012
 20
-170.949248
 30
0.0
 11
96.070956
 21
-170.337906
 31
0.0
  0
ELLIPSE
  5
1B9
100
AcDbEntity
  8
0
  6
HIDDEN
 62
     9
 48
0.05
100
AcDbEllipse
 10
96.800729
 20
-170.812506
 30
0.0
 11
0.2292533439219856
 21
-0.0487293025354127
 31
0.0
210
0.0
220
0.0
230
1.0
 40
0.997564
 41
0.0
 42
6.283185307179586
  0
LINE
  5
1BA
100
AcDbEntity
  8
0
  6
HIDDEN
 62
     9
 48
0.05
100
AcDbLine
 10
97.325688
 20
-171.499156
 30
0.0
 11
96.133571
 21
-171.245763
 31
0.0
  0
ELLIPSE
  5
1BB
100
AcDbEntity
  8
0
  6
HIDDEN
 62
     9
 48
0.05
100
AcDbEllipse
 10
96.800729
 20
-170.812506
 30
0.0
 11
-0.1222684500917257
 21
0.0259889613522201
 31
0.0
210
0.0
220
0.0
230
1.0
 40
0.997564
 41
0.0
 42
6.283185307179586
  0
LINE
  5
1BC
100
AcDbEntity
  8
0
  6
HIDDEN
 62
     9
 48
0.05
100
AcDbLine
 10
97.800287
 20
-170.769383
 30
0.0
 11
97.696332
 21
-171.258457
 31
0.0
  0
LINE
  5
1BD
100
AcDbEntity
  8
0
  6
HIDDEN
 62
     9
 48
0.05
100
AcDbLine
 10
97.325688
 20
-171.499156
 30
0.0
 11
97.696332
 21
-171.258457
 31
0.0
  0
ARC
  5
1BE
100
AcDbEntity
  8
0
  6
HIDDEN
 62
     9
 48
0.05
100
AcDbCircle
 10
96.185549
 20
-171.001226
 30
0.0
 40
0.25
100
AcDbArc
 50
168.0
 51
258.0
  0
ARC
  5
1BF
100
AcDbEntity
  8
0
  6
HIDDEN
 62
     9
 48
0.05
100
AcDbCircle
 10
96.315493
 20
-170.389884
 30
0.0
 40
0.25
100
AcDbArc
 50
78.0
 51
168.0
  0
LINE
  5
1C0
100
AcDbEntity
  8
0
  6
HIDDEN
 62
     9
 48
0.05
100
AcDbLine
 10
89.60524
 20
-169.538642
 30
0.0
 11
89.826274
 21
-169.905106
 31
0.0
  0
ELLIPSE
  5
1C1
100
AcDbEntity
  8
0
  6
HIDDEN
 62
     9
 48
0.05
100
AcDbEllipse
 10
90.13326
 20
-169.714773
 30
0.0
 11
-0.0470709163980379
 21
0.2566176122915025
 31
0.0
210
0.0
220
0.0
230
1.0
 40
0.660595
 41
2.875832884592589
 42
4.446629211387498
  0
LINE
  5
1C2
100
AcDbEntity
  8
0
  6
HIDDEN
 62
     9
 48
0.05
100
AcDbLine
 10
90.134155
 20
-169.970548
 30
0.0
 11
89.826274
 21
-169.905106
 31
0.0
  0
LINE
  5
1C3
100
AcDbEntity
  8
0
  6
HIDDEN
 62
     9
 48
0.05
100
AcDbLine
 10
89.822246
 20
-168.754117
 30
0.0
 11
90.130127
 21
-168.819559
 31
0.0
  0
ELLIPSE
  5
1C4
100
AcDbEntity
  8
0
  6
HIDDEN
 62
     9
 48
0.05
100
AcDbEllipse
 10
89.956637
 20
-169.479956
 30
0.0
 11
0.0477489259056004
 21
-0.2294595404420163
 31
0.0
210
0.0
220
0.0
230
1.0
 40
0.687908
 41
0.0
 42
6.283185307179586
  0
ELLIPSE
  5
1C5
100
AcDbEntity
  8
0
  6
HIDDEN
 62
     9
 48
0.05
100
AcDbEllipse
 10
89.956637
 20
-169.479956
 30
0.0
 11
-0.0477489259056012
 21
0.2294595404420167
 31
0.0
210
0.0
220
0.0
230
0.9999999999999998
 40
0.687908
 41
0.0
 42
6.283185307179586
  0
LINE
  5
1C6
100
AcDbEntity
  8
0
  6
HIDDEN
 62
     9
 48
0.05
100
AcDbLine
 10
89.822246
 20
-168.754117
 30
0.0
 11
89.60345
 21
-169.027091
 31
0.0
  0
LINE
  5
1C7
100
AcDbEntity
  8
0
  6
HIDDEN
 62
     9
 48
0.05
100
AcDbLine
 10
89.60524
 20
-169.538642
 30
0.0
 11
89.60345
 21
-169.027091
 31
0.0
  0
ELLIPSE
  5
1C8
100
AcDbEntity
  8
0
  6
HIDDEN
 62
     9
 48
0.05
100
AcDbEllipse
 10
89.956637
 20
-169.479956
 30
0.0
 11
-0.0254660938163206
 21
0.1223784215690755
 31
0.0
210
0.0
220
0.0
230
0.9999999999999998
 40
0.687908
 41
0.0
 42
6.283185307179586
  0
LINE
  5
1C9
100
AcDbEntity
  8
0
  6
HIDDEN
 62
     9
 48
0.05
100
AcDbLine
 10
90.306954
 20
-169.11273
 30
0.0
 11
90.309192
 21
-169.752168
 31
0.0
  0
ELLIPSE
  5
1CA
100
AcDbEntity
  8
0
  6
HIDDEN
 62
     9
 48
0.05
100
AcDbEllipse
 10
90.131022
 20
-169.075334
 30
0.0
 11
-0.0470709163980417
 21
0.2566176122914689
 31
0.0
210
0.0
220
0.0
230
0.9999999999999998
 40
0.660595
 41
4.446629211387438
 42
6.01742553818244
  0
LINE
  5
1CB
100
AcDbEntity
  8
0
  6
HIDDEN
 62
     9
 48
0.05
100
AcDbLine
 10
97.696332
 20
-171.258457
 30
0.0
 11
89.60524
 21
-169.538642
 31
0.0
  0
LINE
  5
1CC
100
AcDbEntity
  8
0
  6
HIDDEN
 62
     9
 48
0.05
100
AcDbLine
 10
90.134155
 20
-169.970548
 30
0.0
 11
96.133571
 21
-171.245763
 31
0.0
  0
LINE
  5
1CD
100
AcDbEntity
  8
0
  6
HIDDEN
 62
     9
 48
0.05
100
AcDbLine
 10
89.60345
 20
-169.027091
 30
0.0
 11
97.800287
 21
-170.769383
 31
0.0
  0
LINE
  5
1CE
100
AcDbEntity
  8
0
  6
HIDDEN
 62
     9
 48
0.05
100
AcDbLine
 10
97.559589
 20
-170.39874
 30
0.0
 11
90.130127
 21
-168.819559
 31
0.0
  0
LINE
  5
1CF
100
AcDbEntity
  8
CENTER
 48
0.05
100
AcDbLine
 10
83.733232
 20
-183.988157
 30
0.0
 11
83.733232
 21
-189.364659
 31
0.0
  0
LINE
  5
1D2
100
AcDbEntity
  8
CENTER
 48
0.05
100
AcDbLine
 10
81.044981
 20
-169.676408
 30
0.0
 11
86.421484
 21
-169.676408
 31
0.0
  0
LINE
  5
1D3
100
AcDbEntity
  8
CENTER
 48
0.05
100
AcDbLine
 10
83.733232
 20
-166.988157
 30
0.0
 11
83.733232
 21
-172.364659
 31
0.0
  0
LINE
  5
1D4
100
AcDbEntity
  8
0
100
AcDbLine
 10
49.350165
 20
-167.610138
 30
0.0
 11
133.849426
 21
-167.610138
 31
0.0
  0
LINE
  5
1D5
100
AcDbEntity
  8
0
100
AcDbLine
 10
49.50855
 20
-166.610138
 30
0.0
 11
97.450949
 21
-166.610138
 31
0.0
  0
LINE
  5
1D6
100
AcDbEntity
  8
0
100
AcDbLine
 10
61.366411
 20
-167.610138
 30
0.0
 11
97.450949
 21
-167.610138
 31
0.0
  0
LINE
  5
1D7
100
AcDbEntity
  8
0
100
AcDbLine
 10
50.00855
 20
-166.110138
 30
0.0
 11
97.450949
 21
-166.110138
 31
0.0
  0
LINE
  5
1D8
100
AcDbEntity
  8
0
100
AcDbLine
 10
63.681752
 20
-185.865343
 30
0.0
 11
81.865469
 21
-186.183645
 31
0.0
  0
LINE
  5
1D9
100
AcDbEntity
  8
0
100
AcDbLine
 10
118.859447
 20
-164.860138
 30
0.0
 11
118.214081
 21
-166.110138
 31
0.0
  0
LINE
  5
1DA
100
AcDbEntity
  8
0
100
AcDbLine
 10
110.726701
 20
-183.910657
 30
0.0
 11
116.102853
 21
-170.26231
 31
0.0
  0
LINE
  5
1DB
100
AcDbEntity
  8
0
  6
HIDDEN
 62
     9
 48
0.05
100
AcDbLine
 10
109.13198
 20
-184.289324
 30
0.0
 11
81.48026
 21
-184.774081
 31
0.0
  0
ARC
  5
1DC
100
AcDbEntity
  8
0
100
AcDbCircle
 10
106.822418
 20
-183.313548
 30
0.0
 40
2.5
100
AcDbArc
 50
273.712053
 51
359.567368
  0
LINE
  5
1DD
100
AcDbEntity
  8
0
100
AcDbLine
 10
106.984273
 20
-185.808303
 30
0.0
 11
85.600996
 21
-186.183645
 31
0.0
  0
LINE
  5
1DE
100
AcDbEntity
  8
0
  6
HIDDEN
 62
     9
 48
0.05
100
AcDbLine
 10
93.632385
 20
-184.55987
 30
0.0
 11
93.632385
 21
-186.011824
 31
0.0
  0
LINE
  5
1DF
100
AcDbEntity
  8
0
100
AcDbLine
 10
82.358232
 20
-186.676408
 30
0.0
 11
83.733232
 21
-186.676408
 31
0.0
  0
LINE
  5
1E0
100
AcDbEntity
  8
0
100
AcDbLine
 10
85.108232
 20
-186.676408
 30
0.0
 11
83.733232
 21
-186.676408
 31
0.0
  0
LINE
  5
1E1
100
AcDbEntity
  8
0
100
AcDbLine
 10
82.358232
 20
-186.676408
 30
0.0
 11
81.865469
 21
-186.183645
 31
0.0
  0
LINE
  5
1E2
100
AcDbEntity
  8
0
100
AcDbLine
 10
85.108232
 20
-186.676408
 30
0.0
 11
85.600996
 21
-186.183645
 31
0.0
  0
ARC
  5
1E3
100
AcDbEntity
  8
0
100
AcDbCircle
 10
110.241647
 20
-183.789324
 30
0.0
 40
0.5
100
AcDbArc
 50
270.0
 51
345.955954
  0
LINE
  5
1E4
100
AcDbEntity
  8
0
100
AcDbLine
 10
109.13198
 20
-184.289324
 30
0.0
 11
110.241647
 21
-184.289324
 31
0.0
  0
LINE
  5
1E5
100
AcDbEntity
  8
0
100
AcDbLine
 10
133.191041
 20
-166.110138
 30
0.0
 11
87.39951
 21
-166.110138
 31
0.0
  0
LINE
  5
1E6
100
AcDbEntity
  8
0
100
AcDbLine
 10
133.691041
 20
-166.610138
 30
0.0
 11
87.39951
 21
-166.610138
 31
0.0
  0
LINE
  5
1E7
100
AcDbEntity
  8
0
100
AcDbLine
 10
123.780831
 20
-167.610138
 30
0.0
 11
87.39951
 21
-167.610138
 31
0.0
  0
LINE
  5
1E8
100
AcDbEntity
  8
0
100
AcDbLine
 10
112.561461
 20
-176.975305
 30
0.0
 11
89.363227
 21
-171.832381
 31
0.0
  0
LINE
  5
1E9
100
AcDbEntity
  8
0
  6
HIDDEN
100
AcDbLine
 10
92.363227
 20
-167.610138
 30
0.0
 11
92.363227
 21
-166.110138
 31
0.0
  0
LINE
  5
1EA
100
AcDbEntity
  8
0
  6
HIDDEN
100
AcDbLine
 10
89.363227
 20
-167.610138
 30
0.0
 11
89.363227
 21
-166.110138
 31
0.0
  0
LINE
  5
1EB
100
AcDbEntity
  8
0
100
AcDbLine
 10
92.363227
 20
-167.610138
 30
0.0
 11
92.363227
 21
-172.497465
 31
0.0
  0
CIRCLE
  5
1EC
100
AcDbEntity
  8
0
100
AcDbCircle
 10
83.733232
 20
-169.676408
 30
0.0
 40
1.3125
  0
LINE
  5
1ED
100
AcDbEntity
  8
0
100
AcDbLine
 10
89.363227
 20
-167.610138
 30
0.0
 11
89.363227
 21
-171.832381
 31
0.0
  0
LINE
  5
1EE
100
AcDbEntity
  8
0
100
AcDbLine
 10
123.462242
 20
-165.555646
 30
0.0
 11
123.548227
 21
-166.110138
 31
0.0
  0
ARC
  5
1EF
100
AcDbEntity
  8
0
100
AcDbCircle
 10
121.02451
 20
-166.110138
 30
0.0
 40
2.5
100
AcDbArc
 50
12.814595
 51
150.0
  0
LINE
  5
1F0
100
AcDbEntity
  8
0
100
AcDbLine
 10
123.017453
 20
-165.942275
 30
0.0
 11
123.043484
 21
-166.110138
 31
0.0
  0
LINE
  5
1F1
100
AcDbEntity
  8
0
100
AcDbLine
 10
119.302859
 20
-165.092337
 30
0.0
 11
118.828251
 21
-166.110138
 31
0.0
  0
ARC
  5
1F2
100
AcDbEntity
  8
0
100
AcDbCircle
 10
121.02451
 20
-166.110138
 30
0.0
 40
2.0
100
AcDbArc
 50
4.814595
 51
149.409386
  0
LINE
  5
1F3
100
AcDbEntity
  8
0
100
AcDbLine
 10
49.50855
 20
-166.610138
 30
0.0
 11
49.350165
 21
-167.610138
 31
0.0
  0
LINE
  5
1F4
100
AcDbEntity
  8
0
100
AcDbLine
 10
49.50855
 20
-166.610138
 30
0.0
 11
50.00855
 21
-166.110138
 31
0.0
  0
LINE
  5
1F5
100
AcDbEntity
  8
0
100
AcDbLine
 10
133.691041
 20
-166.610138
 30
0.0
 11
133.849426
 21
-167.610138
 31
0.0
  0
LINE
  5
1F6
100
AcDbEntity
  8
0
100
AcDbLine
 10
133.691041
 20
-166.610138
 30
0.0
 11
133.191041
 21
-166.110138
 31
0.0
  0
LINE
  5
1F7
100
AcDbEntity
  8
0
  6
HIDDEN
 62
     9
 48
0.05
100
AcDbLine
 10
57.267592
 20
-166.110138
 30
0.0
 11
57.372482
 21
-167.610138
 31
0.0
  0
LINE
  5
1F8
100
AcDbEntity
  8
0
100
AcDbLine
 10
109.334915
 20
-163.610138
 30
0.0
 11
97.3141
 21
-163.610138
 31
0.0
  0
ELLIPSE
  5
1F9
100
AcDbEntity
  8
0
100
AcDbEllipse
 10
109.632466
 20
-166.110138
 30
0.0
 11
0.0
 21
1.999999999992382
 31
0.0
210
0.0
220
0.0
230
1.0
 40
0.679105
 41
4.712388980384689
 42
7.853981633974482
  0
ELLIPSE
  5
1FA
100
AcDbEntity
  8
0
100
AcDbEllipse
 10
109.334915
 20
-166.110138
 30
0.0
 11
0.0
 21
2.499999999992382
 31
0.0
210
0.0
220
0.0
230
1.0
 40
0.707107
 41
4.712388980384689
 42
7.853981633974482
  0
ELLIPSE
  5
1FB
100
AcDbEntity
  8
0
100
AcDbEllipse
 10
97.3141
 20
-166.110138
 30
0.0
 11
-0.0000000000000188
 21
2.499999999992382
 31
0.0
210
0.0
220
0.0
230
1.0
 40
0.707107
 41
-0.0000000000000107
 42
1.570796326794891
  0
LINE
  5
1FC
100
AcDbEntity
  8
0
100
AcDbLine
 10
57.512336
 20
-169.610138
 30
0.0
 11
72.18172
 21
-169.610138
 31
0.0
  0
LINE
  5
1FD
100
AcDbEntity
  8
0
100
AcDbLine
 10
59.267592
 20
-169.610138
 30
0.0
 11
61.249712
 21
-183.713656
 31
0.0
  0
LINE
  5
1FE
100
AcDbEntity
  8
0
  6
HIDDEN
 62
     9
 48
0.05
100
AcDbLine
 10
72.18172
 20
-166.110138
 30
0.0
 11
72.18172
 21
-167.610138
 31
0.0
  0
LINE
  5
1FF
100
AcDbEntity
  8
0
  6
HIDDEN
 62
     9
 48
0.05
100
AcDbLine
 10
70.745516
 20
-166.110138
 30
0.0
 11
70.745516
 21
-167.610138
 31
0.0
  0
LINE
  5
200
100
AcDbEntity
  8
0
  6
HIDDEN
 62
     9
 48
0.05
100
AcDbLine
 10
81.48026
 20
-184.774081
 30
0.0
 11
81.48026
 21
-186.226035
 31
0.0
  0
ARC
  5
201
100
AcDbEntity
  8
0
100
AcDbCircle
 10
63.725383
 20
-183.365724
 30
0.0
 40
2.5
100
AcDbArc
 50
188.0
 51
269.0
  0
LINE
  5
668
100
AcDbEntity
  8
0
100
AcDbLine
 10
116.102853
 20
-170.26231
 30
0.0
 11
117.439643
 21
-167.610138
 31
0.0
  0
LINE
  5
669
100
AcDbEntity
  8
0
100
AcDbLine
 10
117.439643
 20
-167.610138
 30
0.0
 11
109.322346
 21
-183.332425
 31
0.0
  0
LINE
  5
66A
100
AcDbEntity
  8
0
  6
HIDDEN
 62
     9
 48
0.05
100
AcDbLine
 10
118.214081
 20
-166.110138
 30
0.0
 11
117.439643
 21
-167.610138
 31
0.0
  0
LINE
  5
66B
100
AcDbEntity
  8
0
100
AcDbLine
 10
57.372482
 20
-167.610138
 30
0.0
 11
57.512336
 21
-169.610138
 31
0.0
  0
LINE
  5
66C
100
AcDbEntity
  8
0
100
AcDbLine
 10
70.745516
 20
-167.610138
 30
0.0
 11
70.745516
 21
-169.610138
 31
0.0
  0
LINE
  5
66D
100
AcDbEntity
  8
0
100
AcDbLine
 10
72.18172
 20
-167.610138
 30
0.0
 11
72.18172
 21
-169.610138
 31
0.0
  0
ENDSEC
  0
SECTION
  2
OBJECTS
  0
DICTIONARY
  5
7
102
{ACAD_XDICTIONARY
360
283
102
}
100
AcDbDictionary
  3
ACAD_GROUP
350
27
  3
ACAD_LAYOUT
350
B
  3
ACAD_MLINESTYLE
350
28
  3
ACAD_PLOTSETTINGS
350
29
  3
ACAD_PLOTSTYLENAME
350
6
  3
ACDBHEADERROUNDTRIPXREC
350
261
  3
ACDBVARIABLEDICTIONARY
350
202
  0
DICTIONARY
  5
255
100
AcDbDictionary
280
     1
  3
ACAD_XREC_ROUNDTRIP
360
256
  0
DICTIONARY
  5
257
100
AcDbDictionary
280
     1
  3
ACAD_XREC_ROUNDTRIP
360
258
  0
DICTIONARY
  5
259
100
AcDbDictionary
280
     1
  3
ACAD_XREC_ROUNDTRIP
360
25A
  0
DICTIONARY
  5
11
100
AcDbDictionary
280
     1
  3
ACAD_LAYERFILTERS
360
12
  0
DICTIONARY
  5
28D
100
AcDbDictionary
280
     1
  3
ACAD_XREC_ROUNDTRIP
360
28E
  0
DICTIONARY
  5
25B
100
AcDbDictionary
280
     1
  3
ACAD_XREC_ROUNDTRIP
360
25C
  0
DICTIONARY
  5
25D
100
AcDbDictionary
280
     1
  3
ACAD_XREC_ROUNDTRIP
360
25E
  0
DICTIONARY
  5
289
100
AcDbDictionary
280
     1
  3
ACAD_XREC_ROUNDTRIP
360
28A
  0
DICTIONARY
  5
20F
100
AcDbDictionary
280
     1
  3
ACAD_LAYOUTSELFREF
360
282
  3
ACAD_XREC_ROUNDTRIP
360
253
  0
DICTIONARY
  5
211
100
AcDbDictionary
280
     1
  3
ACAD_LAYOUTSELFREF
360
28F
  3
ACAD_XREC_ROUNDTRIP
360
254
  0
DICTIONARY
  5
283
100
AcDbDictionary
280
     1
  3
ACAD_XREC_ROUNDTRIP
360
284
  0
DICTIONARY
  5
27
102
{ACAD_REACTORS
330
7
102
}
100
AcDbDictionary
  0
DICTIONARY
  5
B
102
{ACAD_XDICTIONARY
360
285
102
}
102
{ACAD_REACTORS
330
7
102
}
100
AcDbDictionary
  3
LAYOUT1
350
20A
  3
MODEL
350
A
  0
DICTIONARY
  5
28
102
{ACAD_XDICTIONARY
360
28B
102
}
102
{ACAD_REACTORS
330
7
102
}
100
AcDbDictionary
  3
STANDARD
350
2B
  0
DICTIONARY
  5
29
102
{ACAD_REACTORS
330
7
102
}
100
AcDbDictionary
  0
ACAD_PROXY_OBJECT
  5
6
102
{ACAD_REACTORS
330
7
102
}
100
AcDbProxyObject
 90
      499
 91
      500
 93
       86
310
405010041939BDC9B585B0
350
5
340
5
 94
        0
  0
DICTIONARY
  5
261
102
{ACAD_REACTORS
330
7
102
}
100
AcDbDictionary
  3
CEPSNTYPE
350
26B
  3
DIMSTYLEDATA
350
26F
  3
FINGERPRINTGUID
350
26C
  3
HYPERLINKBASE
350
264
  3
INSUNITS
350
26A
  3
LAYOUTDICT
350
266
  3
LWETCUNION
350
269
  3
PLOTSETDICT
350
267
  3
PLOTSTYLNAMDICT
350
268
  3
PSVPSCALE
350
26E
  3
PUCSBASE
350
272
  3
PUCSORGBACK
350
278
  3
PUCSORGBOTTOM
350
274
  3
PUCSORGFRONT
350
277
  3
PUCSORGLEFT
350
275
  3
PUCSORGRIGHT
350
276
  3
PUCSORGTOP
350
273
  3
PUCSORTHOREF
350
270
  3
PUCSORTHOVIEW
350
271
  3
STYLESHEET
350
265
  3
TSTACKALIGN
350
262
  3
TSTACKSIZE
350
263
  3
UCSBASE
350
27B
  3
UCSORGBACK
350
281
  3
UCSORGBOTTOM
350
27D
  3
UCSORGFRONT
350
280
  3
UCSORGLEFT
350
27E
  3
UCSORGRIGHT
350
27F
  3
UCSORGTOP
350
27C
  3
UCSORTHOREF
350
279
  3
UCSORTHOVIEW
350
27A
  3
VERSIONGUID
350
26D
  0
DICTIONARY
  5
202
102
{ACAD_REACTORS
330
7
102
}
100
AcDbDictionary
  3
DIMASSOC
350
204
  3
HIDETEXT
350
203
  0
XRECORD
  5
256
102
{ACAD_REACTORS
330
255
102
}
100
AcDbXrecord
102
EXTNAMES
  1
BYBLOCK
  2
ByBlock
  0
XRECORD
  5
258
102
{ACAD_REACTORS
330
257
102
}
100
AcDbXrecord
102
EXTNAMES
  1
BYLAYER
  2
ByLayer
  0
XRECORD
  5
25A
102
{ACAD_REACTORS
330
259
102
}
100
AcDbXrecord
102
EXTNAMES
  1
CONTINUOUS
  2
Continuous
  0
DICTIONARY
  5
12
102
{ACAD_XDICTIONARY
360
287
102
}
102
{ACAD_REACTORS
330
11
102
}
100
AcDbDictionary
280
     1
  3
DIM-1_12
360
13
  3
DIM-1_16
360
14
  0
XRECORD
  5
28E
102
{ACAD_REACTORS
330
28D
102
}
100
AcDbXrecord
102
LINEWEIGHT
280
     3
  0
XRECORD
  5
25C
102
{ACAD_REACTORS
330
25B
102
}
100
AcDbXrecord
102
EXTNAMES
  1
STANDARD
  2
Standard
  0
XRECORD
  5
25E
102
{ACAD_REACTORS
330
25D
102
}
100
AcDbXrecord
102
EXTNAMES
  1
ROMANS
  2
romans
  0
XRECORD
  5
28A
102
{ACAD_REACTORS
330
289
102
}
100
AcDbXrecord
102
ACADR14ROUNDTRIP
1000
DSTYLE
1002
{
1070
    79
 70
     1
1070
   276
 70
     1
1070
   277
 70
     5
1070
   289
 70
     1
1002
}
  0
XRECORD
  5
282
102
{ACAD_REACTORS
330
20F
102
}
100
AcDbXrecord
340
2
  0
XRECORD
  5
253
102
{ACAD_REACTORS
330
20F
102
}
100
AcDbXrecord
102
EXTNAMES
  1
*MODEL_SPACE
  2
*Model_Space
  0
XRECORD
  5
28F
102
{ACAD_REACTORS
330
211
102
}
100
AcDbXrecord
340
209
  0
XRECORD
  5
254
102
{ACAD_REACTORS
330
211
102
}
100
AcDbXrecord
102
EXTNAMES
  1
*PAPER_SPACE
  2
*Paper_Space
  0
XRECORD
  5
284
102
{ACAD_REACTORS
330
283
102
}
100
AcDbXrecord
102
EXTNAMES
  1
ACDBVARIABLEDICTIONARY
  2
AcDbVariableDictionary
  0
DICTIONARY
  5
285
100
AcDbDictionary
280
     1
  3
ACAD_XREC_ROUNDTRIP
360
286
  0
ACAD_PROXY_OBJECT
  5
20A
102
{ACAD_REACTORS
330
B
102
}
100
AcDbProxyObject
 90
      499
 91
      502
 93
      604
310
9104850204465736B4A65742031313230432C00AAAAAA416AA591069074C61796F75743140501A800000000000000000000000000000000000000000000A1000000000000008902A6A6AAAA0
330
209
330
0
340
0
340
0
 94
        0
  0
ACAD_PROXY_OBJECT
  5
A
102
{ACAD_REACTORS
330
B
102
}
100
AcDbProxyObject
 90
      499
 91
      502
 93
      668
310
91D4850204C617365724A65742038313030205365726965732050434C20362C01AAAAAAAAA5A69054D6F64656C901A800000000000000000000000000000000000000000000A1000000000000008902A6A6AAAA0
330
2
330
0
340
0
340
0
 94
        0
  0
DICTIONARY
  5
28B
100
AcDbDictionary
280
     1
  3
ACAD_XREC_ROUNDTRIP
360
28C
  0
MLINESTYLE
  5
2B
102
{ACAD_REACTORS
330
28
102
}
100
AcDbMlineStyle
  2
STANDARD
 70
     0
  3

 62
   256
 51
90.0
 52
90.0
 71
     2
 49
0.5
 62
   256
  6
BYLAYER
 49
-0.5
 62
   256
  6
BYLAYER
  0
ACAD_PROXY_OBJECT
  5
5
102
{ACAD_REACTORS
330
6
102
}
100
AcDbProxyObject
 90
      499
 91
      501
 93
        0
 94
        0
  0
XRECORD
  5
26B
102
{ACAD_REACTORS
330
261
102
}
100
AcDbXrecord
 90
        0
  0
XRECORD
  5
26F
102
{ACAD_REACTORS
330
261
102
}
100
AcDbXrecord
1000
DSTYLE
1002
{
1070
    79
 70
     1
1070
   276
 70
     1
1070
   277
 70
     5
1070
   289
 70
     1
1002
}
  0
XRECORD
  5
26C
102
{ACAD_REACTORS
330
261
102
}
100
AcDbXrecord
  1
{6A4AC8E0-4F58-11D5-8420-0003476D26AB}
  0
XRECORD
  5
264
102
{ACAD_REACTORS
330
261
102
}
100
AcDbXrecord
  1

  0
XRECORD
  5
26A
102
{ACAD_REACTORS
330
261
102
}
100
AcDbXrecord
 90
        1
  0
XRECORD
  5
266
102
{ACAD_REACTORS
330
261
102
}
100
AcDbXrecord
340
B
  0
XRECORD
  5
269
102
{ACAD_REACTORS
330
261
102
}
100
AcDbXrecord
 90
    10781
  0
XRECORD
  5
267
102
{ACAD_REACTORS
330
261
102
}
100
AcDbXrecord
340
29
  0
XRECORD
  5
268
102
{ACAD_REACTORS
330
261
102
}
100
AcDbXrecord
340
6
  0
XRECORD
  5
26E
102
{ACAD_REACTORS
330
261
102
}
100
AcDbXrecord
 40
0.0
  0
XRECORD
  5
272
102
{ACAD_REACTORS
330
261
102
}
100
AcDbXrecord
340
0
  0
XRECORD
  5
278
102
{ACAD_REACTORS
330
261
102
}
100
AcDbXrecord
 10
0.0
 20
0.0
 30
0.0
  0
XRECORD
  5
274
102
{ACAD_REACTORS
330
261
102
}
100
AcDbXrecord
 10
0.0
 20
0.0
 30
0.0
  0
XRECORD
  5
277
102
{ACAD_REACTORS
330
261
102
}
100
AcDbXrecord
 10
0.0
 20
0.0
 30
0.0
  0
XRECORD
  5
275
102
{ACAD_REACTORS
330
261
102
}
100
AcDbXrecord
 10
0.0
 20
0.0
 30
0.0
  0
XRECORD
  5
276
102
{ACAD_REACTORS
330
261
102
}
100
AcDbXrecord
 10
0.0
 20
0.0
 30
0.0
  0
XRECORD
  5
273
102
{ACAD_REACTORS
330
261
102
}
100
AcDbXrecord
 10
0.0
 20
0.0
 30
0.0
  0
XRECORD
  5
270
102
{ACAD_REACTORS
330
261
102
}
100
AcDbXrecord
340
0
  0
XRECORD
  5
271
102
{ACAD_REACTORS
330
261
102
}
100
AcDbXrecord
 70
     0
  0
XRECORD
  5
265
102
{ACAD_REACTORS
330
261
102
}
100
AcDbXrecord
  1

  0
XRECORD
  5
262
102
{ACAD_REACTORS
330
261
102
}
100
AcDbXrecord
 90
        1
  0
XRECORD
  5
263
102
{ACAD_REACTORS
330
261
102
}
100
AcDbXrecord
 90
       70
  0
XRECORD
  5
27B
102
{ACAD_REACTORS
330
261
102
}
100
AcDbXrecord
340
0
  0
XRECORD
  5
281
102
{ACAD_REACTORS
330
261
102
}
100
AcDbXrecord
 10
0.0
 20
0.0
 30
0.0
  0
XRECORD
  5
27D
102
{ACAD_REACTORS
330
261
102
}
100
AcDbXrecord
 10
0.0
 20
0.0
 30
0.0
  0
XRECORD
  5
280
102
{ACAD_REACTORS
330
261
102
}
100
AcDbXrecord
 10
0.0
 20
0.0
 30
0.0
  0
XRECORD
  5
27E
102
{ACAD_REACTORS
330
261
102
}
100
AcDbXrecord
 10
0.0
 20
0.0
 30
0.0
  0
XRECORD
  5
27F
102
{ACAD_REACTORS
330
261
102
}
100
AcDbXrecord
 10
0.0
 20
0.0
 30
0.0
  0
XRECORD
  5
27C
102
{ACAD_REACTORS
330
261
102
}
100
AcDbXrecord
 10
0.0
 20
0.0
 30
0.0
  0
XRECORD
  5
279
102
{ACAD_REACTORS
330
261
102
}
100
AcDbXrecord
340
0
  0
XRECORD
  5
27A
102
{ACAD_REACTORS
330
261
102
}
100
AcDbXrecord
 70
     1
  0
XRECORD
  5
26D
102
{ACAD_REACTORS
330
261
102
}
100
AcDbXrecord
  1
{8841D373-FC7B-4254-AEEE-6B7D00B0DC9F}
  0
DICTIONARYVAR
  5
204
102
{ACAD_REACTORS
330
202
102
}
100
DictionaryVariables
280
     0
  1
1
  0
DICTIONARYVAR
  5
203
102
{ACAD_REACTORS
330
202
102
}
100
DictionaryVariables
280
     0
  1
1
  0
DICTIONARY
  5
287
100
AcDbDictionary
280
     1
  3
ACAD_XREC_ROUNDTRIP
360
288
  0
XRECORD
  5
13
102
{ACAD_REACTORS
330
12
102
}
100
AcDbXrecord
  1
DIM-1_12
  1
DIM-1_12
  1
*
  1
*
 70
     0
  1
*
  1
*
  0
XRECORD
  5
14
102
{ACAD_REACTORS
330
12
102
}
100
AcDbXrecord
  1
dim-1_16
  1
*
  1
*
  1
*
 70
     0
  1
*
  1
*
  0
XRECORD
  5
286
102
{ACAD_REACTORS
330
285
102
}
100
AcDbXrecord
102
EXTNAMES
  1
LAYOUT1
  2
Layout1
  1
MODEL
  2
Model
  0
XRECORD
  5
28C
102
{ACAD_REACTORS
330
28B
102
}
100
AcDbXrecord
102
EXTNAMES
  1
STANDARD
  2
Standard
  0
XRECORD
  5
288
102
{ACAD_REACTORS
330
287
102
}
100
AcDbXrecord
102
EXTNAMES
  1
DIM-1_16
  2
dim-1_16
  0
ENDSEC
  0
EOF
