  0
SECTION
  2
HEADER
  9
$ACADVER
  1
AC1014
  9
$ACADMAINTVER
 70
     9
  9
$DWGCODEPAGE
  3
ANSI_1252
  9
$INSBASE
 10
6.3916509644
 20
2.0406837952
 30
0.0
  9
$EXTMIN
 10
-24.82168231517661
 20
-12.34123743848083
 30
-0.0015258207003583
  9
$EXTMAX
 10
35.45938554314477
 20
11.67018606459643
 30
0.0000000349246037
  9
$LIMMIN
 10
0.0
 20
0.0
  9
$LIMMAX
 10
17.0
 20
11.0
  9
$ORTHOMODE
 70
     1
  9
$REGENMODE
 70
     1
  9
$FILLMODE
 70
     1
  9
$QTEXTMODE
 70
     0
  9
$MIRRTEXT
 70
     1
  9
$DRAGMODE
 70
     2
  9
$LTSCALE
 40
2.0
  9
$OSMODE
 70
    55
  9
$ATTMODE
 70
     1
  9
$TEXTSIZE
 40
0.2
  9
$TRACEWID
 40
0.05
  9
$TEXTSTYLE
  7
STANDARD
  9
$CLAYER
  8
0
  9
$CELTYPE
  6
BYLAYER
  9
$CECOLOR
 62
   256
  9
$CELTSCALE
 40
1.0
  9
$DELOBJ
 70
     1
  9
$DISPSILH
 70
     0
  9
$DIMSCALE
 40
1.0
  9
$DIMASZ
 40
0.1875
  9
$DIMEXO
 40
0.0625
  9
$DIMDLI
 40
0.38
  9
$DIMRND
 40
0.0
  9
$DIMDLE
 40
0.0
  9
$DIMEXE
 40
0.18
  9
$DIMTP
 40
0.0
  9
$DIMTM
 40
0.0
  9
$DIMTXT
 40
0.125
  9
$DIMCEN
 40
0.09
  9
$DIMTSZ
 40
0.0
  9
$DIMTOL
 70
     0
  9
$DIMLIM
 70
     0
  9
$DIMTIH
 70
     1
  9
$DIMTOH
 70
     1
  9
$DIMSE1
 70
     0
  9
$DIMSE2
 70
     0
  9
$DIMTAD
 70
     0
  9
$DIMZIN
 70
     4
  9
$DIMBLK
  1
_FILLED
  9
$DIMASO
 70
     1
  9
$DIMSHO
 70
     1
  9
$DIMPOST
  1

  9
$DIMAPOST
  1

  9
$DIMALT
 70
     0
  9
$DIMALTD
 70
     2
  9
$DIMALTF
 40
25.4
  9
$DIMLFAC
 40
1.0
  9
$DIMTOFL
 70
     0
  9
$DIMTVP
 40
0.0
  9
$DIMTIX
 70
     0
  9
$DIMSOXD
 70
     0
  9
$DIMSAH
 70
     0
  9
$DIMBLK1
  1

  9
$DIMBLK2
  1

  9
$DIMSTYLE
  2
STANDARD
  9
$DIMCLRD
 70
     0
  9
$DIMCLRE
 70
     0
  9
$DIMCLRT
 70
     0
  9
$DIMTFAC
 40
1.0
  9
$DIMGAP
 40
0.09
  9
$DIMJUST
 70
     0
  9
$DIMSD1
 70
     0
  9
$DIMSD2
 70
     0
  9
$DIMTOLJ
 70
     1
  9
$DIMTZIN
 70
     4
  9
$DIMALTZ
 70
     0
  9
$DIMALTTZ
 70
     0
  9
$DIMFIT
 70
     3
  9
$DIMUPT
 70
     0
  9
$DIMUNIT
 70
     2
  9
$DIMDEC
 70
     1
  9
$DIMTDEC
 70
     1
  9
$DIMALTU
 70
     2
  9
$DIMALTTD
 70
     2
  9
$DIMTXSTY
  7
STANDARD
  9
$DIMAUNIT
 70
     0
  9
$LUNITS
 70
     2
  9
$LUPREC
 70
     4
  9
$SKETCHINC
 40
0.1
  9
$FILLETRAD
 40
0.0
  9
$AUNITS
 70
     0
  9
$AUPREC
 70
     0
  9
$MENU
  1
acad
  9
$ELEVATION
 40
0.0
  9
$PELEVATION
 40
0.0
  9
$THICKNESS
 40
0.0
  9
$LIMCHECK
 70
     0
  9
$BLIPMODE
 70
     0
  9
$CHAMFERA
 40
0.0
  9
$CHAMFERB
 40
0.0
  9
$CHAMFERC
 40
0.0
  9
$CHAMFERD
 40
0.0
  9
$SKPOLY
 70
     0
  9
$TDCREATE
 40
2453676.833664271
  9
$TDUPDATE
 40
2453685.576153854
  9
$TDINDWG
 40
0.0215864815
  9
$TDUSRTIMER
 40
0.0215864815
  9
$USRTIMER
 70
     1
  9
$ANGBASE
 50
0.0
  9
$ANGDIR
 70
     0
  9
$PDMODE
 70
     3
  9
$PDSIZE
 40
0.3125
  9
$PLINEWID
 40
0.0
  9
$COORDS
 70
     1
  9
$SPLFRAME
 70
     0
  9
$SPLINETYPE
 70
     6
  9
$SPLINESEGS
 70
     8
  9
$ATTDIA
 70
     0
  9
$ATTREQ
 70
     1
  9
$HANDLING
 70
 22529
  9
$HANDSEED
  5
24C
  9
$SURFTAB1
 70
     6
  9
$SURFTAB2
 70
     6
  9
$SURFTYPE
 70
     6
  9
$SURFU
 70
     6
  9
$SURFV
 70
     6
  9
$UCSNAME
  2

  9
$UCSORG
 10
0.0
 20
0.0
 30
0.0
  9
$UCSXDIR
 10
1.0
 20
0.0
 30
0.0
  9
$UCSYDIR
 10
0.0
 20
1.0
 30
0.0
  9
$PUCSNAME
  2

  9
$PUCSORG
 10
0.0
 20
0.0
 30
0.0
  9
$PUCSXDIR
 10
1.0
 20
0.0
 30
0.0
  9
$PUCSYDIR
 10
0.0
 20
1.0
 30
0.0
  9
$USERI1
 70
     0
  9
$USERI2
 70
     0
  9
$USERI3
 70
     0
  9
$USERI4
 70
     0
  9
$USERI5
 70
     0
  9
$USERR1
 40
0.0
  9
$USERR2
 40
0.0
  9
$USERR3
 40
0.0
  9
$USERR4
 40
0.0
  9
$USERR5
 40
0.0
  9
$WORLDVIEW
 70
     1
  9
$SHADEDGE
 70
     3
  9
$SHADEDIF
 70
    70
  9
$TILEMODE
 70
     1
  9
$MAXACTVP
 70
    16
  9
$PINSBASE
 10
0.0
 20
0.0
 30
0.0
  9
$PLIMCHECK
 70
     0
  9
$PEXTMIN
 10
1.000000000000000E+20
 20
1.000000000000000E+20
 30
1.000000000000000E+20
  9
$PEXTMAX
 10
-1.000000000000000E+20
 20
-1.000000000000000E+20
 30
-1.000000000000000E+20
  9
$PLIMMIN
 10
0.0
 20
0.0
  9
$PLIMMAX
 10
12.0
 20
9.0
  9
$UNITMODE
 70
     0
  9
$VISRETAIN
 70
     0
  9
$PLINEGEN
 70
     1
  9
$PSLTSCALE
 70
     0
  9
$TREEDEPTH
 70
  3020
  9
$PICKSTYLE
 70
     1
  9
$CMLSTYLE
  2
STANDARD
  9
$CMLJUST
 70
     0
  9
$CMLSCALE
 40
1.0
  9
$PROXYGRAPHICS
 70
     0
  9
$MEASUREMENT
 70
     0
  0
ENDSEC
  0
SECTION
  2
CLASSES
  0
CLASS
  1
ACDBDICTIONARYWDFLT
  2
AcDbDictionaryWithDefault
  3
AutoCAD 2000
 90
        0
280
     0
281
     0
  0
CLASS
  1
ACDBPLACEHOLDER
  2
AcDbPlaceHolder
  3
AutoCAD 2000
 90
        0
280
     0
281
     0
  0
CLASS
  1
LAYOUT
  2
AcDbLayout
  3
AutoCAD 2000
 90
        0
280
     0
281
     0
  0
CLASS
  1
LWPOLYLINE
  2
AcDbPolyline
  3
AutoCAD 2000
 90
        0
280
     0
281
     1
  0
CLASS
  1
IMAGE
  2
AcDbRasterImage
  3
ISM
 90
      127
280
     0
281
     1
  0
CLASS
  1
OLE2FRAME
  2
AcDbOle2Frame
  3
AutoCAD 2000
 90
        0
280
     0
281
     1
  0
CLASS
  1
HATCH
  2
AcDbHatch
  3
AutoCAD 2000
 90
        0
280
     0
281
     1
  0
CLASS
  1
DICTIONARYVAR
  2
AcDbDictionaryVar
  3
AutoCAD 2000
 90
        0
280
     0
281
     0
  0
CLASS
  1
RASTERVARIABLES
  2
AcDbRasterVariables
  3
ISM
 90
        0
280
     0
281
     0
  0
CLASS
  1
IMAGEDEF
  2
AcDbRasterImageDef
  3
ISM
 90
        0
280
     0
281
     0
  0
CLASS
  1
IMAGEDEF_REACTOR
  2
AcDbRasterImageDefReactor
  3
ISM
 90
        1
280
     0
281
     0
  0
CLASS
  1
IDBUFFER
  2
AcDbIdBuffer
  3
AutoCAD 2000
 90
        0
280
     0
281
     0
  0
CLASS
  1
SPATIAL_FILTER
  2
AcDbSpatialFilter
  3
AutoCAD 2000
 90
        0
280
     0
281
     0
  0
CLASS
  1
XRECORD
  2
AcDbXrecord
  3
AutoCAD 2000
 90
        0
280
     0
281
     0
  0
CLASS
  1
SORTENTSTABLE
  2
AcDbSortentsTable
  3
AutoCAD 2000
 90
        0
280
     0
281
     0
  0
CLASS
  1
LAYER_INDEX
  2
AcDbLayerIndex
  3
AutoCAD 2000
 90
        0
280
     0
281
     0
  0
CLASS
  1
SPATIAL_INDEX
  2
AcDbSpatialIndex
  3
AutoCAD 2000
 90
        0
280
     0
281
     0
  0
CLASS
  1
OBJECT_PTR
  2
CAseDLPNTableRecord
  3
ASE-LPNTableRecord
 90
        1
280
     0
281
     0
  0
CLASS
  1
PLOTSETTINGS
  2
AcDbPlotSettings
  3
AutoCAD 2000
 90
        0
280
     0
281
     0
  0
CLASS
  1
VBA_PROJECT
  2
AcDbVbaProject
  3
acadvba
 90
        0
280
     0
281
     0
  0
CLASS
  1
WIPEOUT
  2
AcDbWipeout
  3
"WipeOut|Product Desc: Object Enabler for WipeOut entity^I^I^I^I^I^I|Company: Autodesk, Inc.^I^I^I^I^I^I|WEB Address: www.autodesk.com"
 90
      127
280
     0
281
     1
  0
CLASS
  1
WIPEOUTVARIABLES
  2
AcDbWipeoutVariables
  3
"WipeOut|Product Desc:     WipeOut Dbx Application|Company:          Autodesk, Inc.|WEB Address:      www.autodesk.com"
 90
        0
280
     0
281
     0
  0
CLASS
  1
RTEXT
  2
RText
  3
RText|AutoCAD Express Tool|expresstools@autodesk.com
 90
        0
280
     1
281
     1
  0
CLASS
  1
ARCALIGNEDTEXT
  2
AcDbArcAlignedText
  3
ATEXT|AutoCAD Express Tool|expresstools@autodesk.com
 90
        0
280
     1
281
     1
  0
CLASS
  1
TABLESTYLE
  2
AcDbTableStyle
  3
ObjectDBX Classes
 90
     2047
280
     0
281
     0
  0
CLASS
  1
ACAD_PROXY_OBJECT_WRAPPER
  2
AcDbProxyObjectWrapper
  3
AutoCAD 2000
 90
        0
280
     0
281
     0
  0
CLASS
  1
LONG_TRANSACTION
  2
AcDbLongTransaction
  3
AutoCAD 2000
 90
        0
280
     0
281
     0
  0
CLASS
  1
LWPOLYLINE
  2
AcDbPolyline
  3
AutoCAD 2000
 90
        0
280
     0
281
     1
  0
CLASS
  1
HATCH
  2
AcDbHatch
  3
AutoCAD 2000
 90
        0
280
     0
281
     1
  0
CLASS
  1
XRECORD
  2
AcDbXrecord
  3
AutoCAD 2000
 90
        0
280
     0
281
     0
  0
CLASS
  1
LONG_TRANSACTION
  2
AcDbLongTransaction
  3
AutoCAD 2000
 90
        0
280
     0
281
     0
  0
CLASS
  1
LWPOLYLINE
  2
AcDbPolyline
  3
AutoCAD 2000
 90
        0
280
     0
281
     1
  0
CLASS
  1
HATCH
  2
AcDbHatch
  3
AutoCAD 2000
 90
        0
280
     0
281
     1
  0
CLASS
  1
XRECORD
  2
AcDbXrecord
  3
AutoCAD 2000
 90
        0
280
     0
281
     0
  0
CLASS
  1
LONG_TRANSACTION
  2
AcDbLongTransaction
  3
AutoCAD 2000
 90
        0
280
     0
281
     0
  0
CLASS
  1
LWPOLYLINE
  2
AcDbPolyline
  3
AutoCAD 2000
 90
        0
280
     0
281
     1
  0
CLASS
  1
HATCH
  2
AcDbHatch
  3
AutoCAD 2000
 90
        0
280
     0
281
     1
  0
CLASS
  1
XRECORD
  2
AcDbXrecord
  3
AutoCAD 2000
 90
        0
280
     0
281
     0
  0
ENDSEC
  0
SECTION
  2
TABLES
  0
TABLE
  2
VPORT
  5
1E
330
0
100
AcDbSymbolTable
 70
     3
  0
VPORT
  5
228
330
1E
100
AcDbSymbolTableRecord
100
AcDbViewportTableRecord
  2
*ACTIVE
 70
     0
 10
0.0
 20
0.0
 11
1.0
 21
1.0
 12
5.318851607546676
 22
-0.3355257386155905
 13
0.0
 23
0.0
 14
1.0
 24
1.0
 15
0.0
 25
0.0
 16
0.0
 26
0.0
 36
1.0
 17
0.0
 27
0.0
 37
0.0
 40
39.72194094446196
 41
1.786792452830188
 42
50.0
 43
0.0
 44
0.0
 50
0.0
 51
0.0
 71
     0
 72
   100
 73
     1
 74
     1
 75
     0
 76
     0
 77
     0
 78
     0
  0
ENDTAB
  0
TABLE
  2
LTYPE
  5
19
330
0
100
AcDbSymbolTable
 70
     3
  0
LTYPE
  5
1A
330
19
100
AcDbSymbolTableRecord
100
AcDbLinetypeTableRecord
  2
BYBLOCK
 70
     0
  3

 72
    65
 73
     0
 40
0.0
  0
LTYPE
  5
1B
330
19
100
AcDbSymbolTableRecord
100
AcDbLinetypeTableRecord
  2
BYLAYER
 70
     0
  3

 72
    65
 73
     0
 40
0.0
  0
LTYPE
  5
8
330
19
100
AcDbSymbolTableRecord
100
AcDbLinetypeTableRecord
  2
CONTINUOUS
 70
     0
  3
Solid line
 72
    65
 73
     0
 40
0.0
  0
LTYPE
  5
EC
330
19
100
AcDbSymbolTableRecord
100
AcDbLinetypeTableRecord
  2
CENTER
 70
     0
  3
____ _ ____ _ ____ _ ____ _ ____ _ ____ _ ____
 72
    65
 73
     4
 40
0.6
 49
0.375
 74
     0
 49
-0.075
 74
     0
 49
0.075
 74
     0
 49
-0.075
 74
     0
  0
LTYPE
  5
16E
330
19
100
AcDbSymbolTableRecord
100
AcDbLinetypeTableRecord
  2
HIDDEN
 70
     0
  3
Hidden __ __ __ __ __ __ __ __ __ __ __ __ __ _
 72
    65
 73
     2
 40
0.375
 49
0.25
 74
     0
 49
-0.125
 74
     0
  0
ENDTAB
  0
TABLE
  2
LAYER
  5
11
102
{ACAD_XDICTIONARY
360
12
102
}
330
0
100
AcDbSymbolTable
 70
     3
  0
LAYER
  5
6
330
11
100
AcDbSymbolTableRecord
100
AcDbLayerTableRecord
  2
0
 70
     0
 62
     7
  6
CONTINUOUS
  0
LAYER
  5
EB
330
11
100
AcDbSymbolTableRecord
100
AcDbLayerTableRecord
  2
CENTER
 70
     0
 62
     1
  6
CENTER
1001
ACAECLAYERSTANDARD
1000

1000

  0
LAYER
  5
15E
330
11
100
AcDbSymbolTableRecord
100
AcDbLayerTableRecord
  2
DEFPOINTS
 70
     0
 62
     7
  6
CONTINUOUS
  0
ENDTAB
  0
TABLE
  2
STYLE
  5
16
330
0
100
AcDbSymbolTable
 70
     1
  0
STYLE
  5
17
330
16
100
AcDbSymbolTableRecord
100
AcDbTextStyleTableRecord
  2
STANDARD
 70
     0
 40
0.0
 41
0.8
 50
0.0
 71
     0
 42
0.2
  3
txt
  4

  0
ENDTAB
  0
TABLE
  2
VIEW
  5
1C
330
0
100
AcDbSymbolTable
 70
     0
  0
ENDTAB
  0
TABLE
  2
UCS
  5
1D
330
0
100
AcDbSymbolTable
 70
     0
  0
ENDTAB
  0
TABLE
  2
APPID
  5
20
330
0
100
AcDbSymbolTable
 70
     4
  0
APPID
  5
15
330
20
100
AcDbSymbolTableRecord
100
AcDbRegAppTableRecord
  2
ACAD
 70
     0
  0
APPID
  5
ED
330
20
100
AcDbSymbolTableRecord
100
AcDbRegAppTableRecord
  2
ACAECLAYERSTANDARD
 70
     0
  0
APPID
  5
119
330
20
100
AcDbSymbolTableRecord
100
AcDbRegAppTableRecord
  2
DCO15
 70
     0
  0
APPID
  5
121
330
20
100
AcDbSymbolTableRecord
100
AcDbRegAppTableRecord
  2
ACAD_DSTYLE_DIMTEXT_FILL
 70
     0
  0
ENDTAB
  0
TABLE
  2
DIMSTYLE
  5
21
330
0
100
AcDbSymbolTable
 70
     1
  0
DIMSTYLE
105
22
330
21
100
AcDbSymbolTableRecord
100
AcDbDimStyleTableRecord
  2
STANDARD
 70
     0
  3

  4

  5
_FILLED
  6

  7

 40
1.0
 41
0.1875
 42
0.0625
 43
0.38
 44
0.18
 45
0.0
 46
0.0
 47
0.0
 48
0.0
140
0.125
141
0.09
142
0.0
143
25.4
144
1.0
145
0.0
146
1.0
147
0.09
 71
     0
 72
     0
 73
     1
 74
     1
 75
     0
 76
     0
 77
     0
 78
     4
170
     0
171
     2
172
     0
173
     0
174
     0
175
     0
176
     0
177
     0
178
     0
270
     2
271
     1
272
     1
273
     2
274
     2
340
17
275
     0
280
     0
281
     0
282
     0
283
     1
284
     4
285
     0
286
     0
287
     3
288
     0
  0
ENDTAB
  0
TABLE
  2
BLOCK_RECORD
  5
1
330
0
100
AcDbSymbolTable
 70
     1
  0
BLOCK_RECORD
  5
2
102
{ACAD_XDICTIONARY
360
3
102
}
330
1
100
AcDbSymbolTableRecord
100
AcDbBlockTableRecord
  2
*MODEL_SPACE
  0
BLOCK_RECORD
  5
D
102
{ACAD_XDICTIONARY
360
1A0
102
}
330
1
100
AcDbSymbolTableRecord
100
AcDbBlockTableRecord
  2
*PAPER_SPACE
  0
BLOCK_RECORD
  5
23
330
1
100
AcDbSymbolTableRecord
100
AcDbBlockTableRecord
  2
_FILLED
  0
ENDTAB
  0
ENDSEC
  0
SECTION
  2
BLOCKS
  0
BLOCK
  5
5
330
2
100
AcDbEntity
  8
0
100
AcDbBlockBegin
  2
*MODEL_SPACE
 70
     0
 10
0.0
 20
0.0
 30
0.0
  3
*MODEL_SPACE
  1

  0
ENDBLK
  5
9
330
2
100
AcDbEntity
  8
0
100
AcDbBlockEnd
  0
BLOCK
  5
E
330
D
100
AcDbEntity
 67
     1
  8
0
100
AcDbBlockBegin
  2
*PAPER_SPACE
 70
     0
 10
0.0
 20
0.0
 30
0.0
  3
*PAPER_SPACE
  1

  0
ENDBLK
  5
F
330
D
100
AcDbEntity
 67
     1
  8
0
100
AcDbBlockEnd
  0
BLOCK
  5
24
330
23
100
AcDbEntity
  8
0
100
AcDbBlockBegin
  2
_FILLED
 70
     0
 10
0.0
 20
0.0
 30
0.0
  3
_FILLED
  1

  0
SOLID
  5
25
330
23
100
AcDbEntity
  8
0
  6
BYBLOCK
 62
     0
100
AcDbTrace
 10
0.0
 20
0.0
 30
0.0
 11
-1.0
 21
0.1066666667
 31
0.0
 12
-1.0
 22
-0.1066666667
 32
0.0
 13
-1.0
 23
-0.1066666667
 33
0.0
  0
ENDBLK
  5
26
330
23
100
AcDbEntity
  8
0
  6
BYBLOCK
 62
     0
100
AcDbBlockEnd
  0
ENDSEC
  0
SECTION
  2
ENTITIES
  0
LINE
  5
33
330
2
100
AcDbEntity
  8
0
100
AcDbLine
 10
28.07464465224372
 20
-9.434296867916479
 30
0.0
 11
28.21154292936372
 21
-9.432941440076483
 31
0.0
  0
LINE
  5
36
330
2
100
AcDbEntity
  8
0
100
AcDbLine
 10
-24.81984293559627
 20
9.167575784883521
 30
0.0
 11
-24.70892510519627
 21
10.43940080304498
 31
0.0
  0
LWPOLYLINE
  5
37
330
2
100
AcDbEntity
  8
0
100
AcDbPolyline
 90
       23
 70
     0
 43
0.0
 10
-17.91000688567627
 20
5.869874625203514
 10
-17.87984878775628
 20
5.673283939763521
 10
-17.83967427895627
 20
5.47212711672352
 10
-17.78681788215627
 20
5.264181063603523
 10
-17.71849009847628
 20
5.044856856243519
 10
-17.63511837495627
 20
4.808987577523517
 10
-17.54240585143628
 20
4.548126219443524
 10
-17.44273793207627
 20
4.255861757363518
 10
-17.33575860919627
 20
3.927919747763517
 10
-17.22101622071628
 20
3.55884600952352
 10
-17.09857393335627
 20
3.143404293043516
 10
-16.96877454647628
 20
2.67569919224352
 10
-16.83268172599628
 20
2.150840134323516
 10
-16.69189349687627
 20
1.565019494323522
 10
-16.54822286007628
 20
0.9140710540035144
 10
-16.40211090999628
 20
0.1839332248835177
 10
-16.25763659959628
 20
-0.627439829836483
 10
-16.12762905911628
 20
-1.460756053836483
 10
-16.02206362167627
 20
-2.239735800396481
 10
-15.93851223095627
 20
-2.956121506636478
 10
-15.86708915767627
 20
-3.67618432135648
 10
-15.80339244471628
 20
-4.45346915975648
 10
-15.74767523767627
 20
-5.333331107916485
  0
LWPOLYLINE
  5
38
330
2
100
AcDbEntity
  8
0
100
AcDbPolyline
 90
       12
 70
     0
 43
0.0
 10
-15.39085891767627
 20
-1.447548928076479
 10
-15.31587052983627
 20
-1.747640224076477
 10
-15.25006477111627
 20
-2.009645607756482
 10
-15.18867272759627
 20
-2.249952628556478
 10
-15.12298241719628
 20
-2.501805770316479
 10
-15.04901251127628
 20
-2.781344650316484
 10
-14.96385410103627
 20
-3.102890215756481
 10
-14.86613811511627
 20
-3.482151370316486
 10
-14.76383208119627
 20
-3.914017271116485
 10
-14.67101737655627
 20
-4.369635220556482
 10
-14.59190232119627
 20
-4.845312051276483
 10
-14.52599413943628
 20
-5.36136983303648
  0
LWPOLYLINE
  5
39
330
2
100
AcDbEntity
  8
0
100
AcDbPolyline
 90
        3
 70
     0
 43
0.0
 10
-19.10832583863627
 20
8.641394224563519
 10
-19.27257166263627
 20
8.958563485363519
 10
-19.38137799587506
 20
9.167575784883522
  0
LWPOLYLINE
  5
3A
330
2
100
AcDbEntity
  8
0
100
AcDbPolyline
 90
       11
 70
     0
 43
0.0
 10
-18.08826971575627
 20
6.508433625523522
 10
-18.07024438711628
 20
6.473153790643515
 10
-18.05622356279628
 20
6.445549199283519
 10
-18.03831406135628
 20
6.410092834483513
 10
-18.01662974263627
 20
6.366865059763519
 10
-17.99123910455628
 20
6.31582644856352
 10
-17.96217846583628
 20
6.256841327283517
 10
-17.92940240951628
 20
6.189571875763519
 10
-17.89277965367627
 20
6.113457877683515
 10
-17.85217671863628
 20
6.027878501043517
 10
-17.80735104183627
 20
5.931916394163515
  0
LWPOLYLINE
  5
3B
330
2
100
AcDbEntity
  8
0
100
AcDbPolyline
 90
        4
 70
     0
 43
0.0
 10
-19.10833564215628
 20
8.641405023923518
 10
-18.79068125623627
 20
8.014113295283515
 10
-18.45014478263627
 20
7.307730213043519
 10
-18.08826971575627
 20
6.508433625523522
  0
LWPOLYLINE
  5
3C
330
2
100
AcDbEntity
  8
0
100
AcDbPolyline
 90
       21
 70
     0
 43
0.0
 10
-17.80735104183627
 20
5.931916394163515
 10
-17.75843450295628
 20
5.825395367603519
 10
-17.70460048951628
 20
5.705969264563513
 10
-17.64421773495628
 20
5.569266663603521
 10
-17.57592869687628
 20
5.411209099443517
 10
-17.49954287287628
 20
5.230224264883524
 10
-17.41667277111628
 20
5.029378321843516
 10
-17.32752546999628
 20
4.80865553272352
 10
-17.23001886135627
 20
4.561802303923521
 10
-17.12328816439628
 20
4.284515162803522
 10
-17.00727541303627
 20
3.974275646643519
 10
-16.88216775863627
 20
3.628858684083517
 10
-16.74764770615627
 20
3.24431830264352
 10
-16.60477550519627
 20
2.82037343096352
 10
-16.45364850487627
 20
2.353892627123521
 10
-16.29348363319627
 20
1.838754160563517
 10
-16.12272177719627
 20
1.266096389043518
 10
-15.94742525879627
 20
0.6550269068035135
 10
-15.76621929655627
 20
-0.0005421632764779
 10
-15.57207253559627
 20
-0.7341344256764871
 10
-15.39087200311628
 20
-1.447553872716483
  0
LINE
  5
3D
330
2
100
AcDbEntity
  8
0
100
AcDbLine
 10
-8.243427827756274
 20
-10.12396707207648
 30
0.0
 11
-8.829680225836275
 21
-7.936043338316482
 31
0.0
  0
LINE
  5
3F
330
2
100
AcDbEntity
  8
0
100
AcDbLine
 10
-9.371604310316277
 20
-7.643905009996482
 30
0.0
 11
-9.372490798636274
 21
-7.675142433356482
 31
0.0
  0
LWPOLYLINE
  5
42
330
2
100
AcDbEntity
  8
0
100
AcDbPolyline
 90
        3
 70
     0
 43
0.0
 10
27.08339959368372
 20
-9.47739125767648
 10
27.05217661000372
 20
-9.483881849676482
 10
26.92497008328372
 20
-9.490438315596481
  0
LWPOLYLINE
  5
44
330
2
100
AcDbEntity
  8
0
100
AcDbPolyline
 90
       10
 70
     0
 43
0.0
 10
29.21670580936373
 20
-9.41977934087648
 10
29.34562216520372
 20
-9.402686382156481
 10
29.47148908104372
 20
-9.37567161351648
 10
29.59393229640372
 20
-9.339088972876481
 10
29.71277813192372
 20
-9.293152359756483
 10
29.82759468744373
 20
-9.238085079116483
 10
29.93785674312372
 20
-9.174131571276483
 10
30.04296432200372
 20
-9.101588675916481
 10
30.14231221192372
 20
-9.02078908935648
 10
30.23527923144373
 20
-8.932121900876484
  0
LINE
  5
45
330
2
100
AcDbEntity
  8
0
100
AcDbLine
 10
29.09630899656372
 20
-9.426375084876477
 30
0.0
 11
29.21670580936372
 21
-9.41977934087648
 31
0.0
  0
LINE
  5
48
330
2
100
AcDbEntity
  8
0
100
AcDbLine
 10
-7.971761189676279
 20
-10.33242421511648
 30
0.0
 11
-7.310868339756275
 21
-10.33242421511648
 31
0.0
  0
LINE
  5
49
330
2
100
AcDbEntity
  8
0
100
AcDbLine
 10
-5.578817532716279
 20
-10.33242421511648
 30
0.0
 11
-4.917924682796275
 21
-10.33242421511648
 31
0.0
  0
LINE
  5
4A
330
2
100
AcDbEntity
  8
0
100
AcDbLine
 10
6.596487286483726
 20
-10.33242421511648
 30
0.0
 11
6.59855771976372
 21
-10.33242421511648
 31
0.0
  0
LINE
  5
4B
330
2
100
AcDbEntity
  8
0
100
AcDbLine
 10
6.59855771976372
 20
-10.33242421511648
 30
0.0
 11
25.82112412744372
 21
-10.33242421511648
 31
0.0
  0
LINE
  5
4C
330
2
100
AcDbEntity
  8
0
100
AcDbLine
 10
25.82113211464373
 20
-10.33242421511648
 30
0.0
 11
25.82395941704372
 21
-10.33242421511648
 31
0.0
  0
LINE
  5
4D
330
2
100
AcDbEntity
  8
0
100
AcDbLine
 10
27.95160265544373
 20
-9.926174215756478
 30
0.0
 11
26.57454588744373
 21
-9.926174215756478
 31
0.0
  0
LINE
  5
4E
330
2
100
AcDbEntity
  8
0
100
AcDbLine
 10
-3.554712966956277
 20
-7.80898290695648
 30
0.0
 11
-3.555599455276276
 21
-7.840220331596478
 31
0.0
  0
LINE
  5
50
330
2
100
AcDbEntity
  8
0
100
AcDbLine
 10
24.29180393544372
 20
-9.41280749959648
 30
0.0
 11
24.78559558600373
 21
-9.404347477836482
 31
0.0
  0
LWPOLYLINE
  5
53
330
2
100
AcDbEntity
  8
0
100
AcDbPolyline
 90
        3
 70
     0
 43
0.0
 10
28.76486767304372
 20
-9.430743402316483
 10
29.02318168264372
 20
-9.427587315276479
 10
29.09630699720372
 20
-9.426375246156482
  0
LWPOLYLINE
  5
54
330
2
100
AcDbEntity
  8
0
100
AcDbPolyline
 90
        7
 70
     0
 43
0.0
 10
24.78559558600372
 20
-9.404347477836484
 10
25.03885479368372
 20
-9.401326442316481
 10
25.33701019464372
 20
-9.400310821196484
 10
25.65901397960372
 20
-9.401315320396481
 10
25.98395632712372
 20
-9.404360930636482
 10
26.29330070728371
 20
-9.409263130956482
 10
26.57050823368372
 20
-9.415671997516483
  0
LWPOLYLINE
  5
58
330
2
100
AcDbEntity
  8
0
100
AcDbPolyline
 90
        4
 70
     0
 43
0.0
 10
28.20861148872373
 20
-9.433221811276485
 10
28.34958527560372
 20
-9.433005918796482
 10
28.52967583176372
 20
-9.43236946567648
 10
28.76486767560372
 20
-9.430743402316483
  0
LINE
  5
59
330
2
100
AcDbEntity
  8
0
100
AcDbLine
 10
28.07424236232373
 20
-9.433152476236481
 30
0.0
 11
28.06790213320372
 21
-9.433155540556478
 31
0.0
  0
LINE
  5
5D
330
2
100
AcDbEntity
  8
0
100
AcDbLine
 10
28.06790213320372
 20
-9.433155540556478
 30
0.0
 11
28.04864679496372
 21
-9.433125639756477
 31
0.0
  0
LINE
  5
5E
330
2
100
AcDbEntity
  8
0
100
AcDbLine
 10
28.04864679496372
 20
-9.433125639756477
 30
0.0
 11
28.03565443528372
 21
-9.433081858636482
 31
0.0
  0
LINE
  5
5F
330
2
100
AcDbEntity
  8
0
100
AcDbLine
 10
28.03565443528372
 20
-9.433081858636482
 30
0.0
 11
28.01948487368372
 21
-9.433025250636482
 31
0.0
  0
LINE
  5
60
330
2
100
AcDbEntity
  8
0
100
AcDbLine
 10
28.01948487368372
 20
-9.433025250636482
 30
0.0
 11
27.99930995912372
 21
-9.432950647116483
 31
0.0
  0
LINE
  5
61
330
2
100
AcDbEntity
  8
0
100
AcDbLine
 10
27.99930995912372
 20
-9.432950647116483
 30
0.0
 11
27.94204916040373
 21
-9.432717831756479
 31
0.0
  0
LINE
  5
62
330
2
100
AcDbEntity
  8
0
100
AcDbLine
 10
27.94204916040373
 20
-9.432717831756479
 30
0.0
 11
27.84921598152372
 21
-9.43229052935648
 31
0.0
  0
LINE
  5
63
330
2
100
AcDbEntity
  8
0
100
AcDbLine
 10
27.84921598152372
 20
-9.43229052935648
 30
0.0
 11
27.69212055240373
 21
-9.43147732871648
 31
0.0
  0
LINE
  5
64
330
2
100
AcDbEntity
  8
0
100
AcDbLine
 10
27.69212055240373
 20
-9.43147732871648
 30
0.0
 11
27.57234933192372
 21
-9.430809652556483
 31
0.0
  0
LWPOLYLINE
  5
65
330
2
100
AcDbEntity
  8
0
100
AcDbPolyline
 90
        7
 70
     0
 43
0.0
 10
27.57234933192373
 20
-9.430809652556483
 10
27.40822724552371
 20
-9.429859930956485
 10
27.30280299208372
 20
-9.429239832396483
 10
27.17744211912372
 20
-9.428507745356483
 10
27.04894384584372
 20
-9.427804398156485
 10
26.91562941896373
 20
-9.427121592396481
 10
26.87144291656372
 20
-9.426890423116482
  0
LWPOLYLINE
  5
68
330
2
100
AcDbEntity
  8
0
100
AcDbPolyline
 90
        4
 70
     0
 43
0.0
 10
19.57617904840373
 20
-9.39418445191648
 10
20.53841218760372
 20
-9.405705103436481
 10
22.63440858184373
 20
-9.421011029836485
 10
23.60715310536372
 20
-9.423444056396483
  0
LINE
  5
70
330
2
100
AcDbEntity
  8
0
100
AcDbLine
 10
3.220996087763727
 20
-7.938745985356483
 30
0.0
 11
-13.56470587703628
 21
-7.462383573836483
 31
0.0
  0
LINE
  5
72
330
2
100
AcDbEntity
  8
0
100
AcDbLine
 10
26.57050823368372
 20
-9.415671997516481
 30
0.0
 11
26.79917293896373
 21
-9.423265880396478
 31
0.0
  0
LWPOLYLINE
  5
73
330
2
100
AcDbEntity
  8
0
100
AcDbPolyline
 90
        4
 70
     0
 43
0.0
 10
5.50200972744372
 20
-9.032752523596478
 10
7.67867954120372
 20
-9.112611840076482
 10
9.840291290323719
 20
-9.183878009676483
 10
10.84595330888372
 20
-9.213142272076481
  0
LINE
  5
74
330
2
100
AcDbEntity
  8
0
100
AcDbLine
 10
3.304078387923719
 20
-8.944243383116479
 30
0.0
 11
5.502009727443724
 21
-9.032752523596478
 31
0.0
  0
LINE
  5
75
330
2
100
AcDbEntity
  8
0
100
AcDbLine
 10
5.388526339283725
 20
-9.112985205836478
 30
0.0
 11
5.396663181523727
 21
-9.11338116359648
 31
0.0
  0
LINE
  5
76
330
2
100
AcDbEntity
  8
0
100
AcDbLine
 10
26.79917293896373
 20
-9.423265880396478
 30
0.0
 11
26.96613599688372
 21
-9.431639546956482
 31
0.0
  0
LWPOLYLINE
  5
78
330
2
100
AcDbEntity
  8
0
100
AcDbPolyline
 90
       21
 70
     0
 43
0.0
 10
-12.42373920439627
 20
-7.494763084876485
 10
-12.58512858807628
 20
-7.483922531916483
 10
-12.74526535095628
 20
-7.460631418956484
 10
-12.90325853751627
 20
-7.425019310156482
 10
-13.05822928951627
 20
-7.377284302156482
 10
-13.20931556535627
 20
-7.317691925836481
 10
-13.35567692983627
 20
-7.246573671756483
 10
-13.49649923511627
 20
-7.164325141836478
 10
-13.63099914039627
 20
-7.071403855436482
 10
-13.75842847159627
 20
-6.968326695756481
 10
-13.87807838903627
 20
-6.855667043916479
 10
-13.98928332471627
 20
-6.734051581516485
 10
-14.09142468663628
 20
-6.604156809036481
 10
-14.18393430071628
 20
-6.466705282636478
 10
-14.26629757111627
 20
-6.322461592396486
 10
-14.33805633975627
 20
-6.172228111436481
 10
-14.39881143735627
 20
-6.016840531276482
 10
-14.44822490551627
 20
-5.857163212876479
 10
-14.48602187575628
 20
-5.694084384076482
 10
-14.51199209783627
 20
-5.528511187276485
 10
-14.52599151415628
 20
-5.361364618316478
  0
LWPOLYLINE
  5
7A
330
2
100
AcDbEntity
  8
0
100
AcDbPolyline
 90
        6
 70
     0
 43
0.0
 10
5.395631242963723
 20
-9.113193148876483
 10
5.395631242963723
 20
-9.113193148876483
 10
5.395631242963723
 20
-9.113193148876483
 10
5.407709162963726
 20
-9.115393697356484
 10
5.456446862803723
 20
-9.13023292679648
 10
5.514224653523726
 20
-9.159263872076479
  0
LWPOLYLINE
  5
7B
330
2
100
AcDbEntity
  8
0
100
AcDbPolyline
 90
        3
 70
     0
 43
0.0
 10
5.272436443603723
 20
-9.104193696076482
 10
5.283399162323718
 20
-9.106093639756483
 10
5.388526339283721
 20
-9.11298520583648
  0
LWPOLYLINE
  5
7C
330
2
100
AcDbEntity
  8
0
100
AcDbPolyline
 90
        4
 70
     0
 43
0.0
 10
5.396833425363723
 20
-9.113389447756482
 10
5.406351422163716
 20
-9.115094138956482
 10
5.454523918803722
 20
-9.129491817036484
 10
5.512716151763719
 20
-9.158323228236479
  0
LWPOLYLINE
  5
7D
330
2
100
AcDbEntity
  8
0
100
AcDbPolyline
 90
        5
 70
     0
 43
0.0
 10
5.514224653523726
 20
-9.159263872076479
 10
5.568802901203724
 20
-9.201717626956479
 10
5.615436763603725
 20
-9.256668810316483
 10
5.650138650323718
 20
-9.321514691916483
 10
5.669960150483717
 20
-9.390619434316484
  0
LINE
  5
7E
330
2
100
AcDbEntity
  8
0
100
AcDbLine
 10
-4.646258044716274
 20
-10.12396707207648
 30
0.0
 11
-4.101012837676275
 21
-8.089084258636482
 31
0.0
  0
LINE
  5
83
330
2
100
AcDbEntity
  8
0
  6
HIDDEN
 62
     9
100
AcDbLine
 10
3.849451212243728
 20
7.320436661683517
 30
0.0
 11
3.843892819923723
 21
7.285392399283519
 31
0.0
  0
LWPOLYLINE
  5
84
330
2
100
AcDbEntity
  8
0
  6
HIDDEN
 62
     9
 48
0.5
100
AcDbPolyline
 90
        7
 70
     0
 43
0.0
 10
3.925482540243727
 20
7.509340302003515
 10
3.908000656083714
 20
7.480641416883521
 10
3.892375940563724
 20
7.450758522803518
 10
3.878666842323724
 20
7.419770501043522
 10
3.866898591443721
 20
7.387669823923516
 10
3.857145028563728
 20
7.354555875763516
 10
3.849453476563724
 20
7.320439308723521
  0
LWPOLYLINE
  5
85
330
2
100
AcDbEntity
  8
0
  6
HIDDEN
 62
     9
100
AcDbPolyline
 90
        5
 70
     0
 43
0.0
 10
4.013435486163722
 20
7.611516555443522
 10
3.98877724104372
 20
7.587949235123517
 10
3.965902321363728
 20
7.563046693043524
 10
3.944785042643729
 20
7.536814108083518
 10
3.925479803603728
 20
7.50933709816352
  0
LWPOLYLINE
  5
86
330
2
100
AcDbEntity
  8
0
  6
HIDDEN
 62
     9
100
AcDbPolyline
 90
        8
 70
     0
 43
0.0
 10
4.23526455368372
 20
7.733061194163518
 10
4.198248992723719
 20
7.720905509043518
 10
4.163035886803719
 20
7.706861955763521
 10
4.129579820243719
 20
7.691019302323518
 10
4.097918274003717
 20
7.673494102963523
 10
4.067995789523727
 20
7.654344692403519
 10
4.039837936083721
 20
7.633664633523515
 10
4.013438431443724
 20
7.611520034483518
  0
LWPOLYLINE
  5
8B
330
2
100
AcDbEntity
  8
0
100
AcDbPolyline
 90
       15
 70
     0
 43
0.0
 10
2.711947299283721
 20
-8.410616532556481
 10
2.69561225672372
 20
-8.314193409356484
 10
2.67704557000372
 20
-8.231887595596482
 10
2.656448490963725
 20
-8.163300321356484
 10
2.634425210323726
 20
-8.107663951436485
 10
2.611885906643721
 20
-8.063799769676485
 10
2.589554604243716
 20
-8.029787463756481
 10
2.567385648083721
 20
-8.003123165516484
 10
2.544814216403722
 20
-7.981599018316483
 10
2.521089631443722
 20
-7.963786917196483
 10
2.495085898963722
 20
-7.948743769676479
 10
2.465508941523722
 20
-7.93594617351648
 10
2.430689082323723
 20
-7.925442517836483
 10
2.388454366163728
 20
-7.91765235335648
 10
2.336763086803728
 20
-7.91365228423648
  0
LWPOLYLINE
  5
8C
330
2
100
AcDbEntity
  8
0
  6
HIDDEN
 62
     9
100
AcDbPolyline
 90
        3
 70
     0
 43
0.0
 10
3.840724569043715
 20
7.175415189683519
 10
3.844418060243718
 20
7.137386763443515
 10
3.850607198163714
 20
7.098864406963521
  0
LWPOLYLINE
  5
8D
330
2
100
AcDbEntity
  8
0
  6
HIDDEN
 62
     9
100
AcDbPolyline
 90
        4
 70
     0
 43
0.0
 10
3.843894986963718
 20
7.28539494008352
 10
3.840540352723721
 20
7.249506149043519
 10
3.839458861523723
 20
7.21280346232352
 10
3.840726419923726
 20
7.175417384883523
  0
LWPOLYLINE
  5
8E
330
2
100
AcDbEntity
  8
0
  6
HIDDEN
 62
     9
100
AcDbPolyline
 90
        5
 70
     0
 43
0.0
 10
14.71400500040371
 20
7.622572473523518
 10
14.75000081736372
 20
7.634598467763517
 10
14.78592710088372
 20
7.649104648883522
 10
14.82124780744372
 20
7.665948194483519
 10
14.85044373192371
 20
7.681950789043519
  0
LWPOLYLINE
  5
8F
330
2
100
AcDbEntity
  8
0
100
AcDbPolyline
 90
       21
 70
     0
 43
0.0
 10
-13.05735910199627
 20
-0.6440221491964877
 10
-12.91739405495627
 20
-0.6039308826364831
 10
-12.75843203511628
 20
-0.5601087949564843
 10
-12.57837715639627
 20
-0.5121932327164842
 10
-12.37483153975627
 20
-0.459657505356482
 10
-12.14534039223627
 20
-0.4017318144764844
 10
-11.88763984439627
 20
-0.3372056896764803
 10
-11.59967615415627
 20
-0.2646899840764831
 10
-11.27965882807627
 20
-0.182849831756485
 10
-10.92615123767628
 20
-0.0909158375164836
 10
-10.53841715767627
 20
0.0114410776835214
 10
-10.11661249335627
 20
0.1239261836035155
 10
-9.662136457516282
 20
0.2455407410435129
 10
-9.178202582316281
 20
0.374661450163515
 10
-8.670281749036277
 20
0.5090838885635165
 10
-8.146565900076275
 20
0.6460552485635134
 10
-7.617111645996281
 20
0.7826191192835168
 10
-7.092747235116277
 20
0.9155605554435197
 10
-6.583913825836276
 20
1.041725253043516
 10
-6.099763277356281
 20
1.158438620083515
 10
-5.647077751596278
 20
1.263893405363518
  0
LINE
  5
93
330
2
100
AcDbEntity
  8
0
  6
HIDDEN
 62
     9
100
AcDbLine
 10
3.859371264723721
 20
7.059913758643519
 30
0.0
 11
3.870773916883728
 21
7.020684305843522
 31
0.0
  0
LINE
  5
94
330
2
100
AcDbEntity
  8
0
  6
HIDDEN
 62
     9
100
AcDbLine
 10
3.850608817363728
 20
7.098866357683519
 30
0.0
 11
3.85937276104372
 21
7.059915581363517
 31
0.0
  0
LINE
  5
95
330
2
100
AcDbEntity
  8
0
100
AcDbLine
 10
5.703977215443727
 20
-9.58354287623648
 30
0.0
 11
5.670039871443724
 21
-9.39107464071648
 31
0.0
  0
LINE
  5
97
330
2
100
AcDbEntity
  8
0
100
AcDbLine
 10
5.273416159443728
 20
-9.072959193676483
 30
0.0
 11
5.272299587283725
 21
-9.104188802636478
 31
0.0
  0
LWPOLYLINE
  5
98
330
2
100
AcDbEntity
  8
0
  6
HIDDEN
 62
     9
100
AcDbPolyline
 90
        4
 70
     0
 43
0.0
 10
13.27112634184372
 20
8.612605328563518
 10
13.24798726728372
 20
8.590554073523513
 10
13.22590581448372
 20
8.566525416883521
 10
13.21120045640373
 20
8.548607719603516
  0
LWPOLYLINE
  5
99
330
2
100
AcDbEntity
  8
0
  6
HIDDEN
 62
     9
100
AcDbPolyline
 90
        5
 70
     0
 43
0.0
 10
14.85557604168373
 20
7.684969976243522
 10
14.88858031176371
 20
7.705978460083521
 10
14.92003648968372
 20
7.728801401523519
 10
14.94981572936372
 20
7.753313699763516
 10
14.97767761352372
 20
7.779274897843514
  0
LINE
  5
9A
330
2
100
AcDbEntity
  8
0
  6
HIDDEN
 62
     9
100
AcDbLine
 10
14.85044450376372
 20
7.681953734323521
 30
0.0
 11
14.85556842312372
 21
7.68496804344352
 31
0.0
  0
LINE
  5
9B
330
2
100
AcDbEntity
  8
0
100
AcDbLine
 10
-21.19405125175628
 20
11.61031346480498
 30
0.0
 11
-21.20588998583628
 21
11.61449366448498
 31
0.0
  0
LWPOLYLINE
  5
9C
330
2
100
AcDbEntity
  8
0
  6
HIDDEN
 62
     9
100
AcDbPolyline
 90
       15
 70
     0
 43
0.0
 10
3.914265718483726
 20
6.888224190643519
 10
3.92432475848372
 20
6.86115568120352
 10
3.936581045203723
 20
6.834024793523518
 10
3.951068115923725
 20
6.80700035704352
 10
3.967834154963725
 20
6.780209418163522
 10
3.986860610003724
 20
6.753871685043513
 10
4.008157567443717
 20
6.728140217523524
 10
4.031662311123724
 20
6.703239590323519
 10
4.057324936403716
 20
6.679352214963522
 10
4.084990270163721
 20
6.656729091763516
 10
4.114563683283719
 20
6.635535340723514
 10
4.145854953683723
 20
6.615981652403519
 10
4.178598153683715
 20
6.598280807603515
 10
4.212503386323724
 20
6.58260614136352
 10
4.224038121683719
 20
6.577845317043518
  0
LWPOLYLINE
  5
9D
330
2
100
AcDbEntity
  8
0
  6
HIDDEN
 62
     9
100
AcDbPolyline
 90
       12
 70
     0
 43
0.0
 10
5.504272601043723
 20
7.009658659763516
 10
5.507294682323717
 20
7.001220129203517
 10
5.517298535123721
 20
6.980989991603522
 10
5.529279131603715
 20
6.962656039603523
 10
5.543017175763722
 20
6.946187894963514
 10
5.558326759123723
 20
6.931600979123516
 10
5.575170756563721
 20
6.918851157683519
 10
5.59347044296372
 20
6.908019318963518
 10
5.61321458248372
 20
6.899206585523522
 10
5.634365815763722
 20
6.892595516083524
 10
5.656640864723726
 20
6.888462215603517
 10
5.680156708563714
 20
6.88703971448352
  0
LINE
  5
9E
330
2
100
AcDbEntity
  8
0
  6
HIDDEN
 62
     9
100
AcDbLine
 10
5.85642096072372
 20
7.135150913203519
 30
0.0
 11
5.863105591763723
 21
7.116419217843521
 31
0.0
  0
LWPOLYLINE
  5
9F
330
2
100
AcDbEntity
  8
0
  6
HIDDEN
 62
     9
100
AcDbPolyline
 90
        3
 70
     0
 43
0.0
 10
3.914265718483726
 20
6.888224190643519
 10
3.89243172168372
 20
6.954291365043523
 10
3.870775287763727
 20
7.020685999283521
  0
LINE
  5
A0
330
2
100
AcDbEntity
  8
0
  6
HIDDEN
 62
     9
100
AcDbLine
 10
5.503686201043727
 20
7.00944865272352
 30
0.0
 11
5.502870523603722
 21
7.012270804403518
 31
0.0
  0
LWPOLYLINE
  5
A1
330
2
100
AcDbEntity
  8
0
  6
HIDDEN
 62
     9
100
AcDbPolyline
 90
       16
 70
     0
 43
0.0
 10
5.863105591763719
 20
7.116419217843521
 10
5.864037847763718
 20
7.113179728563515
 10
5.868943977683727
 20
7.089803848883519
 10
5.870819418323719
 20
7.06558591352352
 10
5.869497255123718
 20
7.041097524403518
 10
5.864889430483714
 20
7.016681254323515
 10
5.857049901523723
 20
6.993024908723519
 10
5.846225919443725
 20
6.97078625272352
 10
5.832572977363724
 20
6.95018060536352
 10
5.816170974163718
 20
6.931393146803515
 10
5.797419063763719
 20
6.914942102963514
 10
5.776899268563724
 20
6.901259893683516
 10
5.754895501523719
 20
6.890432662963519
 10
5.731596621523721
 20
6.882537756083522
 10
5.707535520723723
 20
6.877757016243513
 10
5.683396185043726
 20
6.87614674424352
  0
LWPOLYLINE
  5
A2
330
2
100
AcDbEntity
  8
0
  6
HIDDEN
 62
     9
100
AcDbPolyline
 90
       15
 70
     0
 43
0.0
 10
5.502870523603718
 20
7.01227080440352
 10
5.497906010323717
 20
7.035664293043517
 10
5.495977578963717
 20
7.059930405043523
 10
5.497259326163721
 20
7.084467719603516
 10
5.501838925523721
 20
7.108935713203514
 10
5.509663865043727
 20
7.132647029683518
 10
5.52048847560372
 20
7.154942472883519
 10
5.534155646163718
 20
7.175601071283516
 10
5.550585371603716
 20
7.194436144563518
 10
5.569373696723715
 20
7.210923636403514
 10
5.589929269203729
 20
7.224626390963514
 10
5.611960032723715
 20
7.235458923443523
 10
5.63526715720372
 20
7.243346826163524
 10
5.659309290963719
 20
7.24811539704352
 10
5.683396304083721
 20
7.249718786483519
  0
LWPOLYLINE
  5
A3
330
2
100
AcDbEntity
  8
0
  6
HIDDEN
 62
     9
100
AcDbPolyline
 90
       11
 70
     0
 43
0.0
 10
13.21120045640373
 20
8.548607719603516
 10
13.20512211528371
 20
8.540686666163516
 10
13.18585573960372
 20
8.513242682803522
 10
13.16822746824371
 20
8.484300431283514
 10
13.15241822280371
 20
8.454088641203519
 10
13.13863795016372
 20
8.422989829043523
 10
13.12703446216372
 20
8.391414598323521
 10
13.11763775560372
 20
8.359591750323517
 10
13.11045788104372
 20
8.327728304563514
 10
13.10550464584372
 20
8.296123307443522
 10
13.10274834248372
 20
8.265069829043518
  0
LWPOLYLINE
  5
A4
330
2
100
AcDbEntity
  8
0
  6
HIDDEN
 62
     9
100
AcDbPolyline
 90
       11
 70
     0
 43
0.0
 10
14.97767014728371
 20
7.779273196723515
 10
15.00341046856371
 20
7.806416593843515
 10
15.02690493512372
 20
7.83450400888352
 10
15.04808867528372
 20
7.863331243443518
 10
15.06686568392372
 20
7.892608748723517
 10
15.08323659976372
 20
7.922141215923517
 10
15.09720340552372
 20
7.951702798003516
 10
15.10882288968372
 20
7.981149434803519
 10
15.11813456328373
 20
8.010266947763518
 10
15.12522760776372
 20
8.038953501363515
 10
15.13018126536373
 20
8.067063190963516
  0
LWPOLYLINE
  5
A5
330
2
100
AcDbEntity
  8
0
100
AcDbPolyline
 90
        3
 70
     0
 43
0.0
 10
-5.647118761516281
 20
1.263888671923517
 10
-4.800074363436273
 20
1.453495638963516
 10
-4.682521301036274
 20
1.478670471603514
  0
LWPOLYLINE
  5
A6
330
2
100
AcDbEntity
  8
0
100
AcDbPolyline
 90
        8
 70
     0
 43
0.0
 10
-4.937195671596278
 20
1.423327178163518
 10
-5.007326600236275
 20
1.407819221683517
 10
-5.085754584876276
 20
1.390413743283517
 10
-5.173627852076279
 20
1.370833223603519
 10
-5.272163730476279
 20
1.348777558963519
 10
-5.382823551276281
 20
1.32388293368352
 10
-5.507160378156278
 20
1.295753206963517
 10
-5.647118761516281
 20
1.263888671923517
  0
LINE
  5
A7
330
2
100
AcDbEntity
  8
0
100
AcDbLine
 10
-4.818196479276277
 20
1.44952013688352
 30
0.0
 11
-4.937195671596278
 21
1.423327178163517
 31
0.0
  0
LWPOLYLINE
  5
A8
330
2
100
AcDbEntity
  8
0
100
AcDbPolyline
 90
        3
 70
     0
 43
0.0
 10
-4.682629219116279
 20
1.479174390963514
 10
-4.722732593196276
 20
1.470422655923513
 10
-4.818196479276281
 20
1.449520136883521
  0
LWPOLYLINE
  5
A9
330
2
100
AcDbEntity
  8
0
100
AcDbPolyline
 90
       23
 70
     0
 43
0.0
 10
-4.559058172716277
 20
1.505110987443515
 10
-3.842840328236277
 20
1.658494183603515
 10
-2.769991427116273
 20
1.876755726003516
 10
-1.57260286135628
 20
2.106368485043518
 10
-0.2352323973562775
 20
2.34602472696352
 10
1.271664969683726
 20
2.59592785784352
 10
2.918064053203721
 20
2.846342588083523
 10
4.740756318163718
 20
3.098733450163521
 10
6.659662541523715
 20
3.339913439923513
 10
8.41863540296373
 20
3.542439036083514
 10
10.03508380872371
 20
3.715647118003516
 10
11.68073616072372
 20
3.880396629683524
 10
13.35937262664371
 20
4.03680339704352
 10
15.04127156168371
 20
4.182092081843521
 10
16.54856240328372
 20
4.302865775283514
 10
17.88780949704372
 20
4.402887350963517
 10
19.08427574600371
 20
4.486572933043518
 10
20.15908058824372
 20
4.557270543283514
 10
21.12891745864372
 20
4.617484871603515
 10
22.00722877640372
 20
4.669128583603516
 10
22.80511452616372
 20
4.713693470643519
 10
23.53188624328372
 20
4.752360852403519
 10
24.19554216392372
 20
4.786082367923519
  0
LINE
  5
AA
330
2
100
AcDbEntity
  8
0
100
AcDbLine
 10
-3.155142134316271
 20
1.799781986483516
 30
0.0
 11
-4.682629219116275
 21
1.479174390963517
 31
0.0
  0
LWPOLYLINE
  5
AB
330
2
100
AcDbEntity
  8
0
100
AcDbPolyline
 90
       17
 70
     0
 43
0.0
 10
24.74612187720372
 20
4.812917667763521
 10
22.95779863752372
 20
4.721968584883519
 10
21.20149403976371
 20
4.621855815603517
 10
19.47691649736371
 20
4.512887114163518
 10
17.78362144968372
 20
4.395348337843522
 10
16.12120704840371
 20
4.269514353843518
 10
14.48929184456372
 20
4.135648689843513
 10
12.88751989448373
 20
3.994004833203518
 10
11.31561481032372
 20
3.84483251064352
 10
9.77380166728372
 20
3.688424648883518
 10
8.252223560403727
 20
3.523944438963518
 10
6.595865582803725
 20
3.33225628280352
 10
4.731427758803725
 20
3.097502712243517
 10
2.655733098963729
 20
2.807937277363514
 10
0.5343542714437249
 20
2.476232970163515
 10
-1.42279620535627
 20
2.134081523123519
 10
-3.155142134316271
 20
1.799781986483516
  0
LWPOLYLINE
  5
AC
330
2
100
AcDbEntity
  8
0
100
AcDbPolyline
 90
        5
 70
     0
 43
0.0
 10
24.19554216392372
 20
4.786082367923519
 10
24.80223620680372
 20
4.815594918323519
 10
25.35449823432372
 20
4.841376387763517
 10
25.85113365704373
 20
4.863685516723521
 10
26.29084030024372
 20
4.882749661363519
  0
LWPOLYLINE
  5
AD
330
2
100
AcDbEntity
  8
0
100
AcDbPolyline
 90
        5
 70
     0
 43
0.0
 10
24.74612187720372
 20
4.812917667763521
 10
25.12301744456371
 20
4.830695254963522
 10
25.50762267208372
 20
4.848342963123521
 10
25.89793939784371
 20
4.865745500083519
 10
26.29084030024372
 20
4.882749661363519
  0
LWPOLYLINE
  5
AE
330
2
100
AcDbEntity
  8
0
100
AcDbPolyline
 90
        8
 70
     0
 43
0.0
 10
26.29122141512371
 20
4.88279983224352
 10
26.58795768392373
 20
4.895309475763518
 10
26.88182499016372
 20
4.907513685683518
 10
27.17589969224373
 20
4.919795819443514
 10
27.47217114056373
 20
4.932751507123519
 10
27.76707340744373
 20
4.946811869363521
 10
28.05174508488372
 20
4.961708500403517
 10
28.31762915016372
 20
4.978415248563514
  0
LINE
  5
AF
330
2
100
AcDbEntity
  8
0
100
AcDbLine
 10
-21.19504936759628
 20
11.61054144304497
 30
0.0
 11
-21.20386747831628
 21
11.61260625200497
 31
0.0
  0
LINE
  5
B0
330
2
100
AcDbEntity
  8
0
100
AcDbLine
 10
-21.20386747831628
 20
11.61260625200497
 30
0.0
 11
-21.21111563575627
 21
11.61435697456498
 31
0.0
  0
LINE
  5
B1
330
2
100
AcDbEntity
  8
0
100
AcDbLine
 10
-21.21111563575627
 20
11.61435697456498
 30
0.0
 11
-21.21694257975628
 21
11.61580435120498
 31
0.0
  0
LINE
  5
B2
330
2
100
AcDbEntity
  8
0
100
AcDbLine
 10
-21.21694257975628
 20
11.61580435120498
 30
0.0
 11
-21.22097707319628
 21
11.61683313968498
 31
0.0
  0
LWPOLYLINE
  5
B3
330
2
100
AcDbEntity
  8
0
100
AcDbPolyline
 90
       22
 70
     0
 43
0.0
 10
-21.20588998583628
 20
11.61449366448498
 10
-21.31361242935628
 20
11.64274183984498
 10
-21.41815260727628
 20
11.66091936688497
 10
-21.51978718903628
 20
11.66973954992497
 10
-21.62158587959627
 20
11.66962004016498
 10
-21.72970144439628
 20
11.66003355056497
 10
-21.84633062071628
 20
11.63986038192498
 10
-21.96189241143628
 20
11.61045316144498
 10
-22.06468842167628
 20
11.57651236144497
 10
-22.15296191159628
 20
11.54126960304498
 10
-22.22958478775627
 20
11.50559261616498
 10
-22.29556791479628
 20
11.47027596336497
 10
-22.35191584951628
 20
11.43424648368498
 10
-22.40153505847628
 20
11.39486377264498
 10
-22.44924553527628
 20
11.34819342896497
 10
-22.49840203447628
 20
11.29029920944498
 10
-22.54936082871628
 20
11.22047368240498
 10
-22.60199778231628
 20
11.13881409328498
 10
-22.65653215543628
 20
11.04361790128498
 10
-22.71124603959628
 20
10.93487302576498
 10
-22.75959121463628
 20
10.82204935984498
 10
-22.79667364407628
 20
10.71390298672497
  0
LINE
  5
B4
330
2
100
AcDbEntity
  8
0
100
AcDbLine
 10
-21.22097707319628
 20
11.61683313968498
 30
0.0
 11
-21.22243893303627
 21
11.61721426864498
 31
0.0
  0
LINE
  5
B5
330
2
100
AcDbEntity
  8
0
  6
HIDDEN
 62
     9
100
AcDbLine
 10
4.212503628243722
 20
6.582606005683517
 30
0.0
 11
4.224076941523718
 21
6.577829756083522
 31
0.0
  0
LWPOLYLINE
  5
B6
330
2
100
AcDbEntity
  8
0
  6
HIDDEN
 62
     9
100
AcDbPolyline
 90
       11
 70
     0
 43
0.0
 10
6.512286403283724
 20
7.572385140403518
 10
6.502785923283724
 20
7.601393804723521
 10
6.491017786323716
 20
7.630568602803514
 10
6.476954981843718
 20
7.659706611123517
 10
6.460640170963721
 20
7.688512822963524
 10
6.442197032403726
 20
7.716638890163515
 10
6.421710070483719
 20
7.743869960883522
 10
6.399350725843724
 20
7.769919059123516
 10
6.375330294483724
 20
7.79451850744352
 10
6.349837868243724
 20
7.817476440243517
 10
6.326101105363726
 20
7.836370649523523
  0
LWPOLYLINE
  5
B7
330
2
100
AcDbEntity
  8
0
  6
HIDDEN
 62
     9
100
AcDbPolyline
 90
       29
 70
     0
 43
0.0
 10
11.73620466120372
 20
8.020018181043518
 10
11.82444865096371
 20
8.033883039923516
 10
11.91170936136372
 20
8.048929957043519
 10
11.99773948360372
 20
8.065107621043516
 10
12.08230536776372
 20
8.082360470963514
 10
12.16517781448372
 20
8.10062717560352
 10
12.24613034184372
 20
8.119839979443518
 10
12.32494071496371
 20
8.139924602803517
 10
12.40139131976373
 20
8.160799833523519
 10
12.47527010504372
 20
8.18237717880352
 10
12.54637155784372
 20
8.204560423603517
 10
12.61449791944372
 20
8.227245196723515
 10
12.67946324424372
 20
8.250319454643516
 10
12.74110195912372
 20
8.273666023603517
 10
12.79923779784373
 20
8.297149640883517
 10
12.85372191688372
 20
8.320629469363517
 10
12.90442407496371
 20
8.343954996403518
 10
12.95123610696371
 20
8.366966347443522
 10
12.99407585224372
 20
8.389495029683523
 10
13.03289372104372
 20
8.41136662392352
 10
13.06769113288372
 20
8.432412144563521
 10
13.09846288328373
 20
8.452433126323519
 10
13.12526839368372
 20
8.471243412403516
 10
13.14821137480372
 20
8.48866052216352
 10
13.16744477384372
 20
8.504513227443517
 10
13.18314505288373
 20
8.518623888563517
 10
13.19553274696372
 20
8.530827156403518
 10
13.20486693448371
 20
8.540970568883516
 10
13.21120036424372
 20
8.548607791283522
  0
LWPOLYLINE
  5
B8
330
2
100
AcDbEntity
  8
0
  6
HIDDEN
 62
     9
 48
0.5
100
AcDbPolyline
 90
       22
 70
     0
 43
0.0
 10
11.91909713992372
 20
6.782499376563514
 10
12.08547450696372
 20
6.80815933816352
 10
12.25074259656372
 20
6.835883578803517
 10
12.41468791240372
 20
6.865641909683517
 10
12.57709037768371
 20
6.897401830323524
 10
12.73773399368373
 20
6.931130353843521
 10
12.89640638920373
 20
6.96679420408352
 10
13.05289967176372
 20
7.004360290483518
 10
13.20701087304372
 20
7.043796211123513
 10
13.35853847752372
 20
7.085069744563519
 10
13.50728922824372
 20
7.128151115443522
 10
13.65308209096372
 20
7.173015156403515
 10
13.79573866056371
 20
7.21963954296352
 10
13.93508760776372
 20
7.268007132083518
 10
14.07096477000372
 20
7.318107427763514
 10
14.20321294408371
 20
7.369938287283524
 10
14.33168119624372
 20
7.423507866803518
 10
14.45620420040371
 20
7.478827933363518
 10
14.57665338440371
 20
7.535939350963523
 10
14.69288234568371
 20
7.594892926643517
 10
14.80473334216372
 20
7.655755301043519
 10
14.85044478280372
 20
7.681953256883524
  0
LWPOLYLINE
  5
B9
330
2
100
AcDbEntity
  8
0
  6
HIDDEN
 62
     9
100
AcDbPolyline
 90
        4
 70
     0
 43
0.0
 10
14.60793932488373
 20
7.601075224243516
 10
14.64277397704371
 20
7.605860229043521
 10
14.67818830408371
 20
7.613006625203517
 10
14.71399734088372
 20
7.622570416563519
  0
LWPOLYLINE
  5
BA
330
2
100
AcDbEntity
  8
0
  6
HIDDEN
 62
     9
100
AcDbPolyline
 90
        6
 70
     0
 43
0.0
 10
8.840113205203721
 20
6.354992145843517
 10
9.457393148883724
 20
6.436433223603522
 10
10.07399811528371
 20
6.519913583283518
 10
10.68986146760372
 20
6.605424234163521
 10
11.30491663560373
 20
6.692955971763517
 10
11.91909713992372
 20
6.782499376563514
  0
LWPOLYLINE
  5
BB
330
2
100
AcDbEntity
  8
0
  6
HIDDEN
 62
     9
 48
0.5
100
AcDbPolyline
 90
        6
 70
     0
 43
0.0
 10
8.840189059283723
 20
6.355062234803519
 10
9.457467495123722
 20
6.436501681843516
 10
10.07407072456372
 20
6.519980189363522
 10
10.68993210824372
 20
6.605488770483518
 10
11.30498507848372
 20
6.693018215603522
 10
11.91916315464372
 20
6.782559106483518
  0
LWPOLYLINE
  5
BD
330
2
100
AcDbEntity
  8
0
  6
HIDDEN
 62
     9
100
AcDbPolyline
 90
       15
 70
     0
 43
0.0
 10
13.75950499144372
 20
7.736182275763518
 10
13.78434713800372
 20
7.737886446003521
 10
13.80891922504372
 20
7.742902266803518
 10
13.83253330632372
 20
7.751108330163518
 10
13.85468953672371
 20
7.762275320243517
 10
13.87526946760371
 20
7.776328090803524
 10
13.89395856840373
 20
7.793133034163524
 10
13.91020741064372
 20
7.812246475443515
 10
13.92364737224372
 20
7.833157695923517
 10
13.93423660872372
 20
7.855767189683518
 10
13.94175563976371
 20
7.879748418483522
 10
13.94597034824371
 20
7.904401479603521
 10
13.94685684680372
 20
7.929008501683519
 10
13.94449574728372
 20
7.953464287923516
 10
13.94176256712371
 20
7.965367307443521
  0
LWPOLYLINE
  5
BE
330
2
100
AcDbEntity
  8
0
  6
HIDDEN
 62
     9
100
AcDbPolyline
 90
       15
 70
     0
 43
0.0
 10
5.680156708563714
 20
6.88703971448352
 10
5.704304918483728
 20
6.888651156403518
 10
5.728371831763723
 20
6.89343465592352
 10
5.751673699283728
 20
6.90133294328352
 10
5.773678327763725
 20
6.912163539123518
 10
5.794197930963726
 20
6.92584912760352
 10
5.812948535763723
 20
6.942303198643514
 10
5.829348649683716
 20
6.961093457843517
 10
5.842999486163726
 20
6.98170205432352
 10
5.853821412563725
 20
7.003944861363514
 10
5.861657866963724
 20
7.027604816563517
 10
5.866261663443715
 20
7.052022783923519
 10
5.867579569363726
 20
7.076509715123521
 10
5.865700771283727
 20
7.100722776243514
 10
5.861401877203725
 20
7.121193373363517
  0
LWPOLYLINE
  5
BF
330
2
100
AcDbEntity
  8
0
  6
HIDDEN
 62
     9
100
AcDbPolyline
 90
       12
 70
     0
 43
0.0
 10
5.683396185043726
 20
6.87614674424352
 10
5.65987472072372
 20
6.877569940403517
 10
5.637593037523714
 20
6.88170559480352
 10
5.616436041683719
 20
6.888320440243518
 10
5.59668865352372
 20
6.897137356723519
 10
5.578388857043727
 20
6.90797254392352
 10
5.561547419603719
 20
6.920724005043517
 10
5.546242162643721
 20
6.935310392243522
 10
5.532509659603725
 20
6.95177514744352
 10
5.520535241683724
 20
6.970101859763524
 10
5.510536640723728
 20
6.990321264563519
 10
5.503686201043727
 20
7.00944865272352
  0
LWPOLYLINE
  5
C0
330
2
100
AcDbEntity
  8
0
  6
HIDDEN
 62
     9
100
AcDbPolyline
 90
       11
 70
     0
 43
0.0
 10
5.683396304083721
 20
7.249718786483519
 10
5.706871991763726
 20
7.248301250483521
 10
5.729128908243723
 20
7.244177477043521
 10
5.750285194963723
 20
7.237572069043515
 10
5.770061043923725
 20
7.22875032056352
 10
5.788414254803726
 20
7.217885850803519
 10
5.80532106696372
 20
7.205076870323516
 10
5.820688247763719
 20
7.190407736243521
 10
5.834462768083717
 20
7.173847069363517
 10
5.846446530003717
 20
7.155432220083518
 10
5.856420960723717
 20
7.135150913203517
  0
LINE
  5
C4
330
2
100
AcDbEntity
  8
0
100
AcDbLine
 10
-21.15406919479628
 20
11.60166428720498
 30
0.0
 11
-21.17080314551628
 21
11.60516667568498
 31
0.0
  0
LINE
  5
C5
330
2
100
AcDbEntity
  8
0
100
AcDbLine
 10
-21.17080314551628
 20
11.60516667568498
 30
0.0
 11
-21.18421137847628
 21
11.60808908848498
 31
0.0
  0
LINE
  5
C6
330
2
100
AcDbEntity
  8
0
100
AcDbLine
 10
-21.18421137847628
 20
11.60808908848498
 30
0.0
 11
-21.19504936759628
 21
11.61054144304497
 31
0.0
  0
LWPOLYLINE
  5
C7
330
2
100
AcDbEntity
  8
0
  6
HIDDEN
 62
     9
100
AcDbPolyline
 90
        9
 70
     0
 43
0.0
 10
4.224038121683719
 20
6.577845317043518
 10
4.247446396883717
 20
6.569025541043515
 10
4.283175643603726
 20
6.557648801203519
 10
4.319339938003722
 20
6.54858010744352
 10
4.355582697683722
 20
6.54187446648352
 10
4.391656009683714
 20
6.537528751283524
 10
4.427176401363723
 20
6.53552298488352
 10
4.46183547336372
 20
6.53578387320352
 10
4.495417220563723
 20
6.538207508403523
  0
LINE
  5
C8
330
2
100
AcDbEntity
  8
0
  6
HIDDEN
 62
     9
100
AcDbLine
 10
4.224076941523718
 20
6.577829756083522
 30
0.0
 11
4.247446713043721
 21
6.569025466803517
 31
0.0
  0
LWPOLYLINE
  5
C9
330
2
100
AcDbEntity
  8
0
  6
HIDDEN
 62
     9
 48
0.5
100
AcDbPolyline
 90
       29
 70
     0
 43
0.0
 10
4.224037870803726
 20
6.577844698803517
 10
4.282403269843719
 20
6.555208737203521
 10
4.394024144083715
 20
6.515716334003521
 10
4.511120008403722
 20
6.478890407603522
 10
4.633571331283718
 20
6.444643879603518
 10
4.76122973256372
 20
6.412915307443519
 10
4.893986697683722
 20
6.383647566003517
 10
5.031841594323722
 20
6.356778370483517
 10
5.174786786003721
 20
6.332268414643515
 10
5.322777124563714
 20
6.310101228723517
 10
5.475758006483722
 20
6.290273496243521
 10
5.633668452563718
 20
6.272792360883521
 10
5.796397980883725
 20
6.25767745784352
 10
5.963773280723728
 20
6.244957050803513
 10
6.135606375123721
 20
6.234660456883517
 10
6.311693843923727
 20
6.226817345203521
 10
6.491783907283725
 20
6.221457779123518
 10
6.675595278803719
 20
6.218609103283519
 10
6.862835496403725
 20
6.218294654643521
 10
7.053185074643721
 20
6.220533358003521
 10
7.246282019283725
 20
6.225338069683516
 10
7.441751429843719
 20
6.232714749363516
 10
7.639207432403722
 20
6.242662320563518
 10
7.838234440403716
 20
6.255171196083516
 10
8.038400946643726
 20
6.270222965683522
 10
8.239270947283728
 20
6.287790828723522
 10
8.440404946643724
 20
6.307839663283516
 10
8.641367065043716
 20
6.330326764723523
 10
8.840113205203721
 20
6.354992147123518
  0
LWPOLYLINE
  5
CA
330
2
100
AcDbEntity
  8
0
  6
HIDDEN
 62
     9
 48
0.5
100
AcDbPolyline
 90
       34
 70
     0
 43
0.0
 10
6.326101554643727
 20
7.836371244723515
 10
6.332346869203725
 20
7.831781683123516
 10
6.352679106003719
 20
7.81794432760352
 10
6.377254234323714
 20
7.802930239923519
 10
6.40626722504372
 20
7.786968733363515
 10
6.439840709843721
 20
7.770302330803524
 10
6.478059658963729
 20
7.753162164403519
 10
6.521006357203724
 20
7.735754447283518
 10
6.56867266248372
 20
7.718297327283515
 10
6.621010687443714
 20
7.700994524083519
 10
6.678001251283724
 20
7.684015948723519
 10
6.739551769043721
 20
7.667533377203518
 10
6.805490600403715
 20
7.651715531443521
 10
6.87572209864372
 20
7.636691105203517
 10
6.950093342163718
 20
7.622585982643521
 10
7.028425459923717
 20
7.609514524083515
 10
7.11048079560372
 20
7.597584008883522
 10
7.196108374483713
 20
7.586874499763517
 10
7.285097502163722
 20
7.577463687603518
 10
7.377228214483722
 20
7.569418859443516
 10
7.472249132243717
 20
7.562798992563521
 10
7.569952839123715
 20
7.557650090163519
 10
7.670112880083728
 20
7.554011766963519
 10
7.772489666003728
 20
7.55191649016352
 10
7.876834449363727
 20
7.551389340083517
 10
7.982897742803714
 20
7.552448140723519
 10
8.090450234323725
 20
7.555104651443521
 10
8.199242819283718
 20
7.55936461688352
 10
8.309025090003729
 20
7.565227822003514
 10
8.419541157843724
 20
7.572687970483521
 10
8.530547286483724
 20
7.581734088883521
 10
8.641794462163723
 20
7.59234973944352
 10
8.753030323923724
 20
7.604512962483518
 10
8.864002865363723
 20
7.618196556723518
  0
LWPOLYLINE
  5
CB
330
2
100
AcDbEntity
  8
0
  6
HIDDEN
 62
     9
100
AcDbPolyline
 90
        9
 70
     0
 43
0.0
 10
6.326101105363726
 20
7.836370649523523
 10
6.323048041683726
 20
7.838644373683521
 10
6.295289214163716
 20
7.857795576243518
 10
6.26683204168372
 20
7.874808047283515
 10
6.237921518803723
 20
7.889615425203515
 10
6.208759639763727
 20
7.902200707763519
 10
6.179560834003723
 20
7.912562183603519
 10
6.150461372883725
 20
7.920741827763514
 10
6.121653402323723
 20
7.92677590520352
  0
LINE
  5
CC
330
2
100
AcDbEntity
  8
0
  6
HIDDEN
 62
     9
100
AcDbLine
 10
6.326064242643723
 20
7.836394347443521
 30
0.0
 11
6.323046732243721
 21
7.838641381043517
 31
0.0
  0
LINE
  5
CD
330
2
100
AcDbEntity
  8
0
  6
HIDDEN
 62
     9
100
AcDbLine
 10
6.349836645843719
 20
7.817473528243517
 30
0.0
 11
6.326064242643723
 21
7.836394347443521
 31
0.0
  0
LWPOLYLINE
  5
CE
330
2
100
AcDbEntity
  8
0
  6
HIDDEN
 62
     9
100
AcDbPolyline
 90
       15
 70
     0
 43
0.0
 10
15.14923612744373
 20
8.206098664883519
 10
15.15339538760372
 20
8.246911322803519
 10
15.15495658568372
 20
8.286814895283519
 10
15.15402594888372
 20
8.325702646963513
 10
15.15070617672371
 20
8.363530219443518
 10
15.14510495304371
 20
8.400173105843514
 10
15.13731266632372
 20
8.435627402163518
 10
15.12743292360372
 20
8.469794887603519
 10
15.11554180680373
 20
8.502672875443515
 10
15.10172125128372
 20
8.534212728243517
 10
15.08605513288371
 20
8.564359720883516
 10
15.06858128456372
 20
8.593132610483522
 10
15.04938441928372
 20
8.62045435000352
 10
15.02847862344371
 20
8.646343216563522
 10
15.00591548872371
 20
8.670748231603518
  0
LWPOLYLINE
  5
CF
330
2
100
AcDbEntity
  8
0
  6
HIDDEN
 62
     9
100
AcDbPolyline
 90
        3
 70
     0
 43
0.0
 10
15.13018126536373
 20
8.067063190963516
 10
15.13981468488371
 20
8.136381017523518
 10
15.14923612744373
 20
8.206098664883519
  0
LWPOLYLINE
  5
D0
330
2
100
AcDbEntity
  8
0
  6
HIDDEN
 62
     9
100
AcDbPolyline
 90
       10
 70
     0
 43
0.0
 10
13.50034980808372
 20
8.717955201203515
 10
13.47454585672372
 20
8.714305543603522
 10
13.44856626376372
 20
8.708723971763518
 10
13.42254784328372
 20
8.701178067123514
 10
13.39654449352372
 20
8.691615321523521
 10
13.37069669192372
 20
8.680011347123517
 10
13.34507698504372
 20
8.666314154163522
 10
13.31984731464372
 20
8.650517043123521
 10
13.29513098056372
 20
8.63259845496352
 10
13.27112968904371
 20
8.612603517363517
  0
LWPOLYLINE
  5
D1
330
2
100
AcDbEntity
  8
0
  6
HIDDEN
 62
     9
100
AcDbPolyline
 90
        4
 70
     0
 43
0.0
 10
4.357226015443721
 20
7.756974166963516
 10
4.314743945683716
 20
7.751227406003515
 10
4.274073705683719
 20
7.74320466296352
 10
4.235261475283721
 20
7.73305744760352
  0
LWPOLYLINE
  5
D2
330
2
100
AcDbEntity
  8
0
  6
HIDDEN
 62
     9
100
AcDbPolyline
 90
        6
 70
     0
 43
0.0
 10
8.864002865363723
 20
7.618196556723518
 10
9.440033218003719
 20
7.694363953843513
 10
10.01534649288372
 20
7.77264061432352
 10
10.58986471240372
 20
7.853015883443518
 10
11.16351001544372
 20
7.935478817203517
 10
11.73620466120372
 20
8.020018181043518
  0
LWPOLYLINE
  5
D3
330
2
100
AcDbEntity
  8
0
  6
HIDDEN
 62
     9
 48
0.5
100
AcDbPolyline
 90
        6
 70
     0
 43
0.0
 10
8.864068657363723
 20
7.618255568563519
 10
9.44009780552372
 20
7.694421455283517
 10
10.01540963272371
 20
7.772696377523516
 10
10.58992616008372
 20
7.853069680563514
 10
11.16356952904372
 20
7.935530419123516
 10
11.73626199624372
 20
8.020067359923523
  0
LINE
  5
D4
330
2
100
AcDbEntity
  8
0
  6
HIDDEN
 62
     9
 48
0.5
100
AcDbLine
 10
14.52046555208372
 20
8.82517368696352
 30
0.0
 11
13.50034980808372
 21
8.717955201203519
 31
0.0
  0
LINE
  5
D5
330
2
100
AcDbEntity
  8
0
  6
HIDDEN
 62
     9
 48
0.5
100
AcDbLine
 10
6.011377095123724
 20
7.930832451763521
 30
0.0
 11
4.357226015443721
 21
7.756974166963518
 31
0.0
  0
LWPOLYLINE
  5
D8
330
2
100
AcDbEntity
  8
0
  6
HIDDEN
 62
     9
100
AcDbPolyline
 90
       10
 70
     0
 43
0.0
 10
13.76274458696371
 20
8.098861347763516
 10
13.78728746824371
 20
8.097308875443523
 10
13.81100843208372
 20
8.092672406963515
 10
13.83389606728373
 20
8.08504176632352
 10
13.85522843336372
 20
8.074750631603521
 10
13.87492977864373
 20
8.061965125043521
 10
13.89282649160372
 20
8.046850830003521
 10
13.90869142088372
 20
8.029607708083517
 10
13.92235104072371
 20
8.010372665523519
 10
13.93359333576371
 20
7.989287222963518
  0
LWPOLYLINE
  5
D9
330
2
100
AcDbEntity
  8
0
  6
HIDDEN
 62
     9
100
AcDbPolyline
 90
       11
 70
     0
 43
0.0
 10
13.76274446792372
 20
7.725289304243517
 10
13.73815983944372
 20
7.726847182003517
 10
13.71441403208372
 20
7.731495791283514
 10
13.69151989960371
 20
7.739138623923523
 10
13.67020636872372
 20
7.749430580403519
 10
13.65054877896372
 20
7.762193319603518
 10
13.63271743816372
 20
7.777247256243519
 10
13.61692240328372
 20
7.794389100723513
 10
13.60330818248373
 20
7.81350350200352
 10
13.59207153352372
 20
7.834476720563515
 10
13.58302602824372
 20
7.858619633843517
  0
LWPOLYLINE
  5
DA
330
2
100
AcDbEntity
  8
0
100
AcDbPolyline
 90
       11
 70
     0
 43
0.0
 10
-13.80979766839628
 20
10.90108761392498
 10
-14.38641625271628
 20
10.94098658352498
 10
-14.90563145015628
 20
10.97799297840498
 10
-15.35250246071627
 20
11.01194146864497
 10
-15.75609415351627
 20
11.04433099696498
 10
-16.15153988919628
 20
11.07757677872498
 10
-16.54463000887628
 20
11.11195207344498
 10
-16.90788588343628
 20
11.14457935024498
 10
-17.23282197559627
 20
11.17435002672498
 10
-17.52694096951628
 20
11.20165998128498
 10
-17.79568896055628
 20
11.22677057712498
  0
LWPOLYLINE
  5
DB
330
2
100
AcDbEntity
  8
0
100
AcDbPolyline
 90
       43
 70
     0
 43
0.0
 10
-18.04232965047628
 20
11.24979871664498
 10
-18.47986281015628
 20
11.29051164592498
 10
-18.67501264055628
 20
11.30883599664498
 10
-18.85578026039628
 20
11.32602604336497
 10
-19.02011729847628
 20
11.34189813424498
 10
-19.16657901879628
 20
11.35628328496497
 10
-19.29930720311628
 20
11.36954594736497
 10
-19.42182976183628
 20
11.38201192368498
 10
-19.53576825911628
 20
11.39383020592498
 10
-19.64256170167628
 20
11.40513002160497
 10
-19.74344525879628
 20
11.41602622128498
 10
-19.83941467063628
 20
11.42660657328498
 10
-19.93072706871628
 20
11.43684038960498
 10
-20.01727818807628
 20
11.44668885936497
 10
-20.09917725367628
 20
11.45614684848497
 10
-20.17652459447627
 20
11.46520149936498
 10
-20.24932670519627
 20
11.47385012400497
 10
-20.31801786551628
 20
11.48214614064497
 10
-20.38310766391628
 20
11.49013298736498
 10
-20.44474780087628
 20
11.49779920048497
 10
-20.50301791543628
 20
11.50514233776498
 10
-20.55807542711628
 20
11.51217371696498
 10
-20.61007673911627
 20
11.51890574768498
 10
-20.65917702455628
 20
11.52535184944498
 10
-20.70550045367628
 20
11.53152264880498
 10
-20.74915629111628
 20
11.53742779952497
 10
-20.79024377655628
 20
11.54307641776498
 10
-20.82884886327628
 20
11.54847640752498
 10
-20.86504894391628
 20
11.55363472176498
 10
-20.89890293687628
 20
11.55855586608498
 10
-20.93043924663628
 20
11.56323985584498
 10
-20.95964676919627
 20
11.56768020016498
 10
-20.98650637879628
 20
11.57186789296497
 10
-21.01101757751627
 20
11.57579514928497
 10
-21.03349992375628
 20
11.57950171696498
 10
-21.05413458871627
 20
11.58300124080497
 10
-21.07301619255628
 20
11.58629377072498
 10
-21.09024423991628
 20
11.58938099248498
 10
-21.10591520567627
 20
11.59226494896498
 10
-21.12008051767628
 20
11.59494004784498
 10
-21.13278153399628
 20
11.59739898416498
 10
-21.14408137015628
 20
11.59963908144497
 10
-21.15406919479628
 20
11.60166428720498
  0
LINE
  5
DC
330
2
100
AcDbEntity
  8
0
100
AcDbLine
 10
-17.79566793527628
 20
11.22676861104497
 30
0.0
 11
-18.04232965047628
 21
11.24979871664498
 31
0.0
  0
LWPOLYLINE
  5
DD
330
2
100
AcDbEntity
  8
0
100
AcDbPolyline
 90
        3
 70
     0
 43
0.0
 10
-11.10248412215627
 20
10.66294628912498
 10
-11.29162788407628
 20
10.68160814384498
 10
-11.64163421879628
 20
10.71781113776498
  0
LWPOLYLINE
  5
DE
330
2
100
AcDbEntity
  8
0
100
AcDbPolyline
 90
        6
 70
     0
 43
0.0
 10
-11.64162311479627
 20
10.71780998064498
 10
-12.01327997751628
 20
10.75594215472498
 10
-12.40958445623627
 20
10.79344447792498
 10
-12.83071649847628
 20
10.82887354416498
 10
-13.28338921655628
 20
10.86350094128497
 10
-13.80977038775628
 20
10.90108571568497
  0
LWPOLYLINE
  5
DF
330
2
100
AcDbEntity
  8
0
  6
HIDDEN
 62
     9
100
AcDbPolyline
 90
        5
 70
     0
 43
0.0
 10
6.121651635923726
 20
7.926772531123518
 10
6.093222675923719
 20
7.930730753203519
 10
6.065319946963718
 20
7.932676688563518
 10
6.03799597640372
 20
7.932685776563516
 10
6.011377095123719
 20
7.930832451763521
  0
LWPOLYLINE
  5
E0
330
2
100
AcDbEntity
  8
0
  6
HIDDEN
 62
     9
100
AcDbPolyline
 90
       11
 70
     0
 43
0.0
 10
13.58376382024371
 20
7.858896030643521
 10
13.58882698440372
 20
7.845380815283519
 10
13.60006951624372
 20
7.824395167923519
 10
13.61369283656371
 20
7.80526986744352
 10
13.62949692744372
 20
7.788122068403517
 10
13.64733300424372
 20
7.77306869752352
 10
13.66698934600371
 20
7.760310900403517
 10
13.68829716168372
 20
7.750024780723514
 10
13.71118351176372
 20
7.742386399923518
 10
13.73492237000371
 20
7.737739892403517
 10
13.75950499144372
 20
7.736182275763518
  0
LWPOLYLINE
  5
E1
330
2
100
AcDbEntity
  8
0
  6
HIDDEN
 62
     9
100
AcDbPolyline
 90
       15
 70
     0
 43
0.0
 10
13.58302602824372
 20
7.858619633843517
 10
13.57783340104371
 20
7.881097455283516
 10
13.57540776264372
 20
7.905557427123518
 10
13.57623376712372
 20
7.930193374643515
 10
13.58040002504373
 20
7.954903592883518
 10
13.58789103944373
 20
7.978962328243518
 10
13.59847537736372
 20
8.001656017843515
 10
13.61192629320372
 20
8.022640574643517
 10
13.62819975880371
 20
8.041816693683522
 10
13.64692296776373
 20
8.058670666163514
 10
13.66753880648373
 20
8.072755778483518
 10
13.68972444872372
 20
8.083938758323519
 10
13.71335530568372
 20
8.092148207283521
 10
13.73792616392371
 20
8.097160390323516
 10
13.76274458696371
 20
8.098861347763516
  0
LWPOLYLINE
  5
E2
330
2
100
AcDbEntity
  8
0
  6
HIDDEN
 62
     9
100
AcDbPolyline
 90
       15
 70
     0
 43
0.0
 10
13.94246382536371
 20
7.965528331443515
 10
13.94774057160371
 20
7.942538643123519
 10
13.95009749064372
 20
7.91807673208352
 10
13.94920555592371
 20
7.893466923443519
 10
13.94498526920371
 20
7.868814600883517
 10
13.93746141256372
 20
7.844836533683519
 10
13.92686828104372
 20
7.822231130803515
 10
13.91342404808371
 20
7.801322684083515
 10
13.89717088584372
 20
7.782212143283516
 10
13.87847828552372
 20
7.765411062963515
 10
13.85789689416373
 20
7.751363412403513
 10
13.83574131400372
 20
7.740202024883522
 10
13.81213203272372
 20
7.732001974963516
 10
13.78757025992372
 20
7.726991260083522
 10
13.76274446792372
 20
7.725289304243517
  0
LINE
  5
EA
330
2
100
AcDbEntity
  8
CENTER
 48
4.0
100
AcDbLine
 10
30.16173620916997
 20
7.437809781836867
 30
0.0
 11
35.45754588287595
 21
6.848531331175817
 31
0.0
  0
LWPOLYLINE
  5
EE
330
2
100
AcDbEntity
  8
0
  6
HIDDEN
 62
     9
100
AcDbPolyline
 90
       15
 70
     0
 43
0.0
 10
15.00592039112372
 20
8.67074713976352
 10
14.98173878600371
 20
8.693627206323519
 10
14.95592438088371
 20
8.714976537523519
 10
14.92853723464372
 20
8.734713457843518
 10
14.89953712200372
 20
8.752821971123516
 10
14.86895002184373
 20
8.769225112243518
 10
14.83676881096371
 20
8.783857053363519
 10
14.80295797832373
 20
8.796648943283521
 10
14.76755675848372
 20
8.80749183224352
 10
14.73049632072373
 20
8.816300389043519
 10
14.69181064904371
 20
8.822947018163517
 10
14.65144889288372
 20
8.827309375923519
 10
14.60944307272372
 20
8.829240003763516
 10
14.56578442440373
 20
8.828584935603515
 10
14.52046555208372
 20
8.825173686963516
  0
LINE
  5
EF
330
2
100
AcDbEntity
  8
0
  6
HIDDEN
 62
     9
100
AcDbLine
 10
13.93359333576372
 20
7.989287222963522
 30
0.0
 11
13.94246382536372
 21
7.965528331443518
 31
0.0
  0
LINE
  5
F3
330
2
100
AcDbEntity
  8
CENTER
 48
4.0
100
AcDbLine
 10
26.68015706440373
 20
-7.511844502284541
 30
0.0
 11
26.68015706440373
 21
-12.34050392922841
 31
0.0
  0
LINE
  5
F4
330
2
100
AcDbEntity
  8
0
100
AcDbLine
 10
27.08380748104372
 20
-9.477393647436478
 30
0.0
 11
27.0840921867647
 21
-9.427996785855871
 31
0.0
  0
LWPOLYLINE
  5
F6
330
2
100
AcDbEntity
  8
0
100
AcDbPolyline
 90
        4
 70
     0
 43
0.0
 10
26.83896383688372
 20
-9.52332840327648
 10
26.89851108552372
 20
-9.496761379916485
 10
26.92497008328372
 20
-9.490438315596481
 10
26.92497008328372
 20
-9.490438315596481
  0
LINE
  5
F7
330
2
100
AcDbEntity
  8
0
100
AcDbLine
 10
26.68378683208372
 20
-9.712526484556478
 30
0.0
 11
26.71785889352372
 21
-9.63991421191648
 31
0.0
  0
LINE
  5
F8
330
2
100
AcDbEntity
  8
0
100
AcDbLine
 10
26.71785889352372
 20
-9.63991421191648
 30
0.0
 11
26.77387762888372
 21
-9.571430452556482
 31
0.0
  0
LINE
  5
F9
330
2
100
AcDbEntity
  8
0
100
AcDbLine
 10
26.77387762888372
 20
-9.571430452556482
 30
0.0
 11
26.83896383688372
 21
-9.523328403276478
 31
0.0
  0
LWPOLYLINE
  5
FA
330
2
100
AcDbEntity
  8
0
100
AcDbPolyline
 90
        9
 70
     0
 43
0.0
 10
31.56566379848372
 20
-1.785757807436482
 10
31.80857861320372
 20
-0.0271257075964826
 10
31.92260525384372
 20
0.7977066162435165
 10
32.03240588616373
 20
1.590608391603517
 10
32.13848297288373
 20
2.354843462323515
 10
32.24133909576372
 20
3.093835581363514
 10
32.34159838408372
 20
3.812053525683516
 10
32.43977411656372
 20
4.51329229816352
 10
32.53485155272372
 20
5.190481259443515
  0
LINE
  5
FB
330
2
100
AcDbEntity
  8
0
100
AcDbLine
 10
32.53485267016372
 20
5.190481046963517
 30
0.0
 11
33.09452147482033
 21
9.167575784883521
 31
0.0
  0
LWPOLYLINE
  5
FC
330
2
100
AcDbEntity
  8
0
100
AcDbPolyline
 90
        8
 70
     0
 43
0.0
 10
30.67651983432372
 20
-8.033723658316482
 10
30.78591331912372
 20
-7.280669594956481
 10
30.90879990472373
 20
-6.439124844876481
 10
31.03871046600372
 20
-5.544149729356483
 10
31.17157101640371
 20
-4.613600716876483
 10
31.30487795272372
 20
-3.665478863436483
 10
31.43678457672372
 20
-2.717240002636479
 10
31.56566379848372
 20
-1.785757807436482
  0
LINE
  5
FD
330
2
100
AcDbEntity
  8
0
100
AcDbLine
 10
30.65625994312372
 20
-8.145942776396479
 30
0.0
 11
30.67651898952372
 21
-8.03373090823648
 31
0.0
  0
LWPOLYLINE
  5
FE
330
2
100
AcDbEntity
  8
0
100
AcDbPolyline
 90
        8
 70
     0
 43
0.0
 10
30.23527923144373
 20
-8.932121900876484
 10
30.32115589960372
 20
-8.836143568716483
 10
30.39926736072372
 20
-8.733519198796482
 10
30.46902912200371
 20
-8.62496815879648
 10
30.52997327048372
 20
-8.511197053516479
 10
30.58170421960372
 20
-8.392931713356482
 10
30.62388946120373
 20
-8.270923424076482
 10
30.65625994312373
 20
-8.145942776396481
  0
LINE
  5
FF
330
2
100
AcDbEntity
  8
0
100
AcDbLine
 10
28.57146430664372
 20
-9.461643667276483
 30
0.0
 11
28.21676871624372
 21
-9.816339257676478
 31
0.0
  0
LINE
  5
103
330
2
100
AcDbEntity
  8
0
100
AcDbLine
 10
35.18015706440372
 20
9.167575784883521
 30
0.0
 11
35.06932740296372
 21
10.46561460216351
 31
0.0
  0
ARC
  5
104
330
2
100
AcDbEntity
  8
0
100
AcDbCircle
 10
-9.161717228076277
 20
-8.025012384076482
 30
0.0
 40
0.34375000064
100
AcDbArc
 50
15.0
 51
63.9155239618
  0
ARC
  5
105
330
2
100
AcDbEntity
  8
0
100
AcDbCircle
 10
-3.768975835436277
 20
-8.178053305676478
 30
0.0
 40
0.34375000064
100
AcDbArc
 50
88.37443604410001
 51
165.0
  0
ARC
  5
106
330
2
100
AcDbEntity
  8
0
100
AcDbCircle
 10
-9.161679034156277
 20
-8.025013468236481
 30
0.0
 40
0.3437354048
100
AcDbArc
 50
15.0018223873
 51
88.38080431349998
  0
ARC
  5
107
330
2
100
AcDbEntity
  8
0
100
AcDbCircle
 10
-4.917924682796275
 20
-10.05117421575647
 30
0.0
 40
0.28125000064
100
AcDbArc
 50
270.0
 51
345.0
  0
ARC
  5
108
330
2
100
AcDbEntity
  8
0
100
AcDbCircle
 10
-7.971761189676279
 20
-10.05117421575647
 30
0.0
 40
0.28125000064
100
AcDbArc
 50
195.0
 51
270.0
  0
ARC
  5
109
330
2
100
AcDbEntity
  8
0
100
AcDbCircle
 10
-7.310868339756275
 20
-10.05117421575647
 30
0.0
 40
0.28125000064
100
AcDbArc
 50
270.0
 51
316.8246066523
  0
ARC
  5
10A
330
2
100
AcDbEntity
  8
0
100
AcDbCircle
 10
-5.578817532716279
 20
-10.05117421575647
 30
0.0
 40
0.28125000064
100
AcDbArc
 50
223.1763857244999
 51
270.0
  0
ARC
  5
10B
330
2
100
AcDbEntity
  8
0
100
AcDbCircle
 10
-6.444842935596275
 20
-10.86367421575648
 30
0.0
 40
0.90625000064
100
AcDbArc
 50
43.17279520929999
 51
136.8269375014
  0
ARC
  5
10C
330
2
100
AcDbEntity
  8
0
100
AcDbCircle
 10
25.82397618504372
 20
-9.426174215756478
 30
0.0
 40
0.90625000064
100
AcDbArc
 50
270.0
 51
341.5890988322
  0
ARC
  5
10D
330
2
100
AcDbEntity
  8
0
100
AcDbCircle
 10
6.596459241683724
 20
-9.426174215756478
 30
0.0
 40
0.90625000064
100
AcDbArc
 50
190.0
 51
270.0
  0
ARC
  5
10E
330
2
100
AcDbEntity
  8
0
100
AcDbCircle
 10
27.95160367304372
 20
-9.551174215756478
 30
0.0
 40
0.375
100
AcDbArc
 50
270.0
 51
315.0
  0
ARC
  5
10F
330
2
100
AcDbEntity
  8
0
100
AcDbCircle
 10
-22.91661557431627
 20
10.74910127024498
 30
0.0
 40
0.125
100
AcDbArc
 50
318.6321633632
 51
343.6450914659
  0
ARC
  5
110
330
2
100
AcDbEntity
  8
0
100
AcDbCircle
 10
-24.45987635895628
 20
10.41761186608497
 30
0.0
 40
0.25
100
AcDbArc
 50
89.0265506833
 51
175.0000011333999
  0
ARC
  5
111
330
2
100
AcDbEntity
  8
0
100
AcDbCircle
 10
34.82838049213237
 20
10.42330939841183
 30
0.0
 40
0.2446326719038571
100
AcDbArc
 50
9.958427737969516
 51
93.13577163658711
  0
ARC
  5
112
330
2
100
AcDbEntity
  8
0
100
AcDbCircle
 10
28.65985241032372
 20
-9.550032258636479
 30
0.0
 40
0.125
100
AcDbArc
 50
108.7863128509
 51
134.9999999835999
  0
ARC
  5
113
330
2
100
AcDbEntity
  8
0
100
AcDbCircle
 10
-20.26427793847628
 20
5.556772803763518
 30
0.0
 40
2.374999993599999
100
AcDbArc
 50
7.575489675
 51
23.6224161403
  0
ARC
  5
114
330
2
100
AcDbEntity
  8
0
100
AcDbCircle
 10
-13.50087975863627
 20
-5.213289039436482
 30
0.0
 40
2.25
100
AcDbArc
 50
183.0583053557
 51
268.3744360441
  0
ARC
  5
115
330
2
100
AcDbEntity
  8
0
100
AcDbCircle
 10
3.330312977363722
 20
-8.319794229836478
 30
0.0
 40
0.625
100
AcDbArc
 50
188.3555694204999
 51
267.5942937112
  0
LINE
  5
149
330
2
100
AcDbEntity
  8
0
100
AcDbLine
 10
-9.372490798636274
 20
-7.675142433356482
 30
0.0
 11
-9.372661438374224
 21
-7.581349846571912
 31
0.0
  0
LINE
  5
14A
330
2
100
AcDbEntity
  8
0
100
AcDbLine
 10
-3.555599455276276
 20
-7.840220331596478
 30
0.0
 11
-3.553397930284894
 21
-7.746495063840567
 31
0.0
  0
LINE
  5
14B
330
2
100
AcDbEntity
  8
0
100
AcDbLine
 10
-9.372490798636274
 20
-7.675142433356482
 30
0.0
 11
-9.151966262845583
 21
-7.681415315467164
 31
0.0
  0
LINE
  5
14C
330
2
100
AcDbEntity
  8
0
100
AcDbLine
 10
-3.759224460139957
 20
-7.834441644611505
 30
0.0
 11
-3.555599455276276
 21
-7.840220331596478
 31
0.0
  0
LINE
  5
14D
330
2
100
AcDbEntity
  8
0
100
AcDbLine
 10
5.272299587283725
 20
-9.104188802636478
 30
0.0
 11
5.271959304802577
 21
-9.023488555787785
 31
0.0
  0
LINE
  5
14E
330
2
100
AcDbEntity
  8
0
100
AcDbLine
 10
10.84595330888372
 20
-9.213142272076479
 30
0.0
 11
19.57617904840373
 21
-9.39418445191648
 31
0.0
  0
LINE
  5
14F
330
2
100
AcDbEntity
  8
0
100
AcDbLine
 10
19.57617904840373
 20
-9.39418445191648
 30
0.0
 11
23.60715310536372
 21
-9.42344405639648
 31
0.0
  0
LINE
  5
150
330
2
100
AcDbEntity
  8
0
100
AcDbLine
 10
23.60715310536372
 20
-9.42344405639648
 30
0.0
 11
24.29180393544372
 21
-9.41280749959648
 31
0.0
  0
LINE
  5
1EC
330
2
100
AcDbEntity
  8
0
100
AcDbLine
 10
34.84176244277071
 20
10.66757578488352
 30
0.0
 11
-24.45562908937739
 21
10.66757578488352
 31
0.0
  0
LINE
  5
1ED
330
2
100
AcDbEntity
  8
0
100
AcDbLine
 10
35.18015706440372
 20
9.167575784883521
 30
0.0
 11
-24.81984293559627
 21
9.167575784883521
 31
0.0
  0
ENDSEC
  0
SECTION
  2
OBJECTS
  0
DICTIONARY
  5
C
330
0
100
AcDbDictionary
  3
ACAD_COLOR
350
2E
  3
ACAD_GROUP
350
29
  3
ACAD_LAYOUT
350
B
  3
ACAD_MATERIAL
350
2D
  3
ACAD_MLINESTYLE
350
2A
  3
ACAD_PLOTSETTINGS
350
2B
  3
ACAD_PLOTSTYLENAME
350
2C
  3
ACAD_TABLESTYLE
350
2F
  3
ACDBHEADERROUNDTRIPXREC
350
229
  3
ACDBVARIABLEDICTIONARY
350
11B
  0
DICTIONARY
  5
12
330
11
100
AcDbDictionary
280
     1
  3
ACAD_LAYERFILTERS
360
13
  3
ACLYDICTIONARY
360
14
  0
DICTIONARY
  5
3
330
2
100
AcDbDictionary
280
     1
  3
ACAD_LAYOUTSELFREF
360
24A
  3
ACAD_SORTENTS
360
116
  0
DICTIONARY
  5
1A0
330
D
100
AcDbDictionary
280
     1
  3
ACAD_LAYOUTSELFREF
360
24B
  0
DICTIONARY
  5
2E
102
{ACAD_REACTORS
330
C
102
}
330
C
100
AcDbDictionary
  0
DICTIONARY
  5
29
102
{ACAD_REACTORS
330
C
102
}
330
C
100
AcDbDictionary
  0
DICTIONARY
  5
B
102
{ACAD_REACTORS
330
C
102
}
330
C
100
AcDbDictionary
  0
DICTIONARY
  5
2D
102
{ACAD_REACTORS
330
C
102
}
330
C
100
AcDbDictionary
  0
DICTIONARY
  5
2A
102
{ACAD_REACTORS
330
C
102
}
330
C
100
AcDbDictionary
  3
STANDARD
350
30
  0
DICTIONARY
  5
2B
102
{ACAD_REACTORS
330
C
102
}
330
C
100
AcDbDictionary
  0
ACDBDICTIONARYWDFLT
  5
2C
102
{ACAD_REACTORS
330
C
102
}
330
C
100
AcDbDictionary
281
     1
  3
Normal
350
7
100
AcDbDictionaryWithDefault
340
7
  0
DICTIONARY
  5
2F
102
{ACAD_REACTORS
330
C
102
}
330
C
100
AcDbDictionary
  3
STANDARD
350
31
  0
DICTIONARY
  5
229
102
{ACAD_REACTORS
330
C
102
}
330
C
100
AcDbDictionary
  3
CEPSNTYPE
350
233
  3
DIMSTYLEDATA
350
237
  3
FINGERPRINTGUID
350
234
  3
HYPERLINKBASE
350
22C
  3
INSUNITS
350
232
  3
LAYOUTDICT
350
22E
  3
LWETCUNION
350
231
  3
PLOTSETDICT
350
22F
  3
PLOTSTYLNAMDICT
350
230
  3
PSVPSCALE
350
236
  3
PUCSBASE
350
23A
  3
PUCSORGBACK
350
240
  3
PUCSORGBOTTOM
350
23C
  3
PUCSORGFRONT
350
23F
  3
PUCSORGLEFT
350
23D
  3
PUCSORGRIGHT
350
23E
  3
PUCSORGTOP
350
23B
  3
PUCSORTHOREF
350
238
  3
PUCSORTHOVIEW
350
239
  3
STYLESHEET
350
22D
  3
TSTACKALIGN
350
22A
  3
TSTACKSIZE
350
22B
  3
UCSBASE
350
243
  3
UCSORGBACK
350
249
  3
UCSORGBOTTOM
350
245
  3
UCSORGFRONT
350
248
  3
UCSORGLEFT
350
246
  3
UCSORGRIGHT
350
247
  3
UCSORGTOP
350
244
  3
UCSORTHOREF
350
241
  3
UCSORTHOVIEW
350
242
  3
VERSIONGUID
350
235
  0
DICTIONARY
  5
11B
102
{ACAD_REACTORS
330
C
102
}
330
C
100
AcDbDictionary
  3
CTABLESTYLE
350
11C
  3
DIMASSOC
350
158
  3
HIDETEXT
350
157
  3
PROJECTNAME
350
159
  0
DICTIONARY
  5
13
102
{ACAD_REACTORS
330
12
102
}
330
12
100
AcDbDictionary
  0
DICTIONARY
  5
14
102
{ACAD_REACTORS
330
12
102
}
330
12
100
AcDbDictionary
1001
ACAD
1000
<All
  0
XRECORD
  5
24A
102
{ACAD_REACTORS
330
3
102
}
330
3
100
AcDbXrecord
340
2
  0
SORTENTSTABLE
  5
116
102
{ACAD_REACTORS
330
3
102
}
330
3
100
AcDbSortentsTable
330
2
  0
XRECORD
  5
24B
102
{ACAD_REACTORS
330
1A0
102
}
330
1A0
100
AcDbXrecord
340
D
  0
MLINESTYLE
  5
30
102
{ACAD_REACTORS
330
2A
102
}
330
2A
100
AcDbMlineStyle
  2
STANDARD
 70
     0
  3

 62
   256
 51
90.0
 52
90.0
 71
     2
 49
0.5
 62
   256
  6
BYLAYER
 49
-0.5
 62
   256
  6
BYLAYER
  0
ACDBPLACEHOLDER
  5
7
102
{ACAD_REACTORS
330
2C
102
}
330
0
100
AcDbPlaceHolder
280
     0
  0
ACAD_PROXY_OBJECT
  5
31
102
{ACAD_REACTORS
330
2F
102
}
330
2F
100
AcDbProxyObject
 90
      499
 91
      525
 93
     1841
310
4214DD185B99185C9928B81E85EB51B8AE3F2E07A17AD46E2B8FC02B5E8DC0F42B1CFD028000000C1008070000C3001FDFF8000000C1003FBFF000000182007F7FE00000030400FEFFC00000060801FDFF8000000C1003FBFF00000018200000000000000681FA0B0000001820100E000186003FBFF000000182007F7FE000
310
00030400FEFFC00000060801FDFF8000000C1003FBFF000000182007F7FE000000304000AD7A3703D0AC73F4160000003040201C00030C007F7FE00000030400FEFFC00000060801FDFF8000000C1003FBFF000000182007F7FE00000030400FEFFC000000608018
340
17
340
17
340
17
 94
        0
1001
ACAD
1000
AcadProxyRoundTripData
1071
      524
1071
   851991
1070
     0
  0
XRECORD
  5
233
102
{ACAD_REACTORS
330
229
102
}
330
229
100
AcDbXrecord
 90
        0
  0
XRECORD
  5
237
102
{ACAD_REACTORS
330
229
102
}
330
229
100
AcDbXrecord
1000
DSTYLE
1002
{
1070
   341
340
23
1070
   342
340
23
1002
}
  0
XRECORD
  5
234
102
{ACAD_REACTORS
330
229
102
}
330
229
100
AcDbXrecord
  1
{3C74BCEF-2128-4ACA-9E08-F76604FC928E}
  0
XRECORD
  5
22C
102
{ACAD_REACTORS
330
229
102
}
330
229
100
AcDbXrecord
  1

  0
XRECORD
  5
232
102
{ACAD_REACTORS
330
229
102
}
330
229
100
AcDbXrecord
 90
        1
  0
XRECORD
  5
22E
102
{ACAD_REACTORS
330
229
102
}
330
229
100
AcDbXrecord
340
B
  0
XRECORD
  5
231
102
{ACAD_REACTORS
330
229
102
}
330
229
100
AcDbXrecord
 90
    10781
  0
XRECORD
  5
22F
102
{ACAD_REACTORS
330
229
102
}
330
229
100
AcDbXrecord
340
2B
  0
XRECORD
  5
230
102
{ACAD_REACTORS
330
229
102
}
330
229
100
AcDbXrecord
340
2C
  0
XRECORD
  5
236
102
{ACAD_REACTORS
330
229
102
}
330
229
100
AcDbXrecord
 40
0.0
  0
XRECORD
  5
23A
102
{ACAD_REACTORS
330
229
102
}
330
229
100
AcDbXrecord
340
0
  0
XRECORD
  5
240
102
{ACAD_REACTORS
330
229
102
}
330
229
100
AcDbXrecord
 10
0.0
 20
0.0
 30
0.0
  0
XRECORD
  5
23C
102
{ACAD_REACTORS
330
229
102
}
330
229
100
AcDbXrecord
 10
0.0
 20
0.0
 30
0.0
  0
XRECORD
  5
23F
102
{ACAD_REACTORS
330
229
102
}
330
229
100
AcDbXrecord
 10
0.0
 20
0.0
 30
0.0
  0
XRECORD
  5
23D
102
{ACAD_REACTORS
330
229
102
}
330
229
100
AcDbXrecord
 10
0.0
 20
0.0
 30
0.0
  0
XRECORD
  5
23E
102
{ACAD_REACTORS
330
229
102
}
330
229
100
AcDbXrecord
 10
0.0
 20
0.0
 30
0.0
  0
XRECORD
  5
23B
102
{ACAD_REACTORS
330
229
102
}
330
229
100
AcDbXrecord
 10
0.0
 20
0.0
 30
0.0
  0
XRECORD
  5
238
102
{ACAD_REACTORS
330
229
102
}
330
229
100
AcDbXrecord
340
0
  0
XRECORD
  5
239
102
{ACAD_REACTORS
330
229
102
}
330
229
100
AcDbXrecord
 70
     0
  0
XRECORD
  5
22D
102
{ACAD_REACTORS
330
229
102
}
330
229
100
AcDbXrecord
  1

  0
XRECORD
  5
22A
102
{ACAD_REACTORS
330
229
102
}
330
229
100
AcDbXrecord
 90
        1
  0
XRECORD
  5
22B
102
{ACAD_REACTORS
330
229
102
}
330
229
100
AcDbXrecord
 90
       70
  0
XRECORD
  5
243
102
{ACAD_REACTORS
330
229
102
}
330
229
100
AcDbXrecord
340
0
  0
XRECORD
  5
249
102
{ACAD_REACTORS
330
229
102
}
330
229
100
AcDbXrecord
 10
0.0
 20
0.0
 30
0.0
  0
XRECORD
  5
245
102
{ACAD_REACTORS
330
229
102
}
330
229
100
AcDbXrecord
 10
0.0
 20
0.0
 30
0.0
  0
XRECORD
  5
248
102
{ACAD_REACTORS
330
229
102
}
330
229
100
AcDbXrecord
 10
0.0
 20
0.0
 30
0.0
  0
XRECORD
  5
246
102
{ACAD_REACTORS
330
229
102
}
330
229
100
AcDbXrecord
 10
0.0
 20
0.0
 30
0.0
  0
XRECORD
  5
247
102
{ACAD_REACTORS
330
229
102
}
330
229
100
AcDbXrecord
 10
0.0
 20
0.0
 30
0.0
  0
XRECORD
  5
244
102
{ACAD_REACTORS
330
229
102
}
330
229
100
AcDbXrecord
 10
0.0
 20
0.0
 30
0.0
  0
XRECORD
  5
241
102
{ACAD_REACTORS
330
229
102
}
330
229
100
AcDbXrecord
340
0
  0
XRECORD
  5
242
102
{ACAD_REACTORS
330
229
102
}
330
229
100
AcDbXrecord
 70
     0
  0
XRECORD
  5
235
102
{ACAD_REACTORS
330
229
102
}
330
229
100
AcDbXrecord
  1
{A95A36B3-6034-421E-B164-31CC316BC640}
  0
DICTIONARYVAR
  5
11C
102
{ACAD_REACTORS
330
11B
102
}
330
11B
100
DictionaryVariables
280
     0
  1
STANDARD
  0
DICTIONARYVAR
  5
158
102
{ACAD_REACTORS
330
11B
102
}
330
11B
100
DictionaryVariables
280
     0
  1
1
  0
DICTIONARYVAR
  5
157
102
{ACAD_REACTORS
330
11B
102
}
330
11B
100
DictionaryVariables
280
     0
  1
1
  0
DICTIONARYVAR
  5
159
102
{ACAD_REACTORS
330
11B
102
}
330
11B
100
DictionaryVariables
280
     0
  1

  0
ENDSEC
  0
EOF
