  0
SECTION
  2
HEADER
  9
$ACADVER
  1
AC1014
  9
$ACADMAINTVER
 70
     9
  9
$DWGCODEPAGE
  3
ANSI_1252
  9
$INSBASE
 10
10.85253020249999
 20
2.0406837953
 30
0.0
  9
$EXTMIN
 10
-5.147873475255323
 20
-17.18982583036952
 30
-0.0015258207003583
  9
$EXTMAX
 10
26.85407964974695
 20
7.936187772139106
 30
0.0000000349246037
  9
$LIMMIN
 10
0.0
 20
0.0
  9
$LIMMAX
 10
17.0
 20
11.0
  9
$ORTHOMODE
 70
     1
  9
$REGENMODE
 70
     1
  9
$FILLMODE
 70
     1
  9
$QTEXTMODE
 70
     0
  9
$MIRRTEXT
 70
     1
  9
$DRAGMODE
 70
     2
  9
$LTSCALE
 40
2.0
  9
$OSMODE
 70
    55
  9
$ATTMODE
 70
     1
  9
$TEXTSIZE
 40
0.2
  9
$TRACEWID
 40
0.05
  9
$TEXTSTYLE
  7
STANDARD
  9
$CLAYER
  8
0
  9
$CELTYPE
  6
BYLAYER
  9
$CECOLOR
 62
   256
  9
$CELTSCALE
 40
1.0
  9
$DELOBJ
 70
     1
  9
$DISPSILH
 70
     0
  9
$DIMSCALE
 40
1.0
  9
$DIMASZ
 40
0.1875
  9
$DIMEXO
 40
0.0625
  9
$DIMDLI
 40
0.38
  9
$DIMRND
 40
0.0
  9
$DIMDLE
 40
0.0
  9
$DIMEXE
 40
0.18
  9
$DIMTP
 40
0.0
  9
$DIMTM
 40
0.0
  9
$DIMTXT
 40
0.125
  9
$DIMCEN
 40
0.09
  9
$DIMTSZ
 40
0.0
  9
$DIMTOL
 70
     0
  9
$DIMLIM
 70
     0
  9
$DIMTIH
 70
     1
  9
$DIMTOH
 70
     1
  9
$DIMSE1
 70
     0
  9
$DIMSE2
 70
     0
  9
$DIMTAD
 70
     0
  9
$DIMZIN
 70
     4
  9
$DIMBLK
  1
_FILLED
  9
$DIMASO
 70
     1
  9
$DIMSHO
 70
     1
  9
$DIMPOST
  1

  9
$DIMAPOST
  1

  9
$DIMALT
 70
     0
  9
$DIMALTD
 70
     2
  9
$DIMALTF
 40
25.4
  9
$DIMLFAC
 40
1.0
  9
$DIMTOFL
 70
     0
  9
$DIMTVP
 40
0.0
  9
$DIMTIX
 70
     0
  9
$DIMSOXD
 70
     0
  9
$DIMSAH
 70
     0
  9
$DIMBLK1
  1

  9
$DIMBLK2
  1

  9
$DIMSTYLE
  2
STANDARD
  9
$DIMCLRD
 70
     0
  9
$DIMCLRE
 70
     0
  9
$DIMCLRT
 70
     0
  9
$DIMTFAC
 40
1.0
  9
$DIMGAP
 40
0.09
  9
$DIMJUST
 70
     0
  9
$DIMSD1
 70
     0
  9
$DIMSD2
 70
     0
  9
$DIMTOLJ
 70
     1
  9
$DIMTZIN
 70
     4
  9
$DIMALTZ
 70
     0
  9
$DIMALTTZ
 70
     0
  9
$DIMFIT
 70
     3
  9
$DIMUPT
 70
     0
  9
$DIMUNIT
 70
     2
  9
$DIMDEC
 70
     1
  9
$DIMTDEC
 70
     1
  9
$DIMALTU
 70
     2
  9
$DIMALTTD
 70
     2
  9
$DIMTXSTY
  7
STANDARD
  9
$DIMAUNIT
 70
     0
  9
$LUNITS
 70
     2
  9
$LUPREC
 70
     4
  9
$SKETCHINC
 40
0.1
  9
$FILLETRAD
 40
0.0
  9
$AUNITS
 70
     0
  9
$AUPREC
 70
     0
  9
$MENU
  1
acad
  9
$ELEVATION
 40
0.0
  9
$PELEVATION
 40
0.0
  9
$THICKNESS
 40
0.0
  9
$LIMCHECK
 70
     0
  9
$BLIPMODE
 70
     0
  9
$CHAMFERA
 40
0.0
  9
$CHAMFERB
 40
0.0
  9
$CHAMFERC
 40
0.0
  9
$CHAMFERD
 40
0.0
  9
$SKPOLY
 70
     0
  9
$TDCREATE
 40
2453676.833664271
  9
$TDUPDATE
 40
2453685.584430914
  9
$TDINDWG
 40
0.0219045602
  9
$TDUSRTIMER
 40
0.0219045602
  9
$USRTIMER
 70
     1
  9
$ANGBASE
 50
0.0
  9
$ANGDIR
 70
     0
  9
$PDMODE
 70
     3
  9
$PDSIZE
 40
0.3125
  9
$PLINEWID
 40
0.0
  9
$COORDS
 70
     1
  9
$SPLFRAME
 70
     0
  9
$SPLINETYPE
 70
     6
  9
$SPLINESEGS
 70
     8
  9
$ATTDIA
 70
     0
  9
$ATTREQ
 70
     1
  9
$HANDLING
 70
 22529
  9
$HANDSEED
  5
3E8
  9
$SURFTAB1
 70
     6
  9
$SURFTAB2
 70
     6
  9
$SURFTYPE
 70
     6
  9
$SURFU
 70
     6
  9
$SURFV
 70
     6
  9
$UCSNAME
  2

  9
$UCSORG
 10
0.0
 20
0.0
 30
0.0
  9
$UCSXDIR
 10
1.0
 20
0.0
 30
0.0
  9
$UCSYDIR
 10
0.0
 20
1.0
 30
0.0
  9
$PUCSNAME
  2

  9
$PUCSORG
 10
0.0
 20
0.0
 30
0.0
  9
$PUCSXDIR
 10
1.0
 20
0.0
 30
0.0
  9
$PUCSYDIR
 10
0.0
 20
1.0
 30
0.0
  9
$USERI1
 70
     0
  9
$USERI2
 70
     0
  9
$USERI3
 70
     0
  9
$USERI4
 70
     0
  9
$USERI5
 70
     0
  9
$USERR1
 40
0.0
  9
$USERR2
 40
0.0
  9
$USERR3
 40
0.0
  9
$USERR4
 40
0.0
  9
$USERR5
 40
0.0
  9
$WORLDVIEW
 70
     1
  9
$SHADEDGE
 70
     3
  9
$SHADEDIF
 70
    70
  9
$TILEMODE
 70
     1
  9
$MAXACTVP
 70
    16
  9
$PINSBASE
 10
0.0
 20
0.0
 30
0.0
  9
$PLIMCHECK
 70
     0
  9
$PEXTMIN
 10
1.000000000000000E+20
 20
1.000000000000000E+20
 30
1.000000000000000E+20
  9
$PEXTMAX
 10
-1.000000000000000E+20
 20
-1.000000000000000E+20
 30
-1.000000000000000E+20
  9
$PLIMMIN
 10
0.0
 20
0.0
  9
$PLIMMAX
 10
12.0
 20
9.0
  9
$UNITMODE
 70
     0
  9
$VISRETAIN
 70
     0
  9
$PLINEGEN
 70
     1
  9
$PSLTSCALE
 70
     0
  9
$TREEDEPTH
 70
  3020
  9
$PICKSTYLE
 70
     1
  9
$CMLSTYLE
  2
STANDARD
  9
$CMLJUST
 70
     0
  9
$CMLSCALE
 40
1.0
  9
$PROXYGRAPHICS
 70
     0
  9
$MEASUREMENT
 70
     0
  0
ENDSEC
  0
SECTION
  2
CLASSES
  0
CLASS
  1
ACDBDICTIONARYWDFLT
  2
AcDbDictionaryWithDefault
  3
AutoCAD 2000
 90
        0
280
     0
281
     0
  0
CLASS
  1
ACDBPLACEHOLDER
  2
AcDbPlaceHolder
  3
AutoCAD 2000
 90
        0
280
     0
281
     0
  0
CLASS
  1
LAYOUT
  2
AcDbLayout
  3
AutoCAD 2000
 90
        0
280
     0
281
     0
  0
CLASS
  1
LWPOLYLINE
  2
AcDbPolyline
  3
AutoCAD 2000
 90
        0
280
     0
281
     1
  0
CLASS
  1
IMAGE
  2
AcDbRasterImage
  3
ISM
 90
      127
280
     0
281
     1
  0
CLASS
  1
OLE2FRAME
  2
AcDbOle2Frame
  3
AutoCAD 2000
 90
        0
280
     0
281
     1
  0
CLASS
  1
HATCH
  2
AcDbHatch
  3
AutoCAD 2000
 90
        0
280
     0
281
     1
  0
CLASS
  1
DICTIONARYVAR
  2
AcDbDictionaryVar
  3
AutoCAD 2000
 90
        0
280
     0
281
     0
  0
CLASS
  1
RASTERVARIABLES
  2
AcDbRasterVariables
  3
ISM
 90
        0
280
     0
281
     0
  0
CLASS
  1
IMAGEDEF
  2
AcDbRasterImageDef
  3
ISM
 90
        0
280
     0
281
     0
  0
CLASS
  1
IMAGEDEF_REACTOR
  2
AcDbRasterImageDefReactor
  3
ISM
 90
        1
280
     0
281
     0
  0
CLASS
  1
IDBUFFER
  2
AcDbIdBuffer
  3
AutoCAD 2000
 90
        0
280
     0
281
     0
  0
CLASS
  1
SPATIAL_FILTER
  2
AcDbSpatialFilter
  3
AutoCAD 2000
 90
        0
280
     0
281
     0
  0
CLASS
  1
XRECORD
  2
AcDbXrecord
  3
AutoCAD 2000
 90
        0
280
     0
281
     0
  0
CLASS
  1
SORTENTSTABLE
  2
AcDbSortentsTable
  3
AutoCAD 2000
 90
        0
280
     0
281
     0
  0
CLASS
  1
LAYER_INDEX
  2
AcDbLayerIndex
  3
AutoCAD 2000
 90
        0
280
     0
281
     0
  0
CLASS
  1
SPATIAL_INDEX
  2
AcDbSpatialIndex
  3
AutoCAD 2000
 90
        0
280
     0
281
     0
  0
CLASS
  1
OBJECT_PTR
  2
CAseDLPNTableRecord
  3
ASE-LPNTableRecord
 90
        1
280
     0
281
     0
  0
CLASS
  1
PLOTSETTINGS
  2
AcDbPlotSettings
  3
AutoCAD 2000
 90
        0
280
     0
281
     0
  0
CLASS
  1
VBA_PROJECT
  2
AcDbVbaProject
  3
acadvba
 90
        0
280
     0
281
     0
  0
CLASS
  1
WIPEOUT
  2
AcDbWipeout
  3
"WipeOut|Product Desc: Object Enabler for WipeOut entity^I^I^I^I^I^I|Company: Autodesk, Inc.^I^I^I^I^I^I|WEB Address: www.autodesk.com"
 90
      127
280
     0
281
     1
  0
CLASS
  1
WIPEOUTVARIABLES
  2
AcDbWipeoutVariables
  3
"WipeOut|Product Desc:     WipeOut Dbx Application|Company:          Autodesk, Inc.|WEB Address:      www.autodesk.com"
 90
        0
280
     0
281
     0
  0
CLASS
  1
RTEXT
  2
RText
  3
RText|AutoCAD Express Tool|expresstools@autodesk.com
 90
        0
280
     1
281
     1
  0
CLASS
  1
ARCALIGNEDTEXT
  2
AcDbArcAlignedText
  3
ATEXT|AutoCAD Express Tool|expresstools@autodesk.com
 90
        0
280
     1
281
     1
  0
CLASS
  1
TABLESTYLE
  2
AcDbTableStyle
  3
ObjectDBX Classes
 90
     2047
280
     0
281
     0
  0
CLASS
  1
ACAD_PROXY_OBJECT_WRAPPER
  2
AcDbProxyObjectWrapper
  3
AutoCAD 2000
 90
        0
280
     0
281
     0
  0
CLASS
  1
LONG_TRANSACTION
  2
AcDbLongTransaction
  3
AutoCAD 2000
 90
        0
280
     0
281
     0
  0
CLASS
  1
LWPOLYLINE
  2
AcDbPolyline
  3
AutoCAD 2000
 90
        0
280
     0
281
     1
  0
CLASS
  1
HATCH
  2
AcDbHatch
  3
AutoCAD 2000
 90
        0
280
     0
281
     1
  0
CLASS
  1
XRECORD
  2
AcDbXrecord
  3
AutoCAD 2000
 90
        0
280
     0
281
     0
  0
CLASS
  1
LONG_TRANSACTION
  2
AcDbLongTransaction
  3
AutoCAD 2000
 90
        0
280
     0
281
     0
  0
CLASS
  1
LWPOLYLINE
  2
AcDbPolyline
  3
AutoCAD 2000
 90
        0
280
     0
281
     1
  0
CLASS
  1
HATCH
  2
AcDbHatch
  3
AutoCAD 2000
 90
        0
280
     0
281
     1
  0
CLASS
  1
XRECORD
  2
AcDbXrecord
  3
AutoCAD 2000
 90
        0
280
     0
281
     0
  0
CLASS
  1
LONG_TRANSACTION
  2
AcDbLongTransaction
  3
AutoCAD 2000
 90
        0
280
     0
281
     0
  0
CLASS
  1
LWPOLYLINE
  2
AcDbPolyline
  3
AutoCAD 2000
 90
        0
280
     0
281
     1
  0
CLASS
  1
HATCH
  2
AcDbHatch
  3
AutoCAD 2000
 90
        0
280
     0
281
     1
  0
CLASS
  1
XRECORD
  2
AcDbXrecord
  3
AutoCAD 2000
 90
        0
280
     0
281
     0
  0
CLASS
  1
LONG_TRANSACTION
  2
AcDbLongTransaction
  3
AutoCAD 2000
 90
        0
280
     0
281
     0
  0
CLASS
  1
LWPOLYLINE
  2
AcDbPolyline
  3
AutoCAD 2000
 90
        0
280
     0
281
     1
  0
CLASS
  1
HATCH
  2
AcDbHatch
  3
AutoCAD 2000
 90
        0
280
     0
281
     1
  0
CLASS
  1
XRECORD
  2
AcDbXrecord
  3
AutoCAD 2000
 90
        0
280
     0
281
     0
  0
ENDSEC
  0
SECTION
  2
TABLES
  0
TABLE
  2
VPORT
  5
1E
330
0
100
AcDbSymbolTable
 70
     3
  0
VPORT
  5
3C4
330
1E
100
AcDbSymbolTableRecord
100
AcDbViewportTableRecord
  2
*ACTIVE
 70
     0
 10
0.0
 20
0.0
 11
1.0
 21
1.0
 12
10.85310301992241
 22
-4.626819040772165
 13
0.0
 23
0.0
 14
1.0
 24
1.0
 15
0.0
 25
0.0
 16
0.0
 26
0.0
 36
1.0
 17
0.0
 27
0.0
 37
0.0
 40
29.47551109486713
 41
1.786792452830188
 42
50.0
 43
0.0
 44
0.0
 50
0.0
 51
0.0
 71
     0
 72
   100
 73
     1
 74
     1
 75
     0
 76
     0
 77
     0
 78
     0
  0
ENDTAB
  0
TABLE
  2
LTYPE
  5
19
330
0
100
AcDbSymbolTable
 70
     3
  0
LTYPE
  5
1A
330
19
100
AcDbSymbolTableRecord
100
AcDbLinetypeTableRecord
  2
BYBLOCK
 70
     0
  3

 72
    65
 73
     0
 40
0.0
  0
LTYPE
  5
1B
330
19
100
AcDbSymbolTableRecord
100
AcDbLinetypeTableRecord
  2
BYLAYER
 70
     0
  3

 72
    65
 73
     0
 40
0.0
  0
LTYPE
  5
8
330
19
100
AcDbSymbolTableRecord
100
AcDbLinetypeTableRecord
  2
CONTINUOUS
 70
     0
  3
Solid line
 72
    65
 73
     0
 40
0.0
  0
LTYPE
  5
265
330
19
100
AcDbSymbolTableRecord
100
AcDbLinetypeTableRecord
  2
CENTER
 70
     0
  3
____ _ ____ _ ____ _ ____ _ ____ _ ____ _ ____
 72
    65
 73
     4
 40
0.6
 49
0.375
 74
     0
 49
-0.075
 74
     0
 49
0.075
 74
     0
 49
-0.075
 74
     0
  0
LTYPE
  5
2BA
330
19
100
AcDbSymbolTableRecord
100
AcDbLinetypeTableRecord
  2
HIDDEN
 70
     0
  3
Hidden __ __ __ __ __ __ __ __ __ __ __ __ __ _
 72
    65
 73
     2
 40
0.375
 49
0.25
 74
     0
 49
-0.125
 74
     0
  0
ENDTAB
  0
TABLE
  2
LAYER
  5
11
102
{ACAD_XDICTIONARY
360
12
102
}
330
0
100
AcDbSymbolTable
 70
     3
  0
LAYER
  5
6
330
11
100
AcDbSymbolTableRecord
100
AcDbLayerTableRecord
  2
0
 70
     0
 62
     7
  6
CONTINUOUS
  0
LAYER
  5
264
330
11
100
AcDbSymbolTableRecord
100
AcDbLayerTableRecord
  2
CENTER
 70
     0
 62
     1
  6
CENTER
1001
ACAECLAYERSTANDARD
1000

1000

  0
LAYER
  5
2A9
330
11
100
AcDbSymbolTableRecord
100
AcDbLayerTableRecord
  2
DEFPOINTS
 70
     0
 62
     7
  6
CONTINUOUS
  0
ENDTAB
  0
TABLE
  2
STYLE
  5
16
330
0
100
AcDbSymbolTable
 70
     1
  0
STYLE
  5
17
330
16
100
AcDbSymbolTableRecord
100
AcDbTextStyleTableRecord
  2
STANDARD
 70
     0
 40
0.0
 41
0.8
 50
0.0
 71
     0
 42
0.2
  3
txt
  4

  0
ENDTAB
  0
TABLE
  2
VIEW
  5
1C
330
0
100
AcDbSymbolTable
 70
     0
  0
ENDTAB
  0
TABLE
  2
UCS
  5
1D
330
0
100
AcDbSymbolTable
 70
     0
  0
ENDTAB
  0
TABLE
  2
APPID
  5
20
330
0
100
AcDbSymbolTable
 70
     4
  0
APPID
  5
15
330
20
100
AcDbSymbolTableRecord
100
AcDbRegAppTableRecord
  2
ACAD
 70
     0
  0
APPID
  5
266
330
20
100
AcDbSymbolTableRecord
100
AcDbRegAppTableRecord
  2
ACAECLAYERSTANDARD
 70
     0
  0
APPID
  5
26C
330
20
100
AcDbSymbolTableRecord
100
AcDbRegAppTableRecord
  2
DCO15
 70
     0
  0
APPID
  5
274
330
20
100
AcDbSymbolTableRecord
100
AcDbRegAppTableRecord
  2
ACAD_DSTYLE_DIMTEXT_FILL
 70
     0
  0
ENDTAB
  0
TABLE
  2
DIMSTYLE
  5
21
330
0
100
AcDbSymbolTable
 70
     1
  0
DIMSTYLE
105
22
330
21
100
AcDbSymbolTableRecord
100
AcDbDimStyleTableRecord
  2
STANDARD
 70
     0
  3

  4

  5
_FILLED
  6

  7

 40
1.0
 41
0.1875
 42
0.0625
 43
0.38
 44
0.18
 45
0.0
 46
0.0
 47
0.0
 48
0.0
140
0.125
141
0.09
142
0.0
143
25.4
144
1.0
145
0.0
146
1.0
147
0.09
 71
     0
 72
     0
 73
     1
 74
     1
 75
     0
 76
     0
 77
     0
 78
     4
170
     0
171
     2
172
     0
173
     0
174
     0
175
     0
176
     0
177
     0
178
     0
270
     2
271
     1
272
     1
273
     2
274
     2
340
17
275
     0
280
     0
281
     0
282
     0
283
     1
284
     4
285
     0
286
     0
287
     3
288
     0
  0
ENDTAB
  0
TABLE
  2
BLOCK_RECORD
  5
1
330
0
100
AcDbSymbolTable
 70
     2
  0
BLOCK_RECORD
  5
2
102
{ACAD_XDICTIONARY
360
3
102
}
330
1
100
AcDbSymbolTableRecord
100
AcDbBlockTableRecord
  2
*MODEL_SPACE
  0
BLOCK_RECORD
  5
D
102
{ACAD_XDICTIONARY
360
2EC
102
}
330
1
100
AcDbSymbolTableRecord
100
AcDbBlockTableRecord
  2
*PAPER_SPACE
  0
BLOCK_RECORD
  5
23
330
1
100
AcDbSymbolTableRecord
100
AcDbBlockTableRecord
  2
_FILLED
  0
ENDTAB
  0
ENDSEC
  0
SECTION
  2
BLOCKS
  0
BLOCK
  5
5
330
2
100
AcDbEntity
  8
0
100
AcDbBlockBegin
  2
*MODEL_SPACE
 70
     0
 10
0.0
 20
0.0
 30
0.0
  3
*MODEL_SPACE
  1

  0
ENDBLK
  5
9
330
2
100
AcDbEntity
  8
0
100
AcDbBlockEnd
  0
BLOCK
  5
E
330
D
100
AcDbEntity
 67
     1
  8
0
100
AcDbBlockBegin
  2
*PAPER_SPACE
 70
     0
 10
0.0
 20
0.0
 30
0.0
  3
*PAPER_SPACE
  1

  0
ENDBLK
  5
F
330
D
100
AcDbEntity
 67
     1
  8
0
100
AcDbBlockEnd
  0
BLOCK
  5
24
330
23
100
AcDbEntity
  8
0
100
AcDbBlockBegin
  2
_FILLED
 70
     0
 10
0.0
 20
0.0
 30
0.0
  3
_FILLED
  1

  0
SOLID
  5
25
330
23
100
AcDbEntity
  8
0
  6
BYBLOCK
 62
     0
100
AcDbTrace
 10
0.0
 20
0.0
 30
0.0
 11
-1.0
 21
0.1066666667
 31
0.0
 12
-1.0
 22
-0.1066666667
 32
0.0
 13
-1.0
 23
-0.1066666667
 33
0.0
  0
ENDBLK
  5
26
330
23
100
AcDbEntity
  8
0
  6
BYBLOCK
 62
     0
100
AcDbBlockEnd
  0
ENDSEC
  0
SECTION
  2
ENTITIES
  0
LWPOLYLINE
  5
32
330
2
100
AcDbEntity
  8
0
100
AcDbPolyline
 90
       47
 70
     0
 43
0.0
 10
13.91892452953999
 20
-11.10260481399998
 10
13.93325097178001
 20
-11.10044562167998
 10
13.94735578073999
 20
-11.09699630455999
 10
13.96112593626
 20
-11.09236649463999
 10
13.97565915481999
 20
-11.08609944695999
 10
13.9896508809
 20
-11.07871466871998
 10
14.00309258842
 20
-11.07036931831999
 10
14.01758438746
 20
-11.05999162999999
 10
14.03140448217999
 20
-11.04873351799998
 10
14.04459104218
 20
-11.03673564663999
 10
14.05887966553999
 20
-11.02234076663999
 10
14.07245882201999
 20
-11.00727721591999
 10
14.08539045594003
 20
-10.99165257079999
 10
14.09934995929998
 20
-10.97337178743999
 10
14.11261980634
 20
-10.95458526583998
 10
14.12526388058
 20
-10.93537087095999
 10
14.13880360665999
 20
-10.91334972151998
 10
14.15169245914
 20
-10.89094206327998
 10
14.16398951386
 20
-10.86820362103999
 10
14.18332447194001
 20
-10.82967880695999
 10
14.20135194330001
 20
-10.79052444663998
 10
14.21985837913999
 20
-10.74689424887999
 10
14.23714333402
 20
-10.70276544631999
 10
14.25472604250001
 20
-10.65429020151999
 10
14.27116459354002
 20
-10.60541479159999
 10
14.28773385178002
 20
-10.55237672439998
 10
14.30322647514
 20
-10.49901400695999
 10
14.31869782489999
 20
-10.44171724663998
 10
14.33315063130001
 20
-10.38415495927998
 10
14.34744514266
 20
-10.32292490999999
 10
14.36077060569999
 20
-10.26147656567999
 10
14.37381528922
 20
-10.19665880951998
 10
14.38593275994
 20
-10.13166123895999
 10
14.39766102362
 20
-10.06362008695999
 10
14.40849712729999
 20
-9.995431092399989
 10
14.41884922073998
 20
-9.924547883439991
 10
14.42833819225998
 20
-9.853543923119993
 10
14.43726162266
 20
-9.78021512055999
 10
14.44534558425999
 20
-9.706788995759989
 10
14.45279548505999
 20
-9.631424154799994
 10
14.45942470234001
 20
-9.55598265079999
 10
14.46536414682
 20
-9.479002177199994
 10
14.47049722713998
 20
-9.401963768239987
 10
14.47489749978001
 20
-9.323796926639989
 10
14.47850156890001
 20
-9.245589095599989
 10
14.48134239449998
 20
-9.16667061751999
 10
14.48339320153999
 20
-9.087728486319992
  0
LWPOLYLINE
  5
33
330
2
100
AcDbEntity
  8
0
100
AcDbPolyline
 90
       54
 70
     0
 43
0.0
 10
12.66893343834001
 20
-11.08722130679999
 10
12.69775954778
 20
-11.08515418743998
 10
12.72646602585999
 20
-11.08166100855999
 10
12.75497239002001
 20
-11.07677235191999
 10
12.78383725018002
 20
-11.07036630903998
 10
12.81235938138002
 20
-11.06259043959999
 10
12.84048945626
 20
-11.05350209911999
 10
12.86916677210001
 20
-11.04276648567998
 10
12.89733680474
 20
-11.03075827319998
 10
12.92496590554
 20
-11.01755170167999
 10
12.95325202009999
 20
-11.00253682167998
 10
12.98089727193999
 20
-10.98637256823999
 10
13.00788932186
 20
-10.96913922551998
 10
13.03557702746002
 20
-10.94993595639998
 10
13.06253155801999
 20
-10.92971618423999
 10
13.08875670874002
 20
-10.90855833463999
 10
13.11565102042001
 20
-10.88529291255999
 10
13.14175273434
 20
-10.86114168951999
 10
13.16707753818002
 20
-10.83617650167999
 10
13.19299547226
 20
-10.80900527735999
 10
13.21808753626001
 20
-10.78106964471999
 10
13.24237673434001
 20
-10.75243278071998
 10
13.26714866778002
 20
-10.72153771127998
 10
13.29107999962002
 20
-10.68998711287999
 10
13.31419754458002
 20
-10.65783514743998
 10
13.33766661722
 20
-10.62342048375999
 10
13.36029286362
 20
-10.58844599927999
 10
13.38210432090002
 20
-10.55295741175999
 10
13.40412595802001
 20
-10.51524730871998
 10
13.4253103945
 20
-10.47706066551999
 10
13.44568515162001
 20
-10.43843574647999
 10
13.46612664282
 20
-10.39767243127998
 10
13.48574108250002
 20
-10.35650481655999
 10
13.50455436890001
 20
-10.31496481655999
 10
13.52329468890002
 20
-10.27140704375999
 10
13.54122032730001
 20
-10.22750775415999
 10
13.55835488473999
 20
-10.18329357687999
 10
13.57528471642001
 20
-10.13721516919999
 10
13.59141289690001
 20
-10.09085011575999
 10
13.60676035418001
 20
-10.04422071927999
 10
13.62899621210002
 20
-9.971662754479989
 10
13.64947716058
 20
-9.898589836719992
 10
13.66872771418002
 20
-9.823147604399991
 10
13.68624619098002
 20
-9.747284299439989
 10
13.7024015881
 20
-9.669421035439988
 10
13.71684441306001
 20
-9.591221898159989
 10
13.72981380186002
 20
-9.511414323119993
 10
13.74108622298001
 20
-9.431349281199988
 10
13.75079821145999
 20
-9.350084524719989
 10
13.75882457690002
 20
-9.268636207279989
 10
13.76522759898
 20
-9.186410186159992
 10
13.76995187802001
 20
-9.10406966391999
 10
13.77301450842
 20
-9.021379513519992
 10
13.77440062810001
 20
-8.93864788087999
  0
LWPOLYLINE
  5
34
330
2
100
AcDbEntity
  8
0
100
AcDbPolyline
 90
       11
 70
     0
 43
0.0
 10
4.862238171780006
 20
-11.14408589047998
 10
5.03922101466
 20
-11.13962010231999
 10
5.223294514819997
 20
-11.13544939767999
 10
5.422996579460004
 20
-11.13139466103999
 10
5.64558084826001
 20
-11.12735273591999
 10
5.897772208260022
 20
-11.12326666359999
 10
6.185966119300019
 20
-11.11911671159999
 10
6.516360599939986
 20
-11.11490694391999
 10
6.891325456260005
 20
-11.11070384759998
 10
7.304731706500007
 20
-11.10666815991999
 10
7.786135875460018
 20
-11.10260486135999
  0
LWPOLYLINE
  5
35
330
2
100
AcDbEntity
  8
0
100
AcDbPolyline
 90
       11
 70
     0
 43
0.0
 10
9.036126966659992
 20
-11.08722130679999
 10
9.294084442500007
 20
-11.08299341175999
 10
9.522620960900013
 20
-11.07966373367998
 10
9.726794109059994
 20
-11.07705731575999
 10
9.911789920900019
 20
-11.07502420215998
 10
10.08250069466001
 20
-11.07344640759998
 10
10.24290826330002
 20
-11.07224024183999
 10
10.39666651737999
 20
-11.07134573687998
 10
10.54728617050002
 20
-11.07072307959999
 10
10.69809475802
 20
-11.07035109495998
 10
10.85255082074002
 20
-11.07022530039998
  0
LWPOLYLINE
  5
36
330
2
100
AcDbEntity
  8
0
100
AcDbPolyline
 90
        6
 70
     0
 43
0.0
 10
7.786135875460018
 20
-11.10260486135999
 10
8.044900150659998
 20
-11.10035327095998
 10
8.299677746820009
 20
-11.09768807415999
 10
8.550526731139996
 20
-11.09460498935999
 10
8.796425577859992
 20
-11.09111120759998
 10
9.036126966659992
 20
-11.08722130679999
  0
LINE
  5
37
330
2
100
AcDbEntity
  8
0
100
AcDbLine
 10
16.90032706650002
 20
-11.57301175287999
 30
0.0
 11
4.804733339780024
 21
-11.57301175287999
 31
0.0
  0
LWPOLYLINE
  5
38
330
2
100
AcDbEntity
  8
0
100
AcDbPolyline
 90
       37
 70
     0
 43
0.0
 10
4.804733339780028
 20
-11.57301175287998
 10
4.684767138180006
 20
-11.57278321783999
 10
4.564802252420008
 20
-11.57214193143998
 10
4.448740720259991
 20
-11.57111156855999
 10
4.332684123780012
 20
-11.56963922807998
 10
4.225154793860014
 20
-11.56782495607998
 10
4.126520415620007
 20
-11.56566378487999
 10
4.082688306820017
 20
-11.56450273783999
 10
4.038861054340003
 20
-11.56317409399999
 10
3.999855157380011
 20
-11.56181223543999
 10
3.964452588420016
 20
-11.56037574135999
 10
3.93289015514
 20
-11.55886818167999
 10
3.905189467780019
 20
-11.55729729783998
 10
3.881318345860023
 20
-11.55567187575999
 10
3.861244602499994
 20
-11.55400069879998
 10
3.844937351300018
 20
-11.55229236343998
 10
3.832370898820016
 20
-11.55055470455998
 10
3.827482846340018
 20
-11.54967726583999
 10
3.823520844420016
 20
-11.54879536375998
 10
3.820481841539987
 20
-11.54790995319999
 10
3.818362790020017
 20
-11.54702198903999
 10
3.817707359620015
 20
-11.54665056375999
 10
3.817160324740001
 20
-11.54613251575999
 10
3.816928780419999
 20
-11.54570080119999
 10
3.816869819780009
 20
-11.54524293111999
 10
3.817084814980006
 20
-11.54476201719999
 10
3.817486336900003
 20
-11.54435472247998
 10
3.818226292100007
 20
-11.54384940023999
 10
3.8190049353
 20
-11.54346937719999
 10
3.821805919620004
 20
-11.54246404855999
 10
3.824728619140017
 20
-11.54171322103999
 10
3.829360895619998
 20
-11.54076388215999
 10
3.834001355140003
 20
-11.53998635767999
 10
3.84679240666
 20
-11.53829803767998
 10
3.863106166660003
 20
-11.53664694007999
 10
3.882955805059992
 20
-11.53502910071999
 10
3.906354495620007
 20
-11.53344055287998
  0
LWPOLYLINE
  5
39
330
2
100
AcDbEntity
  8
0
100
AcDbPolyline
 90
        6
 70
     0
 43
0.0
 10
13.91892452953999
 20
-11.10260486135999
 10
13.66016025434001
 20
-11.10035327095998
 10
13.40538265818
 20
-11.09768807415999
 10
13.15453367386001
 20
-11.09460498935999
 10
12.90863482713999
 20
-11.09111120759998
 10
12.66893343834001
 20
-11.08722130679999
  0
LWPOLYLINE
  5
3A
330
2
100
AcDbEntity
  8
0
100
AcDbPolyline
 90
       11
 70
     0
 43
0.0
 10
12.66893343834001
 20
-11.08722130679999
 10
12.41097789146002
 20
-11.08299344119998
 10
12.18244287450002
 20
-11.07966378103999
 10
11.97827092314
 20
-11.07705737079999
 10
11.79327612122
 20
-11.07502425975998
 10
11.62256626906
 20
-11.07344646263999
 10
11.46215960794001
 20
-11.07224029175998
 10
11.30840232538
 20
-11.07134577911999
 10
11.1577837833
 20
-11.07072311159998
 10
11.00697652442002
 20
-11.07035111287999
 10
10.85255082074002
 20
-11.07022530039998
  0
LWPOLYLINE
  5
3B
330
2
100
AcDbEntity
  8
0
100
AcDbPolyline
 90
       11
 70
     0
 43
0.0
 10
16.84282223322
 20
-11.14408589047998
 10
16.66583939034001
 20
-11.13962010231999
 10
16.48176589018001
 20
-11.13544939767999
 10
16.28206382554
 20
-11.13139466103999
 10
16.05947955674
 20
-11.12735273591999
 10
15.80728819674001
 20
-11.12326666359999
 10
15.51909428570002
 20
-11.11911671159999
 10
15.18869980633999
 20
-11.11490694391999
 10
14.81373494874
 20
-11.11070384759998
 10
14.4003286985
 20
-11.10666815991999
 10
13.91892452953999
 20
-11.10260486135999
  0
LWPOLYLINE
  5
3C
330
2
100
AcDbEntity
  8
0
100
AcDbPolyline
 90
       37
 70
     0
 43
0.0
 10
17.79870590938
 20
-11.53344055287998
 10
17.82210459993999
 20
-11.53502910071999
 10
17.84195423834001
 20
-11.53664694007999
 10
17.85826799834001
 20
-11.53829803767998
 10
17.87105904986001
 20
-11.53998635767999
 10
17.87569950938001
 20
-11.54076388215999
 10
17.88033178586002
 20
-11.54171322103999
 10
17.88325448666
 20
-11.54246404855999
 10
17.88605546970001
 20
-11.54346937719999
 10
17.8868341129
 20
-11.54384940023999
 10
17.8875740681
 20
-11.54435472247998
 10
17.88797559002
 20
-11.54476201719999
 10
17.88819058522
 20
-11.54524293111999
 10
17.88813162458001
 20
-11.54570080119999
 10
17.88790008026001
 20
-11.54613251575999
 10
17.88735304538002
 20
-11.54665056375999
 10
17.88669761498002
 20
-11.54702198903999
 10
17.88457856345999
 20
-11.54790995319999
 10
17.88153956058002
 20
-11.54879536375998
 10
17.87757755865999
 20
-11.54967726583999
 10
17.87268950618002
 20
-11.55055470455998
 10
17.86012305370002
 20
-11.55229236343998
 10
17.84381580250001
 20
-11.55400069879998
 10
17.82374205914001
 20
-11.55567187575999
 10
17.79987093722002
 20
-11.55729729783998
 10
17.77217024986001
 20
-11.55886818167999
 10
17.74060781658002
 20
-11.56037574135999
 10
17.70520524762
 20
-11.56181223543999
 10
17.66619935066001
 20
-11.56317409399999
 10
17.62237209818002
 20
-11.56450273783999
 10
17.57853999066
 20
-11.56566378487999
 10
17.47990561114002
 20
-11.56782495607998
 10
17.37237628122002
 20
-11.56963922807998
 10
17.25631968474002
 20
-11.57111156855999
 10
17.14025815258
 20
-11.57214193143998
 10
17.02029326682
 20
-11.57278321783999
 10
16.90032706650001
 20
-11.57301175287998
  0
LWPOLYLINE
  5
3D
330
2
100
AcDbEntity
  8
0
100
AcDbPolyline
 90
       54
 70
     0
 43
0.0
 10
9.036126966659992
 20
-11.08722130679999
 10
9.007300857220002
 20
-11.08515418743998
 10
8.978594379139991
 20
-11.08166100855999
 10
8.950088014980025
 20
-11.07677235191999
 10
8.921223156100012
 20
-11.07036630903998
 10
8.89270102490002
 20
-11.06259043959999
 10
8.864570948740009
 20
-11.05350209911999
 10
8.835893632899995
 20
-11.04276648567998
 10
8.807723601540004
 20
-11.03075827319998
 10
8.780094499460005
 20
-11.01755170167999
 10
8.751808384899987
 20
-11.00253682167998
 10
8.724163133059988
 20
-10.98637256823999
 10
8.697171083140005
 20
-10.96913922551998
 10
8.669483377540018
 20
-10.94993595639998
 10
8.642528846980013
 20
-10.92971618423999
 10
8.61630369625999
 20
-10.90855833463999
 10
8.589409384580022
 20
-10.88529291255999
 10
8.563307670660009
 20
-10.86114168951999
 10
8.537982866820016
 20
-10.83617650167999
 10
8.512064932740003
 20
-10.80900527735999
 10
8.486972870019997
 20
-10.78106964471999
 10
8.462683670660027
 20
-10.75243278071998
 10
8.437911737220019
 20
-10.72153771127998
 10
8.413980405380016
 20
-10.68998711287999
 10
8.390862860420014
 20
-10.65783514743998
 10
8.367393787780002
 20
-10.62342048375999
 10
8.344767541380008
 20
-10.58844599927999
 10
8.322956084100013
 20
-10.55295741175999
 10
8.300934446980022
 20
-10.51524730871998
 10
8.279750010500009
 20
-10.47706066551999
 10
8.25937525338
 20
-10.43843574647999
 10
8.23893376218001
 20
-10.39767243127998
 10
8.219319322500012
 20
-10.35650481655999
 10
8.200506036100023
 20
-10.31496481655999
 10
8.181765716100017
 20
-10.27140704375999
 10
8.163840077700029
 20
-10.22750775415999
 10
8.146705520259985
 20
-10.18329357687999
 10
8.129775688579996
 20
-10.13721516919999
 10
8.113647508100001
 20
-10.09085011575999
 10
8.09830005082
 20
-10.04422071927999
 10
8.076064192899991
 20
-9.971662754479989
 10
8.055583244420006
 20
-9.898589836719992
 10
8.036332690820017
 20
-9.823147604399991
 10
8.018814214020011
 20
-9.747284299439989
 10
8.002658816900009
 20
-9.669421035439988
 10
7.988215991940023
 20
-9.591221898159989
 10
7.975246603140021
 20
-9.511414323119993
 10
7.963974182020024
 20
-9.431349281199988
 10
7.954262193540017
 20
-9.350084524719989
 10
7.946235828100014
 20
-9.268636207279989
 10
7.939832806020007
 20
-9.186410186159992
 10
7.935108526980002
 20
-9.10406966391999
 10
7.932045896580007
 20
-9.021379513519992
 10
7.9306597769
 20
-8.93864788087999
  0
LWPOLYLINE
  5
3E
330
2
100
AcDbEntity
  8
0
100
AcDbPolyline
 90
       47
 70
     0
 43
0.0
 10
7.786135875460018
 20
-11.10260481399998
 10
7.771809433219999
 20
-11.10044562167998
 10
7.757704624260014
 20
-11.09699630455999
 10
7.743934468740008
 20
-11.09236649463999
 10
7.729401251460018
 20
-11.08609944695999
 10
7.71540952410001
 20
-11.07871466871998
 10
7.701967816580008
 20
-11.07036931831999
 10
7.687476017540006
 20
-11.05999162999999
 10
7.673655922820017
 20
-11.04873351799998
 10
7.660469362820009
 20
-11.03673564663999
 10
7.646180739459992
 20
-11.02234076663999
 10
7.632601582980015
 20
-11.00727721591999
 10
7.619669949060011
 20
-10.99165257079999
 10
7.605710445699997
 20
-10.97337178743999
 10
7.592440598660004
 20
-10.95458526583998
 10
7.579796524420004
 20
-10.93537087095999
 10
7.566256798339992
 20
-10.91334972151998
 10
7.553367945860003
 20
-10.89094206327998
 10
7.541070891140009
 20
-10.86820362103999
 10
7.52173593306
 20
-10.82967880695999
 10
7.5037084617
 20
-10.79052444663998
 10
7.48520202585999
 20
-10.74689424887999
 10
7.467917070980007
 20
-10.70276544631999
 10
7.450334362500001
 20
-10.65429020151999
 10
7.43389581145999
 20
-10.60541479159999
 10
7.417326553219993
 20
-10.55237672439998
 10
7.401833929860003
 20
-10.49901400695999
 10
7.386362580100012
 20
-10.44171724663998
 10
7.371909773699997
 20
-10.38415495927998
 10
7.357615262340004
 20
-10.32292490999999
 10
7.344289799300014
 20
-10.26147656567999
 10
7.331245115780006
 20
-10.19665880951998
 10
7.319127645060007
 20
-10.13166123895999
 10
7.307399381380008
 20
-10.06362008695999
 10
7.296563277700016
 20
-9.995431092399989
 10
7.286211184259997
 20
-9.924547883439991
 10
7.276722212739997
 20
-9.853543923119993
 10
7.267798782340008
 20
-9.78021512055999
 10
7.259714820740015
 20
-9.706788995759989
 10
7.252264919940017
 20
-9.631424154799994
 10
7.245635702659996
 20
-9.55598265079999
 10
7.239696258180003
 20
-9.479002177199994
 10
7.234563177859996
 20
-9.401963768239987
 10
7.230162905219998
 20
-9.323796926639989
 10
7.226558836099997
 20
-9.245589095599989
 10
7.223718010499993
 20
-9.16667061751999
 10
7.221667203460015
 20
-9.087728486319992
  0
LINE
  5
3F
330
2
100
AcDbEntity
  8
0
100
AcDbLine
 10
3.408851441540015
 20
-11.36779136503998
 30
0.0
 11
3.351592951940006
 21
-11.34396284151999
 31
0.0
  0
LWPOLYLINE
  5
40
330
2
100
AcDbEntity
  8
0
100
AcDbPolyline
 90
       55
 70
     0
 43
0.0
 10
10.85253020250002
 20
2.153562279760009
 10
10.78894863962
 20
2.150995567440013
 10
10.72629259481999
 20
2.143274121040008
 10
10.66495146074001
 20
2.130387774800013
 10
10.60531240794
 20
2.112351091280011
 10
10.54774387034001
 20
2.089196583760006
 10
10.49253869145999
 20
2.060941664080012
 10
10.43979727833999
 20
2.027478283600011
 10
10.38957699802
 20
1.988585880400009
 10
10.36517368026002
 20
1.966767301200007
 10
10.34181896153998
 20
1.943829162320007
 10
10.31852849626002
 20
1.918709780560014
 10
10.29641984858
 20
1.892543369040012
 10
10.27422047962002
 20
1.863704199760007
 10
10.25331995994
 20
1.833909171280012
 10
10.23212544602
 20
1.800735098960011
 10
10.21232553178001
 20
1.766709099600006
 10
10.19219171162001
 20
1.728718098000008
 10
10.17349189978
 20
1.689999823440011
 10
10.15377567961999
 20
1.645178085200008
 10
10.13556703450001
 20
1.599721519440009
 10
10.1156989705
 20
1.545197438800009
 10
10.0974481737
 20
1.490109111120013
 10
10.07705527769999
 20
1.422351001680013
 10
10.05843508186001
 20
1.354082242640011
 10
10.03768587994002
 20
1.269862351440011
 10
10.01900068058
 20
1.185161447760009
 10
9.999057798020004
 20
1.083428796240006
 10
9.981199440259985
 20
0.9813045991200155
 10
9.962972656260006
 20
0.8660854669600084
 10
9.946418430340003
 20
0.7506166093600087
 10
9.929552151940015
 20
0.6207410471200135
 10
9.91425354458002
 20
0.49067027464001
 10
9.898570276740002
 20
0.3437231104800134
 10
9.884266307459995
 20
0.1966351988000099
 10
9.855793229700026
 20
-0.1342480370399883
 10
9.827454004100019
 20
-0.5087715864799876
 10
9.797845598340018
 20
-0.9291059135199901
 10
9.764720957060006
 20
-1.400523793839987
 10
9.745063664260015
 20
-1.66586011639999
 10
9.724123012739994
 20
-1.931098768559991
 10
9.697913968259996
 20
-2.235303839919993
 10
9.668429780100012
 20
-2.53921154807999
 10
9.644020497539997
 20
-2.762751773359994
 10
9.616913515139998
 20
-2.985979875759987
 10
9.586758030980007
 20
-3.208810984879988
 10
9.550636630659994
 20
-3.447906412719994
 10
9.51080436058001
 20
-3.686420468399987
 10
9.467481246339986
 20
-3.924328999599993
 10
9.415256043140004
 20
-4.189084339119986
 10
9.359105312899998
 20
-4.453033073839989
 10
9.299176940420011
 20
-4.716152789679988
 10
9.237246539139988
 20
-4.971833622959991
 10
9.171921284739994
 20
-5.226664263599992
 10
9.103255833220003
 20
-5.480603668399993
  0
LWPOLYLINE
  5
41
330
2
100
AcDbEntity
  8
0
100
AcDbPolyline
 90
       63
 70
     0
 43
0.0
 10
10.85253020250002
 20
2.825750208080009
 10
10.79669191514
 20
2.824708018000009
 10
10.74092375386001
 20
2.821573661520012
 10
10.68531309914001
 20
2.81633493256001
 10
10.62994424282001
 20
2.808984039760012
 10
10.57490595161999
 20
2.799516942160011
 10
10.52027373274
 20
2.78793145992001
 10
10.46614716249999
 20
2.774232727120015
 10
10.41259866074
 20
2.75842509832001
 10
10.35971772506002
 20
2.740519696720006
 10
10.30758809561999
 20
2.72053214728001
 10
10.25623137241999
 20
2.698452903760014
 10
10.20580043481999
 20
2.674333827920008
 10
10.15608456410001
 20
2.64804267912001
 10
10.10747411034
 20
2.619759645520012
 10
10.05949756250001
 20
2.589161717840013
 10
10.01281267033999
 20
2.556626670160014
 10
9.966594965380011
 20
2.521503104080011
 10
9.921867098500001
 20
2.48450033160001
 10
9.877431921539994
 20
2.44451501448001
 10
9.834699332740029
 20
2.402714266960011
 10
9.792187367300016
 20
2.357501559120009
 10
9.751597219460023
 20
2.31055486088001
 10
9.71111903194
 20
2.259585501520007
 10
9.672787831940013
 20
2.206981382480016
 10
9.634838709380005
 20
2.150134996560005
 10
9.599214206340008
 20
2.091802391120005
 10
9.563144329859994
 20
2.02703592328001
 10
9.529651956100025
 20
1.960897726800013
 10
9.495223794819992
 20
1.88580412680001
 10
9.463648671620006
 20
1.809464354640013
 10
9.431187057540029
 20
1.722164190800008
 10
9.401688214660026
 20
1.633817194320009
 10
9.371832456580023
 20
1.534539581520014
 10
9.344463478660003
 20
1.434544222800006
 10
9.316817005700016
 20
1.325417324880014
 10
9.290818782340011
 20
1.215886492240009
 10
9.263467916420012
 20
1.094013207120006
 10
9.237692962180005
 20
0.9717987034400081
 10
9.210774720899991
 20
0.8344735834400083
 10
9.185825529220011
 20
0.6967750413600058
 10
9.160026270340011
 20
0.5420896026400115
 10
9.136334649220003
 20
0.3870674842400135
 10
9.112236510340011
 20
0.2143133607200056
 10
9.090240378499998
 20
0.0412782068000084
 10
9.067812134019987
 20
-0.1522202968799888
 10
9.047273238660011
 20
-0.3459287359199905
 10
9.026319724420005
 20
-0.5602775794399904
 10
9.006754164100016
 20
-0.7747578123999901
 10
8.966232390019996
 20
-1.248215183279988
 10
8.921105582980004
 20
-1.771407083439989
 10
8.893534271620012
 20
-2.064493630639994
 10
8.862766816900006
 20
-2.357261524399987
 10
8.838022952580018
 20
-2.566982547119991
 10
8.81073082842002
 20
-2.776387887279994
 10
8.78068148186
 20
-2.985409543599992
 10
8.745033273220002
 20
-3.210475222959992
 10
8.70633812698
 20
-3.435044820399994
 10
8.665003099779994
 20
-3.659148216239991
 10
8.589685763460011
 20
-4.03863601271999
 10
8.508479810180006
 20
-4.416905031599995
 10
8.423470893699999
 20
-4.786995215279986
 10
8.333175803780022
 20
-5.155821699759989
  0
LWPOLYLINE
  5
42
330
2
100
AcDbEntity
  8
0
100
AcDbPolyline
 90
       63
 70
     0
 43
0.0
 10
10.85253020250002
 20
2.825750208080009
 10
10.90836848986
 20
2.824707992400014
 10
10.96413665113999
 20
2.821573661520012
 10
11.01974730585999
 20
2.816334938960011
 10
11.07511616217999
 20
2.808984039760012
 10
11.13015445338001
 20
2.79951694088001
 10
11.18478667226
 20
2.78793145992001
 10
11.23891324249999
 20
2.774232728400015
 10
11.29246174426
 20
2.75842509832001
 10
11.34534267994001
 20
2.740519696720006
 10
11.39747230937999
 20
2.72053214728001
 10
11.44882903257999
 20
2.698452903760014
 10
11.49925997018002
 20
2.674333827920008
 10
11.54897584089999
 20
2.64804267912001
 10
11.59758629466
 20
2.619759645520012
 10
11.64556284378002
 20
2.589161717840013
 10
11.69224773466001
 20
2.556626670160014
 10
11.73846543962
 20
2.521503104080011
 10
11.78319330650001
 20
2.48450033160001
 10
11.82762848346001
 20
2.44451501448001
 10
11.87036107226001
 20
2.402714266960011
 10
11.91287303770002
 20
2.357501559120009
 10
11.95346318554001
 20
2.31055486088001
 10
11.99394137434001
 20
2.259585501520007
 10
12.03227257305999
 20
2.206981382480016
 10
12.07022169562
 20
2.150134996560005
 10
12.10584619866
 20
2.091802391120005
 10
12.14191607514001
 20
2.02703592328001
 10
12.17540844890001
 20
1.960897726800013
 10
12.20983661018002
 20
1.88580412680001
 10
12.24141173338
 20
1.809464354640013
 10
12.27387334746001
 20
1.722164190800008
 10
12.30337219034001
 20
1.633817194320009
 10
12.33322794842001
 20
1.534539581520014
 10
12.36059692634
 20
1.434544222800006
 10
12.38824339930002
 20
1.325417324880014
 10
12.41424162266
 20
1.215886492240009
 10
12.44159248858002
 20
1.094013207120006
 10
12.46736744282
 20
0.9717987034400081
 10
12.49428568409999
 20
0.8344735834400083
 10
12.51923487578
 20
0.6967750413600058
 10
12.54503413466002
 20
0.5420896026400115
 10
12.56872575578
 20
0.3870674842400135
 10
12.59282389466003
 20
0.2143133607200056
 10
12.61482002650001
 20
0.0412782068000084
 10
12.63724827097999
 20
-0.1522202968799888
 10
12.65778716634
 20
-0.3459287359199905
 10
12.67874068186
 20
-0.5602775794399904
 10
12.69830624090002
 20
-0.7747578123999901
 10
12.73882801497998
 20
-1.248215183279988
 10
12.78395482202
 20
-1.771407083439989
 10
12.81152613338
 20
-2.064493630639994
 10
12.8422935881
 20
-2.357261524399987
 10
12.86703745241999
 20
-2.566982547119991
 10
12.89432957657999
 20
-2.776387887279994
 10
12.92437892314001
 20
-2.985409543599992
 10
12.96002713178
 20
-3.210475222959992
 10
12.99872227802001
 20
-3.435044820399994
 10
13.04005730522001
 20
-3.659148216239991
 10
13.11537464154
 20
-4.03863601271999
 10
13.19658059482
 20
-4.416905031599995
 10
13.28158951130001
 20
-4.786995215279986
 10
13.37188460122001
 20
-5.155821699759989
  0
LWPOLYLINE
  5
43
330
2
100
AcDbEntity
  8
0
100
AcDbPolyline
 90
       55
 70
     0
 43
0.0
 10
10.85253020250002
 20
2.153562279760009
 10
10.91611176538
 20
2.150995567440013
 10
10.97876781018001
 20
2.143274121040008
 10
11.04010894425999
 20
2.130387774800013
 10
11.09974799706
 20
2.112351091280011
 10
11.15731653593999
 20
2.089196583760006
 10
11.21252171354001
 20
2.060941664080012
 10
11.26526312666001
 20
2.027478283600011
 10
11.31548340698
 20
1.988585880400009
 10
11.33988672474001
 20
1.966767301200007
 10
11.36324144345999
 20
1.943829162320007
 10
11.38653190874001
 20
1.918709780560014
 10
11.40864055642001
 20
1.892543369040012
 10
11.43083992538001
 20
1.863704199760007
 10
11.45174044506001
 20
1.833909171280012
 10
11.47293495898
 20
1.800735098960011
 10
11.49273487322
 20
1.766709099600006
 10
11.51286869338
 20
1.728718098000008
 10
11.53156850522
 20
1.689999823440011
 10
11.55128472538001
 20
1.645178085200008
 10
11.56949337049999
 20
1.599721519440009
 10
11.5893614345
 20
1.545197438800009
 10
11.60761223130001
 20
1.490109111120013
 10
11.62800512729998
 20
1.422351001680013
 10
11.64662532314
 20
1.354082242640011
 10
11.66737452506001
 20
1.269862351440011
 10
11.68605972442
 20
1.185161447760009
 10
11.70600260698
 20
1.083428796240006
 10
11.72386096473999
 20
0.9813045991200155
 10
11.74208775002
 20
0.8660854669600084
 10
11.75864197466
 20
0.7506166093600087
 10
11.77550825305999
 20
0.6207410471200135
 10
11.79080686041999
 20
0.49067027464001
 10
11.80649012826
 20
0.3437231104800134
 10
11.82079409754001
 20
0.1966351988000099
 10
11.84926717530001
 20
-0.1342480370399883
 10
11.87760640089999
 20
-0.5087715864799876
 10
11.90721480666002
 20
-0.9291059135199901
 10
11.94033944794
 20
-1.400523793839987
 10
11.95999674073999
 20
-1.66586011639999
 10
11.98093739226001
 20
-1.931098768559991
 10
12.00714643673998
 20
-2.235303839919993
 10
12.03663062490002
 20
-2.53921154807999
 10
12.06103990746001
 20
-2.762751773359994
 10
12.08814688986001
 20
-2.985979875759987
 10
12.11830237402
 20
-3.208810984879988
 10
12.15442377434001
 20
-3.447906412719994
 10
12.19425604442
 20
-3.686420468399987
 10
12.23757915865999
 20
-3.924328999599993
 10
12.28980436186
 20
-4.189084339119986
 10
12.34595509210001
 20
-4.453033073839989
 10
12.40588346458
 20
-4.716152789679988
 10
12.46781386585999
 20
-4.971833622959991
 10
12.53313912026001
 20
-5.226664263599992
 10
12.60180457178
 20
-5.480603668399993
  0
LWPOLYLINE
  5
44
330
2
100
AcDbEntity
  8
0
100
AcDbPolyline
 90
       47
 70
     0
 43
0.0
 10
3.351592951940006
 20
-11.34396284151999
 10
3.344707360900002
 20
-11.34096945271999
 10
3.33793067226
 20
-11.33772571767999
 10
3.331309872260021
 20
-11.33409151607999
 10
3.324891949700003
 20
-11.32992672503998
 10
3.318723889540024
 20
-11.32509122423999
 10
3.312852679300021
 20
-11.31944489207999
 10
3.309645776259998
 20
-11.31578155639999
 10
3.306728455300003
 20
-11.31188644087998
 10
3.304275803780029
 20
-11.30784442743998
 10
3.302462909060011
 20
-11.30374039927999
 10
3.301464855939997
 20
-11.29965923831999
 10
3.301456733060007
 20
-11.29568582775998
 10
3.302237799300002
 20
-11.29266607223998
 10
3.303655044739997
 20
-11.28977030775998
 10
3.305614444420001
 20
-11.28700179191998
 10
3.308021972099993
 20
-11.28436377975999
 10
3.311766581379998
 20
-11.28105506167998
 10
3.315917827460026
 20
-11.27799185143999
 10
3.320252834180024
 20
-11.27518186743998
 10
3.328906990980016
 20
-11.27030110071999
 10
3.337464203140001
 20
-11.26627403383998
 10
3.345984615300011
 20
-11.26290640375999
 10
3.354528378499992
 20
-11.26000394487999
 10
3.363155638660003
 20
-11.25737239415999
 10
3.383393600900006
 20
-11.25171333367999
 10
3.404119097220018
 20
-11.24649476471999
 10
3.425065803140029
 20
-11.24175494903999
 10
3.450706221700016
 20
-11.23662046455999
 10
3.476331609220011
 20
-11.23208740727998
 10
3.501994527620013
 20
-11.22798263159999
 10
3.546354041219984
 20
-11.22154754551998
 10
3.590861742980024
 20
-11.21577622647998
 10
3.640024946820005
 20
-11.21006539895999
 10
3.68923240282001
 20
-11.20491119991999
 10
3.742075291780025
 20
-11.19986062199998
 10
3.794961388420006
 20
-11.19522706551999
 10
3.850603456900017
 20
-11.19073831543998
 10
3.906270441860016
 20
-11.18658902135999
 10
4.021712923780029
 20
-11.17888036727999
 10
4.140136800900023
 20
-11.17199832439999
 10
4.260603912580023
 20
-11.16585424375999
 10
4.382357328260013
 20
-11.16037076343998
 10
4.50483538009999
 20
-11.15547870071999
 10
4.627262678660002
 20
-11.15112827255999
 10
4.7472474825
 20
-11.14732886903998
 10
4.862238171780006
 20
-11.14408589047998
  0
LWPOLYLINE
  5
45
330
2
100
AcDbEntity
  8
0
100
AcDbPolyline
 90
       15
 70
     0
 43
0.0
 10
3.824583638660016
 20
-11.54658771191999
 10
3.802638130820014
 20
-11.53307566071999
 10
3.780240469380004
 20
-11.52030644727998
 10
3.757469911940006
 20
-11.50819180663999
 10
3.734405714820013
 20
-11.49664347511999
 10
3.701375204740003
 20
-11.48110903543998
 10
3.667979633539999
 20
-11.46640148471998
 10
3.634283712900014
 20
-11.45238937591998
 10
3.599898901380015
 20
-11.43877817207999
 10
3.56531925338001
 20
-11.42567833719999
 10
3.530591844740001
 20
-11.41302223607999
 10
3.498422254979999
 20
-11.40160035319998
 10
3.466276520580009
 20
-11.39007171319999
 10
3.434264482179997
 20
-11.37800839543999
 10
3.408851441540008
 20
-11.36779136503998
  0
LWPOLYLINE
  5
46
330
2
100
AcDbEntity
  8
0
100
AcDbPolyline
 90
       61
 70
     0
 43
0.0
 10
1.706536962179995
 20
-9.568893721519991
 10
1.710785881220004
 20
-9.621758759599991
 10
1.716353768580006
 20
-9.674509502639988
 10
1.723236882820003
 20
-9.727107053999993
 10
1.731471533699988
 20
-9.779752387759991
 10
1.741023892100002
 20
-9.832172444079994
 10
1.751888186499996
 20
-9.884335786159986
 10
1.764060596099994
 20
-9.936220363439993
 10
1.777531272580006
 20
-9.987783731119993
 10
1.792291830660019
 20
-10.03899293047999
 10
1.808331630980006
 20
-10.08980957815999
 10
1.825641856900006
 20
-10.14020746103998
 10
1.844211718020005
 20
-10.19015485687999
 10
1.863943529859994
 20
-10.23941184759998
 10
1.884900644740014
 20
-10.28816014071999
 10
1.907070069380012
 20
-10.33636917495999
 10
1.930420932739991
 20
-10.38397399031999
 10
1.95495414874
 20
-10.43098041335999
 10
1.980654503300002
 20
-10.47735903479999
 10
2.007617739139988
 20
-10.52326486135999
 10
2.035724638339985
 20
-10.56847955191998
 10
2.064957565060012
 20
-10.61297452279999
 10
2.095316343940027
 20
-10.65674643191999
 10
2.126765018500009
 20
-10.69974198007998
 10
2.159283811460028
 20
-10.74193396727998
 10
2.192850308739991
 20
-10.78329269495998
 10
2.227445205380007
 20
-10.82379513335998
 10
2.263046696580005
 20
-10.86341564151999
 10
2.299504061060019
 20
-10.90199614839999
 10
2.336915970180001
 20
-10.93965171063999
 10
2.375258997380029
 20
-10.97635867383998
 10
2.414467143300015
 20
-11.01205614327998
 10
2.454555989379997
 20
-11.04676167799998
 10
2.495500473220005
 20
-11.08045352823999
 10
2.537418746500009
 20
-11.11321955319999
 10
2.580146317700013
 20
-11.14492306935999
 10
2.623656245380004
 20
-11.17554406007998
 10
2.667967380100009
 20
-11.20509272695999
 10
2.713007034500009
 20
-11.23351861879999
 10
2.758746752900009
 20
-11.26080377591999
 10
2.805158434180015
 20
-11.28693092215999
 10
2.852211977860008
 20
-11.31188359415999
 10
2.89987762522
 20
-11.33564604151999
 10
2.947947513220015
 20
-11.35812241143999
 10
2.996564992900005
 20
-11.37938834295999
 10
3.045699575940005
 20
-11.39943054583998
 10
3.095299680900012
 20
-11.41822848759999
 10
3.145354605699992
 20
-11.43577951991999
 10
3.19583296090002
 20
-11.45207270775999
 10
3.246895159940009
 20
-11.46715158519999
 10
3.298319982980018
 20
-11.48094350071999
 10
3.35007505882001
 20
-11.49343982455999
 10
3.402155179140009
 20
-11.50463786231999
 10
3.454500002180026
 20
-11.51452415351998
 10
3.507076038020016
 20
-11.52309253751998
 10
3.559847326340019
 20
-11.53033694455999
 10
3.612784487300018
 20
-11.53625385207998
 10
3.665855688580023
 20
-11.54083969399999
 10
3.718715936899997
 20
-11.54407614967998
 10
3.771638240899989
 20
-11.54599250935999
 10
3.824583637380015
 20
-11.54658771191999
  0
LWPOLYLINE
  5
48
330
2
100
AcDbEntity
  8
0
100
AcDbPolyline
 90
       27
 70
     0
 43
0.0
 10
12.60180457178
 20
-5.480603668399993
 10
12.63987955545999
 20
-5.61605038199999
 10
12.67892143450001
 20
-5.751222205359987
 10
12.71487098330001
 20
-5.872444451759989
 10
12.7516804809
 20
-5.993408126639991
 10
12.78623169113998
 20
-6.104086783919989
 10
12.82160153178
 20
-6.214506381999989
 10
12.85829054042
 20
-6.32600417527999
 10
12.89586520794
 20
-6.437206753199987
 10
12.93666388442002
 20
-6.55483603319999
 10
12.97837404762
 20
-6.67214531191999
 10
13.02470831194
 20
-6.799451897519993
 10
13.07190966618
 20
-6.926439626159989
 10
13.12505314010002
 20
-7.06684307063999
 10
13.17882557146001
 20
-7.207006960559986
 10
13.29956808154
 20
-7.519085831599987
 10
13.3641902409
 20
-7.687171906479989
 10
13.42768474074
 20
-7.855686170799991
 10
13.47000296666001
 20
-7.971113875119989
 10
13.51131561050002
 20
-8.086905858479994
 10
13.55150881881999
 20
-8.203090426799992
 10
13.59109552858001
 20
-8.321550040239991
 10
13.62939126873999
 20
-8.440434390959989
 10
13.66637795546
 20
-8.55973381111999
 10
13.70384494297999
 20
-8.685621494959992
 10
13.73985049178
 20
-8.81193400439999
 10
13.77440072794001
 20
-8.938647870639989
  0
LWPOLYLINE
  5
49
330
2
100
AcDbEntity
  8
0
100
AcDbPolyline
 90
       24
 70
     0
 43
0.0
 10
13.37195862106
 20
-5.155816252079986
 10
13.4074657033
 20
-5.294568738479988
 10
13.4439473289
 20
-5.433068904879988
 10
13.4770841801
 20
-5.555381510319989
 10
13.51111365722002
 20
-5.677448413359989
 10
13.54290286810001
 20
-5.788199687599991
 10
13.57553584218001
 20
-5.898704833199992
 10
13.60991675226
 20
-6.011957331119994
 10
13.64496670938001
 20
-6.125005404079992
 10
13.72268896346
 20
-6.370449803439996
 10
13.81191522650001
 20
-6.646442799279995
 10
13.91473723226002
 20
-6.964241100719988
 10
13.97382382169999
 20
-7.149304345519986
 10
14.03168703450001
 20
-7.33475083511999
 10
14.09320197978002
 20
-7.538966181039988
 10
14.15270487130001
 20
-7.743781260719991
 10
14.21208402906001
 20
-7.95535225079999
 10
14.26926961754
 20
-8.167524240559991
 10
14.30736622810002
 20
-8.314675292079989
 10
14.34415807322003
 20
-8.462158842799986
 10
14.37955396058001
 20
-8.609984547759989
 10
14.41586928730001
 20
-8.768862476719988
 10
14.45048068186
 20
-8.928120094639989
 10
14.48339374042001
 20
-9.08773267319999
  0
LWPOLYLINE
  5
4A
330
2
100
AcDbEntity
  8
0
100
AcDbPolyline
 90
       24
 70
     0
 43
0.0
 10
8.333101783940008
 20
-5.155816252079986
 10
8.297594701700006
 20
-5.294568738479988
 10
8.261113076100002
 20
-5.433068904879988
 10
8.227976224900004
 20
-5.555381510319989
 10
8.193946747780017
 20
-5.677448413359989
 10
8.162157536899997
 20
-5.788199687599991
 10
8.129524562819995
 20
-5.898704833199992
 10
8.095143652740006
 20
-6.011957331119994
 10
8.060093695619997
 20
-6.125005404079992
 10
7.98237144154001
 20
-6.370449803439996
 10
7.893145178499992
 20
-6.646442799279995
 10
7.790323172740016
 20
-6.964241100719988
 10
7.731236583299988
 20
-7.149304345519986
 10
7.673373370500002
 20
-7.33475083511999
 10
7.61185842522002
 20
-7.538966181039988
 10
7.552355533699994
 20
-7.743781260719991
 10
7.492976375940003
 20
-7.95535225079999
 10
7.435790787460007
 20
-8.167524240559991
 10
7.397694176900017
 20
-8.314675292079989
 10
7.36090233178001
 20
-8.462158842799986
 10
7.32550644442
 20
-8.609984547759989
 10
7.289191117699999
 20
-8.768862476719988
 10
7.254579723140011
 20
-8.928120094639989
 10
7.221666664579998
 20
-9.08773267319999
  0
LWPOLYLINE
  5
4B
330
2
100
AcDbEntity
  8
0
100
AcDbPolyline
 90
       27
 70
     0
 43
0.0
 10
9.103255833220003
 20
-5.480603668399993
 10
9.065180849539984
 20
-5.61605038199999
 10
9.026138970499999
 20
-5.751222205359987
 10
8.990189421699994
 20
-5.872444451759989
 10
8.953379924100005
 20
-5.993408126639991
 10
8.918828715139994
 20
-6.104086783919989
 10
8.883458873220007
 20
-6.214506381999989
 10
8.846769864580011
 20
-6.32600417527999
 10
8.809195197060006
 20
-6.437206753199987
 10
8.768396521860012
 20
-6.55483603319999
 10
8.726686357380003
 20
-6.67214531191999
 10
8.680352093060008
 20
-6.799451897519993
 10
8.633150738820006
 20
-6.926439626159989
 10
8.580007264900018
 20
-7.06684307063999
 10
8.526234833540002
 20
-7.207006960559986
 10
8.405492323460009
 20
-7.519085831599987
 10
8.34087016410001
 20
-7.687171906479989
 10
8.277375664260006
 20
-7.855686170799991
 10
8.235057438339993
 20
-7.971113875119989
 10
8.193744794499991
 20
-8.086905858479994
 10
8.153551586180014
 20
-8.203090426799992
 10
8.113964876419998
 20
-8.321550040239991
 10
8.075669136260017
 20
-8.440434390959989
 10
8.038682449540004
 20
-8.55973381111999
 10
8.001215462020013
 20
-8.685621494959992
 10
7.965209913220007
 20
-8.81193400439999
 10
7.93065967706002
 20
-8.938647870639989
  0
LWPOLYLINE
  5
4E
330
2
100
AcDbEntity
  8
0
100
AcDbPolyline
 90
       61
 70
     0
 43
0.0
 10
19.99852344282001
 20
-9.568893721519991
 10
19.99427452378
 20
-9.621758759599991
 10
19.98870663642
 20
-9.674509502639988
 10
19.98182352218
 20
-9.727107053999993
 10
19.97358887129999
 20
-9.779752387759991
 10
19.9640365129
 20
-9.832172444079994
 10
19.95317221977998
 20
-9.884335786159986
 10
19.94099980889998
 20
-9.936220363439993
 10
19.92752913242
 20
-9.987783731119993
 10
19.91276857434002
 20
-10.03899293047999
 10
19.89672877402
 20
-10.08980957815999
 10
19.8794185481
 20
-10.14020746103998
 10
19.86084868698
 20
-10.19015485687999
 10
19.84111687513999
 20
-10.23941184759998
 10
19.82015976025999
 20
-10.28816014071999
 10
19.79799033562
 20
-10.33636917495999
 10
19.77463947226002
 20
-10.38397399031999
 10
19.75010625626001
 20
-10.43098041335999
 10
19.7244059017
 20
-10.47735903479999
 10
19.69744266585999
 20
-10.52326486135999
 10
19.66933576665999
 20
-10.56847955191998
 10
19.64010283993999
 20
-10.61297452279999
 10
19.60974406106001
 20
-10.65674643191999
 10
19.57829538778
 20
-10.69974198007998
 10
19.54577659354001
 20
-10.74193396727998
 10
19.51221009626002
 20
-10.78329269495998
 10
19.4776152009
 20
-10.82379513335998
 10
19.44201370842
 20
-10.86341564151999
 10
19.40555634394002
 20
-10.90199614839999
 10
19.36814443482001
 20
-10.93965171063999
 10
19.32980140762001
 20
-10.97635867383998
 10
19.29059326170002
 20
-11.01205614327998
 10
19.25050441561998
 20
-11.04676167799998
 10
19.20955993178
 20
-11.08045352823999
 10
19.1676416585
 20
-11.11321955319999
 10
19.12491408730002
 20
-11.14492306935999
 10
19.08140415962
 20
-11.17554406007998
 10
19.0370930249
 20
-11.20509272695999
 10
18.9920533705
 20
-11.23351861879999
 10
18.9463136521
 20
-11.26080377591999
 10
18.89990197210002
 20
-11.28693092215999
 10
18.85284842714
 20
-11.31188359415999
 10
18.80518277978001
 20
-11.33564604151999
 10
18.75711289177999
 20
-11.35812241143999
 10
18.7084954121
 20
-11.37938834295999
 10
18.65936083034
 20
-11.39943054583998
 10
18.60976072409999
 20
-11.41822848759999
 10
18.55970579930001
 20
-11.43577951991999
 10
18.50922744410001
 20
-11.45207270775999
 10
18.45816524506
 20
-11.46715158519999
 10
18.40674042202002
 20
-11.48094350071999
 10
18.35498534618002
 20
-11.49343982455999
 10
18.30290522586
 20
-11.50463786231999
 10
18.25056040282001
 20
-11.51452415351998
 10
18.19798436698002
 20
-11.52309253751998
 10
18.14521307865999
 20
-11.53033694455999
 10
18.09227591770002
 20
-11.53625385207998
 10
18.03920471642001
 20
-11.54083969399999
 10
17.98634446810001
 20
-11.54407614967998
 10
17.93342216409999
 20
-11.54599250935999
 10
17.88047676761999
 20
-11.54658771191999
  0
LWPOLYLINE
  5
4F
330
2
100
AcDbEntity
  8
0
100
AcDbPolyline
 90
       48
 70
     0
 43
0.0
 10
18.34651994714002
 20
-11.34684600695999
 10
18.35346745306
 20
-11.34396284151999
 10
18.36035304410001
 20
-11.34096945271999
 10
18.36712973274001
 20
-11.33772571767999
 10
18.37375053274001
 20
-11.33409151607999
 10
18.38016845530001
 20
-11.32992672503998
 10
18.38633651546001
 20
-11.32509122423999
 10
18.39220772570001
 20
-11.31944489207999
 10
18.39541462874001
 20
-11.31578155639999
 10
18.3983319497
 20
-11.31188644087998
 10
18.40078460122001
 20
-11.30784442743998
 10
18.40259749594
 20
-11.30374039927999
 10
18.40359554906001
 20
-11.29965923831999
 10
18.40360367194
 20
-11.29568582775998
 10
18.40282260570001
 20
-11.29266607223998
 10
18.40140536026001
 20
-11.28977030775998
 10
18.39944596058001
 20
-11.28700179191998
 10
18.39703843290001
 20
-11.28436377975999
 10
18.39329382362001
 20
-11.28105506167998
 10
18.38914257754001
 20
-11.27799185143999
 10
18.38480757082001
 20
-11.27518186743998
 10
18.37615341402002
 20
-11.27030110071999
 10
18.36759620186001
 20
-11.26627403383998
 10
18.35907578970003
 20
-11.26290640375999
 10
18.35053202650001
 20
-11.26000394487999
 10
18.34190476634
 20
-11.25737239415999
 10
18.32166680538
 20
-11.25171333367999
 10
18.30094130906002
 20
-11.24649476471999
 10
18.27999460186001
 20
-11.24175494903999
 10
18.25435418329999
 20
-11.23662046455999
 10
18.22872879578
 20
-11.23208740727998
 10
18.20306587738
 20
-11.22798263159999
 10
18.15870636377999
 20
-11.22154754551998
 10
18.11419866202001
 20
-11.21577622647998
 10
18.06503545818
 20
-11.21006539895999
 10
18.01582800218002
 20
-11.20491119991999
 10
17.96298511322001
 20
-11.19986062199998
 10
17.91009901658
 20
-11.19522706551999
 10
17.85445694809999
 20
-11.19073831543998
 10
17.79878996313999
 20
-11.18658902135999
 10
17.68334748122001
 20
-11.17888036727999
 10
17.56492360410001
 20
-11.17199832439999
 10
17.44445649242001
 20
-11.16585424375999
 10
17.32270307673999
 20
-11.16037076343998
 10
17.20022502489999
 20
-11.15547870071999
 10
17.07779772634
 20
-11.15112827255999
 10
16.95781292250001
 20
-11.14732886903998
 10
16.84282223322
 20
-11.14408589047998
  0
LWPOLYLINE
  5
50
330
2
100
AcDbEntity
  8
0
100
AcDbPolyline
 90
       16
 70
     0
 43
0.0
 10
17.88047676761999
 20
-11.54658771191999
 10
17.90242227417999
 20
-11.53307566071999
 10
17.92481993562
 20
-11.52030644727998
 10
17.94759049306
 20
-11.50819180663999
 10
17.97065469017999
 20
-11.49664347511999
 10
18.00368520026
 20
-11.48110903543998
 10
18.03708077146001
 20
-11.46640148471998
 10
18.07077669209999
 20
-11.45238937591998
 10
18.10516150361999
 20
-11.43877817207999
 10
18.13974115162002
 20
-11.42567833719999
 10
18.17446856026001
 20
-11.41302223607999
 10
18.20663815130001
 20
-11.40160035319998
 10
18.23878388442
 20
-11.39007171319999
 10
18.27079592281998
 20
-11.37800839543999
 10
18.29620896346
 20
-11.36779136503998
 10
18.34651994714002
 20
-11.34684600695999
  0
LINE
  5
51
330
2
100
AcDbEntity
  8
0
100
AcDbLine
 10
-5.146896987259992
 20
5.434784363600007
 30
0.0
 11
-5.036637023099988
 21
6.702401131600002
 31
0.0
  0
LWPOLYLINE
  5
54
330
2
100
AcDbEntity
  8
0
100
AcDbPolyline
 90
        3
 70
     0
 43
0.0
 10
4.215721502340016
 20
-13.16598468215999
 10
4.217976614020017
 20
-13.16669868279999
 10
4.289791259780002
 20
-13.17127343095999
  0
LINE
  5
55
330
2
100
AcDbEntity
  8
0
100
AcDbLine
 10
4.444147592580021
 20
-13.20854918903999
 30
0.0
 11
4.492586508420004
 21
-13.23986531447999
 31
0.0
  0
LINE
  5
5A
330
2
100
AcDbEntity
  8
0
100
AcDbLine
 10
18.45458288602001
 20
-11.46811472631999
 30
0.0
 11
18.46470393050001
 21
-11.46525924855999
 31
0.0
  0
LINE
  5
5B
330
2
100
AcDbEntity
  8
0
100
AcDbLine
 10
18.38410389978
 20
-11.47933228919999
 30
0.0
 11
18.37260304474
 21
-11.48256590967998
 31
0.0
  0
LINE
  5
5C
330
2
100
AcDbEntity
  8
0
100
AcDbLine
 10
18.44464121434
 20
-11.47086704119999
 30
0.0
 11
18.45458288602001
 21
-11.46811472631999
 31
0.0
  0
LINE
  5
5D
330
2
100
AcDbEntity
  8
0
100
AcDbLine
 10
18.37260304474
 20
-11.48256590967998
 30
0.0
 11
18.36144997466001
 21
-11.48562491767999
 31
0.0
  0
LINE
  5
5E
330
2
100
AcDbEntity
  8
0
100
AcDbLine
 10
18.43486862042
 20
-11.47352201335999
 30
0.0
 11
18.44464121434
 21
-11.47086704119999
 31
0.0
  0
LINE
  5
5F
330
2
100
AcDbEntity
  8
0
100
AcDbLine
 10
18.36144997466001
 20
-11.48562491767999
 30
0.0
 11
18.35065007706
 21
-11.48851416567999
 31
0.0
  0
LINE
  5
60
330
2
100
AcDbEntity
  8
0
100
AcDbLine
 10
18.42525470298001
 20
-11.47608520055999
 30
0.0
 11
18.43486862042
 21
-11.47352201335999
 31
0.0
  0
LINE
  5
61
330
2
100
AcDbEntity
  8
0
100
AcDbLine
 10
18.35065007706
 20
-11.48851416567999
 30
0.0
 11
18.34020735066001
 21
-11.49123886711999
 31
0.0
  0
LWPOLYLINE
  5
62
330
2
100
AcDbEntity
  8
0
100
AcDbPolyline
 90
        3
 70
     0
 43
0.0
 10
18.41110836058001
 20
-11.47976942583999
 10
18.41578896602001
 20
-11.47856190839998
 10
18.42525470297999
 20
-11.47608520055999
  0
LINE
  5
63
330
2
100
AcDbEntity
  8
0
100
AcDbLine
 10
14.83257419866002
 20
-13.19919039863999
 30
0.0
 11
14.96046502106
 21
-13.16941709047999
 31
0.0
  0
LWPOLYLINE
  5
64
330
2
100
AcDbEntity
  8
0
100
AcDbPolyline
 90
        3
 70
     0
 43
0.0
 10
17.48870104665999
 20
-13.13474082935999
 10
17.46719429082
 20
-13.13715235191999
 10
17.36917827802
 20
-13.14205455223999
  0
LINE
  5
65
330
2
100
AcDbEntity
  8
0
100
AcDbLine
 10
17.41526914522
 20
-13.17127343095999
 30
0.0
 11
17.26393172314001
 21
-13.17746237559999
 31
0.0
  0
LWPOLYLINE
  5
66
330
2
100
AcDbEntity
  8
0
100
AcDbPolyline
 90
       28
 70
     0
 43
0.0
 10
17.33738230489999
 20
-13.08248986359998
 10
17.49085928282002
 20
-13.07649967095999
 10
17.64421250137999
 20
-13.06979816055999
 10
17.78698504154002
 20
-13.06257233527999
 10
17.91645643354002
 20
-13.05471558135999
 10
18.03323668826001
 20
-13.04593491959999
 10
18.14069234266
 20
-13.03570194167999
 10
18.24386607066
 20
-13.02310056439998
 10
18.34763873882002
 20
-13.00675338743999
 10
18.45582675674
 20
-12.98481445623999
 10
18.56979526362002
 20
-12.95532358263998
 10
18.69039706330002
 20
-12.91595274999999
 10
18.81483729498
 20
-12.86539179895999
 10
18.94379846617999
 20
-12.80086704375999
 10
19.07100334810002
 20
-12.72320961143999
 10
19.19514911321999
 20
-12.63144113399998
 10
19.31502682202
 20
-12.52428038135999
 10
19.42630154842001
 20
-12.40361249399999
 10
19.52310933466
 20
-12.27580759031998
 10
19.60361246682001
 20
-12.14589310967999
 10
19.66717142746
 20
-12.01978311031999
 10
19.71546747354
 20
-11.90104718071999
 10
19.75077747162001
 20
-11.79229089143998
 10
19.77536177114001
 20
-11.69617015799998
 10
19.79150436954
 20
-11.61510461559998
 10
19.80147777753998
 20
-11.55046176503999
 10
19.80728469082001
 20
-11.50233186295998
 10
19.81044244698
 20
-11.46992846711999
  0
LINE
  5
67
330
2
100
AcDbEntity
  8
0
100
AcDbLine
 10
17.36917827802001
 20
-13.14205455223999
 30
0.0
 11
17.20100553434001
 21
-13.14846341879999
 31
0.0
  0
LINE
  5
68
330
2
100
AcDbEntity
  8
0
100
AcDbLine
 10
17.26393172314001
 20
-13.17746237559999
 30
0.0
 11
17.05825517274002
 21
-13.18456246775999
 31
0.0
  0
LINE
  5
69
330
2
100
AcDbEntity
  8
0
100
AcDbLine
 10
17.20100553434001
 20
-13.14846341879999
 30
0.0
 11
16.97231327194001
 21
-13.15605730167998
 31
0.0
  0
LWPOLYLINE
  5
6A
330
2
100
AcDbEntity
  8
0
100
AcDbPolyline
 90
        6
 70
     0
 43
0.0
 10
17.05825517274002
 20
-13.18456246775999
 10
16.81180021465999
 20
-13.19226136183998
 10
16.52999736794001
 20
-13.20038637687999
 10
16.21246566362001
 20
-13.20873476087999
 10
15.86689097946001
 20
-13.21667327095999
 10
15.51641030234
 20
-13.22322973687999
  0
LWPOLYLINE
  5
6B
330
2
100
AcDbEntity
  8
0
100
AcDbPolyline
 90
        6
 70
     0
 43
0.0
 10
16.97231327194001
 20
-13.15605730167998
 10
16.69549710554
 20
-13.16443096823999
 10
16.3867953225
 20
-13.17300242423999
 10
16.06275697626
 20
-13.18107803127999
 10
15.74157565530001
 20
-13.18795009271999
 10
15.44394793946
 20
-13.19311548663999
  0
LWPOLYLINE
  5
6C
330
2
100
AcDbEntity
  8
0
100
AcDbPolyline
 90
        4
 70
     0
 43
0.0
 10
16.99727619034001
 20
-13.09372976759998
 10
17.06461799130002
 20
-13.09173245303999
 10
17.20874443482
 20
-13.08709168759999
 10
17.33733587802001
 20
-13.08249151863999
  0
LINE
  5
6D
330
2
100
AcDbEntity
  8
0
100
AcDbLine
 10
16.97338142042001
 20
-13.09441651575999
 30
0.0
 11
16.98596610394002
 21
-13.09405492855999
 31
0.0
  0
LINE
  5
6E
330
2
100
AcDbEntity
  8
0
100
AcDbLine
 10
16.72621392218002
 20
-13.10135683191999
 30
0.0
 11
16.97338142042001
 21
-13.09441651575999
 31
0.0
  0
LINE
  5
6F
330
2
100
AcDbEntity
  8
0
100
AcDbLine
 10
16.49727725658001
 20
-13.10750204663999
 30
0.0
 11
16.72621392218002
 21
-13.10135683191999
 31
0.0
  0
LINE
  5
70
330
2
100
AcDbEntity
  8
0
100
AcDbLine
 10
16.33661103962001
 20
-13.11164615031999
 30
0.0
 11
16.49727725658001
 21
-13.10750204663999
 31
0.0
  0
LINE
  5
71
330
2
100
AcDbEntity
  8
0
100
AcDbLine
 10
16.20930496602002
 20
-13.11482894455999
 30
0.0
 11
16.33661103962001
 21
-13.11164615031999
 31
0.0
  0
LINE
  5
72
330
2
100
AcDbEntity
  8
0
100
AcDbLine
 10
16.11236860250001
 20
-13.11719214583998
 30
0.0
 11
16.20930496602002
 21
-13.11482894455999
 31
0.0
  0
LINE
  5
73
330
2
100
AcDbEntity
  8
0
100
AcDbLine
 10
16.01900329050002
 20
-13.11941900535999
 30
0.0
 11
16.11236860250001
 21
-13.11719214583998
 31
0.0
  0
LINE
  5
74
330
2
100
AcDbEntity
  8
0
100
AcDbLine
 10
15.92757448794002
 20
-13.12155329783998
 30
0.0
 11
16.01900329050002
 21
-13.11941900535999
 31
0.0
  0
LINE
  5
75
330
2
100
AcDbEntity
  8
0
100
AcDbLine
 10
15.86040728026
 20
-13.12309255159999
 30
0.0
 11
15.92757448794002
 21
-13.12155329783998
 31
0.0
  0
LINE
  5
76
330
2
100
AcDbEntity
  8
0
100
AcDbLine
 10
15.79533219034001
 20
-13.12456083191999
 30
0.0
 11
15.86040728026
 21
-13.12309255159999
 31
0.0
  0
LINE
  5
77
330
2
100
AcDbEntity
  8
0
100
AcDbLine
 10
15.73138790234002
 20
-13.12598150007999
 30
0.0
 11
15.79533219034001
 21
-13.12456083191999
 31
0.0
  0
LINE
  5
78
330
2
100
AcDbEntity
  8
0
100
AcDbLine
 10
15.66819477722001
 20
-13.12736393335999
 30
0.0
 11
15.73138790234002
 21
-13.12598150007999
 31
0.0
  0
LINE
  5
79
330
2
100
AcDbEntity
  8
0
100
AcDbLine
 10
15.62659735898001
 20
-13.12826221943999
 30
0.0
 11
15.66819477722001
 21
-13.12736393335999
 31
0.0
  0
LINE
  5
7A
330
2
100
AcDbEntity
  8
0
100
AcDbLine
 10
15.56535323994001
 20
-13.12956770295999
 30
0.0
 11
15.62659735898001
 21
-13.12826221943999
 31
0.0
  0
LINE
  5
7B
330
2
100
AcDbEntity
  8
0
100
AcDbLine
 10
15.50546723034001
 20
-13.13082435575999
 30
0.0
 11
15.56535323994001
 21
-13.12956770295999
 31
0.0
  0
LINE
  5
7C
330
2
100
AcDbEntity
  8
0
100
AcDbLine
 10
15.44692268378001
 20
-13.13203361271998
 30
0.0
 11
15.50546723034001
 21
-13.13082435575999
 31
0.0
  0
LINE
  5
7D
330
2
100
AcDbEntity
  8
0
100
AcDbLine
 10
15.40863857370002
 20
-13.13281397495999
 30
0.0
 11
15.44692268378001
 21
-13.13203361271998
 31
0.0
  0
LINE
  5
7E
330
2
100
AcDbEntity
  8
0
100
AcDbLine
 10
15.35234442074002
 20
-13.13394632439999
 30
0.0
 11
15.40863857370002
 21
-13.13281397495999
 31
0.0
  0
LINE
  5
7F
330
2
100
AcDbEntity
  8
0
100
AcDbLine
 10
15.31558457178
 20
-13.13467593335999
 30
0.0
 11
15.35234442074002
 21
-13.13394632439999
 31
0.0
  0
LINE
  5
80
330
2
100
AcDbEntity
  8
0
100
AcDbLine
 10
15.26166446682
 20
-13.13573195895999
 30
0.0
 11
15.31558457178
 21
-13.13467593335999
 31
0.0
  0
LINE
  5
81
330
2
100
AcDbEntity
  8
0
100
AcDbLine
 10
15.2265173513
 20
-13.13641115127999
 30
0.0
 11
15.26166446682
 21
-13.13573195895999
 31
0.0
  0
LINE
  5
82
330
2
100
AcDbEntity
  8
0
100
AcDbLine
 10
15.17474311642001
 20
-13.13739833591999
 30
0.0
 11
15.2265173513
 21
-13.13641115127999
 31
0.0
  0
LINE
  5
83
330
2
100
AcDbEntity
  8
0
100
AcDbLine
 10
15.14085013082001
 20
-13.13803590647999
 30
0.0
 11
15.17474311642001
 21
-13.13739833591999
 31
0.0
  0
LINE
  5
84
330
2
100
AcDbEntity
  8
0
100
AcDbLine
 10
15.1074536521
 20
-13.13865736823999
 30
0.0
 11
15.14085013082001
 21
-13.13803590647999
 31
0.0
  0
LINE
  5
85
330
2
100
AcDbEntity
  8
0
100
AcDbLine
 10
15.05807228122001
 20
-13.13956389239999
 30
0.0
 11
15.1074536521
 21
-13.13865736823999
 31
0.0
  0
LINE
  5
86
330
2
100
AcDbEntity
  8
0
100
AcDbLine
 10
15.02559725530002
 20
-13.14015196663999
 30
0.0
 11
15.05807228122001
 21
-13.13956389239999
 31
0.0
  0
LINE
  5
87
330
2
100
AcDbEntity
  8
0
100
AcDbLine
 10
14.99348872666
 20
-13.14072707831999
 30
0.0
 11
15.02559725530002
 21
-13.14015196663999
 31
0.0
  0
LINE
  5
88
330
2
100
AcDbEntity
  8
0
100
AcDbLine
 10
14.94601979482002
 20
-13.14156576247999
 30
0.0
 11
14.99348872666
 21
-13.14072707831999
 31
0.0
  0
LINE
  5
89
330
2
100
AcDbEntity
  8
0
100
AcDbLine
 10
14.91483830362001
 20
-13.14210915831999
 30
0.0
 11
14.94601979482002
 21
-13.14156576247999
 31
0.0
  0
LINE
  5
8A
330
2
100
AcDbEntity
  8
0
100
AcDbLine
 10
16.59742422362
 20
-13.14559892087999
 30
0.0
 11
17.09326037722
 21
-13.13713889911999
 31
0.0
  0
LINE
  5
8B
330
2
100
AcDbEntity
  8
0
100
AcDbLine
 10
14.88402805722
 20
-13.14264021367999
 30
0.0
 11
14.91483830362001
 21
-13.14210915831999
 31
0.0
  0
LINE
  5
8C
330
2
100
AcDbEntity
  8
0
100
AcDbLine
 10
14.85358736218002
 20
-13.14315915511999
 30
0.0
 11
14.88402805722
 21
-13.14264021367999
 31
0.0
  0
LINE
  5
8D
330
2
100
AcDbEntity
  8
0
100
AcDbLine
 10
14.82351025626001
 20
-13.14366627959999
 30
0.0
 11
14.85358736218002
 21
-13.14315915511999
 31
0.0
  0
LINE
  5
8E
330
2
100
AcDbEntity
  8
0
100
AcDbLine
 10
14.79374275546001
 20
-13.14416267895999
 30
0.0
 11
14.82351025626001
 21
-13.14366627959999
 31
0.0
  0
LINE
  5
8F
330
2
100
AcDbEntity
  8
0
100
AcDbLine
 10
14.74962753754
 20
-13.14488826871999
 30
0.0
 11
14.79374275546001
 21
-13.14416267895999
 31
0.0
  0
LINE
  5
90
330
2
100
AcDbEntity
  8
0
100
AcDbLine
 10
14.72056543834001
 20
-13.14535970551999
 30
0.0
 11
14.74962753754
 21
-13.14488826871999
 31
0.0
  0
LINE
  5
91
330
2
100
AcDbEntity
  8
0
100
AcDbLine
 10
14.69177344730001
 20
-13.14582162295999
 30
0.0
 11
14.72056543834001
 21
-13.14535970551999
 31
0.0
  0
LINE
  5
92
330
2
100
AcDbEntity
  8
0
100
AcDbLine
 10
14.66324376794
 20
-13.14627429111999
 30
0.0
 11
14.69177344730001
 21
-13.14582162295999
 31
0.0
  0
LINE
  5
93
330
2
100
AcDbEntity
  8
0
100
AcDbLine
 10
14.63496808154002
 20
-13.14671798391999
 30
0.0
 11
14.66324376794
 21
-13.14627429111999
 31
0.0
  0
LINE
  5
94
330
2
100
AcDbEntity
  8
0
100
AcDbLine
 10
17.09326037722
 20
-13.13713889911999
 30
0.0
 11
17.28979886938
 21
-13.13411786359999
 31
0.0
  0
LINE
  5
95
330
2
100
AcDbEntity
  8
0
100
AcDbLine
 10
14.60693761498
 20
-13.14715297527998
 30
0.0
 11
14.63496808154002
 21
-13.14671798391999
 31
0.0
  0
LINE
  5
96
330
2
100
AcDbEntity
  8
0
100
AcDbLine
 10
14.57913717338001
 20
-13.14757963127999
 30
0.0
 11
14.60693761498
 21
-13.14715297527998
 31
0.0
  0
LWPOLYLINE
  5
97
330
2
100
AcDbEntity
  8
0
100
AcDbPolyline
 90
        3
 70
     0
 43
0.0
 10
14.53790637657999
 20
-13.14820367863999
 10
14.55158160346002
 20
-13.14799785207999
 10
14.57913717338001
 20
-13.14757963127998
  0
LINE
  5
98
330
2
100
AcDbEntity
  8
0
100
AcDbLine
 10
14.51078243674001
 20
-13.14860853879999
 30
0.0
 11
14.53790637658
 21
-13.14820367863999
 31
0.0
  0
LINE
  5
99
330
2
100
AcDbEntity
  8
0
100
AcDbLine
 10
14.48398894682002
 20
-13.14900405623999
 30
0.0
 11
14.51078243674001
 21
-13.14860853879999
 31
0.0
  0
LINE
  5
9A
330
2
100
AcDbEntity
  8
0
100
AcDbLine
 10
14.45755991130002
 20
-13.14938990711999
 30
0.0
 11
14.48398894682002
 21
-13.14900405623999
 31
0.0
  0
LINE
  5
9B
330
2
100
AcDbEntity
  8
0
100
AcDbLine
 10
14.43152920538
 20
-13.14976578935999
 30
0.0
 11
14.45755991130002
 21
-13.14938990711999
 31
0.0
  0
LWPOLYLINE
  5
9C
330
2
100
AcDbEntity
  8
0
100
AcDbPolyline
 90
        3
 70
     0
 43
0.0
 10
14.39330378202001
 20
-13.15031031159999
 10
14.40593056858
 20
-13.15013142135999
 10
14.43152920538
 20
-13.14976578935999
  0
LINE
  5
9D
330
2
100
AcDbEntity
  8
0
100
AcDbLine
 10
14.36840167898001
 20
-13.15066028791999
 30
0.0
 11
14.39330378202001
 21
-13.15031031159999
 31
0.0
  0
LWPOLYLINE
  5
9E
330
2
100
AcDbEntity
  8
0
100
AcDbPolyline
 90
        4
 70
     0
 43
0.0
 10
15.1103574025
 20
-13.16753235575998
 10
15.60597755354001
 20
-13.16071944951999
 10
16.1016654537
 20
-13.15341409527999
 10
16.59742422362
 20
-13.14559892087999
  0
LINE
  5
9F
330
2
100
AcDbEntity
  8
0
100
AcDbLine
 10
14.34394695770001
 20
-13.15100033527999
 30
0.0
 11
14.36840167898001
 21
-13.15066028791999
 31
0.0
  0
LINE
  5
A0
330
2
100
AcDbEntity
  8
0
100
AcDbLine
 10
15.51641030234002
 20
-13.22322973687999
 30
0.0
 11
15.19133979994001
 21
-13.22764089719999
 31
0.0
  0
LWPOLYLINE
  5
A1
330
2
100
AcDbEntity
  8
0
100
AcDbPolyline
 90
        3
 70
     0
 43
0.0
 10
14.30807211226002
 20
-13.15149266551999
 10
14.31992714330002
 20
-13.15133082871998
 10
14.34394695770001
 20
-13.15100033527999
  0
LINE
  5
A2
330
2
100
AcDbEntity
  8
0
100
AcDbLine
 10
14.28465419226002
 20
-13.15180986999998
 30
0.0
 11
14.30807211226001
 21
-13.15149266551999
 31
0.0
  0
LWPOLYLINE
  5
A3
330
2
100
AcDbEntity
  8
0
100
AcDbPolyline
 90
        3
 70
     0
 43
0.0
 10
14.25020553690001
 20
-13.15227051255998
 10
14.26160259162
 20
-13.15211890039999
 10
14.28465419226
 20
-13.15180986999998
  0
LINE
  5
A4
330
2
100
AcDbEntity
  8
0
100
AcDbLine
 10
14.22765183962001
 20
-13.15256824823999
 30
0.0
 11
14.25020553690001
 21
-13.15227051255998
 31
0.0
  0
LINE
  5
A5
330
2
100
AcDbEntity
  8
0
100
AcDbLine
 10
15.44394793946
 20
-13.19311548663999
 30
0.0
 11
15.1907862473
 21
-13.19639676279999
 31
0.0
  0
LWPOLYLINE
  5
A6
330
2
100
AcDbEntity
  8
0
100
AcDbPolyline
 90
        3
 70
     0
 43
0.0
 10
14.19437160793998
 20
-13.15300203511998
 10
14.20539612506002
 20
-13.15285906935998
 10
14.22765183961999
 20
-13.15256824823999
  0
LWPOLYLINE
  5
A7
330
2
100
AcDbEntity
  8
0
100
AcDbPolyline
 90
        3
 70
     0
 43
0.0
 10
14.16167142361999
 20
-13.15342182775999
 10
14.17251257306
 20
-13.15328335863999
 10
14.19437160793998
 20
-13.15300203511998
  0
LINE
  5
A8
330
2
100
AcDbEntity
  8
0
100
AcDbLine
 10
14.14014964570001
 20
-13.15369464311999
 30
0.0
 11
14.16167142362001
 21
-13.15342182775999
 31
0.0
  0
LWPOLYLINE
  5
A9
330
2
100
AcDbEntity
  8
0
100
AcDbPolyline
 90
        3
 70
     0
 43
0.0
 10
14.10824970842
 20
-13.15409395319999
 10
14.1188327177
 20
-13.15396214903999
 10
14.1401496457
 20
-13.15369464311999
  0
LWPOLYLINE
  5
AA
330
2
100
AcDbEntity
  8
0
100
AcDbPolyline
 90
        3
 70
     0
 43
0.0
 10
14.07679330778
 20
-13.15448180343999
 10
14.08723075930001
 20
-13.15435376119999
 10
14.10824970842
 20
-13.15409395319999
  0
LWPOLYLINE
  5
AB
330
2
100
AcDbEntity
  8
0
100
AcDbPolyline
 90
        3
 70
     0
 43
0.0
 10
14.04576016218001
 20
-13.15485869815999
 10
14.05605874137998
 20
-13.15473425271999
 10
14.07679330778
 20
-13.15448180343999
  0
LWPOLYLINE
  5
AC
330
2
100
AcDbEntity
  8
0
100
AcDbPolyline
 90
        3
 70
     0
 43
0.0
 10
14.01513061337999
 20
-13.15522511607999
 10
14.02529682010001
 20
-13.15510411127998
 10
14.04576016218001
 20
-13.15485869815999
  0
LWPOLYLINE
  5
AD
330
2
100
AcDbEntity
  8
0
100
AcDbPolyline
 90
        3
 70
     0
 43
0.0
 10
13.98488521306001
 20
-13.15558151415999
 10
13.99492549850001
 20
-13.15546380023999
 10
14.01513061337999
 20
-13.15522511607999
  0
LWPOLYLINE
  5
AE
330
2
100
AcDbEntity
  8
0
100
AcDbPolyline
 90
        3
 70
     0
 43
0.0
 10
13.95500514393998
 20
-13.15592832631999
 10
13.96492571353999
 20
-13.15581376119998
 10
13.98488521306001
 20
-13.15558151415999
  0
LWPOLYLINE
  5
AF
330
2
100
AcDbEntity
  8
0
100
AcDbPolyline
 90
        3
 70
     0
 43
0.0
 10
13.92547220826
 20
-13.15626595959998
 10
13.93527904858001
 20
-13.15615441015999
 10
13.95500514393998
 20
-13.15592832631999
  0
LWPOLYLINE
  5
B0
330
2
100
AcDbEntity
  8
0
100
AcDbPolyline
 90
        3
 70
     0
 43
0.0
 10
13.89626871897999
 20
-13.15659480439999
 10
13.9059676873
 20
-13.15648614263998
 10
13.92547220826
 20
-13.15626595959998
  0
LWPOLYLINE
  5
B1
330
2
100
AcDbEntity
  8
0
100
AcDbPolyline
 90
        3
 70
     0
 43
0.0
 10
13.86737731802
 20
-13.15691522679999
 10
13.87697416794
 20
-13.15680933367999
 10
13.89626871897999
 20
-13.15659480439999
  0
LWPOLYLINE
  5
B2
330
2
100
AcDbEntity
  8
0
100
AcDbPolyline
 90
        3
 70
     0
 43
0.0
 10
13.83878094426
 20
-13.15722758007999
 10
13.84828133082001
 20
-13.15712433783999
 10
13.86737731802
 20
-13.15691522679999
  0
LINE
  5
B3
330
2
100
AcDbEntity
  8
0
100
AcDbLine
 10
15.0812005385
 20
-13.16784527351999
 30
0.0
 11
15.11035740250001
 21
-13.16753235575998
 31
0.0
  0
LWPOLYLINE
  5
B4
330
2
100
AcDbEntity
  8
0
100
AcDbPolyline
 90
        3
 70
     0
 43
0.0
 10
13.81046543066
 20
-13.15753216759999
 10
13.81987248730001
 20
-13.15743149431999
 10
13.83878094426
 20
-13.15722758007999
  0
LWPOLYLINE
  5
B5
330
2
100
AcDbEntity
  8
0
100
AcDbPolyline
 90
        4
 70
     0
 43
0.0
 10
13.77314883546
 20
-13.15792644983998
 10
13.78243255513999
 20
-13.15782911735998
 10
13.79174612442003
 20
-13.15773096695999
 10
13.81046543066
 20
-13.15753216759999
  0
LWPOLYLINE
  5
B6
330
2
100
AcDbEntity
  8
0
100
AcDbPolyline
 90
        3
 70
     0
 43
0.0
 10
13.74545621082001
 20
-13.15821380343999
 10
13.75466119898001
 20
-13.15811878263999
 10
13.77314883546
 20
-13.15792644983998
  0
LWPOLYLINE
  5
B7
330
2
100
AcDbEntity
  8
0
100
AcDbPolyline
 90
        3
 70
     0
 43
0.0
 10
13.71800415578002
 20
-13.15849425271999
 10
13.72712705114
 20
-13.15840154103999
 10
13.74545621082001
 20
-13.15821380343999
  0
LWPOLYLINE
  5
B8
330
2
100
AcDbEntity
  8
0
100
AcDbPolyline
 90
        3
 70
     0
 43
0.0
 10
13.69081000666
 20
-13.15876774007999
 10
13.69984497754001
 20
-13.15867735543998
 10
13.71800415578002
 20
-13.15849425271999
  0
LWPOLYLINE
  5
B9
330
2
100
AcDbEntity
  8
0
100
AcDbPolyline
 90
        4
 70
     0
 43
0.0
 10
13.65499117786001
 20
-13.15912138871998
 10
13.66389311194001
 20
-13.15903419511998
 10
13.67283263193999
 20
-13.15894616951999
 10
13.69081000666
 20
-13.15876774007999
  0
LWPOLYLINE
  5
BA
330
2
100
AcDbEntity
  8
0
100
AcDbPolyline
 90
        3
 70
     0
 43
0.0
 10
13.62851730778001
 20
-13.15937795703999
 10
13.63730270682
 20
-13.15929326839998
 10
13.65499117786001
 20
-13.15912138871998
  0
LWPOLYLINE
  5
BB
330
2
100
AcDbEntity
  8
0
100
AcDbPolyline
 90
        4
 70
     0
 43
0.0
 10
15.19078624729999
 20
-13.19639676279999
 10
14.69035957209999
 20
-13.20115324791999
 10
14.18985142874001
 20
-13.20539904759999
 10
13.68928088281998
 20
-13.20938210039998
  0
LWPOLYLINE
  5
BC
330
2
100
AcDbEntity
  8
0
100
AcDbPolyline
 90
        4
 70
     0
 43
0.0
 10
13.59378149210002
 20
-13.15970836727998
 10
13.60240340314001
 20
-13.15962701559998
 10
13.61106707033999
 20
-13.15954483063999
 10
13.62851730778001
 20
-13.15937795703999
  0
LWPOLYLINE
  5
BD
330
2
100
AcDbEntity
  8
0
100
AcDbPolyline
 90
        3
 70
     0
 43
0.0
 10
10.74030511449999
 20
-13.15838016759999
 10
10.63103864154001
 20
-13.15944251895999
 10
10.56490721881999
 20
-13.15996750327999
  0
LWPOLYLINE
  5
BE
330
2
100
AcDbEntity
  8
0
100
AcDbPolyline
 90
        3
 70
     0
 43
0.0
 10
15.19133979994001
 20
-13.22764089719999
 10
14.56301538138001
 20
-13.23351362807999
 10
13.89544683098
 20
-13.23902860663998
  0
LWPOLYLINE
  5
BF
330
2
100
AcDbEntity
  8
0
100
AcDbPolyline
 90
        3
 70
     0
 43
0.0
 10
13.5681723337
 20
-13.15994742007999
 10
13.57666534874002
 20
-13.15986856823998
 10
13.59378149210002
 20
-13.15970836727998
  0
LWPOLYLINE
  5
C0
330
2
100
AcDbEntity
  8
0
100
AcDbPolyline
 90
        4
 70
     0
 43
0.0
 10
13.53464843994001
 20
-13.16025450231999
 10
13.54296093018001
 20
-13.16017897847999
 10
13.55131949785999
 20
-13.16010262391999
 10
13.5681723337
 20
-13.15994742007999
  0
LWPOLYLINE
  5
C1
330
2
100
AcDbEntity
  8
0
100
AcDbPolyline
 90
        3
 70
     0
 43
0.0
 10
13.50998892378001
 20
-13.16047613559999
 10
13.51816313818
 20
-13.16040306807999
 10
13.53464843994001
 20
-13.16025450231999
  0
LWPOLYLINE
  5
C2
330
2
100
AcDbEntity
  8
0
100
AcDbPolyline
 90
        4
 70
     0
 43
0.0
 10
13.47775993178001
 20
-13.16076035959999
 10
13.48574549978002
 20
-13.16069051127998
 10
13.49377935578002
 20
-13.16061985783999
 10
13.50998892378001
 20
-13.16047613559999
  0
LWPOLYLINE
  5
C3
330
2
100
AcDbEntity
  8
0
100
AcDbPolyline
 90
        4
 70
     0
 43
0.0
 10
13.44631604954
 20
-13.16103170423999
 10
13.45410060378
 20
-13.16096507511999
 10
13.46193671642001
 20
-13.16089764087998
 10
13.47775993178001
 20
-13.16076035959999
  0
LINE
  5
C4
330
2
100
AcDbEntity
  8
0
100
AcDbLine
 10
17.28979886938
 20
-13.13411786359999
 30
0.0
 11
17.42370792538001
 21
-13.13310224247999
 31
0.0
  0
LINE
  5
C5
330
2
100
AcDbEntity
  8
0
100
AcDbLine
 10
13.89544683098002
 20
-13.23902860663999
 30
0.0
 11
13.18893417690001
 21
-13.24412736759999
 31
0.0
  0
LINE
  5
C6
330
2
100
AcDbEntity
  8
0
100
AcDbLine
 10
10.56490721882
 20
-13.15996750327999
 30
0.0
 11
10.18581552602002
 21
-13.16275604855999
 31
0.0
  0
LINE
  5
C7
330
2
100
AcDbEntity
  8
0
100
AcDbLine
 10
13.68928088282
 20
-13.20938210039999
 30
0.0
 11
13.18864444762
 21
-13.21287893111999
 31
0.0
  0
LWPOLYLINE
  5
C8
330
2
100
AcDbEntity
  8
0
100
AcDbPolyline
 90
        3
 70
     0
 43
0.0
 10
10.18581552602
 20
-13.16275604855999
 10
10.07757389146002
 20
-13.16350033527999
 10
9.989145806980019
 20
-13.16405834231999
  0
LWPOLYLINE
  5
C9
330
2
100
AcDbEntity
  8
0
100
AcDbPolyline
 90
        3
 70
     0
 43
0.0
 10
13.1889341769
 20
-13.24412736759999
 10
13.00233976282001
 20
-13.24515085687999
 10
12.83661523674001
 20
-13.24580211575999
  0
LINE
  5
CA
330
2
100
AcDbEntity
  8
0
100
AcDbLine
 10
9.989145806980015
 20
-13.16405834231999
 30
0.0
 11
9.851999302020022
 21
-13.16481533687999
 31
0.0
  0
LINE
  5
CB
330
2
100
AcDbEntity
  8
0
100
AcDbLine
 10
13.18864444762
 20
-13.21287893111999
 30
0.0
 11
12.90077425498002
 21
-13.21433394167999
 31
0.0
  0
LINE
  5
CC
330
2
100
AcDbEntity
  8
0
100
AcDbLine
 10
12.81635638106002
 20
-13.16513730167998
 30
0.0
 11
13.44631604954002
 21
-13.16103170423999
 31
0.0
  0
LINE
  5
CD
330
2
100
AcDbEntity
  8
0
100
AcDbLine
 10
9.851999302020022
 20
-13.16481533687999
 30
0.0
 11
9.752040169860016
 21
-13.16526137591999
 31
0.0
  0
LINE
  5
CE
330
2
100
AcDbEntity
  8
0
100
AcDbLine
 10
12.77423446490002
 20
-13.16531445239999
 30
0.0
 11
12.81635638106002
 21
-13.16513730167998
 31
0.0
  0
LINE
  5
CF
330
2
100
AcDbEntity
  8
0
100
AcDbLine
 10
12.77559618394002
 20
-13.16530859895999
 30
0.0
 11
12.77739922522
 21
-13.16530129911999
 31
0.0
  0
LINE
  5
D0
330
2
100
AcDbEntity
  8
0
100
AcDbLine
 10
9.752040169860016
 20
-13.16526137591999
 30
0.0
 11
9.647073019780011
 21
-13.16561916151999
 31
0.0
  0
LINE
  5
D1
330
2
100
AcDbEntity
  8
0
100
AcDbLine
 10
12.62533283418001
 20
-13.16579226487999
 30
0.0
 11
12.77423446490002
 21
-13.16531445239999
 31
0.0
  0
LINE
  5
D2
330
2
100
AcDbEntity
  8
0
100
AcDbLine
 10
12.90077425498002
 20
-13.21433394167999
 30
0.0
 11
12.72353739866
 21
-13.21473513591999
 31
0.0
  0
LINE
  5
D3
330
2
100
AcDbEntity
  8
0
100
AcDbLine
 10
12.83661523674002
 20
-13.24580211575999
 30
0.0
 11
12.69339751770001
 21
-13.24609420919999
 31
0.0
  0
LINE
  5
D4
330
2
100
AcDbEntity
  8
0
100
AcDbLine
 10
9.647073019780011
 20
-13.16561916151999
 30
0.0
 11
9.558453454980009
 21
-13.16582463735999
 31
0.0
  0
LWPOLYLINE
  5
D5
330
2
100
AcDbEntity
  8
0
100
AcDbPolyline
 90
        4
 70
     0
 43
0.0
 10
10.85257116122002
 20
-13.15783269239998
 10
10.81975276762
 20
-13.15787978999999
 10
10.78346760922002
 20
-13.15804477303998
 10
10.74030511449999
 20
-13.15838016759999
  0
LINE
  5
D6
330
2
100
AcDbEntity
  8
0
100
AcDbLine
 10
12.48211100762
 20
-13.16601681271999
 30
0.0
 11
12.62533283418001
 21
-13.16579226487999
 31
0.0
  0
LINE
  5
D7
330
2
100
AcDbEntity
  8
0
100
AcDbLine
 10
5.481984877700007
 20
-14.06521563639999
 30
0.0
 11
16.22307552730001
 21
-14.06521563639999
 31
0.0
  0
LINE
  5
D8
330
2
100
AcDbEntity
  8
0
100
AcDbLine
 10
9.58222921306001
 20
-13.65896563703999
 30
0.0
 11
12.12397681242
 21
-13.65896563703999
 31
0.0
  0
LINE
  5
D9
330
2
100
AcDbEntity
  8
0
100
AcDbLine
 10
9.317438028420021
 20
-13.16604660983999
 30
0.0
 11
9.558453454980009
 21
-13.16582463735999
 31
0.0
  0
LWPOLYLINE
  5
DA
330
2
100
AcDbEntity
  8
0
100
AcDbPolyline
 90
        5
 70
     0
 43
0.0
 10
10.85257115994002
 20
-13.15783259639999
 10
10.88527581274002
 20
-13.15787969655999
 10
10.92155771738001
 20
-13.15804455799999
 10
10.96472317914001
 20
-13.15837987447998
 10
11.07398051034002
 20
-13.15944216183999
  0
LINE
  5
DB
330
2
100
AcDbEntity
  8
0
100
AcDbLine
 10
12.12841481946002
 20
-13.16578996471998
 30
0.0
 11
12.48211100762
 21
-13.16601681271999
 31
0.0
  0
LINE
  5
DC
330
2
100
AcDbEntity
  8
0
100
AcDbLine
 10
8.86844516698002
 20
-13.24580211575999
 30
0.0
 11
9.011662884740008
 21
-13.24609420919999
 31
0.0
  0
LINE
  5
DD
330
2
100
AcDbEntity
  8
0
100
AcDbLine
 10
8.804286150020017
 20
-13.21433394167999
 30
0.0
 11
8.981523006340013
 21
-13.21473513591999
 31
0.0
  0
LINE
  5
DE
330
2
100
AcDbEntity
  8
0
100
AcDbLine
 10
9.047000368260025
 20
-13.16570926455999
 30
0.0
 11
9.232678429060003
 21
-13.16602413303999
 31
0.0
  0
LINE
  5
DF
330
2
100
AcDbEntity
  8
0
100
AcDbLine
 10
12.02767147098002
 20
-13.16552813431999
 30
0.0
 11
12.12841481946002
 21
-13.16578996471998
 31
0.0
  0
LINE
  5
E0
330
2
100
AcDbEntity
  8
0
100
AcDbLine
 10
11.95298657754001
 20
-13.16526124279999
 30
0.0
 11
12.02767147098002
 21
-13.16552813431999
 31
0.0
  0
LINE
  5
E1
330
2
100
AcDbEntity
  8
0
100
AcDbLine
 10
8.923682998660025
 20
-13.16528511351999
 30
0.0
 11
9.047000368260025
 21
-13.16570926455999
 31
0.0
  0
LINE
  5
E2
330
2
100
AcDbEntity
  8
0
100
AcDbLine
 10
11.85302019290002
 20
-13.16481513463999
 30
0.0
 11
11.95298657754001
 21
-13.16526124279999
 31
0.0
  0
LINE
  5
E3
330
2
100
AcDbEntity
  8
0
100
AcDbLine
 10
8.516415957380015
 20
-13.21287893111999
 30
0.0
 11
8.804286150020017
 21
-13.21433394167999
 31
0.0
  0
LWPOLYLINE
  5
E4
330
2
100
AcDbEntity
  8
0
100
AcDbPolyline
 90
        3
 70
     0
 43
0.0
 10
8.516126228100006
 20
-13.24412736759999
 10
8.702720640900025
 20
-13.24515085687999
 10
8.868445166980023
 20
-13.24580211575999
  0
LINE
  5
E5
330
2
100
AcDbEntity
  8
0
100
AcDbLine
 10
8.724412776580017
 20
-13.16432967287999
 30
0.0
 11
8.923682998660025
 21
-13.16528511351999
 31
0.0
  0
LINE
  5
E6
330
2
100
AcDbEntity
  8
0
100
AcDbLine
 10
8.015779522180014
 20
-13.20938210039999
 30
0.0
 11
8.516415957380015
 21
-13.21287893111999
 31
0.0
  0
LINE
  5
E7
330
2
100
AcDbEntity
  8
0
100
AcDbLine
 10
8.519819421060017
 20
-13.16305395831999
 30
0.0
 11
8.724412776580017
 21
-13.16432967287999
 31
0.0
  0
LWPOLYLINE
  5
E8
330
2
100
AcDbEntity
  8
0
100
AcDbPolyline
 90
        4
 70
     0
 43
0.0
 10
11.51959595482
 20
-13.16275856631999
 10
11.62734672345999
 20
-13.16349941751999
 10
11.71587988186001
 20
-13.16405813239999
 10
11.8530201929
 20
-13.16481513463999
  0
LINE
  5
E9
330
2
100
AcDbEntity
  8
0
100
AcDbLine
 10
7.809616451460011
 20
-13.23902862967999
 30
0.0
 11
8.516126228100008
 21
-13.24412736759999
 31
0.0
  0
LWPOLYLINE
  5
EA
330
2
100
AcDbEntity
  8
0
100
AcDbPolyline
 90
        3
 70
     0
 43
0.0
 10
11.14011168217999
 20
-13.15996719607999
 10
11.30176088921999
 20
-13.16113136631998
 10
11.51959595482
 20
-13.16275856631999
  0
LINE
  5
EB
330
2
100
AcDbEntity
  8
0
100
AcDbLine
 10
4.415261535620016
 20
-13.13411786359999
 30
0.0
 11
4.281352479620023
 21
-13.13310224247999
 31
0.0
  0
LINE
  5
EC
330
2
100
AcDbEntity
  8
0
100
AcDbLine
 10
8.348914297220018
 20
-13.16177709943999
 30
0.0
 11
8.519819421060017
 21
-13.16305395831999
 31
0.0
  0
LINE
  5
ED
330
2
100
AcDbEntity
  8
0
100
AcDbLine
 10
11.07398051034001
 20
-13.15944216183999
 30
0.0
 11
11.14011168218
 21
-13.15996719607999
 31
0.0
  0
LINE
  5
EE
330
2
100
AcDbEntity
  8
0
100
AcDbLine
 10
8.133687382660015
 20
-13.15991775351998
 30
0.0
 11
8.348914297220018
 21
-13.16177709943999
 31
0.0
  0
LWPOLYLINE
  5
EF
330
2
100
AcDbEntity
  8
0
100
AcDbPolyline
 90
        3
 70
     0
 43
0.0
 10
6.513720605060001
 20
-13.22764089719999
 10
7.142047846020005
 20
-13.23351365239998
 10
7.809616451460016
 20
-13.23902862967998
  0
LWPOLYLINE
  5
F0
330
2
100
AcDbEntity
  8
0
100
AcDbPolyline
 90
        4
 70
     0
 43
0.0
 10
6.514274157700015
 20
-13.19639676279999
 10
7.01470083289999
 20
-13.20115324791999
 10
7.515208976259998
 20
-13.20539904759999
 10
8.015779522179997
 20
-13.20938210039998
  0
LINE
  5
F1
330
2
100
AcDbEntity
  8
0
100
AcDbLine
 10
7.915731972740014
 20
-13.15775649399999
 30
0.0
 11
8.133687382660015
 21
-13.15991775351998
 31
0.0
  0
LINE
  5
F2
330
2
100
AcDbEntity
  8
0
100
AcDbLine
 10
6.623859866500017
 20
-13.16784527351999
 30
0.0
 11
6.594703002500024
 21
-13.16753235575998
 31
0.0
  0
LINE
  5
F3
330
2
100
AcDbEntity
  8
0
100
AcDbLine
 10
7.714080443780018
 20
-13.15551012855999
 30
0.0
 11
7.915731972740014
 21
-13.15775649399999
 31
0.0
  0
LINE
  5
F4
330
2
100
AcDbEntity
  8
0
100
AcDbLine
 10
7.532641540740019
 20
-13.15328455927999
 30
0.0
 11
7.714080443780018
 21
-13.15551012855999
 31
0.0
  0
LINE
  5
F5
330
2
100
AcDbEntity
  8
0
100
AcDbLine
 10
6.261112465540009
 20
-13.19311548663999
 30
0.0
 11
6.514274157700016
 21
-13.19639676279999
 31
0.0
  0
LINE
  5
F6
330
2
100
AcDbEntity
  8
0
100
AcDbLine
 10
6.188650102660018
 20
-13.22322973687999
 30
0.0
 11
6.513720605060008
 21
-13.22764089719999
 31
0.0
  0
LINE
  5
F7
330
2
100
AcDbEntity
  8
0
100
AcDbLine
 10
7.374360886660021
 20
-13.15118303863999
 30
0.0
 11
7.532641540740019
 21
-13.15328455927999
 31
0.0
  0
LWPOLYLINE
  5
F8
330
2
100
AcDbEntity
  8
0
100
AcDbPolyline
 90
        4
 70
     0
 43
0.0
 10
6.594703002500011
 20
-13.16753235575998
 10
6.099082851459996
 20
-13.16071944951999
 10
5.603394951300003
 20
-13.15341409527999
 10
5.107636181380001
 20
-13.14559892087999
  0
LINE
  5
F9
330
2
100
AcDbEntity
  8
0
100
AcDbLine
 10
7.196819180420017
 20
-13.14864623991999
 30
0.0
 11
7.374360886660021
 21
-13.15118303863999
 31
0.0
  0
LINE
  5
FA
330
2
100
AcDbEntity
  8
0
100
AcDbLine
 10
4.611800027780009
 20
-13.13713889911999
 30
0.0
 11
4.415261535620016
 21
-13.13411786359999
 31
0.0
  0
LINE
  5
FB
330
2
100
AcDbEntity
  8
0
100
AcDbLine
 10
7.052538408580018
 20
-13.14644311287999
 30
0.0
 11
7.196819180420017
 21
-13.14864623991999
 31
0.0
  0
LINE
  5
FC
330
2
100
AcDbEntity
  8
0
100
AcDbLine
 10
6.901287606660003
 20
-13.14399603063999
 30
0.0
 11
7.052538408580018
 21
-13.14644311287999
 31
0.0
  0
LINE
  5
FD
330
2
100
AcDbEntity
  8
0
100
AcDbLine
 10
5.107636181380009
 20
-13.14559892087999
 30
0.0
 11
4.611800027780009
 21
-13.13713889911999
 31
0.0
  0
LINE
  5
FE
330
2
100
AcDbEntity
  8
0
100
AcDbLine
 10
6.741598546820024
 20
-13.14125919991999
 30
0.0
 11
6.901287606660003
 21
-13.14399603063999
 31
0.0
  0
LINE
  5
FF
330
2
100
AcDbEntity
  8
0
100
AcDbLine
 10
6.629574005380005
 20
-13.13924590199999
 30
0.0
 11
6.741598546820024
 21
-13.14125919991999
 31
0.0
  0
LINE
  5
100
330
2
100
AcDbEntity
  8
0
100
AcDbLine
 10
6.512867417220014
 20
-13.13706739831999
 30
0.0
 11
6.629574005380005
 21
-13.13924590199999
 31
0.0
  0
LINE
  5
101
330
2
100
AcDbEntity
  8
0
100
AcDbLine
 10
6.389962667140004
 20
-13.13468554359999
 30
0.0
 11
6.512867417220014
 21
-13.13706739831999
 31
0.0
  0
LINE
  5
102
330
2
100
AcDbEntity
  8
0
100
AcDbLine
 10
6.259522343300024
 20
-13.13206198007999
 30
0.0
 11
6.389962667140004
 21
-13.13468554359999
 31
0.0
  0
LINE
  5
103
330
2
100
AcDbEntity
  8
0
100
AcDbLine
 10
6.121820541060015
 20
-13.12918854391999
 30
0.0
 11
6.259522343300024
 21
-13.13206198007999
 31
0.0
  0
LINE
  5
104
330
2
100
AcDbEntity
  8
0
100
AcDbLine
 10
5.977102978180006
 20
-13.12605709559999
 30
0.0
 11
6.121820541060015
 21
-13.12918854391999
 31
0.0
  0
LINE
  5
105
330
2
100
AcDbEntity
  8
0
100
AcDbLine
 10
5.827113269380016
 20
-13.12269292407999
 30
0.0
 11
5.977102978180006
 21
-13.12605709559999
 31
0.0
  0
LINE
  5
106
330
2
100
AcDbEntity
  8
0
100
AcDbLine
 10
5.66880077786002
 20
-13.11901105143999
 30
0.0
 11
5.827113269380016
 21
-13.12269292407999
 31
0.0
  0
LWPOLYLINE
  5
107
330
2
100
AcDbEntity
  8
0
100
AcDbPolyline
 90
       10
 70
     0
 43
0.0
 10
4.7190952009
 20
-13.09405495415999
 10
4.825258431620028
 20
-13.09708058103999
 10
4.931929198980014
 20
-13.10006340343999
 10
5.035077874820018
 20
-13.10289192823999
 10
5.134915607940001
 20
-13.10557637879999
 10
5.231504183940018
 20
-13.10812274167998
 10
5.324954820740003
 20
-13.11053822455999
 10
5.415448053380004
 20
-13.11283161719999
 10
5.503111340420019
 20
-13.11501010423999
 10
5.668800777860013
 20
-13.11901105143999
  0
LWPOLYLINE
  5
108
330
2
100
AcDbEntity
  8
0
100
AcDbPolyline
 90
        6
 70
     0
 43
0.0
 10
4.732747133060001
 20
-13.15605730167998
 10
5.009563299460012
 20
-13.16443096823999
 10
5.318265082500005
 20
-13.17300242423999
 10
5.642303428740007
 20
-13.18107803127999
 10
5.963484749700029
 20
-13.18795009271999
 10
6.261112465540008
 20
-13.19311548663999
  0
LWPOLYLINE
  5
109
330
2
100
AcDbEntity
  8
0
100
AcDbPolyline
 90
        6
 70
     0
 43
0.0
 10
4.646805232260021
 20
-13.18456246775999
 10
4.893260190340015
 20
-13.19226136183998
 10
5.175063037060027
 20
-13.20038637687999
 10
5.492594741380003
 20
-13.20873476087999
 10
5.838169426820002
 20
-13.21667327095999
 10
6.188650102660005
 20
-13.22322973687999
  0
LINE
  5
10A
330
2
100
AcDbEntity
  8
0
100
AcDbLine
 10
4.504054870660002
 20
-13.14846341879999
 30
0.0
 11
4.732747133060002
 21
-13.15605730167998
 31
0.0
  0
LINE
  5
10B
330
2
100
AcDbEntity
  8
0
100
AcDbLine
 10
4.441128681860005
 20
-13.17746237559999
 30
0.0
 11
4.646805232260022
 21
-13.18456246775999
 31
0.0
  0
LWPOLYLINE
  5
10C
330
2
100
AcDbEntity
  8
0
100
AcDbPolyline
 90
        4
 70
     0
 43
0.0
 10
4.367721385860022
 20
-13.08249140087999
 10
4.490860980100023
 20
-13.08690510839999
 10
4.628711844740024
 20
-13.09137423607999
 10
4.707842786180009
 20
-13.09373146359998
  0
LINE
  5
10D
330
2
100
AcDbEntity
  8
0
100
AcDbLine
 10
4.335882126980005
 20
-13.14205455223999
 30
0.0
 11
4.504054870660002
 21
-13.14846341879999
 31
0.0
  0
LINE
  5
10E
330
2
100
AcDbEntity
  8
0
100
AcDbLine
 10
4.28979125978001
 20
-13.17127343095999
 30
0.0
 11
4.441128681860005
 21
-13.17746237559999
 31
0.0
  0
LWPOLYLINE
  5
10F
330
2
100
AcDbEntity
  8
0
100
AcDbPolyline
 90
        3
 70
     0
 43
0.0
 10
4.216359358340014
 20
-13.13474082935999
 10
4.237866114180008
 20
-13.13715235191999
 10
4.33588212698001
 20
-13.14205455223999
  0
LWPOLYLINE
  5
110
330
2
100
AcDbEntity
  8
0
100
AcDbPolyline
 90
        4
 70
     0
 43
0.0
 10
4.339491413379988
 20
-13.17330591991999
 10
4.354486862979996
 20
-13.17586127095999
 10
4.396385195139998
 20
-13.18759013239999
 10
4.444147592580009
 20
-13.20854918903999
  0
LINE
  5
111
330
2
100
AcDbEntity
  8
0
100
AcDbLine
 10
6.872486206340023
 20
-13.19919039863999
 30
0.0
 11
6.744595383940009
 21
-13.16941709047999
 31
0.0
  0
LWPOLYLINE
  5
112
330
2
100
AcDbEntity
  8
0
100
AcDbPolyline
 90
        8
 70
     0
 43
0.0
 10
8.913546696579999
 20
-13.16524320759999
 10
8.913969222020028
 20
-13.16537315447998
 10
8.92163830746
 20
-13.16825592951999
 10
8.930456213380011
 20
-13.17231869943999
 10
8.940058450820004
 20
-13.17775476599999
 10
8.949940364420001
 20
-13.18462804343998
 10
8.959665595779995
 20
-13.19294131191999
 10
8.962066630020018
 20
-13.19527874679998
  0
LWPOLYLINE
  5
113
330
2
100
AcDbEntity
  8
0
100
AcDbPolyline
 90
        5
 70
     0
 43
0.0
 10
4.492586508420004
 20
-13.23986531447999
 10
4.537544665219996
 20
-13.28153079927998
 10
4.575595184260009
 20
-13.33249297399999
 10
4.604204541059999
 20
-13.39119419383999
 10
4.612061645700009
 20
-13.41472843895999
  0
LWPOLYLINE
  5
114
330
2
100
AcDbEntity
  8
0
100
AcDbPolyline
 90
       12
 70
     0
 43
0.0
 10
1.056325771140024
 20
-9.328854182319993
 10
1.071736237700008
 20
-9.480151120559991
 10
1.100776926340017
 20
-9.646934434479987
 10
1.142128323460013
 20
-9.810922186159992
 10
1.195171988100014
 20
-9.97029587319999
 10
1.258926923139995
 20
-10.12331402999999
 10
1.33204093786
 20
-10.26834000631998
 10
1.412862846340004
 20
-10.40399771639998
 10
1.499411017860012
 20
-10.52908455031999
 10
1.589140322180014
 20
-10.64231168247999
 10
1.67931517401999
 20
-10.74285635575999
 10
1.742868859780003
 20
-10.80615130231999
  0
LWPOLYLINE
  5
115
330
2
100
AcDbEntity
  8
0
100
AcDbPolyline
 90
        3
 70
     0
 43
0.0
 10
-1.119919775100001
 20
5.455139895120012
 10
-0.946291609979994
 20
3.717993501520012
 10
-0.691290598779986
 20
1.164961305680009
  0
LINE
  5
116
330
2
100
AcDbEntity
  8
0
100
AcDbLine
 10
-0.6912905987799825
 20
1.164961305680007
 30
0.0
 11
-0.3922123242199849
 21
-1.83216113271999
 31
0.0
  0
LINE
  5
117
330
2
100
AcDbEntity
  8
0
100
AcDbLine
 10
-0.3922123242199849
 20
-1.83216113271999
 30
0.0
 11
-0.3834242909399776
 21
-1.920274181039992
 31
0.0
  0
LINE
  5
11A
330
2
100
AcDbEntity
  8
0
100
AcDbLine
 10
0.3369663906600184
 20
-2.768571033519994
 30
0.0
 11
0.3258290249000098
 21
-2.643990010799991
 31
0.0
  0
LWPOLYLINE
  5
11D
330
2
100
AcDbEntity
  8
0
100
AcDbPolyline
 90
       12
 70
     0
 43
0.0
 10
-0.3881700522200049
 20
-1.831757972399991
 10
-0.3730970371800026
 20
-1.450913031599988
 10
-0.3537397456599933
 20
-1.085063312559988
 10
-0.329512219259982
 20
-0.7357412133599866
 10
-0.2998510890199952
 20
-0.4039595045599924
 10
-0.2643002461399959
 20
-0.090064208559987
 10
-0.2227341571799855
 20
0.20684536328001
 10
-0.1752928682199837
 20
0.4885771392800109
 10
-0.1214099318999899
 20
0.7547767181600094
 10
-0.0597487978199922
 20
1.003547257680011
 10
0.0117637602600098
 20
1.232373021520011
 10
0.0968114965800169
 20
1.437479975760012
  0
LINE
  5
120
330
2
100
AcDbEntity
  8
0
100
AcDbLine
 10
18.40184502106001
 20
-11.48212583671999
 30
0.0
 11
18.41110836058001
 21
-11.47976942583999
 31
0.0
  0
LINE
  5
121
330
2
100
AcDbEntity
  8
0
100
AcDbLine
 10
18.34020735066001
 20
-11.49123886711999
 30
0.0
 11
18.33012940378
 21
-11.49380328823999
 31
0.0
  0
LINE
  5
122
330
2
100
AcDbEntity
  8
0
100
AcDbLine
 10
18.39270376154002
 20
-11.48440786295999
 30
0.0
 11
18.40184502106001
 21
-11.48212583671999
 31
0.0
  0
LINE
  5
123
330
2
100
AcDbEntity
  8
0
100
AcDbLine
 10
18.33012940378
 20
-11.49380328823999
 30
0.0
 11
18.32041962074002
 21
-11.49621279223999
 31
0.0
  0
LINE
  5
124
330
2
100
AcDbEntity
  8
0
100
AcDbLine
 10
18.37922319066001
 20
-11.48769494391999
 30
0.0
 11
18.39270376154002
 21
-11.48440786295999
 31
0.0
  0
LINE
  5
125
330
2
100
AcDbEntity
  8
0
100
AcDbLine
 10
18.32041962074002
 20
-11.49621279223999
 30
0.0
 11
18.31107823322001
 21
-11.49847344631999
 31
0.0
  0
LINE
  5
126
330
2
100
AcDbEntity
  8
0
100
AcDbLine
 10
18.3660473225
 20
-11.49081806711998
 30
0.0
 11
18.37922319066001
 21
-11.48769494391999
 31
0.0
  0
LINE
  5
127
330
2
100
AcDbEntity
  8
0
100
AcDbLine
 10
18.31107823322001
 20
-11.49847344631999
 30
0.0
 11
18.30210305882001
 21
-11.50059175543999
 31
0.0
  0
LINE
  5
128
330
2
100
AcDbEntity
  8
0
100
AcDbLine
 10
18.30210305882001
 20
-11.50059175543999
 30
0.0
 11
18.29348945498002
 21
-11.50257461239999
 31
0.0
  0
LINE
  5
129
330
2
100
AcDbEntity
  8
0
100
AcDbLine
 10
18.35320736474002
 20
-11.49377671415999
 30
0.0
 11
18.3660473225
 21
-11.49081806711998
 31
0.0
  0
LINE
  5
12A
330
2
100
AcDbEntity
  8
0
100
AcDbLine
 10
18.29348945498002
 20
-11.50257461239999
 30
0.0
 11
18.28523038810001
 21
-11.50442921079999
 31
0.0
  0
LINE
  5
12B
330
2
100
AcDbEntity
  8
0
100
AcDbLine
 10
18.34073454554002
 20
-11.49657093879999
 30
0.0
 11
18.35320736474002
 21
-11.49377671415999
 31
0.0
  0
LINE
  5
12C
330
2
100
AcDbEntity
  8
0
100
AcDbLine
 10
18.28523038810001
 20
-11.50442921079999
 30
0.0
 11
18.27731468122001
 21
-11.50616337655999
 31
0.0
  0
LINE
  5
12D
330
2
100
AcDbEntity
  8
0
100
AcDbLine
 10
18.32866009818001
 20
-11.49920130551999
 30
0.0
 11
18.34073454554002
 21
-11.49657093879999
 31
0.0
  0
LINE
  5
12E
330
2
100
AcDbEntity
  8
0
100
AcDbLine
 10
18.27731468122001
 20
-11.50616337655999
 30
0.0
 11
18.26972453210001
 21
-11.50778598647999
 31
0.0
  0
LINE
  5
12F
330
2
100
AcDbEntity
  8
0
100
AcDbLine
 10
18.31700628570001
 20
-11.50167071607999
 30
0.0
 11
18.32866009818001
 21
-11.49920130551999
 31
0.0
  0
LINE
  5
130
330
2
100
AcDbEntity
  8
0
100
AcDbLine
 10
18.26972453210001
 20
-11.50778598647999
 30
0.0
 11
18.26243976282
 21
-11.50930594039999
 31
0.0
  0
LINE
  5
131
330
2
100
AcDbEntity
  8
0
100
AcDbLine
 10
18.30572062810001
 20
-11.50399746423999
 30
0.0
 11
18.31700628570001
 21
-11.50167071607999
 31
0.0
  0
LINE
  5
132
330
2
100
AcDbEntity
  8
0
100
AcDbLine
 10
18.26243976282
 20
-11.50930594039999
 30
0.0
 11
18.25543999962001
 21
-11.51073169143999
 31
0.0
  0
LINE
  5
133
330
2
100
AcDbEntity
  8
0
100
AcDbLine
 10
18.29471318618
 20
-11.50620579447999
 30
0.0
 11
18.30572062810001
 21
-11.50399746423999
 31
0.0
  0
LINE
  5
134
330
2
100
AcDbEntity
  8
0
100
AcDbLine
 10
18.25543999962001
 20
-11.51073169143999
 30
0.0
 11
18.24880008922
 21
-11.51205250935999
 31
0.0
  0
LINE
  5
135
330
2
100
AcDbEntity
  8
0
100
AcDbLine
 10
18.28389529818
 20
-11.50831754743999
 30
0.0
 11
18.29471318618
 21
-11.50620579447999
 31
0.0
  0
LINE
  5
136
330
2
100
AcDbEntity
  8
0
100
AcDbLine
 10
18.24880008922
 20
-11.51205250935999
 30
0.0
 11
18.24177298650002
 21
-11.51341722359999
 31
0.0
  0
LINE
  5
137
330
2
100
AcDbEntity
  8
0
100
AcDbLine
 10
18.24177298650002
 20
-11.51341722359999
 30
0.0
 11
18.23381096794
 21
-11.51492642295999
 31
0.0
  0
LINE
  5
138
330
2
100
AcDbEntity
  8
0
100
AcDbLine
 10
18.27322128090002
 20
-11.51034451703998
 30
0.0
 11
18.28389529818
 21
-11.50831754743999
 31
0.0
  0
LINE
  5
139
330
2
100
AcDbEntity
  8
0
100
AcDbLine
 10
18.23381096794
 20
-11.51492642295999
 30
0.0
 11
18.22574272858
 21
-11.51641807095999
 31
0.0
  0
LINE
  5
13A
330
2
100
AcDbEntity
  8
0
100
AcDbLine
 10
18.26268632794001
 20
-11.51229002871999
 30
0.0
 11
18.27322128090002
 21
-11.51034451703998
 31
0.0
  0
LINE
  5
13B
330
2
100
AcDbEntity
  8
0
100
AcDbLine
 10
18.2522871113
 20
-11.51415699575999
 30
0.0
 11
18.26268632794001
 21
-11.51229002871999
 31
0.0
  0
LINE
  5
13C
330
2
100
AcDbEntity
  8
0
100
AcDbLine
 10
18.22574272858
 20
-11.51641807095999
 30
0.0
 11
18.21371314394
 21
-11.51857370743999
 31
0.0
  0
LINE
  5
13D
330
2
100
AcDbEntity
  8
0
100
AcDbLine
 10
18.24202019290001
 20
-11.51594823927999
 30
0.0
 11
18.2522871113
 21
-11.51415699575999
 31
0.0
  0
LINE
  5
13E
330
2
100
AcDbEntity
  8
0
100
AcDbLine
 10
18.21371314394
 20
-11.51857370743999
 30
0.0
 11
18.20189426010001
 21
-11.52061323639999
 31
0.0
  0
LINE
  5
13F
330
2
100
AcDbEntity
  8
0
100
AcDbLine
 10
18.23188200538002
 20
-11.51766648951999
 30
0.0
 11
18.24202019290001
 21
-11.51594823927999
 31
0.0
  0
LINE
  5
140
330
2
100
AcDbEntity
  8
0
100
AcDbLine
 10
18.20189426010001
 20
-11.52061323639999
 30
0.0
 11
18.19034079322
 21
-11.52253273847999
 31
0.0
  0
LINE
  5
141
330
2
100
AcDbEntity
  8
0
100
AcDbLine
 10
18.22186885210001
 20
-11.51931438839999
 30
0.0
 11
18.23188200538002
 21
-11.51766648951999
 31
0.0
  0
LINE
  5
142
330
2
100
AcDbEntity
  8
0
100
AcDbLine
 10
18.21197690330002
 20
-11.52089448951999
 30
0.0
 11
18.22186885210001
 21
-11.51931438839999
 31
0.0
  0
LINE
  5
143
330
2
100
AcDbEntity
  8
0
100
AcDbLine
 10
18.19034079322
 20
-11.52253273847999
 30
0.0
 11
18.17899102810001
 21
-11.52434742903998
 31
0.0
  0
LINE
  5
144
330
2
100
AcDbEntity
  8
0
100
AcDbLine
 10
18.2022022025
 20
-11.52240925943999
 30
0.0
 11
18.21197690330002
 21
-11.52089448951999
 31
0.0
  0
LINE
  5
145
330
2
100
AcDbEntity
  8
0
100
AcDbLine
 10
18.17899102810001
 20
-11.52434742903998
 30
0.0
 11
18.16784838874
 21
-11.52606086903999
 31
0.0
  0
LINE
  5
146
330
2
100
AcDbEntity
  8
0
100
AcDbLine
 10
18.19254065626
 20
-11.52386108151999
 30
0.0
 11
18.2022022025
 21
-11.52240925943999
 31
0.0
  0
LINE
  5
147
330
2
100
AcDbEntity
  8
0
100
AcDbLine
 10
18.16784838874
 20
-11.52606086903999
 30
0.0
 11
18.15692201690001
 21
-11.52767567735999
 31
0.0
  0
LINE
  5
148
330
2
100
AcDbEntity
  8
0
100
AcDbLine
 10
18.18298803290001
 20
-11.52525225079999
 30
0.0
 11
18.19254065626
 21
-11.52386108151999
 31
0.0
  0
LINE
  5
149
330
2
100
AcDbEntity
  8
0
100
AcDbLine
 10
18.15692201690001
 20
-11.52767567735999
 30
0.0
 11
18.14621669466
 21
-11.52919513207999
 31
0.0
  0
LINE
  5
14A
330
2
100
AcDbEntity
  8
0
100
AcDbLine
 10
18.17353995354001
 20
-11.52658498167999
 30
0.0
 11
18.18298803290001
 21
-11.52525225079999
 31
0.0
  0
LINE
  5
14B
330
2
100
AcDbEntity
  8
0
100
AcDbLine
 10
18.1641918793
 20
-11.52786140791999
 30
0.0
 11
18.17353995354001
 21
-11.52658498167999
 31
0.0
  0
LINE
  5
14C
330
2
100
AcDbEntity
  8
0
100
AcDbLine
 10
18.14621669466
 20
-11.52919513207999
 30
0.0
 11
18.13573470682001
 21
-11.53062282103999
 31
0.0
  0
LINE
  5
14D
330
2
100
AcDbEntity
  8
0
100
AcDbLine
 10
18.1518751753
 20
-11.52947926391999
 30
0.0
 11
18.1641918793
 21
-11.52786140791999
 31
0.0
  0
LINE
  5
14E
330
2
100
AcDbEntity
  8
0
100
AcDbLine
 10
18.13573470682001
 20
-11.53062282103999
 30
0.0
 11
18.12547762394001
 21
-11.53196234871999
 31
0.0
  0
LINE
  5
14F
330
2
100
AcDbEntity
  8
0
100
AcDbLine
 10
18.13971616218
 20
-11.53100532343999
 30
0.0
 11
18.1518751753
 21
-11.52947926391999
 31
0.0
  0
LINE
  5
150
330
2
100
AcDbEntity
  8
0
100
AcDbLine
 10
18.12547762394001
 20
-11.53196234871999
 30
0.0
 11
18.11546771418002
 21
-11.53321470967999
 31
0.0
  0
LINE
  5
151
330
2
100
AcDbEntity
  8
0
100
AcDbLine
 10
18.11546771418002
 20
-11.53321470967999
 30
0.0
 11
18.10574979802002
 21
-11.53437862647999
 31
0.0
  0
LINE
  5
152
330
2
100
AcDbEntity
  8
0
100
AcDbLine
 10
18.12770853850001
 20
-11.53244330231999
 30
0.0
 11
18.13971616218
 21
-11.53100532343999
 31
0.0
  0
LINE
  5
153
330
2
100
AcDbEntity
  8
0
100
AcDbLine
 10
18.10574979802002
 20
-11.53437862647999
 30
0.0
 11
18.09636937050002
 21
-11.53545354871999
 31
0.0
  0
LINE
  5
154
330
2
100
AcDbEntity
  8
0
100
AcDbLine
 10
18.11594982362001
 20
-11.53378518903999
 30
0.0
 11
18.12770853850001
 21
-11.53244330231999
 31
0.0
  0
LINE
  5
155
330
2
100
AcDbEntity
  8
0
100
AcDbLine
 10
18.09636937050002
 20
-11.53545354871999
 30
0.0
 11
18.08737158106
 21
-11.53643971575999
 31
0.0
  0
LINE
  5
156
330
2
100
AcDbEntity
  8
0
100
AcDbLine
 10
18.10462379994001
 20
-11.53501594103999
 30
0.0
 11
18.11594982362001
 21
-11.53378518903999
 31
0.0
  0
LINE
  5
157
330
2
100
AcDbEntity
  8
0
100
AcDbLine
 10
18.08737158106
 20
-11.53643971575999
 30
0.0
 11
18.07881755098001
 21
-11.53733639543999
 31
0.0
  0
LINE
  5
158
330
2
100
AcDbEntity
  8
0
100
AcDbLine
 10
18.09391342042001
 20
-11.53612431735999
 30
0.0
 11
18.10462379994001
 21
-11.53501594103999
 31
0.0
  0
LINE
  5
159
330
2
100
AcDbEntity
  8
0
100
AcDbLine
 10
18.07881755098001
 20
-11.53733639543999
 30
0.0
 11
18.06834201562001
 21
-11.53838012151999
 31
0.0
  0
LINE
  5
15A
330
2
100
AcDbEntity
  8
0
100
AcDbLine
 10
18.08394426458001
 20
-11.53710781943999
 30
0.0
 11
18.09391342042001
 21
-11.53612431735999
 31
0.0
  0
LINE
  5
15B
330
2
100
AcDbEntity
  8
0
100
AcDbLine
 10
18.06834201562001
 20
-11.53838012151999
 30
0.0
 11
18.05907957594001
 21
-11.53925263095999
 31
0.0
  0
LINE
  5
15C
330
2
100
AcDbEntity
  8
0
100
AcDbLine
 10
18.07255998554001
 20
-11.53817459831999
 30
0.0
 11
18.08394426458001
 21
-11.53710781943999
 31
0.0
  0
LINE
  5
15D
330
2
100
AcDbEntity
  8
0
100
AcDbLine
 10
18.05907957594001
 20
-11.53925263095999
 30
0.0
 11
18.05097963354
 21
-11.53997599351999
 31
0.0
  0
LINE
  5
15E
330
2
100
AcDbEntity
  8
0
100
AcDbLine
 10
18.06217293658001
 20
-11.53909618423999
 30
0.0
 11
18.07255998554001
 21
-11.53817459831999
 31
0.0
  0
LINE
  5
15F
330
2
100
AcDbEntity
  8
0
100
AcDbLine
 10
18.05097963354
 20
-11.53997599351999
 30
0.0
 11
18.04251631194001
 21
-11.54069081591999
 31
0.0
  0
LINE
  5
160
330
2
100
AcDbEntity
  8
0
100
AcDbLine
 10
18.0508312073
 20
-11.54004744695999
 30
0.0
 11
18.06217293658001
 21
-11.53909618423999
 31
0.0
  0
LINE
  5
161
330
2
100
AcDbEntity
  8
0
100
AcDbLine
 10
18.0508312073
 20
-11.54004744695999
 30
0.0
 11
18.03538232154001
 21
-11.54125784951999
 31
0.0
  0
LINE
  5
162
330
2
100
AcDbEntity
  8
0
100
AcDbLine
 10
18.03515204314001
 20
-11.54127546999998
 30
0.0
 11
18.03967887578001
 21
-11.54092989047999
 31
0.0
  0
LWPOLYLINE
  5
163
330
2
100
AcDbEntity
  8
0
100
AcDbPolyline
 90
        4
 70
     0
 43
0.0
 10
6.664662701699995
 20
-13.16742565623999
 10
6.659845878660007
 20
-13.16779057271999
 10
6.645909549700007
 20
-13.16793075447999
 10
6.623859866499998
 20
-13.16784527351999
  0
LWPOLYLINE
  5
164
330
2
100
AcDbEntity
  8
0
100
AcDbPolyline
 90
        3
 70
     0
 43
0.0
 10
4.281352479620011
 20
-13.13310224247999
 10
4.21932603994
 20
-13.13410674167998
 10
4.216359358340014
 20
-13.13474082935999
  0
LWPOLYLINE
  5
165
330
2
100
AcDbEntity
  8
0
100
AcDbPolyline
 90
        3
 70
     0
 43
0.0
 10
17.42370792538
 20
-13.13310224247999
 10
17.48573436506001
 20
-13.13410674167998
 10
17.48870104665999
 20
-13.13474082935999
  0
LWPOLYLINE
  5
166
330
2
100
AcDbEntity
  8
0
100
AcDbPolyline
 90
        4
 70
     0
 43
0.0
 10
15.04039770329998
 20
-13.16742565623999
 10
15.04521452634
 20
-13.16779057271999
 10
15.0591508553
 20
-13.16793075447999
 10
15.08120053849998
 20
-13.16784527351999
  0
LWPOLYLINE
  5
167
330
2
100
AcDbEntity
  8
0
100
AcDbPolyline
 90
       15
 70
     0
 43
0.0
 10
-0.3460291203799954
 20
-2.124121845679994
 10
-0.3168642192599975
 20
-2.22291728247999
 10
-0.2796301930199974
 20
-2.323582567599991
 10
-0.2373078237399824
 20
-2.419162819759989
 10
-0.1906617808599833
 20
-2.509993889199989
 10
-0.1401072771799932
 20
-2.596788680879988
 10
-0.0861026896599953
 20
-2.679904770479993
 10
-0.0289918403800016
 20
-2.759700688559988
 10
0.0309650453799861
 20
-2.836511489199992
 10
0.0934677999399867
 20
-2.910543316399994
 10
0.1583618261800268
 20
-2.982132972719988
 10
0.2259073353000076
 20
-3.051909684399994
 10
0.2967493346600065
 20
-3.120600088239989
 10
0.371039074180004
 20
-3.188379827119987
 10
0.4039803823400235
 20
-3.216781214639993
  0
LINE
  5
168
330
2
100
AcDbEntity
  8
0
100
AcDbLine
 10
-0.3653898051799835
 20
-2.04127857015999
 30
0.0
 11
-0.3461483587799865
 21
-2.124157045679995
 31
0.0
  0
LWPOLYLINE
  5
16A
330
2
100
AcDbEntity
  8
0
100
AcDbPolyline
 90
       10
 70
     0
 43
0.0
 10
0.3369663906600238
 20
-2.76857103351999
 10
0.4490086178600166
 20
-3.517943892399991
 10
0.5722056316200224
 20
-4.361421692079986
 10
0.6786385839399998
 20
-5.13983817719999
 10
0.7700871458600034
 20
-5.886653247919994
 10
0.8483804745000043
 20
-6.635024650159991
 10
0.9174807087399869
 20
-7.416241963439986
 10
0.9816986978600255
 20
-8.25407710967999
 10
1.0440579081
 20
-9.148822374319991
 10
1.056321375620001
 20
-9.328935613359988
  0
LWPOLYLINE
  5
16B
330
2
100
AcDbEntity
  8
0
100
AcDbPolyline
 90
       39
 70
     0
 43
0.0
 10
1.786293421700008
 20
-11.29854784247999
 10
1.787773410179994
 20
-11.30883684215999
 10
1.789265357700003
 20
-11.31877116791998
 10
1.790740498820014
 20
-11.32821197815999
 10
1.792213223300024
 20
-11.33729944439999
 10
1.793739677060017
 20
-11.34639164663999
 10
1.79537959129999
 20
-11.35582259959999
 10
1.797171058819998
 20
-11.36576421623998
 10
1.7991407433
 20
-11.37630231159999
 10
1.801280466820003
 20
-11.38733099767999
 10
1.803574690179999
 20
-11.39872069751999
 10
1.806018161540009
 20
-11.41040692471998
 10
1.808620795780001
 20
-11.42240199927999
 10
1.81139436250001
 20
-11.43472359927998
 10
1.814350106500029
 20
-11.44738285303999
 10
1.817497730180008
 20
-11.46038157687998
 10
1.820822212740011
 20
-11.47362328951999
 10
1.824312326019992
 20
-11.48703811447999
 10
1.828035220100019
 20
-11.50085110903999
 10
1.832095303300008
 20
-11.51538840695998
 10
1.836164405380003
 20
-11.52946372855998
 10
1.839683112580019
 20
-11.54127736311999
 10
1.845038873220005
 20
-11.55866991863999
 10
1.850145974660023
 20
-11.57464307063998
 10
1.855509254020006
 20
-11.59083543927998
 10
1.861243632259999
 20
-11.60754885239999
 10
1.867398531459997
 20
-11.62486130935999
 10
1.874013502340005
 20
-11.64281029495999
 10
1.881131956100006
 20
-11.66143378679999
 10
1.888785629060009
 20
-11.68073046263999
 10
1.896987418500003
 20
-11.70064869495998
 10
1.905747799940002
 20
-11.72113396983998
 10
1.915078229380014
 20
-11.74213779831999
 10
1.92499562330002
 20
-11.76362568183999
 10
1.935517568899996
 20
-11.78556542967999
 10
1.946660652420007
 20
-11.80792446455998
 10
1.958441241220015
 20
-11.83067017975998
 10
1.97087549402002
 20
-11.85376966263999
 10
1.978887319940014
 20
-11.86808865527999
  0
LINE
  5
16C
330
2
100
AcDbEntity
  8
0
100
AcDbLine
 10
1.784765419140013
 20
-11.28740392823999
 30
0.0
 11
1.786293421700021
 21
-11.29854784247999
 31
0.0
  0
LINE
  5
16D
330
2
100
AcDbEntity
  8
0
100
AcDbLine
 10
1.783295325060022
 20
-11.27610101367998
 30
0.0
 11
1.784765419140013
 21
-11.28740392823999
 31
0.0
  0
LWPOLYLINE
  5
16F
330
2
100
AcDbEntity
  8
0
100
AcDbPolyline
 90
        3
 70
     0
 43
0.0
 10
-0.3835716970199883
 20
-1.91877320439999
 10
-0.3783049795799798
 20
-1.963974685359985
 10
-0.3653898051799871
 20
-2.041278570159988
  0
LINE
  5
171
330
2
100
AcDbEntity
  8
0
100
AcDbLine
 10
0.7757898261800165
 20
0.89181989512001
 30
0.0
 11
0.7765967599400039
 21
0.8843676890400091
 31
0.0
  0
LWPOLYLINE
  5
172
330
2
100
AcDbEntity
  8
0
100
AcDbPolyline
 90
       39
 70
     0
 43
0.0
 10
0.8821225877800031
 20
-0.1397458648799912
 10
0.9672609237800031
 20
-0.9636166962399883
 10
0.9946747887400135
 20
-1.229830753199991
 10
1.021582249860017
 20
-1.491986901679986
 10
1.047973242500006
 20
-1.75018005367999
 10
1.073840617860014
 20
-2.004511354799987
 10
1.099179335299993
 20
-2.255087269039989
 10
1.123985449860015
 20
-2.502021651119989
 10
1.148254989700006
 20
-2.745426829999992
 10
1.171985415300014
 20
-2.985417260719991
 10
1.195176820099987
 20
-3.222098581679986
 10
1.217837708420006
 20
-3.455602716079987
 10
1.239979296900003
 20
-3.686080389039986
 10
1.261612995460012
 20
-3.913666813359995
 10
1.282758576260022
 20
-4.138469605039986
 10
1.303397635460015
 20
-4.360141218479995
 10
1.323475641219999
 20
-4.57793183351999
 10
1.342939200900019
 20
-4.791081747119989
 10
1.361736614020003
 20
-4.998830122159986
 10
1.379817484419987
 20
-5.200413829039987
 10
1.397133801860007
 20
-5.395082949039988
 10
1.413697877380002
 20
-5.582766110639987
 10
1.429600341380023
 20
-5.764304682159988
 10
1.444935629700012
 20
-5.940620394159992
 10
1.459788420740011
 20
-6.112556294319986
 10
1.474207543940025
 20
-6.280565937839995
 10
1.488226342019999
 20
-6.44493805175999
 10
1.501876832899995
 20
-6.605957663919994
 10
1.51518987994001
 20
-6.763907050159993
 10
1.528195287940008
 20
-6.919065985199992
 10
1.540921869700014
 20
-7.07171139191999
 10
1.553397678980019
 20
-7.222118358959988
 10
1.565650029700009
 20
-7.370560706479992
 10
1.577705266820004
 20
-7.517307828399992
 10
1.589579063939993
 20
-7.662505123759991
 10
1.601272267139989
 20
-7.806119690159988
 10
1.612784404100011
 20
-7.94810602359999
 10
1.624114467460003
 20
-8.08841491831999
 10
1.635260980100014
 20
-8.226989973679991
  0
LWPOLYLINE
  5
173
330
2
100
AcDbEntity
  8
0
100
AcDbPolyline
 90
        5
 70
     0
 43
0.0
 10
0.7757898261800165
 20
0.8918198951200153
 10
0.7931342921000067
 20
0.7228280180000084
 10
0.8231708680999929
 20
0.4310148122400151
 10
0.85284610522001
 20
0.1434801268000143
 10
0.8821225877800031
 20
-0.1397458648799912
  0
LWPOLYLINE
  5
174
330
2
100
AcDbEntity
  8
0
100
AcDbPolyline
 90
       28
 70
     0
 43
0.0
 10
1.894611908740017
 20
-11.46986007031999
 10
1.897763840900012
 20
-11.50222046711999
 10
1.90356183386001
 20
-11.55030749559999
 10
1.913521599619997
 20
-11.61490656887999
 10
1.929644638339993
 20
-11.69592971255999
 10
1.954203344260008
 20
-11.79201388791998
 10
1.989483220099998
 20
-11.90074468727998
 10
2.037748710019997
 20
-12.01947278071999
 10
2.101280080260011
 20
-12.14559228791999
 10
2.181760222340017
 20
-12.27552882039999
 10
2.278542740099993
 20
-12.40335379959999
 10
2.389792148100013
 20
-12.52404288119999
 10
2.509662009219994
 20
-12.63123871735999
 10
2.633828962180018
 20
-12.72305641591999
 10
2.761066741380005
 20
-12.80075910647999
 10
2.890060667780005
 20
-12.86531863671999
 10
3.014523093380006
 20
-12.91590167287999
 10
3.1351316553
 20
-12.95528483575999
 10
3.249103360900022
 20
-12.98478465527999
 10
3.35729185497999
 20
-13.00673024631999
 10
3.461068349060013
 20
-13.02308313975998
 10
3.564250590340009
 20
-13.03568931191999
 10
3.671718325379998
 20
-13.04592602871999
 10
3.788515174020005
 20
-13.05470961143998
 10
3.918009774979992
 20
-13.06256872055998
 10
4.060810513540019
 20
-13.06979641207998
 10
4.214189895300023
 20
-13.07649921015998
 10
4.367678109059994
 20
-13.08248986359998
  0
LINE
  5
175
330
2
100
AcDbEntity
  8
0
100
AcDbLine
 10
1.010791687300002
 20
0.0675023962400063
 30
0.0
 11
1.010998143620009
 21
0.0653168858400068
 31
0.0
  0
LWPOLYLINE
  5
176
330
2
100
AcDbEntity
  8
0
100
AcDbPolyline
 90
        6
 70
     0
 43
0.0
 10
1.776754371460015
 20
-11.21541014903999
 10
1.777935925380006
 20
-11.22815851255999
 10
1.779177580419997
 20
-11.24047343863999
 10
1.780481411459987
 20
-11.25250283511999
 10
1.781861690500022
 20
-11.26443692919999
 10
1.783295325060009
 20
-11.27610101367998
  0
LINE
  5
177
330
2
100
AcDbEntity
  8
0
100
AcDbLine
 10
1.776039952260022
 20
-11.20704943223999
 30
0.0
 11
1.776754371460016
 21
-11.21541014903999
 31
0.0
  0
LWPOLYLINE
  5
178
330
2
100
AcDbEntity
  8
0
100
AcDbPolyline
 90
        3
 70
     0
 43
0.0
 10
1.757825890180015
 20
-10.98431181943998
 10
1.770995290499996
 20
-11.14395875703998
 10
1.776421063300006
 20
-11.21015862391998
  0
LINE
  5
179
330
2
100
AcDbEntity
  8
0
100
AcDbLine
 10
1.889443386500012
 20
-11.40743199735999
 30
0.0
 11
1.894611908740012
 21
-11.46986007031999
 31
0.0
  0
LINE
  5
17A
330
2
100
AcDbEntity
  8
0
100
AcDbLine
 10
1.881460061060012
 20
-11.31008528375999
 30
0.0
 11
1.889443386500012
 21
-11.40743199735999
 31
0.0
  0
LINE
  5
17B
330
2
100
AcDbEntity
  8
0
100
AcDbLine
 10
1.871532550020015
 20
-11.18876655351999
 30
0.0
 11
1.881460061060012
 21
-11.31008528375999
 31
0.0
  0
LINE
  5
17C
330
2
100
AcDbEntity
  8
0
100
AcDbLine
 10
1.853879086980009
 20
-10.97210150519999
 30
0.0
 11
1.871532550020015
 21
-11.18876655351999
 31
0.0
  0
LINE
  5
17D
330
2
100
AcDbEntity
  8
0
100
AcDbLine
 10
1.833753661060018
 20
-10.72347288183999
 30
0.0
 11
1.853879086980009
 21
-10.97210150519999
 31
0.0
  0
LINE
  5
17E
330
2
100
AcDbEntity
  8
0
100
AcDbLine
 10
1.811898046340003
 20
-10.45148421367999
 30
0.0
 11
1.833753661060018
 21
-10.72347288183999
 31
0.0
  0
LINE
  5
17F
330
2
100
AcDbEntity
  8
0
100
AcDbLine
 10
1.635260980100021
 20
-8.226989973679993
 30
0.0
 11
1.657002434180004
 21
-8.498691252399995
 31
0.0
  0
LWPOLYLINE
  5
180
330
2
100
AcDbEntity
  8
0
100
AcDbPolyline
 90
        3
 70
     0
 43
0.0
 10
1.780445138819999
 20
-10.05696691831998
 10
1.788577655940002
 20
-10.15926434167998
 10
1.81189804633999
 20
-10.45148421367999
  0
LWPOLYLINE
  5
181
330
2
100
AcDbEntity
  8
0
100
AcDbPolyline
 90
        3
 70
     0
 43
0.0
 10
1.657002434179986
 20
-8.498691252399993
 10
1.678015950980011
 20
-8.762786535599992
 10
1.688253394820009
 20
-8.891858797999994
  0
LWPOLYLINE
  5
182
330
2
100
AcDbEntity
  8
0
100
AcDbPolyline
 90
        3
 70
     0
 43
0.0
 10
1.688253394820009
 20
-8.891858797999994
 10
1.708195597700012
 20
-9.143810469039987
 10
1.717899433860026
 20
-9.266568851119991
  0
LWPOLYLINE
  5
183
330
2
100
AcDbEntity
  8
0
100
AcDbPolyline
 90
        5
 70
     0
 43
0.0
 10
1.717899433860026
 20
-9.266568851119991
 10
1.736755199620006
 20
-9.505193933999994
 10
1.745897604740008
 20
-9.620858534319989
 10
1.754842581380017
 20
-9.733954677679992
 10
1.780445138819999
 20
-10.05696691831998
  0
LWPOLYLINE
  5
184
330
2
100
AcDbEntity
  8
0
100
AcDbPolyline
 90
        5
 70
     0
 43
0.0
 10
1.010998143620014
 20
0.0653168858400122
 10
1.013093346179999
 20
0.0380430503200131
 10
1.006189486980019
 20
-0.141343393199989
 10
0.9669434581799976
 20
-0.3648167115999925
 10
0.9266711061800094
 20
-0.5705656984799888
  0
LWPOLYLINE
  5
185
330
2
100
AcDbEntity
  8
0
100
AcDbPolyline
 90
       16
 70
     0
 43
0.0
 10
0.9266711061800094
 20
-0.5705656984799888
 10
0.9222712034600135
 20
-0.5930445311199862
 10
0.8841424124200045
 20
-0.8034750923999922
 10
0.8418354479399852
 20
-0.9944097919199919
 10
0.7903255804200171
 20
-1.167129076399994
 10
0.7301483528999882
 20
-1.328201041839989
 10
0.6669791893799868
 20
-1.479841720239988
 10
0.6056147260200078
 20
-1.621562534319991
 10
0.5486051541800237
 20
-1.754055572399984
 10
0.4976035285800151
 20
-1.878037739439989
 10
0.4523074325799997
 20
-1.997756760239994
 10
0.4116313852200051
 20
-2.118831891119995
 10
0.3764952354599984
 20
-2.242329987759987
 10
0.3486341845799927
 20
-2.368928645039986
 10
0.3303901615400093
 20
-2.501055413679992
 10
0.3258290249000026
 20
-2.643990010799988
  0
LWPOLYLINE
  5
188
330
2
100
AcDbEntity
  8
0
100
AcDbPolyline
 90
        5
 70
     0
 43
0.0
 10
0.0968114965800169
 20
1.437479975760012
 10
0.1169381449000184
 20
1.451706304080012
 10
0.1599328789800154
 20
1.465878190160012
 10
0.2264930645800121
 20
1.480001291600011
 10
0.3169078562600021
 20
1.49404212488001
  0
LINE
  5
18B
330
2
100
AcDbEntity
  8
0
100
AcDbLine
 10
12.63391393242002
 20
-13.30435860215998
 30
0.0
 11
12.64268924762002
 21
-13.30956390007999
 31
0.0
  0
LINE
  5
18C
330
2
100
AcDbEntity
  8
0
100
AcDbLine
 10
12.62940599770002
 20
-13.30886653687999
 30
0.0
 11
12.68710713306002
 21
-13.34895045367999
 31
0.0
  0
LINE
  5
18D
330
2
100
AcDbEntity
  8
0
100
AcDbLine
 10
9.315918550660013
 20
-13.54913067895999
 30
0.0
 11
8.962066966660019
 21
-13.19527909623999
 31
0.0
  0
LINE
  5
18E
330
2
100
AcDbEntity
  8
0
100
AcDbLine
 10
4.948064029060016
 20
-13.10050584951999
 30
0.0
 11
4.966119042180004
 21
-13.14318433655999
 31
0.0
  0
LWPOLYLINE
  5
190
330
2
100
AcDbEntity
  8
0
100
AcDbPolyline
 90
       13
 70
     0
 43
0.0
 10
0.7765967599399915
 20
0.8843676890400118
 10
0.7808972066600007
 20
0.8527969741600074
 10
0.7868991036200157
 20
0.818953470800011
 10
0.7953538748199947
 20
0.7801680423200068
 10
0.8067962850600167
 20
0.7362489677600124
 10
0.822300205700003
 20
0.6851900058400063
 10
0.8432716015400103
 20
0.6233600180000139
 10
0.8706583112999908
 20
0.5478098868000103
 10
0.9006196322600032
 20
0.4675065805600056
 10
0.9305702882600144
 20
0.3862490599200114
 10
0.9620452847400144
 20
0.2934888589600106
 10
0.9926659311400101
 20
0.1805490215200152
 10
1.010791687299985
 20
0.067502396240009
  0
LWPOLYLINE
  5
191
330
2
100
AcDbEntity
  8
0
100
AcDbPolyline
 90
        7
 70
     0
 43
0.0
 10
0.832453397379993
 20
1.019811838800009
 10
0.8013873493800076
 20
0.9979539034400133
 10
0.7848640687400064
 20
0.9766242676000089
 10
0.7767499977000228
 20
0.9548630439200138
 10
0.7739051554599996
 20
0.9321044941600149
 10
0.7743926485800046
 20
0.9079797581600104
 10
0.7757898261800165
 20
0.8918198951200153
  0
LWPOLYLINE
  5
193
330
2
100
AcDbEntity
  8
0
100
AcDbPolyline
 90
        3
 70
     0
 43
0.0
 10
12.64268924762001
 20
-13.30956390007999
 10
12.69929559642
 20
-13.36252834423999
 10
12.74405615449998
 20
-13.42970074871998
  0
LINE
  5
198
330
2
100
AcDbEntity
  8
0
100
AcDbLine
 10
6.655411286660024
 20
-13.13971462135999
 30
0.0
 11
6.664662701700014
 21
-13.16742565623999
 31
0.0
  0
LINE
  5
199
330
2
100
AcDbEntity
  8
0
100
AcDbLine
 10
4.216251519620005
 20
-13.13473771127999
 30
0.0
 11
4.215345430660023
 21
-13.16597379447999
 31
0.0
  0
LWPOLYLINE
  5
19A
330
2
100
AcDbEntity
  8
0
100
AcDbPolyline
 90
       15
 70
     0
 43
0.0
 10
0.832453397379993
 20
1.019811838800009
 10
0.868999614339998
 20
1.03762256648001
 10
0.9244235068200055
 20
1.056718729040014
 10
0.9973457045799989
 20
1.075382508880011
 10
1.088829063300011
 20
1.09389809544001
 10
1.201070459780027
 20
1.112638402640008
 10
1.333047473540005
 20
1.131423201360007
 10
1.481379447939985
 20
1.149850492240013
 10
1.64125680730001
 20
1.167431315280012
 10
1.806357054339997
 20
1.18365923080001
 10
1.972479526020009
 20
1.198454155600011
 10
2.142185965700008
 20
1.212357913680015
 10
2.324302316420016
 20
1.226206823760009
 10
2.532712373380007
 20
1.240939969360013
 10
2.779963573380001
 20
1.257059457360007
  0
LINE
  5
19D
330
2
100
AcDbEntity
  8
0
100
AcDbLine
 10
7.043954484100005
 20
-13.20076519415999
 30
0.0
 11
7.034427355780008
 21
-13.14673416311999
 31
0.0
  0
LINE
  5
1A0
330
2
100
AcDbEntity
  8
0
100
AcDbLine
 10
12.68710713306002
 20
-13.34895045367999
 30
0.0
 11
12.75767589210002
 21
-13.46006859511999
 31
0.0
  0
LINE
  5
1A1
330
2
100
AcDbEntity
  8
0
100
AcDbLine
 10
6.652314100100012
 20
-13.16786633207999
 30
0.0
 11
6.65232902874002
 21
-13.16716361847999
 31
0.0
  0
LINE
  5
1A2
330
2
100
AcDbEntity
  8
0
100
AcDbLine
 10
6.654449132420019
 20
-13.13926963447999
 30
0.0
 11
6.653625449860011
 21
-13.17025785207999
 31
0.0
  0
LINE
  5
1A4
330
2
100
AcDbEntity
  8
0
100
AcDbLine
 10
12.7440561545
 20
-13.42970074871999
 30
0.0
 11
12.75767589210002
 21
-13.46006859511999
 31
0.0
  0
LWPOLYLINE
  5
1A5
330
2
100
AcDbEntity
  8
0
100
AcDbPolyline
 90
       20
 70
     0
 43
0.0
 10
9.54003020250002
 20
3.450483380560008
 10
9.545030376580001
 20
3.563843937360012
 10
9.559278119299989
 20
3.672293646160014
 10
9.582650212739991
 20
3.779066508880013
 10
9.615037919620021
 20
3.883651585360006
 10
9.656123688580009
 20
3.985031280720015
 10
9.705718404739997
 20
4.082749491280011
 10
9.763394615940029
 20
4.175946291280006
 10
9.828793666180018
 20
4.264047832400009
 10
9.901444327299998
 20
4.346408142160008
 10
9.980659683460004
 20
4.422287146320009
 10
10.06616605785998
 20
4.49142856584001
 10
10.15740093913999
 20
4.553315372880007
 10
10.25379540186
 20
4.607492093520015
 10
10.35361121626002
 20
4.653075503440014
 10
10.45517361241999
 20
4.689675055440012
 10
10.55713522778001
 20
4.717348043600011
 10
10.6580410505
 20
4.736361248080008
 10
10.75694335706
 20
4.747268587600011
 10
10.85253020250002
 20
4.75072320008001
  0
LINE
  5
1A8
330
2
100
AcDbEntity
  8
0
100
AcDbLine
 10
12.75767589210002
 20
-13.46006859511999
 30
0.0
 11
12.76071101530001
 21
-13.46811647479999
 31
0.0
  0
LWPOLYLINE
  5
1A9
330
2
100
AcDbEntity
  8
0
100
AcDbPolyline
 90
       20
 70
     0
 43
0.0
 10
9.540651784580006
 20
3.450508782160014
 10
9.544322955140017
 20
3.360672271440016
 10
9.557871246979999
 20
3.252121605200009
 10
9.580553597060003
 20
3.145212491600013
 10
9.612269364100001
 20
3.04043003016001
 10
9.652708889220008
 20
2.938797637200011
 10
9.701677475460002
 20
2.840792421200006
 10
9.758770800260009
 20
2.747244782160009
 10
9.823596807299992
 20
2.65878665608001
 10
9.89573793753999
 20
2.57599832200001
 10
9.974493101700005
 20
2.499653731920012
 10
10.05957816538
 20
2.430020610640006
 10
10.15036176602001
 20
2.367660057680005
 10
10.24631429722001
 20
2.312984005200007
 10
10.34589800154
 20
2.26679261192001
 10
10.44757432026
 20
2.229486914640013
 10
10.55022005466
 20
2.201036829520006
 10
10.65251325913999
 20
2.181281708880014
 10
10.75367886554002
 20
2.169798831440012
 10
10.85253020250002
 20
2.166109538640014
  0
LINE
  5
1AA
330
2
100
AcDbEntity
  8
0
100
AcDbLine
 10
12.16002259546001
 20
3.56392799496001
 30
0.0
 11
12.16503020250002
 21
3.45048337160001
 31
0.0
  0
LWPOLYLINE
  5
1AB
330
2
100
AcDbEntity
  8
0
100
AcDbPolyline
 90
       20
 70
     0
 43
0.0
 10
12.16503020250002
 20
3.450483371600014
 10
12.1607431113
 20
3.345505449040011
 10
12.14720067034002
 20
3.236954054480008
 10
12.12452406490001
 20
3.130043667280013
 10
12.09281434586
 20
3.02526069000001
 10
12.05237987418001
 20
2.923624965200012
 10
12.00341737945999
 20
2.825618634320015
 10
11.94632961113998
 20
2.73206849544001
 10
11.88150985306001
 20
2.643608473680011
 10
11.8093727433
 20
2.560815306320016
 10
11.73061445594001
 20
2.48445971208001
 10
11.6455354185
 20
2.414824481360014
 10
11.55477263322001
 20
2.352470397520015
 10
11.4588595465
 20
2.297806443600009
 10
11.35930357594
 20
2.251615058000012
 10
11.25764758490001
 20
2.214302752080008
 10
11.15501495898001
 20
2.185841735760014
 10
11.05270639578
 20
2.166070022480013
 10
10.95149342682
 20
2.154571207760014
 10
10.85253020250002
 20
2.150873550160007
  0
LINE
  5
1AD
330
2
100
AcDbEntity
  8
0
100
AcDbLine
 10
8.947321197700013
 20
-13.46023044343999
 30
0.0
 11
8.944349389700006
 21
-13.46811647479999
 31
0.0
  0
LINE
  5
1B0
330
2
100
AcDbEntity
  8
0
100
AcDbLine
 10
15.05143495514001
 20
-13.17025785207999
 30
0.0
 11
15.05061127258002
 21
-13.13926963447999
 31
0.0
  0
LINE
  5
1B1
330
2
100
AcDbEntity
  8
0
100
AcDbLine
 10
15.0527463049
 20
-13.16786633207999
 30
0.0
 11
15.05273137626002
 21
-13.16716361847999
 31
0.0
  0
LINE
  5
1B2
330
2
100
AcDbEntity
  8
0
100
AcDbLine
 10
8.947321197700013
 20
-13.46023044343999
 30
0.0
 11
8.969397702020025
 21
-13.41417939575999
 31
0.0
  0
LWPOLYLINE
  5
1B4
330
2
100
AcDbEntity
  8
0
100
AcDbPolyline
 90
        9
 70
     0
 43
0.0
 10
1.414889744260023
 20
1.62628723848001
 10
1.216906905219985
 20
1.610877144400006
 10
1.055181896579995
 20
1.588769295440009
 10
0.9116893628199989
 20
1.577353061200014
 10
0.7787384073000112
 20
1.561125427280011
 10
0.6530801007400271
 20
1.545132256080016
 10
0.534087067780007
 20
1.529379992400009
 10
0.4220728751400032
 20
1.511177456720012
 10
0.3169078562600021
 20
1.49404212488001
  0
LWPOLYLINE
  5
1B5
330
2
100
AcDbEntity
  8
0
100
AcDbPolyline
 90
       20
 70
     0
 43
0.0
 10
10.85253020250002
 20
2.166109538640014
 10
10.95145419482
 20
2.169804265040014
 10
11.05263664346
 20
2.181295370320007
 10
11.15492417242001
 20
2.201056468560011
 10
11.25754567386002
 20
2.229506048080011
 10
11.35920085978
 20
2.266808541520013
 10
11.45876450009998
 20
2.31299348616001
 10
11.5546900937
 20
2.367654700880009
 10
11.64546523098002
 20
2.430007843920009
 10
11.73055537370001
 20
2.499643101520007
 10
11.80932408794001
 20
2.57600002952001
 10
11.88147107802001
 20
2.65879601032001
 10
11.94630002906001
 20
2.747260343120011
 10
12.00339579866002
 20
2.840815662160011
 10
12.05236522458
 20
2.938828253520014
 10
12.0928053577
 20
3.040470982480009
 10
12.12451944282
 20
3.145261678160011
 10
12.14719902554
 20
3.252180279120011
 10
12.16074300634002
 20
3.360740171600006
 10
12.16440902234001
 20
3.45050873864001
  0
LWPOLYLINE
  5
1B6
330
2
100
AcDbEntity
  8
0
100
AcDbPolyline
 90
        7
 70
     0
 43
0.0
 10
2.682318093700018
 20
1.678921145680014
 10
2.478055766659991
 20
1.672676737360006
 10
2.278708931459988
 20
1.666219961680006
 10
2.080281941380007
 20
1.659363788880014
 10
1.875410505860003
 20
1.651484949840011
 10
1.649791767940001
 20
1.640894718800005
 10
1.414889744260023
 20
1.62628723848001
  0
LWPOLYLINE
  5
1B7
330
2
100
AcDbEntity
  8
0
100
AcDbPolyline
 90
        7
 70
     0
 43
0.0
 10
19.02274231130002
 20
1.678921145680014
 10
19.22700463833999
 20
1.672676737360006
 10
19.42635147353999
 20
1.666219961680006
 10
19.62477846362
 20
1.659363788880014
 10
19.82964989914
 20
1.651484949840011
 10
20.05526863706001
 20
1.640894718800005
 10
20.29017066074001
 20
1.62628723848001
  0
LWPOLYLINE
  5
1B8
330
2
100
AcDbEntity
  8
0
100
AcDbPolyline
 90
       20
 70
     0
 43
0.0
 10
10.85253020250002
 20
2.150873550160007
 10
10.75363921882001
 20
2.154565803600007
 10
10.6524429577
 20
2.166056440400005
 10
10.55012875226
 20
2.185822210640012
 10
10.44747198426
 20
2.214283750480007
 10
10.34579495258
 20
2.251599264080013
 10
10.24621901913999
 20
2.297797080400009
 10
10.15027913305999
 20
2.352475813200008
 10
10.05950795354002
 20
2.414837268560006
 10
9.97443396186
 20
2.484470393680012
 10
9.895689159300019
 20
2.560813726800013
 10
9.823557882500011
 20
2.643599307600013
 10
9.758741058180021
 20
2.732053170000014
 10
9.701655735940022
 20
2.825595676240013
 10
9.652694084740005
 20
2.923594695760009
 10
9.612260232579984
 20
3.025220146000009
 10
9.580548854660008
 20
3.12999494920001
 10
9.557869512579998
 20
3.236895913040008
 10
9.544322802820005
 20
3.345438133840012
 10
9.54003020250002
 20
3.450483380560008
  0
LWPOLYLINE
  5
1B9
330
2
100
AcDbEntity
  8
0
100
AcDbPolyline
 90
        9
 70
     0
 43
0.0
 10
20.29017066074001
 20
1.62628723848001
 10
20.48815349977999
 20
1.610877144400006
 10
20.64987850842001
 20
1.588769295440009
 10
20.79337104218001
 20
1.577353061200014
 10
20.9263219977
 20
1.561125427280011
 10
21.05198030426001
 20
1.545132256080016
 10
21.1709733385
 20
1.529379992400009
 10
21.28298752986001
 20
1.511177456720012
 10
21.38815254874001
 20
1.49404212488001
  0
LINE
  5
1BA
330
2
100
AcDbEntity
  8
0
100
AcDbLine
 10
14.66110592090001
 20
-13.20076519415999
 30
0.0
 11
14.67063304922001
 21
-13.14673416311999
 31
0.0
  0
LINE
  5
1BC
330
2
100
AcDbEntity
  8
0
100
AcDbLine
 10
9.017953271940019
 20
-13.34895045367999
 30
0.0
 11
8.947321197700013
 21
-13.46023044343999
 31
0.0
  0
LINE
  5
1BD
330
2
100
AcDbEntity
  8
0
100
AcDbLine
 10
8.969397702020025
 20
-13.41417939575999
 30
0.0
 11
9.020175276420015
 21
-13.34664306167999
 31
0.0
  0
LINE
  5
1C4
330
2
100
AcDbEntity
  8
0
100
AcDbLine
 10
17.48971497434001
 20
-13.16597379447999
 30
0.0
 11
17.48880888538001
 21
-13.13473771127999
 31
0.0
  0
LWPOLYLINE
  5
1CA
330
2
100
AcDbEntity
  8
0
100
AcDbPolyline
 90
       19
 70
     0
 43
0.0
 10
10.85253020250002
 20
4.75072320008001
 10
10.94805035226002
 20
4.747273413200012
 10
11.04693141722
 20
4.736374304080008
 10
11.14782742362001
 20
4.717370419280008
 10
11.24978448089999
 20
4.689707260240012
 10
11.35132669402
 20
4.653125387600013
 10
11.45111163738002
 20
4.607569990480008
 10
11.54750224346
 20
4.553412632400011
 10
11.63875220954
 20
4.49153394184001
 10
11.72428343514002
 20
4.422390406480012
 10
11.80351332186001
 20
4.346515180880011
 10
11.87617709530002
 20
4.264158511440008
 10
11.94159012058
 20
4.176057748560012
 10
11.99927986906001
 20
4.082860051280015
 10
12.04888865114
 20
3.985136814160014
 10
12.08998584921999
 20
3.883754251600009
 10
12.12238471642001
 20
3.77916308232001
 10
12.14576639322001
 20
3.672384521040008
 10
12.16002259545999
 20
3.56392799496001
  0
LWPOLYLINE
  5
1CD
330
2
100
AcDbEntity
  8
0
100
AcDbPolyline
 90
       15
 70
     0
 43
0.0
 10
20.87260700762001
 20
1.019811838800009
 10
20.83606079066001
 20
1.03762256648001
 10
20.78063689818
 20
1.056718729040014
 10
20.70771470042001
 20
1.075382508880011
 10
20.61623134298
 20
1.09389809544001
 10
20.50398994522001
 20
1.112638402640008
 10
20.37201293146
 20
1.131423201360007
 10
20.22368095705999
 20
1.149850492240013
 10
20.0638035977
 20
1.167431315280012
 10
19.89870335065998
 20
1.18365923080001
 10
19.73258087898
 20
1.198454155600011
 10
19.5628744393
 20
1.212357913680015
 10
19.38075808858002
 20
1.226206823760009
 10
19.17234803162
 20
1.240939969360013
 10
18.92509683290001
 20
1.257059457360007
  0
LINE
  5
1CE
330
2
100
AcDbEntity
  8
0
100
AcDbLine
 10
15.04964837338002
 20
-13.13971685239999
 30
0.0
 11
15.0403977033
 21
-13.16742565623999
 31
0.0
  0
LWPOLYLINE
  5
1CF
330
2
100
AcDbEntity
  8
0
100
AcDbPolyline
 90
       15
 70
     0
 43
0.0
 10
21.30108002266001
 20
-3.216781214639993
 10
21.33402133082
 20
-3.188379827119987
 10
21.40831107162
 20
-3.120600088239989
 10
21.4791530697
 20
-3.051909684399994
 10
21.54669857882001
 20
-2.982132972719988
 10
21.61159260505999
 20
-2.910543316399994
 10
21.67409535961999
 20
-2.836511489199992
 10
21.73405224538001
 20
-2.759700688559988
 10
21.79116309465999
 20
-2.679904770479993
 10
21.84516768218
 20
-2.596788680879988
 10
21.89572218586002
 20
-2.509993889199989
 10
21.94236822874001
 20
-2.419162819759989
 10
21.98469059801999
 20
-2.323582567599991
 10
22.02192462426001
 20
-2.22291728247999
 10
22.05108946394
 20
-2.12412205559999
  0
LINE
  5
1D0
330
2
100
AcDbEntity
  8
0
100
AcDbLine
 10
9.020175276420015
 20
-13.34664306167999
 30
0.0
 11
9.071434513540022
 21
-13.30464664311999
 31
0.0
  0
LINE
  5
1D1
330
2
100
AcDbEntity
  8
0
100
AcDbLine
 10
9.075654407300023
 20
-13.30886653687999
 30
0.0
 11
9.017953271940019
 21
-13.34895045367999
 31
0.0
  0
LWPOLYLINE
  5
1E4
330
2
100
AcDbEntity
  8
0
100
AcDbPolyline
 90
        7
 70
     0
 43
0.0
 10
20.87260700762001
 20
1.019811838800009
 10
20.9036730505
 20
0.9979539252000151
 10
20.92019633242
 20
0.9766243060000121
 10
20.92831040986002
 20
0.9548631181600129
 10
20.93115525594001
 20
0.9321045850400082
 10
20.9306677577
 20
0.9079797786400121
 10
20.92927054554002
 20
0.8918195700000097
  0
LWPOLYLINE
  5
1E5
330
2
100
AcDbEntity
  8
0
100
AcDbPolyline
 90
        5
 70
     0
 43
0.0
 10
21.60824890842002
 20
1.437479975760012
 10
21.58812226010002
 20
1.451706304080012
 10
21.54512752602002
 20
1.465878190160012
 10
21.47856734042002
 20
1.480001291600011
 10
21.38815254874001
 20
1.49404212488001
  0
LWPOLYLINE
  5
1E6
330
2
100
AcDbEntity
  8
0
100
AcDbPolyline
 90
       10
 70
     0
 43
0.0
 10
20.64873902938001
 20
-9.328935613359988
 10
20.66100249690001
 20
-9.148822374319991
 10
20.72336170714001
 20
-8.25407710967999
 10
20.78757969625999
 20
-7.416241963439986
 10
20.8566799305
 20
-6.635024650159991
 10
20.93497325914
 20
-5.886653247919994
 10
21.02642182106001
 20
-5.13983817719999
 10
21.13285477338001
 20
-4.361421692079986
 10
21.25605178714002
 20
-3.517943892399991
 10
21.36809401434001
 20
-2.76857103351999
  0
LWPOLYLINE
  5
1E7
330
2
100
AcDbEntity
  8
0
100
AcDbPolyline
 90
        5
 70
     0
 43
0.0
 10
20.69407266138
 20
0.0654284468000057
 10
20.69196703962
 20
0.0380428340000094
 10
20.69887090650002
 20
-0.1413435992799918
 10
20.73811693530001
 20
-0.3648168959199864
 10
20.77838855513999
 20
-0.5705621119199904
  0
LINE
  5
1E8
330
2
100
AcDbEntity
  8
0
100
AcDbLine
 10
19.96559137626002
 20
-9.539533244079992
 30
0.0
 11
19.99305598042001
 21
-9.191985830319994
 31
0.0
  0
LINE
  5
1E9
330
2
100
AcDbEntity
  8
0
100
AcDbLine
 10
19.94818878042002
 20
-9.759595615919989
 30
0.0
 11
19.96559137626002
 21
-9.539533244079992
 31
0.0
  0
LINE
  5
1EA
330
2
100
AcDbEntity
  8
0
100
AcDbLine
 10
19.99305598042001
 20
-9.191985830319994
 30
0.0
 11
20.01222657370001
 21
-8.949675651759994
 31
0.0
  0
LINE
  5
1EB
330
2
100
AcDbEntity
  8
0
100
AcDbLine
 10
19.93155495642002
 20
-9.969542575279993
 30
0.0
 11
19.94818878042002
 21
-9.759595615919989
 31
0.0
  0
LINE
  5
1EC
330
2
100
AcDbEntity
  8
0
100
AcDbLine
 10
20.01222657370001
 20
-8.949675651759994
 30
0.0
 11
20.03207052250002
 21
-8.699506998959995
 31
0.0
  0
LINE
  5
1ED
330
2
100
AcDbEntity
  8
0
100
AcDbLine
 10
20.03207052250002
 20
-8.699506998959995
 30
0.0
 11
20.05259594074
 21
-8.441838739119994
 31
0.0
  0
LWPOLYLINE
  5
1EE
330
2
100
AcDbEntity
  8
0
100
AcDbPolyline
 90
        3
 70
     0
 43
0.0
 10
19.90048814682
 20
-10.35988597239999
 10
19.90800147673999
 20
-10.26574751095999
 10
19.93155495642
 20
-9.969542575279991
  0
LWPOLYLINE
  5
1EF
330
2
100
AcDbEntity
  8
0
100
AcDbPolyline
 90
       40
 70
     0
 43
0.0
 10
20.05259594073999
 20
-8.441838739119994
 10
20.07381206746001
 20
-8.177043983279993
 10
20.08468145882003
 20
-8.042093365679988
 10
20.09572388698001
 20
-7.905519636399993
 10
20.1069382025
 20
-7.76737058039999
 10
20.11832353881999
 20
-7.627690858159994
 10
20.12987953498
 20
-7.486522378159989
 10
20.14160893914001
 20
-7.343871530159994
 10
20.15353028185998
 20
-7.199555304879993
 10
20.1656675785
 20
-7.053329569199988
 10
20.17804553561998
 20
-6.904948376239993
 10
20.1906894921
 20
-6.754164830639993
 10
20.20362547289999
 20
-6.600730200239993
 10
20.21688038362
 20
-6.444393282479992
 10
20.23048205658
 20
-6.284900664239991
 10
20.24445933914
 20
-6.121996513199988
 10
20.25884221786
 20
-5.955422012079992
 10
20.27367313881998
 20
-5.784786444719991
 10
20.28902568154001
 20
-5.609360002479988
 10
20.30498288729998
 20
-5.428332368559992
 10
20.32162755033999
 20
-5.240927725999988
 10
20.33898942554
 20
-5.046997295279986
 10
20.35703007450001
 20
-4.84716500343999
 10
20.37570616665999
 20
-4.642099481519991
 10
20.39497340250002
 20
-4.432466955439991
 10
20.41478621018001
 20
-4.218932015279989
 10
20.43509738970001
 20
-4.002158992559991
 10
20.45586881114002
 20
-3.782697304239988
 10
20.47711159002
 20
-3.560555065519992
 10
20.49883829338
 20
-3.335624252079995
 10
20.52105939034001
 20
-3.107766115759986
 10
20.54378468953999
 20
-2.876847010479991
 10
20.56701837914002
 20
-2.642763141039992
 10
20.59075902938002
 20
-2.405412801199993
 10
20.61500383834001
 20
-2.164692167599994
 10
20.6397491145
 20
-1.920497386159993
 10
20.66499126362001
 20
-1.672725925039991
 10
20.6907251849
 20
-1.421281898159989
 10
20.71694377561999
 20
-1.166074188719989
 10
20.74363717593999
 20
-0.9070168741599857
  0
LINE
  5
1F0
330
2
100
AcDbEntity
  8
0
100
AcDbLine
 10
19.8788549001
 20
-10.62976718839999
 30
0.0
 11
19.90048814682002
 21
-10.35988597239999
 31
0.0
  0
LINE
  5
1F1
330
2
100
AcDbEntity
  8
0
100
AcDbLine
 10
19.85865835866002
 20
-10.87993731063999
 30
0.0
 11
19.8788549001
 21
-10.62976718839999
 31
0.0
  0
LWPOLYLINE
  5
1F2
330
2
100
AcDbEntity
  8
0
100
AcDbPolyline
 90
        3
 70
     0
 43
0.0
 10
19.82990909273999
 20
-11.23302895991998
 10
19.83504031578002
 20
-11.17025271671999
 10
19.85865835866002
 20
-10.87993731063999
  0
LWPOLYLINE
  5
1F3
330
2
100
AcDbEntity
  8
0
100
AcDbPolyline
 90
        5
 70
     0
 43
0.0
 10
19.81137672026003
 20
-11.45909319799998
 10
19.81378238938001
 20
-11.42978545783999
 10
19.81704787033999
 20
-11.38999493751999
 10
19.82086416602001
 20
-11.34346723831998
 10
19.82990909273999
 20
-11.23302895991998
  0
LINE
  5
1F4
330
2
100
AcDbEntity
  8
0
100
AcDbLine
 10
19.92863934938002
 20
-11.21015852919999
 30
0.0
 11
19.93927744090001
 21
-11.08055542775999
 31
0.0
  0
LWPOLYLINE
  5
1F5
330
2
100
AcDbEntity
  8
0
100
AcDbPolyline
 90
       27
 70
     0
 43
0.0
 10
19.80407041242
 20
-11.19973563127999
 10
19.81868192857999
 20
-11.02197833335998
 10
19.82666040026001
 20
-10.92589520375998
 10
19.83450393306
 20
-10.83245205495999
 10
19.84212259930001
 20
-10.74289274743999
 10
19.84943774682
 20
-10.65823532791998
 10
19.8563782793
 20
-10.57931222775999
 10
19.86289619545999
 20
-10.50660028279999
 10
19.86901484122
 20
-10.43972434295998
 10
19.87477492825999
 20
-10.37811601015999
 10
19.88021456601998
 20
-10.32124865015999
 10
19.88536848601998
 20
-10.26864882935998
 10
19.89025611738
 20
-10.22001440887999
 10
19.89487731674
 20
-10.17523949047999
 10
19.89922939097999
 20
-10.13423321335998
 10
19.90330403034002
 20
-10.09695692535999
 10
19.90709752154001
 20
-10.06332494967999
 10
19.91060539226
 20
-10.03324040823999
 10
19.91382177241999
 20
-10.00660166519999
 10
19.91673957337999
 20
-9.983302177199988
 10
19.91934884826
 20
-9.963244241839994
 10
19.92163648986002
 20
-9.94633993207999
 10
19.92358892378001
 20
-9.932490611119987
 10
19.92519028442001
 20
-9.921601302959988
 10
19.92641853402
 20
-9.913604852399991
 10
19.92724474970001
 20
-9.908460304559991
 10
19.92762493914
 20
-9.906193758639989
  0
LINE
  5
1F7
330
2
100
AcDbEntity
  8
0
100
AcDbLine
 10
19.92830603354
 20
-11.21541014903999
 30
0.0
 11
19.92902045274002
 21
-11.20704943223999
 31
0.0
  0
LINE
  5
1F8
330
2
100
AcDbEntity
  8
0
100
AcDbLine
 10
20.69426842586001
 20
0.06749934856001
 30
0.0
 11
20.69407266138
 21
0.0654284468000057
 31
0.0
  0
LWPOLYLINE
  5
1F9
330
2
100
AcDbEntity
  8
0
100
AcDbPolyline
 90
        4
 70
     0
 43
0.0
 10
20.85486987738002
 20
0.1691880372000085
 10
20.88368113242001
 20
0.4483955111200118
 10
20.91283132762001
 20
0.7316379879200099
 10
20.92927054554002
 20
0.8918195700000097
  0
LINE
  5
1FA
330
2
100
AcDbEntity
  8
0
100
AcDbLine
 10
20.74363717594001
 20
-0.9070168741599911
 30
0.0
 11
20.85486987738002
 21
0.1691880372000059
 31
0.0
  0
LINE
  5
1FB
330
2
100
AcDbEntity
  8
0
100
AcDbLine
 10
20.92927054554002
 20
0.8918195700000058
 30
0.0
 11
20.9285632521
 21
0.8852468301600069
 31
0.0
  0
LWPOLYLINE
  5
1FC
330
2
100
AcDbEntity
  8
0
100
AcDbPolyline
 90
       14
 70
     0
 43
0.0
 10
20.92856325209999
 20
0.8852468301600069
 10
20.92819567578001
 20
0.8820513383200108
 10
20.92416322778001
 20
0.8527972608800098
 10
20.91816133594002
 20
0.8189538100000106
 10
20.90970638042
 20
0.7801662631200088
 10
20.8982639049
 20
0.7362462183200123
 10
20.88276021082001
 20
0.6851901223200159
 10
20.8617888713
 20
0.6233610407200132
 10
20.83440207577999
 20
0.5478097741600081
 10
20.80444073306
 20
0.4675061876000087
 10
20.77449008858002
 20
0.3862489114400134
 10
20.74301509338002
 20
0.293488715600013
 10
20.71239444698
 20
0.1805487898400102
 10
20.69426842586
 20
0.0674993485600126
  0
LWPOLYLINE
  5
1FD
330
2
100
AcDbEntity
  8
0
100
AcDbPolyline
 90
        6
 70
     0
 43
0.0
 10
19.92176507994
 20
-11.27610101367998
 10
19.92319871450001
 20
-11.26443692919999
 10
19.92457899353999
 20
-11.25250283511999
 10
19.92588282457998
 20
-11.24047343863999
 10
19.92712447962
 20
-11.22815851255999
 10
19.92830603353999
 20
-11.21541014903999
  0
LINE
  5
1FE
330
2
100
AcDbEntity
  8
0
100
AcDbLine
 10
19.92036729818001
 20
-11.28684796023999
 30
0.0
 11
19.92176507994002
 21
-11.27610101367998
 31
0.0
  0
LINE
  5
200
330
2
100
AcDbEntity
  8
0
100
AcDbLine
 10
19.91876698330002
 20
-11.29854784247999
 30
0.0
 11
19.92036729818001
 21
-11.28684796023999
 31
0.0
  0
LWPOLYLINE
  5
203
330
2
100
AcDbEntity
  8
0
100
AcDbPolyline
 90
       24
 70
     0
 43
0.0
 10
19.92762493914
 20
-9.906193758639989
 10
19.92754354522
 20
-9.906640858799988
 10
19.92692844121998
 20
-9.909935914159991
 10
19.9257418761
 20
-9.915986159279992
 10
19.92392798170001
 20
-9.924770995119992
 10
19.92143217369999
 20
-9.936237278639993
 10
19.91820279770001
 20
-9.950298559919993
 10
19.91419045210003
 20
-9.966845331119991
 10
19.90936312153999
 20
-9.985693480879991
 10
19.90373164378002
 20
-10.00651318647999
 10
19.89732509786
 20
-10.02895399159999
 10
19.89018011609999
 20
-10.05269042807999
 10
19.88234535770001
 20
-10.07740743415998
 10
19.87390339801999
 20
-10.10273808503998
 10
19.86491075417998
 20
-10.12844662391999
 10
19.85542074458001
 20
-10.15434106999999
 10
19.84548586842001
 20
-10.18025947127999
 10
19.83515728346
 20
-10.20606617207999
 10
19.82448448985999
 20
-10.23164821111999
 10
19.81351513818
 20
-10.25691201015998
 10
19.80228209498003
 20
-10.28180837751998
 10
19.79080041689999
 20
-10.30633127415999
 10
19.77909407706002
 20
-10.33045648503999
 10
19.76718561498
 20
-10.35416511991999
  0
LINE
  5
205
330
2
100
AcDbEntity
  8
0
100
AcDbLine
 10
17.09299875546
 20
-13.41472845303999
 30
0.0
 11
17.10786377818001
 21
-13.37392280183999
 31
0.0
  0
LINE
  5
206
330
2
100
AcDbEntity
  8
0
100
AcDbLine
 10
16.75699484378001
 20
-13.10050947063999
 30
0.0
 11
16.73894136282001
 21
-13.14318433655999
 31
0.0
  0
LINE
  5
207
330
2
100
AcDbEntity
  8
0
100
AcDbLine
 10
12.74299343834002
 20
-13.19527909623999
 30
0.0
 11
12.38914185434
 21
-13.54913067895999
 31
0.0
  0
LWPOLYLINE
  5
208
330
2
100
AcDbEntity
  8
0
100
AcDbPolyline
 90
        7
 70
     0
 43
0.0
 10
12.74299375065999
 20
-13.19527877111999
 10
12.74512194394
 20
-13.19320069111999
 10
12.75444976474
 20
-13.18514760183999
 10
12.76336812377999
 20
-13.17879558135999
 10
12.77184009562
 20
-13.17376952439999
 10
12.77991865434001
 20
-13.16977042295998
 10
12.78761534297998
 20
-13.16660794359999
  0
LWPOLYLINE
  5
209
330
2
100
AcDbEntity
  8
0
100
AcDbPolyline
 90
       32
 70
     0
 43
0.0
 10
10.85253020250001
 20
7.934784363600007
 10
10.28414169689999
 20
7.933194249040012
 10
9.674857824899977
 20
7.925134535760006
 10
9.048848422020018
 20
7.909809963600009
 10
8.420049325699995
 20
7.890336311120007
 10
7.814555677059974
 20
7.868712826960004
 10
7.2461617865
 20
7.846326471760006
 10
6.679325486980008
 20
7.822137783120011
 10
6.096084235140001
 20
7.794904437840008
 10
5.517399970179997
 20
7.765224206160011
 10
4.970895980419999
 20
7.73472285704001
 10
4.472115101060001
 20
7.704747363920004
 10
3.994542257539979
 20
7.673865084240011
 10
3.518138830979996
 20
7.641373049680003
 10
3.07101560026
 20
7.609086060880008
 10
2.643891647619984
 20
7.576294890320012
 10
2.197686810500005
 20
7.539616692560008
 10
1.766069691780007
 20
7.50091911048001
 10
1.384743729540009
 20
7.463174959440008
 10
1.0443149769
 20
7.426245012560007
 10
0.7387564232999928
 20
7.390117495120007
 10
0.4645198831400031
 20
7.35485316744001
 10
0.2173209442600132
 20
7.320296560720008
 10
-0.008689948540006
 20
7.285957999440006
 10
-0.2221775299800122
 20
7.250795933520008
 10
-0.4369054403800128
 20
7.212784611920005
 10
-0.6781260189400165
 20
7.16598773512001
 10
-0.898018498940015
 20
7.11640402568001
 10
-1.077416971900003
 20
7.066740250960007
 10
-1.235126427259995
 20
7.011120382800006
 10
-1.356346583420002
 20
6.956909714000003
 10
-1.397856001945447
 20
6.934784363600007
  0
LWPOLYLINE
  5
20E
330
2
100
AcDbEntity
  8
0
100
AcDbPolyline
 90
       16
 70
     0
 43
0.0
 10
20.77838855513999
 20
-0.5705621119199904
 10
20.78278919001999
 20
-0.5930446859999919
 10
20.82091798362
 20
-0.8034752024799871
 10
20.86322495449999
 20
-0.9944098213599872
 10
20.91473482970002
 20
-1.167129037999991
 10
20.97491206105999
 20
-1.328200984239991
 10
21.03808122585999
 20
-1.47984165879999
 10
21.09944569306
 20
-1.621562461359992
 10
21.15645526874001
 20
-1.754055494319985
 10
21.20745689562002
 20
-1.878037661359989
 10
21.25275299290001
 20
-1.997756688559988
 10
21.29342903898
 20
-2.11883182711999
 10
21.32856518617998
 20
-2.24232993527999
 10
21.35642623193999
 20
-2.36892860663999
 10
21.37467024986
 20
-2.50105539319999
 10
21.37923138010001
 20
-2.643990010799988
  0
LWPOLYLINE
  5
210
330
2
100
AcDbEntity
  8
0
100
AcDbPolyline
 90
       12
 70
     0
 43
0.0
 10
22.09323045722001
 20
-1.831757972399991
 10
22.07815744218001
 20
-1.450913031599988
 10
22.05880015066
 20
-1.085063312559988
 10
22.03457262426002
 20
-0.7357412133599866
 10
22.00491149402
 20
-0.4039595045599924
 10
21.96936065241999
 20
-0.090064208559987
 10
21.92779456218002
 20
0.20684536328001
 10
21.88035327322001
 20
0.4885771392800109
 10
21.8264703369
 20
0.7547767181600094
 10
21.76480920282
 20
1.003547257680011
 10
21.69329664474
 20
1.232373021520011
 10
21.60824890842002
 20
1.437479975760012
  0
LINE
  5
213
330
2
100
AcDbEntity
  8
0
100
AcDbLine
 10
21.36809401434002
 20
-2.768571033519994
 30
0.0
 11
21.37923138010001
 21
-2.643990010799991
 31
0.0
  0
LINE
  5
215
330
2
100
AcDbEntity
  8
0
100
AcDbLine
 10
22.08848469466002
 20
-1.920274195119993
 30
0.0
 11
22.39635100378002
 21
1.164961305680007
 31
0.0
  0
LWPOLYLINE
  5
216
330
2
100
AcDbEntity
  8
0
100
AcDbPolyline
 90
        3
 70
     0
 43
0.0
 10
22.39635100378001
 20
1.164961305680009
 10
22.65135201498
 20
3.717993501520012
 10
22.8249801801
 20
5.455139895120012
  0
LINE
  5
218
330
2
100
AcDbEntity
  8
0
100
AcDbLine
 10
22.08364636506001
 20
-1.96188171767999
 30
0.0
 11
22.08863254618002
 21
-1.918768662959992
 31
0.0
  0
LWPOLYLINE
  5
219
330
2
100
AcDbEntity
  8
0
100
AcDbPolyline
 90
        3
 70
     0
 43
0.0
 10
22.05120870746
 20
-2.124157256879989
 10
22.07065522778
 20
-2.040244518319994
 10
22.08364636505999
 20
-1.961881717679986
  0
LWPOLYLINE
  5
21A
330
2
100
AcDbEntity
  8
0
100
AcDbPolyline
 90
        3
 70
     0
 43
0.0
 10
17.10786377818001
 20
-13.37392280183999
 10
17.14579767770001
 20
-13.30816895351999
 10
17.19448018009998
 20
-13.25477920119998
  0
LINE
  5
21B
330
2
100
AcDbEntity
  8
0
100
AcDbLine
 10
18.50700051802
 20
-11.43986396023999
 30
0.0
 11
18.49108187098002
 21
-11.44547853175999
 31
0.0
  0
LINE
  5
21C
330
2
100
AcDbEntity
  8
0
100
AcDbLine
 10
18.57673384666002
 20
-11.42996675703999
 30
0.0
 11
18.58901760602
 21
-11.42567586423999
 31
0.0
  0
LINE
  5
21D
330
2
100
AcDbEntity
  8
0
100
AcDbLine
 10
18.49108187098002
 20
-11.44547853175999
 30
0.0
 11
18.47557097562001
 21
-11.45080621943999
 31
0.0
  0
LINE
  5
21E
330
2
100
AcDbEntity
  8
0
100
AcDbLine
 10
18.56464697306
 20
-11.43410609783999
 30
0.0
 11
18.57673384666002
 21
-11.42996675703999
 31
0.0
  0
LINE
  5
21F
330
2
100
AcDbEntity
  8
0
100
AcDbLine
 10
12.78761534298
 20
-13.16660794359999
 30
0.0
 11
12.7916546441
 21
-13.16524265207999
 31
0.0
  0
LINE
  5
220
330
2
100
AcDbEntity
  8
0
100
AcDbLine
 10
18.55275586138002
 20
-11.43809884151999
 30
0.0
 11
18.56464697306
 21
-11.43410609783999
 31
0.0
  0
LINE
  5
221
330
2
100
AcDbEntity
  8
0
100
AcDbLine
 10
18.47557097562001
 20
-11.45080621943999
 30
0.0
 11
18.46066617562001
 21
-11.45579241335999
 31
0.0
  0
LINE
  5
222
330
2
100
AcDbEntity
  8
0
100
AcDbLine
 10
18.54105936474002
 20
-11.44194978551999
 30
0.0
 11
18.55275586138002
 21
-11.43809884151999
 31
0.0
  0
LINE
  5
223
330
2
100
AcDbEntity
  8
0
100
AcDbLine
 10
18.46066617562001
 20
-11.45579241335999
 30
0.0
 11
18.44657792090002
 21
-11.46038504311999
 31
0.0
  0
LINE
  5
224
330
2
100
AcDbEntity
  8
0
100
AcDbLine
 10
18.52955762906001
 20
-11.44566315255999
 30
0.0
 11
18.54105936474002
 21
-11.44194978551999
 31
0.0
  0
LINE
  5
225
330
2
100
AcDbEntity
  8
0
100
AcDbLine
 10
18.44657792090002
 20
-11.46038504311999
 30
0.0
 11
18.43320091098
 21
-11.46463723511999
 31
0.0
  0
LINE
  5
226
330
2
100
AcDbEntity
  8
0
100
AcDbLine
 10
18.51825196378001
 20
-11.44924268023999
 30
0.0
 11
18.52955762906001
 21
-11.44566315255999
 31
0.0
  0
LINE
  5
227
330
2
100
AcDbEntity
  8
0
100
AcDbLine
 10
18.50714364378002
 20
-11.45269202423999
 30
0.0
 11
18.51825196378001
 21
-11.44924268023999
 31
0.0
  0
LINE
  5
228
330
2
100
AcDbEntity
  8
0
100
AcDbLine
 10
18.43320091098
 20
-11.46463723511999
 30
0.0
 11
18.42039422426
 21
-11.46860876151998
 31
0.0
  0
LINE
  5
229
330
2
100
AcDbEntity
  8
0
100
AcDbLine
 10
18.49623388122002
 20
-11.45601477367999
 30
0.0
 11
18.50714364378002
 21
-11.45269202423999
 31
0.0
  0
LINE
  5
22A
330
2
100
AcDbEntity
  8
0
100
AcDbLine
 10
18.42039422426
 20
-11.46860876151998
 30
0.0
 11
18.40801665370002
 21
-11.47235456631999
 31
0.0
  0
LINE
  5
22B
330
2
100
AcDbEntity
  8
0
100
AcDbLine
 10
18.48552382298001
 20
-11.45921445239999
 30
0.0
 11
18.49623388122002
 21
-11.45601477367999
 31
0.0
  0
LINE
  5
22C
330
2
100
AcDbEntity
  8
0
100
AcDbLine
 10
18.40801665370002
 20
-11.47235456631999
 30
0.0
 11
18.39593349082001
 21
-11.47592316919999
 31
0.0
  0
LINE
  5
22D
330
2
100
AcDbEntity
  8
0
100
AcDbLine
 10
18.47501453402001
 20
-11.46229452023999
 30
0.0
 11
18.48552382298001
 21
-11.45921445239999
 31
0.0
  0
LINE
  5
22E
330
2
100
AcDbEntity
  8
0
100
AcDbLine
 10
18.39593349082001
 20
-11.47592316919999
 30
0.0
 11
18.38410389978
 21
-11.47933228919999
 31
0.0
  0
LINE
  5
22F
330
2
100
AcDbEntity
  8
0
100
AcDbLine
 10
18.46470393050001
 20
-11.46525924855999
 30
0.0
 11
18.47501453402001
 21
-11.46229452023999
 31
0.0
  0
LWPOLYLINE
  5
233
330
2
100
AcDbEntity
  8
0
100
AcDbPolyline
 90
       76
 70
     0
 43
0.0
 10
19.76718561498
 20
-10.35416511991999
 10
19.75509622234
 20
-10.37744274423998
 10
19.74284334682002
 20
-10.40028399095999
 10
19.73044457946
 20
-10.42268721527998
 10
19.71792064601999
 20
-10.44464622711998
 10
19.70529087834
 20
-10.46615751031998
 10
19.69257185498
 20
-10.48722212855998
 10
19.67977630042
 20
-10.50784692727999
 10
19.6669154889
 20
-10.52804009847998
 10
19.65399960154002
 20
-10.54781052919999
 10
19.64103779673999
 20
-10.56716763511998
 10
19.62803828186
 20
-10.58612123639999
 10
19.61500837209999
 20
-10.60468145143999
 10
19.60195453658002
 20
-10.62285861495998
 10
19.58888245337999
 20
-10.64066321655998
 10
19.57579696346002
 20
-10.65810594295999
 10
19.56270243802001
 20
-10.67519721463999
 10
19.54960440154002
 20
-10.69194515703999
 10
19.53650811738
 20
-10.70835760119999
 10
19.52341838553999
 20
-10.72444236279998
 10
19.51033956954
 20
-10.74020722295999
 10
19.49727560793999
 20
-10.75565991415999
 10
19.48423004378
 20
-10.77080810743999
 10
19.47120603482
 20
-10.78565940215999
 10
19.45820637657999
 20
-10.80022131703999
 10
19.44523351258001
 20
-10.81450128375998
 10
19.43228955482001
 20
-10.82850663927999
 10
19.41937641306
 20
-10.84224449655998
 10
19.40649659482
 20
-10.85572093687999
 10
19.3936527241
 20
-10.86894158199999
 10
19.3808471881
 20
-10.88191199223999
 10
19.36808214618
 20
-10.89463765751998
 10
19.35535953754001
 20
-10.90712399735999
 10
19.34268109146001
 20
-10.91937635831998
 10
19.33004833626
 20
-10.93140001399999
 10
19.31746260314
 20
-10.94320015991999
 10
19.3049250377
 20
-10.95478191223999
 10
19.29243660378
 20
-10.96615030903999
 10
19.27999809498001
 20
-10.97731031159999
 10
19.26761013466
 20
-10.98826679287999
 10
19.25527329882001
 20
-10.99902445559998
 10
19.24298878298
 20
-11.00958726263999
 10
19.23075755482
 20
-11.01995920119999
 10
19.21857967066
 20
-11.03014496503998
 10
19.20645574746001
 20
-11.04014876919999
 10
19.19438658778
 20
-11.04997451255999
 10
19.18237288282
 20
-11.05962601207999
 10
19.17041520858001
 20
-11.06910701687999
 10
19.15851403738
 20
-11.07842120055999
 10
19.14666973530001
 20
-11.08757216375999
 10
19.13488257626002
 20
-11.09656343543999
 10
19.12315273178001
 20
-11.10539847671999
 10
19.11148028890002
 20
-11.11408067447999
 10
19.09986524633998
 20
-11.12261334903998
 10
19.08830751578
 20
-11.13099975159999
 10
19.07680693338002
 20
-11.13924306935999
 10
19.06536336089999
 20
-11.14734634231999
 10
19.0539772873
 20
-11.15531206903999
 10
19.04264936666001
 20
-11.16314254071999
 10
19.03138019802
 20
-11.17084001399999
 10
19.02017032922
 20
-11.17840670455999
 10
19.00902025050001
 20
-11.18584479095999
 10
18.99793040346
 20
-11.19315641335999
 10
18.98690118362
 20
-11.20034367735998
 10
18.97593293273999
 20
-11.20740865015998
 10
18.96502595161999
 20
-11.21435336567998
 10
18.95418049497999
 20
-11.22117982071999
 10
18.94339677146001
 20
-11.22788997751999
 10
18.93267495386001
 20
-11.23448576631998
 10
18.9220151689
 20
-11.24096908023998
 10
18.91141750874001
 20
-11.24734178295998
 10
18.90088202458
 20
-11.25360570103999
 10
18.89040873306001
 20
-11.25976263415999
 10
18.87999760986
 20
-11.26581434871998
 10
18.86964824154
 20
-11.27176278519999
 10
18.85935969369998
 20
-11.27761011831999
  0
LWPOLYLINE
  5
234
330
2
100
AcDbEntity
  8
0
100
AcDbPolyline
 90
       39
 70
     0
 43
0.0
 10
19.72616131802001
 20
-11.86810968695999
 10
19.73418491097999
 20
-11.85376966263999
 10
19.74661916378002
 20
-11.83067017975998
 10
19.75839975258
 20
-11.80792446327998
 10
19.76954283609998
 20
-11.78556542839999
 10
19.78006478169999
 20
-11.76362568055999
 10
19.78998217561999
 20
-11.74213779831999
 10
19.79931260506001
 20
-11.72113396983998
 10
19.8080729865
 20
-11.70064869495998
 10
19.81627477594
 20
-11.68073046263999
 10
19.8239284489
 20
-11.66143378679999
 10
19.83104690266
 20
-11.64281029367999
 10
19.83766187354001
 20
-11.62486130807999
 10
19.84381677274001
 20
-11.60754885239999
 10
19.84955115098
 20
-11.59083543927998
 10
19.85491443162001
 20
-11.57464307063998
 10
19.86002153178
 20
-11.55866991863999
 10
19.86537729242002
 20
-11.54127736311999
 10
19.86889599962
 20
-11.52946372727998
 10
19.87296510298
 20
-11.51538840695998
 10
19.87702518489999
 20
-11.50085110903999
 10
19.88074807898001
 20
-11.48703811447999
 10
19.88423819354002
 20
-11.47362328951999
 10
19.88756267482
 20
-11.46038157687998
 10
19.89071029850001
 20
-11.44738285303999
 10
19.8936660425
 20
-11.43472359927998
 10
19.89643960922001
 20
-11.42240199927999
 10
19.89904224346
 20
-11.41040692471998
 10
19.90148571482001
 20
-11.39872069751999
 10
19.90377993818
 20
-11.38733099767999
 10
19.90591966170001
 20
-11.37630231159999
 10
19.90788934618001
 20
-11.36576421623998
 10
19.90968081370002
 20
-11.35582259959999
 10
19.91132072793999
 20
-11.34639164663999
 10
19.91284718170001
 20
-11.33729944311999
 10
19.91431990617999
 20
-11.32821197815999
 10
19.9157950473
 20
-11.31877116791998
 10
19.91728699481998
 20
-11.30883684215999
 10
19.9187669833
 20
-11.29854784247999
  0
LWPOLYLINE
  5
235
330
2
100
AcDbEntity
  8
0
100
AcDbPolyline
 90
       12
 70
     0
 43
0.0
 10
19.96218726233999
 20
-10.80615474807999
 10
20.02579378394
 20
-10.74280531703998
 10
20.11602127834001
 20
-10.64219193719999
 10
20.20580166106
 20
-10.52887939319999
 10
20.29239040602001
 20
-10.40369808375999
 10
20.3732354633
 20
-10.26794701303999
 10
20.44635499994001
 20
-10.12283246583999
 10
20.51010044762
 20
-9.969729396399991
 10
20.56312178778
 20
-9.81027259895999
 10
20.60443939161999
 20
-9.646201366959992
 10
20.63343539033999
 20
-9.479331472559987
 10
20.64873463514001
 20
-9.328854157999991
  0
LINE
  5
236
330
2
100
AcDbEntity
  8
0
100
AcDbLine
 10
17.1944801801
 20
-13.25477920119999
 30
0.0
 11
17.24947520218002
 21
-13.21492962807999
 31
0.0
  0
LWPOLYLINE
  5
237
330
2
100
AcDbEntity
  8
0
100
AcDbPolyline
 90
       36
 70
     0
 43
0.0
 10
18.85935969369998
 20
-11.27761011831999
 10
18.8491309769
 20
-11.28335848695999
 10
18.83896106457999
 20
-11.28900997879999
 10
18.82884888794001
 20
-11.29456663927999
 10
18.81879334746
 20
-11.30003046775998
 10
18.80879330522
 20
-11.30540341879999
 10
18.79884759130001
 20
-11.31068739959999
 10
18.78895500505999
 20
-11.31588427767999
 10
18.77911431257999
 20
-11.32099587191998
 10
18.76932425306
 20
-11.32602396151999
 10
18.75958353626001
 20
-11.33097028087998
 10
18.74989084506
 20
-11.33583652215998
 10
18.74024483674
 20
-11.34062433527999
 10
18.73064414297999
 20
-11.34533532791998
 10
18.72108736986001
 20
-11.34997106679999
 10
18.71157310297999
 20
-11.35453307639999
 10
18.70209990106002
 20
-11.35902284151999
 10
18.69266630746
 20
-11.36344180343999
 10
18.6832708361
 20
-11.36779136631998
 10
18.67391237722
 20
-11.37207271543999
 10
18.66459280730001
 20
-11.37628565239999
 10
18.65531531098
 20
-11.38042942071999
 10
18.64608306906001
 20
-11.38450332151999
 10
18.63689925209999
 20
-11.38850671479999
 10
18.62776701658001
 20
-11.39243901303998
 10
18.61868951002
 20
-11.39629969143999
 10
18.60966985946001
 20
-11.40008827895999
 10
18.6007111753
 20
-11.40380436727999
 10
18.59181655258001
 20
-11.40744760311998
 10
18.58298905946
 20
-11.41101769207999
 10
18.57423174362
 20
-11.41451439863998
 10
18.5655472585
 20
-11.41793769591998
 10
18.55693711066001
 20
-11.42128809207999
 10
18.54840414297999
 20
-11.42456564599999
 10
18.5399513353
 20
-11.42777040119999
 10
18.53158164570001
 20
-11.43090244727999
  0
LWPOLYLINE
  5
238
330
2
100
AcDbEntity
  8
0
100
AcDbPolyline
 90
       18
 70
     0
 43
0.0
 10
18.88223093466001
 20
-11.29639112951999
 10
18.89016156378002
 20
-11.29212909303998
 10
18.89811239386
 20
-11.28781265015999
 10
18.90608205786
 20
-11.28344192887998
 10
18.91406919386
 20
-11.27901707255999
 10
18.92207244249999
 20
-11.27453823991999
 10
18.93009044954001
 20
-11.27000561015999
 10
18.93812186586001
 20
-11.26541937527999
 10
18.94616534362
 20
-11.26077974775999
 10
18.95421954394001
 20
-11.25608695415998
 10
18.96228313177999
 20
-11.25134124151999
 10
18.97035515865999
 20
-11.24654264055998
 10
18.97843768793998
 20
-11.24168938359999
 10
18.98653416922002
 20
-11.23677879031998
 10
18.99464801370001
 20
-11.23180811127999
 10
19.00278258393998
 20
-11.22677452535999
 10
19.01094119129999
 20
-11.22167514231999
 10
19.01935006554001
 20
-11.21636551031999
  0
LINE
  5
239
330
2
100
AcDbEntity
  8
0
100
AcDbLine
 10
18.86643576026001
 20
-11.30475155959999
 30
0.0
 11
18.88223093466001
 21
-11.29639112951999
 31
0.0
  0
LINE
  5
23A
330
2
100
AcDbEntity
  8
0
100
AcDbLine
 10
18.85073786970001
 20
-11.31289325431999
 30
0.0
 11
18.86643576026001
 21
-11.30475155959999
 31
0.0
  0
LINE
  5
23B
330
2
100
AcDbEntity
  8
0
100
AcDbLine
 10
18.83514830554002
 20
-11.32081578359999
 30
0.0
 11
18.85073786970001
 21
-11.31289325431999
 31
0.0
  0
LINE
  5
23C
330
2
100
AcDbEntity
  8
0
100
AcDbLine
 10
18.81967814746001
 20
-11.32851896823999
 30
0.0
 11
18.83514830554002
 21
-11.32081578359999
 31
0.0
  0
LINE
  5
23D
330
2
100
AcDbEntity
  8
0
100
AcDbLine
 10
18.80433850842
 20
-11.33600287991999
 30
0.0
 11
18.81967814746001
 21
-11.32851896823999
 31
0.0
  0
LINE
  5
23E
330
2
100
AcDbEntity
  8
0
100
AcDbLine
 10
18.78914052698
 20
-11.34326782583999
 30
0.0
 11
18.80433850842
 21
-11.33600287991999
 31
0.0
  0
LWPOLYLINE
  5
23F
330
2
100
AcDbEntity
  8
0
100
AcDbPolyline
 90
        4
 70
     0
 43
0.0
 10
17.24947520218
 20
-13.21492962807998
 10
17.30604084570001
 20
-13.18852571127999
 10
17.35336271066
 20
-13.17528476791999
 10
17.36538260058
 20
-13.17331354231998
  0
LINE
  5
240
330
2
100
AcDbEntity
  8
0
100
AcDbLine
 10
18.77409535834001
 20
-11.35031435255999
 30
0.0
 11
18.78914052698
 21
-11.34326782583999
 31
0.0
  0
LINE
  5
241
330
2
100
AcDbEntity
  8
0
100
AcDbLine
 10
18.75921416922001
 20
-11.35714322935999
 30
0.0
 11
18.77409535834001
 21
-11.35031435255999
 31
0.0
  0
LINE
  5
242
330
2
100
AcDbEntity
  8
0
100
AcDbLine
 10
18.74450650074002
 20
-11.36375617399999
 30
0.0
 11
18.75921416922001
 21
-11.35714322935999
 31
0.0
  0
LINE
  5
243
330
2
100
AcDbEntity
  8
0
100
AcDbLine
 10
18.72997715674
 20
-11.37015712247999
 30
0.0
 11
18.74450650074002
 21
-11.36375617399999
 31
0.0
  0
LINE
  5
244
330
2
100
AcDbEntity
  8
0
100
AcDbLine
 10
18.71563000538001
 20
-11.37635038967999
 30
0.0
 11
18.72997715674
 21
-11.37015712247999
 31
0.0
  0
LINE
  5
245
330
2
100
AcDbEntity
  8
0
100
AcDbLine
 10
18.70146881754001
 20
-11.38234027639999
 30
0.0
 11
18.71563000538001
 21
-11.37635038967999
 31
0.0
  0
LINE
  5
246
330
2
100
AcDbEntity
  8
0
100
AcDbLine
 10
18.68749726810001
 20
-11.38813107191999
 30
0.0
 11
18.70146881754001
 21
-11.38234027639999
 31
0.0
  0
LINE
  5
247
330
2
100
AcDbEntity
  8
0
100
AcDbLine
 10
18.67371893466001
 20
-11.39372704375999
 30
0.0
 11
18.68749726810001
 21
-11.38813107191999
 31
0.0
  0
LINE
  5
248
330
2
100
AcDbEntity
  8
0
100
AcDbLine
 10
18.66013730906002
 20
-11.39913244663999
 30
0.0
 11
18.67371893466001
 21
-11.39372704375999
 31
0.0
  0
LINE
  5
249
330
2
100
AcDbEntity
  8
0
100
AcDbLine
 10
18.64675561818001
 20
-11.40435157239999
 30
0.0
 11
18.66013730906002
 21
-11.39913244663999
 31
0.0
  0
LINE
  5
24A
330
2
100
AcDbEntity
  8
0
100
AcDbLine
 10
18.63357491930001
 20
-11.40938949111999
 30
0.0
 11
18.64675561818001
 21
-11.40435157239999
 31
0.0
  0
LINE
  5
24B
330
2
100
AcDbEntity
  8
0
100
AcDbLine
 10
18.62059478234
 20
-11.41425183479999
 30
0.0
 11
18.63357491930001
 21
-11.40938949111999
 31
0.0
  0
LINE
  5
24C
330
2
100
AcDbEntity
  8
0
100
AcDbLine
 10
18.60781460058001
 20
-11.41894418935999
 30
0.0
 11
18.62059478234
 21
-11.41425183479999
 31
0.0
  0
LWPOLYLINE
  5
24D
330
2
100
AcDbEntity
  8
0
100
AcDbPolyline
 90
        3
 70
     0
 43
0.0
 10
18.53158164570001
 20
-11.43090244727999
 10
18.51510333786001
 20
-11.43694901751999
 10
18.50700051801999
 20
-11.43986396023999
  0
LWPOLYLINE
  5
24E
330
2
100
AcDbEntity
  8
0
100
AcDbPolyline
 90
        3
 70
     0
 43
0.0
 10
18.58901760602
 20
-11.42567586423999
 10
18.5952336393
 20
-11.42347199991998
 10
18.60781460058001
 20
-11.41894418935999
  0
LWPOLYLINE
  5
24F
330
2
100
AcDbEntity
  8
0
100
AcDbPolyline
 90
        3
 70
     0
 43
0.0
 10
17.48933890265999
 20
-13.16598468215999
 10
17.48708379098002
 20
-13.16669868279999
 10
17.41526914522
 20
-13.17127343095999
  0
LWPOLYLINE
  5
250
330
2
100
AcDbEntity
  8
0
100
AcDbPolyline
 90
       32
 70
     0
 43
0.0
 10
23.10291640732335
 20
6.934784363600008
 10
23.06140695898001
 20
6.956909728080004
 10
22.94018678618001
 20
7.011120400720008
 10
22.78247731161998
 20
7.066740271440009
 10
22.60307881817998
 20
7.116404047440004
 10
22.38318628313998
 20
7.165987764560012
 10
22.14196572249999
 20
7.212784634960007
 10
21.92723783641999
 20
7.250795950160009
 10
21.71375025881999
 20
7.285958014800007
 10
21.48773935705999
 20
7.320296576080009
 10
21.24054041178
 20
7.354853182800011
 10
20.96630387161999
 20
7.390117509200008
 10
20.66074531033998
 20
7.426245026640009
 10
20.32031654873999
 20
7.463174972240009
 10
19.93899058394
 20
7.500919122000004
 10
19.50737345626
 20
7.539616704080009
 10
19.06116862937999
 20
7.576294900560013
 10
18.63404468442
 20
7.609086069840008
 10
18.18692144729998
 20
7.641373058640004
 10
17.71051803994
 20
7.673865090640012
 10
17.23294521946001
 20
7.704747369040005
 10
16.73416433497998
 20
7.73472286216001
 10
16.18766033370001
 20
7.765224212560012
 10
15.60897607257998
 20
7.794904442960008
 10
15.02573483738
 20
7.822137786960011
 10
14.45889855450001
 20
7.846326474320006
 10
13.89050466905998
 20
7.868712828240004
 10
13.28501102937999
 20
7.890336313680007
 10
12.65621194841999
 20
7.909809964880009
 10
12.03020255449998
 20
7.925134535760006
 10
11.42091869145999
 20
7.933194249040012
 10
10.85253020250001
 20
7.934784363600007
  0
LINE
  5
258
330
2
100
AcDbEntity
  8
0
100
AcDbLine
 10
26.85310301274
 20
5.434784363600007
 30
0.0
 11
26.74169742810001
 21
6.702401131600002
 31
0.0
  0
ARC
  5
259
330
2
100
AcDbEntity
  8
0
100
AcDbCircle
 10
5.481458645380008
 20
-13.15896563703999
 30
0.0
 40
0.90625000064
100
AcDbArc
 50
196.4097412361999
 51
270.0
  0
ARC
  5
25A
330
2
100
AcDbEntity
  8
0
100
AcDbCircle
 10
13.61259462874002
 20
-13.15896563703999
 30
0.0
 40
0.90625000064
100
AcDbArc
 50
199.884779755
 51
269.9992255901
  0
ARC
  5
25B
330
2
100
AcDbEntity
  8
0
100
AcDbCircle
 10
16.22360175962
 20
-13.15896563703999
 30
0.0
 40
0.90625000064
100
AcDbArc
 50
270.0
 51
343.5902587638
  0
ARC
  5
25C
330
2
100
AcDbEntity
  8
0
100
AcDbCircle
 10
8.09246577626002
 20
-13.15896563703999
 30
0.0
 40
0.90625000064
100
AcDbArc
 50
270.0007744099
 51
340.5818082635
  0
ARC
  5
25D
330
2
100
AcDbEntity
  8
0
100
AcDbCircle
 10
12.12397681242
 20
-13.28396563703999
 30
0.0
 40
0.375
100
AcDbArc
 50
270.0
 51
315.0
  0
ARC
  5
25E
330
2
100
AcDbEntity
  8
0
100
AcDbCircle
 10
9.581083592580013
 20
-13.28396563703999
 30
0.0
 40
0.375
100
AcDbArc
 50
225.0
 51
270.0
  0
ARC
  5
25F
330
2
100
AcDbEntity
  8
0
100
AcDbCircle
 10
-4.761458684767517
 20
6.672325743773408
 30
0.0
 40
0.2768389514501586
100
AcDbArc
 50
108.5484058665259
 51
173.5676229266472
  0
ARC
  5
261
330
2
100
AcDbEntity
  8
0
100
AcDbCircle
 10
26.48585778616119
 20
6.679175128338812
 30
0.0
 40
0.2568964589166456
100
AcDbArc
 50
5.397516599150529
 51
84.26191355800032
  0
LWPOLYLINE
  5
263
330
2
100
AcDbEntity
  8
CENTER
 48
4.0
100
AcDbPolyline
 90
        3
 70
   128
 43
0.0
 10
13.93122704729258
 20
3.405590526800004
 10
10.85253020249999
 20
3.405590526800004
 10
7.616597014659987
 20
3.405590526800004
  0
LWPOLYLINE
  5
267
330
2
100
AcDbEntity
  8
CENTER
 48
4.0
100
AcDbPolyline
 90
        3
 70
   128
 43
0.0
 10
10.85253020249999
 20
-0.1244094731999965
 10
10.85253020249999
 20
3.405590526800004
 10
10.85253020249999
 20
6.935590526799998
  0
LWPOLYLINE
  5
268
330
2
100
AcDbEntity
  8
CENTER
 48
4.0
100
AcDbPolyline
 90
        3
 70
   128
 43
0.0
 10
10.85310301274
 20
-17.18896563703998
 10
10.85310301274
 20
-13.65896563703999
 10
10.85310301274
 20
-10.12896563703999
  0
LINE
  5
384
330
2
100
AcDbEntity
  8
0
100
AcDbLine
 10
26.85310301274
 20
5.434784363600007
 30
0.0
 11
-5.146896987259992
 21
5.434784363600007
 31
0.0
  0
LINE
  5
38B
330
2
100
AcDbEntity
  8
0
100
AcDbLine
 10
-4.849522740537963
 20
6.934784363600007
 30
0.0
 11
26.51154259593465
 21
6.934784363600007
 31
0.0
  0
ENDSEC
  0
SECTION
  2
OBJECTS
  0
DICTIONARY
  5
C
330
0
100
AcDbDictionary
  3
ACAD_COLOR
350
2E
  3
ACAD_GROUP
350
29
  3
ACAD_LAYOUT
350
B
  3
ACAD_MATERIAL
350
2D
  3
ACAD_MLINESTYLE
350
2A
  3
ACAD_PLOTSETTINGS
350
2B
  3
ACAD_PLOTSTYLENAME
350
2C
  3
ACAD_TABLESTYLE
350
2F
  3
ACDBHEADERROUNDTRIPXREC
350
3C5
  3
ACDBVARIABLEDICTIONARY
350
26E
  0
DICTIONARY
  5
12
330
11
100
AcDbDictionary
280
     1
  3
ACAD_LAYERFILTERS
360
13
  3
ACLYDICTIONARY
360
14
  0
DICTIONARY
  5
3
330
2
100
AcDbDictionary
280
     1
  3
ACAD_LAYOUTSELFREF
360
3E6
  3
ACAD_SORTENTS
360
269
  0
DICTIONARY
  5
2EC
330
D
100
AcDbDictionary
280
     1
  3
ACAD_LAYOUTSELFREF
360
3E7
  0
DICTIONARY
  5
2E
102
{ACAD_REACTORS
330
C
102
}
330
C
100
AcDbDictionary
  0
DICTIONARY
  5
29
102
{ACAD_REACTORS
330
C
102
}
330
C
100
AcDbDictionary
  0
DICTIONARY
  5
B
102
{ACAD_REACTORS
330
C
102
}
330
C
100
AcDbDictionary
  0
DICTIONARY
  5
2D
102
{ACAD_REACTORS
330
C
102
}
330
C
100
AcDbDictionary
  0
DICTIONARY
  5
2A
102
{ACAD_REACTORS
330
C
102
}
330
C
100
AcDbDictionary
  3
STANDARD
350
30
  0
DICTIONARY
  5
2B
102
{ACAD_REACTORS
330
C
102
}
330
C
100
AcDbDictionary
  0
ACDBDICTIONARYWDFLT
  5
2C
102
{ACAD_REACTORS
330
C
102
}
330
C
100
AcDbDictionary
281
     1
  3
Normal
350
7
100
AcDbDictionaryWithDefault
340
7
  0
DICTIONARY
  5
2F
102
{ACAD_REACTORS
330
C
102
}
330
C
100
AcDbDictionary
  3
STANDARD
350
31
  0
DICTIONARY
  5
3C5
102
{ACAD_REACTORS
330
C
102
}
330
C
100
AcDbDictionary
  3
CEPSNTYPE
350
3CF
  3
DIMSTYLEDATA
350
3D3
  3
FINGERPRINTGUID
350
3D0
  3
HYPERLINKBASE
350
3C8
  3
INSUNITS
350
3CE
  3
LAYOUTDICT
350
3CA
  3
LWETCUNION
350
3CD
  3
PLOTSETDICT
350
3CB
  3
PLOTSTYLNAMDICT
350
3CC
  3
PSVPSCALE
350
3D2
  3
PUCSBASE
350
3D6
  3
PUCSORGBACK
350
3DC
  3
PUCSORGBOTTOM
350
3D8
  3
PUCSORGFRONT
350
3DB
  3
PUCSORGLEFT
350
3D9
  3
PUCSORGRIGHT
350
3DA
  3
PUCSORGTOP
350
3D7
  3
PUCSORTHOREF
350
3D4
  3
PUCSORTHOVIEW
350
3D5
  3
STYLESHEET
350
3C9
  3
TSTACKALIGN
350
3C6
  3
TSTACKSIZE
350
3C7
  3
UCSBASE
350
3DF
  3
UCSORGBACK
350
3E5
  3
UCSORGBOTTOM
350
3E1
  3
UCSORGFRONT
350
3E4
  3
UCSORGLEFT
350
3E2
  3
UCSORGRIGHT
350
3E3
  3
UCSORGTOP
350
3E0
  3
UCSORTHOREF
350
3DD
  3
UCSORTHOVIEW
350
3DE
  3
VERSIONGUID
350
3D1
  0
DICTIONARY
  5
26E
102
{ACAD_REACTORS
330
C
102
}
330
C
100
AcDbDictionary
  3
CTABLESTYLE
350
26F
  3
DIMASSOC
350
2A3
  3
HIDETEXT
350
2A2
  3
PROJECTNAME
350
2A4
  0
DICTIONARY
  5
13
102
{ACAD_REACTORS
330
12
102
}
330
12
100
AcDbDictionary
  0
DICTIONARY
  5
14
102
{ACAD_REACTORS
330
12
102
}
330
12
100
AcDbDictionary
1001
ACAD
1000
<All
  0
XRECORD
  5
3E6
102
{ACAD_REACTORS
330
3
102
}
330
3
100
AcDbXrecord
340
2
  0
SORTENTSTABLE
  5
269
102
{ACAD_REACTORS
330
3
102
}
330
3
100
AcDbSortentsTable
330
2
  0
XRECORD
  5
3E7
102
{ACAD_REACTORS
330
2EC
102
}
330
2EC
100
AcDbXrecord
340
D
  0
MLINESTYLE
  5
30
102
{ACAD_REACTORS
330
2A
102
}
330
2A
100
AcDbMlineStyle
  2
STANDARD
 70
     0
  3

 62
   256
 51
90.0
 52
90.0
 71
     2
 49
0.5
 62
   256
  6
BYLAYER
 49
-0.5
 62
   256
  6
BYLAYER
  0
ACDBPLACEHOLDER
  5
7
102
{ACAD_REACTORS
330
2C
102
}
330
0
100
AcDbPlaceHolder
280
     0
  0
ACAD_PROXY_OBJECT
  5
31
102
{ACAD_REACTORS
330
2F
102
}
330
2F
100
AcDbProxyObject
 90
      499
 91
      525
 93
     1841
310
4214DD185B99185C9928B81E85EB51B8AE3F2E07A17AD46E2B8FC02B5E8DC0F42B1CFD028000000C1008070000C3001FDFF8000000C1003FBFF000000182007F7FE00000030400FEFFC00000060801FDFF8000000C1003FBFF00000018200000000000000681FA0B0000001820100E000186003FBFF000000182007F7FE000
310
00030400FEFFC00000060801FDFF8000000C1003FBFF000000182007F7FE000000304000AD7A3703D0AC73F4160000003040201C00030C007F7FE00000030400FEFFC00000060801FDFF8000000C1003FBFF000000182007F7FE00000030400FEFFC000000608018
340
17
340
17
340
17
 94
        0
1001
ACAD
1000
AcadProxyRoundTripData
1071
      524
1071
   851991
1070
     0
  0
XRECORD
  5
3CF
102
{ACAD_REACTORS
330
3C5
102
}
330
3C5
100
AcDbXrecord
 90
        0
  0
XRECORD
  5
3D3
102
{ACAD_REACTORS
330
3C5
102
}
330
3C5
100
AcDbXrecord
1000
DSTYLE
1002
{
1070
   341
340
23
1070
   342
340
23
1002
}
  0
XRECORD
  5
3D0
102
{ACAD_REACTORS
330
3C5
102
}
330
3C5
100
AcDbXrecord
  1
{0A4F4F23-7DE8-4D0B-B469-3161E626324F}
  0
XRECORD
  5
3C8
102
{ACAD_REACTORS
330
3C5
102
}
330
3C5
100
AcDbXrecord
  1

  0
XRECORD
  5
3CE
102
{ACAD_REACTORS
330
3C5
102
}
330
3C5
100
AcDbXrecord
 90
        1
  0
XRECORD
  5
3CA
102
{ACAD_REACTORS
330
3C5
102
}
330
3C5
100
AcDbXrecord
340
B
  0
XRECORD
  5
3CD
102
{ACAD_REACTORS
330
3C5
102
}
330
3C5
100
AcDbXrecord
 90
    10781
  0
XRECORD
  5
3CB
102
{ACAD_REACTORS
330
3C5
102
}
330
3C5
100
AcDbXrecord
340
2B
  0
XRECORD
  5
3CC
102
{ACAD_REACTORS
330
3C5
102
}
330
3C5
100
AcDbXrecord
340
2C
  0
XRECORD
  5
3D2
102
{ACAD_REACTORS
330
3C5
102
}
330
3C5
100
AcDbXrecord
 40
0.0
  0
XRECORD
  5
3D6
102
{ACAD_REACTORS
330
3C5
102
}
330
3C5
100
AcDbXrecord
340
0
  0
XRECORD
  5
3DC
102
{ACAD_REACTORS
330
3C5
102
}
330
3C5
100
AcDbXrecord
 10
0.0
 20
0.0
 30
0.0
  0
XRECORD
  5
3D8
102
{ACAD_REACTORS
330
3C5
102
}
330
3C5
100
AcDbXrecord
 10
0.0
 20
0.0
 30
0.0
  0
XRECORD
  5
3DB
102
{ACAD_REACTORS
330
3C5
102
}
330
3C5
100
AcDbXrecord
 10
0.0
 20
0.0
 30
0.0
  0
XRECORD
  5
3D9
102
{ACAD_REACTORS
330
3C5
102
}
330
3C5
100
AcDbXrecord
 10
0.0
 20
0.0
 30
0.0
  0
XRECORD
  5
3DA
102
{ACAD_REACTORS
330
3C5
102
}
330
3C5
100
AcDbXrecord
 10
0.0
 20
0.0
 30
0.0
  0
XRECORD
  5
3D7
102
{ACAD_REACTORS
330
3C5
102
}
330
3C5
100
AcDbXrecord
 10
0.0
 20
0.0
 30
0.0
  0
XRECORD
  5
3D4
102
{ACAD_REACTORS
330
3C5
102
}
330
3C5
100
AcDbXrecord
340
0
  0
XRECORD
  5
3D5
102
{ACAD_REACTORS
330
3C5
102
}
330
3C5
100
AcDbXrecord
 70
     0
  0
XRECORD
  5
3C9
102
{ACAD_REACTORS
330
3C5
102
}
330
3C5
100
AcDbXrecord
  1

  0
XRECORD
  5
3C6
102
{ACAD_REACTORS
330
3C5
102
}
330
3C5
100
AcDbXrecord
 90
        1
  0
XRECORD
  5
3C7
102
{ACAD_REACTORS
330
3C5
102
}
330
3C5
100
AcDbXrecord
 90
       70
  0
XRECORD
  5
3DF
102
{ACAD_REACTORS
330
3C5
102
}
330
3C5
100
AcDbXrecord
340
0
  0
XRECORD
  5
3E5
102
{ACAD_REACTORS
330
3C5
102
}
330
3C5
100
AcDbXrecord
 10
0.0
 20
0.0
 30
0.0
  0
XRECORD
  5
3E1
102
{ACAD_REACTORS
330
3C5
102
}
330
3C5
100
AcDbXrecord
 10
0.0
 20
0.0
 30
0.0
  0
XRECORD
  5
3E4
102
{ACAD_REACTORS
330
3C5
102
}
330
3C5
100
AcDbXrecord
 10
0.0
 20
0.0
 30
0.0
  0
XRECORD
  5
3E2
102
{ACAD_REACTORS
330
3C5
102
}
330
3C5
100
AcDbXrecord
 10
0.0
 20
0.0
 30
0.0
  0
XRECORD
  5
3E3
102
{ACAD_REACTORS
330
3C5
102
}
330
3C5
100
AcDbXrecord
 10
0.0
 20
0.0
 30
0.0
  0
XRECORD
  5
3E0
102
{ACAD_REACTORS
330
3C5
102
}
330
3C5
100
AcDbXrecord
 10
0.0
 20
0.0
 30
0.0
  0
XRECORD
  5
3DD
102
{ACAD_REACTORS
330
3C5
102
}
330
3C5
100
AcDbXrecord
340
0
  0
XRECORD
  5
3DE
102
{ACAD_REACTORS
330
3C5
102
}
330
3C5
100
AcDbXrecord
 70
     0
  0
XRECORD
  5
3D1
102
{ACAD_REACTORS
330
3C5
102
}
330
3C5
100
AcDbXrecord
  1
{7ABBC452-430A-4FC4-A8D2-671DE758CEBB}
  0
DICTIONARYVAR
  5
26F
102
{ACAD_REACTORS
330
26E
102
}
330
26E
100
DictionaryVariables
280
     0
  1
STANDARD
  0
DICTIONARYVAR
  5
2A3
102
{ACAD_REACTORS
330
26E
102
}
330
26E
100
DictionaryVariables
280
     0
  1
1
  0
DICTIONARYVAR
  5
2A2
102
{ACAD_REACTORS
330
26E
102
}
330
26E
100
DictionaryVariables
280
     0
  1
1
  0
DICTIONARYVAR
  5
2A4
102
{ACAD_REACTORS
330
26E
102
}
330
26E
100
DictionaryVariables
280
     0
  1

  0
ENDSEC
  0
EOF
