  0
SECTION
  2
HEADER
  9
$ACADVER
  1
AC1014
  9
$ACADMAINTVER
 70
     9
  9
$DWGCODEPAGE
  3
ANSI_1252
  9
$INSBASE
 10
6.460642617802086
 20
2.575479249899999
 30
0.0
  9
$EXTMIN
 10
-28.61887050961476
 20
-10.10504504859216
 30
-0.0015258207003583
  9
$EXTMAX
 10
39.42049008842468
 20
16.42142344374615
 30
0.0000000349246037
  9
$LIMMIN
 10
0.0
 20
0.0
  9
$LIMMAX
 10
17.0
 20
11.0
  9
$ORTHOMODE
 70
     1
  9
$REGENMODE
 70
     1
  9
$FILLMODE
 70
     1
  9
$QTEXTMODE
 70
     0
  9
$MIRRTEXT
 70
     1
  9
$DRAGMODE
 70
     2
  9
$LTSCALE
 40
2.0
  9
$OSMODE
 70
    55
  9
$ATTMODE
 70
     1
  9
$TEXTSIZE
 40
0.2
  9
$TRACEWID
 40
0.05
  9
$TEXTSTYLE
  7
STANDARD
  9
$CLAYER
  8
0
  9
$CELTYPE
  6
BYLAYER
  9
$CECOLOR
 62
   256
  9
$CELTSCALE
 40
1.0
  9
$DELOBJ
 70
     1
  9
$DISPSILH
 70
     0
  9
$DIMSCALE
 40
1.0
  9
$DIMASZ
 40
0.1875
  9
$DIMEXO
 40
0.0625
  9
$DIMDLI
 40
0.38
  9
$DIMRND
 40
0.0
  9
$DIMDLE
 40
0.0
  9
$DIMEXE
 40
0.18
  9
$DIMTP
 40
0.0
  9
$DIMTM
 40
0.0
  9
$DIMTXT
 40
0.125
  9
$DIMCEN
 40
0.09
  9
$DIMTSZ
 40
0.0
  9
$DIMTOL
 70
     0
  9
$DIMLIM
 70
     0
  9
$DIMTIH
 70
     1
  9
$DIMTOH
 70
     1
  9
$DIMSE1
 70
     0
  9
$DIMSE2
 70
     0
  9
$DIMTAD
 70
     0
  9
$DIMZIN
 70
     4
  9
$DIMBLK
  1
_FILLED
  9
$DIMASO
 70
     1
  9
$DIMSHO
 70
     1
  9
$DIMPOST
  1

  9
$DIMAPOST
  1

  9
$DIMALT
 70
     0
  9
$DIMALTD
 70
     2
  9
$DIMALTF
 40
25.4
  9
$DIMLFAC
 40
1.0
  9
$DIMTOFL
 70
     0
  9
$DIMTVP
 40
0.0
  9
$DIMTIX
 70
     0
  9
$DIMSOXD
 70
     0
  9
$DIMSAH
 70
     0
  9
$DIMBLK1
  1

  9
$DIMBLK2
  1

  9
$DIMSTYLE
  2
STANDARD
  9
$DIMCLRD
 70
     0
  9
$DIMCLRE
 70
     0
  9
$DIMCLRT
 70
     0
  9
$DIMTFAC
 40
1.0
  9
$DIMGAP
 40
0.09
  9
$DIMJUST
 70
     0
  9
$DIMSD1
 70
     0
  9
$DIMSD2
 70
     0
  9
$DIMTOLJ
 70
     1
  9
$DIMTZIN
 70
     4
  9
$DIMALTZ
 70
     0
  9
$DIMALTTZ
 70
     0
  9
$DIMFIT
 70
     3
  9
$DIMUPT
 70
     0
  9
$DIMUNIT
 70
     2
  9
$DIMDEC
 70
     2
  9
$DIMTDEC
 70
     2
  9
$DIMALTU
 70
     2
  9
$DIMALTTD
 70
     2
  9
$DIMTXSTY
  7
STANDARD
  9
$DIMAUNIT
 70
     0
  9
$LUNITS
 70
     2
  9
$LUPREC
 70
     4
  9
$SKETCHINC
 40
0.1
  9
$FILLETRAD
 40
0.0
  9
$AUNITS
 70
     0
  9
$AUPREC
 70
     0
  9
$MENU
  1
acad
  9
$ELEVATION
 40
0.0
  9
$PELEVATION
 40
0.0
  9
$THICKNESS
 40
0.0
  9
$LIMCHECK
 70
     0
  9
$BLIPMODE
 70
     0
  9
$CHAMFERA
 40
0.0
  9
$CHAMFERB
 40
0.0
  9
$CHAMFERC
 40
0.0
  9
$CHAMFERD
 40
0.0
  9
$SKPOLY
 70
     0
  9
$TDCREATE
 40
2453676.832069583
  9
$TDUPDATE
 40
2453685.543345451
  9
$TDINDWG
 40
0.0204453009
  9
$TDUSRTIMER
 40
0.0204453009
  9
$USRTIMER
 70
     1
  9
$ANGBASE
 50
0.0
  9
$ANGDIR
 70
     0
  9
$PDMODE
 70
     3
  9
$PDSIZE
 40
0.015625
  9
$PLINEWID
 40
0.0
  9
$COORDS
 70
     1
  9
$SPLFRAME
 70
     0
  9
$SPLINETYPE
 70
     6
  9
$SPLINESEGS
 70
     8
  9
$ATTDIA
 70
     0
  9
$ATTREQ
 70
     1
  9
$HANDLING
 70
 22529
  9
$HANDSEED
  5
1F7
  9
$SURFTAB1
 70
     6
  9
$SURFTAB2
 70
     6
  9
$SURFTYPE
 70
     6
  9
$SURFU
 70
     6
  9
$SURFV
 70
     6
  9
$UCSNAME
  2

  9
$UCSORG
 10
0.0
 20
0.0
 30
0.0
  9
$UCSXDIR
 10
1.0
 20
0.0
 30
0.0
  9
$UCSYDIR
 10
0.0
 20
1.0
 30
0.0
  9
$PUCSNAME
  2

  9
$PUCSORG
 10
0.0
 20
0.0
 30
0.0
  9
$PUCSXDIR
 10
1.0
 20
0.0
 30
0.0
  9
$PUCSYDIR
 10
0.0
 20
1.0
 30
0.0
  9
$USERI1
 70
     0
  9
$USERI2
 70
     0
  9
$USERI3
 70
     0
  9
$USERI4
 70
     0
  9
$USERI5
 70
     0
  9
$USERR1
 40
0.0
  9
$USERR2
 40
0.0
  9
$USERR3
 40
0.0
  9
$USERR4
 40
0.0
  9
$USERR5
 40
0.0
  9
$WORLDVIEW
 70
     1
  9
$SHADEDGE
 70
     3
  9
$SHADEDIF
 70
    70
  9
$TILEMODE
 70
     1
  9
$MAXACTVP
 70
    16
  9
$PINSBASE
 10
0.0
 20
0.0
 30
0.0
  9
$PLIMCHECK
 70
     0
  9
$PEXTMIN
 10
1.000000000000000E+20
 20
1.000000000000000E+20
 30
1.000000000000000E+20
  9
$PEXTMAX
 10
-1.000000000000000E+20
 20
-1.000000000000000E+20
 30
-1.000000000000000E+20
  9
$PLIMMIN
 10
0.0
 20
0.0
  9
$PLIMMAX
 10
12.0
 20
9.0
  9
$UNITMODE
 70
     0
  9
$VISRETAIN
 70
     0
  9
$PLINEGEN
 70
     1
  9
$PSLTSCALE
 70
     0
  9
$TREEDEPTH
 70
  3020
  9
$PICKSTYLE
 70
     1
  9
$CMLSTYLE
  2
STANDARD
  9
$CMLJUST
 70
     0
  9
$CMLSCALE
 40
1.0
  9
$PROXYGRAPHICS
 70
     0
  9
$MEASUREMENT
 70
     0
  0
ENDSEC
  0
SECTION
  2
CLASSES
  0
CLASS
  1
ACDBDICTIONARYWDFLT
  2
AcDbDictionaryWithDefault
  3
AutoCAD 2000
 90
        0
280
     0
281
     0
  0
CLASS
  1
ACDBPLACEHOLDER
  2
AcDbPlaceHolder
  3
AutoCAD 2000
 90
        0
280
     0
281
     0
  0
CLASS
  1
LAYOUT
  2
AcDbLayout
  3
AutoCAD 2000
 90
        0
280
     0
281
     0
  0
CLASS
  1
LWPOLYLINE
  2
AcDbPolyline
  3
AutoCAD 2000
 90
        0
280
     0
281
     1
  0
CLASS
  1
IMAGE
  2
AcDbRasterImage
  3
ISM
 90
      127
280
     0
281
     1
  0
CLASS
  1
OLE2FRAME
  2
AcDbOle2Frame
  3
AutoCAD 2000
 90
        0
280
     0
281
     1
  0
CLASS
  1
HATCH
  2
AcDbHatch
  3
AutoCAD 2000
 90
        0
280
     0
281
     1
  0
CLASS
  1
DICTIONARYVAR
  2
AcDbDictionaryVar
  3
AutoCAD 2000
 90
        0
280
     0
281
     0
  0
CLASS
  1
RASTERVARIABLES
  2
AcDbRasterVariables
  3
ISM
 90
        0
280
     0
281
     0
  0
CLASS
  1
IMAGEDEF
  2
AcDbRasterImageDef
  3
ISM
 90
        0
280
     0
281
     0
  0
CLASS
  1
IMAGEDEF_REACTOR
  2
AcDbRasterImageDefReactor
  3
ISM
 90
        1
280
     0
281
     0
  0
CLASS
  1
IDBUFFER
  2
AcDbIdBuffer
  3
AutoCAD 2000
 90
        0
280
     0
281
     0
  0
CLASS
  1
SPATIAL_FILTER
  2
AcDbSpatialFilter
  3
AutoCAD 2000
 90
        0
280
     0
281
     0
  0
CLASS
  1
XRECORD
  2
AcDbXrecord
  3
AutoCAD 2000
 90
        0
280
     0
281
     0
  0
CLASS
  1
SORTENTSTABLE
  2
AcDbSortentsTable
  3
AutoCAD 2000
 90
        0
280
     0
281
     0
  0
CLASS
  1
LAYER_INDEX
  2
AcDbLayerIndex
  3
AutoCAD 2000
 90
        0
280
     0
281
     0
  0
CLASS
  1
SPATIAL_INDEX
  2
AcDbSpatialIndex
  3
AutoCAD 2000
 90
        0
280
     0
281
     0
  0
CLASS
  1
OBJECT_PTR
  2
CAseDLPNTableRecord
  3
ASE-LPNTableRecord
 90
        1
280
     0
281
     0
  0
CLASS
  1
PLOTSETTINGS
  2
AcDbPlotSettings
  3
AutoCAD 2000
 90
        0
280
     0
281
     0
  0
CLASS
  1
VBA_PROJECT
  2
AcDbVbaProject
  3
acadvba
 90
        0
280
     0
281
     0
  0
CLASS
  1
WIPEOUT
  2
AcDbWipeout
  3
"WipeOut|Product Desc: Object Enabler for WipeOut entity^I^I^I^I^I^I|Company: Autodesk, Inc.^I^I^I^I^I^I|WEB Address: www.autodesk.com"
 90
      127
280
     0
281
     1
  0
CLASS
  1
WIPEOUTVARIABLES
  2
AcDbWipeoutVariables
  3
"WipeOut|Product Desc:     WipeOut Dbx Application|Company:          Autodesk, Inc.|WEB Address:      www.autodesk.com"
 90
        0
280
     0
281
     0
  0
CLASS
  1
RTEXT
  2
RText
  3
RText|AutoCAD Express Tool|expresstools@autodesk.com
 90
        0
280
     1
281
     1
  0
CLASS
  1
ARCALIGNEDTEXT
  2
AcDbArcAlignedText
  3
ATEXT|AutoCAD Express Tool|expresstools@autodesk.com
 90
        0
280
     1
281
     1
  0
CLASS
  1
TABLESTYLE
  2
AcDbTableStyle
  3
ObjectDBX Classes
 90
     2047
280
     0
281
     0
  0
CLASS
  1
ACAD_PROXY_OBJECT_WRAPPER
  2
AcDbProxyObjectWrapper
  3
AutoCAD 2000
 90
        0
280
     0
281
     0
  0
CLASS
  1
LONG_TRANSACTION
  2
AcDbLongTransaction
  3
AutoCAD 2000
 90
        0
280
     0
281
     0
  0
CLASS
  1
LWPOLYLINE
  2
AcDbPolyline
  3
AutoCAD 2000
 90
        0
280
     0
281
     1
  0
CLASS
  1
HATCH
  2
AcDbHatch
  3
AutoCAD 2000
 90
        0
280
     0
281
     1
  0
CLASS
  1
XRECORD
  2
AcDbXrecord
  3
AutoCAD 2000
 90
        0
280
     0
281
     0
  0
CLASS
  1
LONG_TRANSACTION
  2
AcDbLongTransaction
  3
AutoCAD 2000
 90
        0
280
     0
281
     0
  0
CLASS
  1
LWPOLYLINE
  2
AcDbPolyline
  3
AutoCAD 2000
 90
        0
280
     0
281
     1
  0
CLASS
  1
HATCH
  2
AcDbHatch
  3
AutoCAD 2000
 90
        0
280
     0
281
     1
  0
CLASS
  1
XRECORD
  2
AcDbXrecord
  3
AutoCAD 2000
 90
        0
280
     0
281
     0
  0
ENDSEC
  0
SECTION
  2
TABLES
  0
TABLE
  2
VPORT
  5
1E
330
0
100
AcDbSymbolTable
 70
     3
  0
VPORT
  5
1D3
330
1E
100
AcDbSymbolTableRecord
100
AcDbViewportTableRecord
  2
*ACTIVE
 70
     0
 10
0.0
 20
0.0
 11
1.0
 21
1.0
 12
5.400810001686309
 22
3.158189115210404
 13
0.0
 23
0.0
 14
1.0
 24
1.0
 15
0.0
 25
0.0
 16
0.0
 26
0.0
 36
1.0
 17
0.0
 27
0.0
 37
0.0
 40
44.83423352627895
 41
1.786792452830188
 42
50.0
 43
0.0
 44
0.0
 50
0.0
 51
0.0
 71
     0
 72
   100
 73
     1
 74
     1
 75
     0
 76
     0
 77
     0
 78
     0
  0
ENDTAB
  0
TABLE
  2
LTYPE
  5
19
330
0
100
AcDbSymbolTable
 70
     3
  0
LTYPE
  5
1A
330
19
100
AcDbSymbolTableRecord
100
AcDbLinetypeTableRecord
  2
BYBLOCK
 70
     0
  3

 72
    65
 73
     0
 40
0.0
  0
LTYPE
  5
1B
330
19
100
AcDbSymbolTableRecord
100
AcDbLinetypeTableRecord
  2
BYLAYER
 70
     0
  3

 72
    65
 73
     0
 40
0.0
  0
LTYPE
  5
8
330
19
100
AcDbSymbolTableRecord
100
AcDbLinetypeTableRecord
  2
CONTINUOUS
 70
     0
  3
Solid line
 72
    65
 73
     0
 40
0.0
  0
LTYPE
  5
BF
330
19
100
AcDbSymbolTableRecord
100
AcDbLinetypeTableRecord
  2
CENTER
 70
     0
  3
____ _ ____ _ ____ _ ____ _ ____ _ ____ _ ____
 72
    65
 73
     4
 40
0.6
 49
0.375
 74
     0
 49
-0.075
 74
     0
 49
0.075
 74
     0
 49
-0.075
 74
     0
  0
LTYPE
  5
130
330
19
100
AcDbSymbolTableRecord
100
AcDbLinetypeTableRecord
  2
HIDDEN
 70
     0
  3
Hidden __ __ __ __ __ __ __ __ __ __ __ __ __ _
 72
    65
 73
     2
 40
0.375
 49
0.25
 74
     0
 49
-0.125
 74
     0
  0
ENDTAB
  0
TABLE
  2
LAYER
  5
11
102
{ACAD_XDICTIONARY
360
12
102
}
330
0
100
AcDbSymbolTable
 70
     3
  0
LAYER
  5
6
330
11
100
AcDbSymbolTableRecord
100
AcDbLayerTableRecord
  2
0
 70
     0
 62
     7
  6
CONTINUOUS
  0
LAYER
  5
BE
330
11
100
AcDbSymbolTableRecord
100
AcDbLayerTableRecord
  2
CENTER
 70
     0
 62
     1
  6
CENTER
1001
ACAECLAYERSTANDARD
1000

1000

  0
LAYER
  5
132
330
11
100
AcDbSymbolTableRecord
100
AcDbLayerTableRecord
  2
DEFPOINTS
 70
     0
 62
     7
  6
CONTINUOUS
  0
ENDTAB
  0
TABLE
  2
STYLE
  5
16
330
0
100
AcDbSymbolTable
 70
     1
  0
STYLE
  5
17
330
16
100
AcDbSymbolTableRecord
100
AcDbTextStyleTableRecord
  2
STANDARD
 70
     0
 40
0.0
 41
0.8
 50
0.0
 71
     0
 42
0.2
  3
txt
  4

  0
ENDTAB
  0
TABLE
  2
VIEW
  5
1C
330
0
100
AcDbSymbolTable
 70
     0
  0
ENDTAB
  0
TABLE
  2
UCS
  5
1D
330
0
100
AcDbSymbolTable
 70
     0
  0
ENDTAB
  0
TABLE
  2
APPID
  5
20
330
0
100
AcDbSymbolTable
 70
     4
  0
APPID
  5
15
330
20
100
AcDbSymbolTableRecord
100
AcDbRegAppTableRecord
  2
ACAD
 70
     0
  0
APPID
  5
C0
330
20
100
AcDbSymbolTableRecord
100
AcDbRegAppTableRecord
  2
ACAECLAYERSTANDARD
 70
     0
  0
APPID
  5
F2
330
20
100
AcDbSymbolTableRecord
100
AcDbRegAppTableRecord
  2
DCO15
 70
     0
  0
APPID
  5
FA
330
20
100
AcDbSymbolTableRecord
100
AcDbRegAppTableRecord
  2
ACAD_DSTYLE_DIMTEXT_FILL
 70
     0
  0
ENDTAB
  0
TABLE
  2
DIMSTYLE
  5
21
330
0
100
AcDbSymbolTable
 70
     1
  0
DIMSTYLE
105
22
330
21
100
AcDbSymbolTableRecord
100
AcDbDimStyleTableRecord
  2
STANDARD
 70
     0
  3

  4

  5
_FILLED
  6

  7

 40
1.0
 41
0.1875
 42
0.0625
 43
0.38
 44
0.18
 45
0.0
 46
0.0
 47
0.0
 48
0.0
140
0.125
141
0.09
142
0.0
143
25.4
144
1.0
145
0.0
146
1.0
147
0.09
 71
     0
 72
     0
 73
     1
 74
     1
 75
     0
 76
     0
 77
     0
 78
     4
170
     0
171
     2
172
     0
173
     0
174
     0
175
     0
176
     0
177
     0
178
     0
270
     2
271
     2
272
     2
273
     2
274
     2
340
17
275
     0
280
     0
281
     0
282
     0
283
     1
284
     4
285
     0
286
     0
287
     3
288
     0
  0
ENDTAB
  0
TABLE
  2
BLOCK_RECORD
  5
1
330
0
100
AcDbSymbolTable
 70
     3
  0
BLOCK_RECORD
  5
2
102
{ACAD_XDICTIONARY
360
3
102
}
330
1
100
AcDbSymbolTableRecord
100
AcDbBlockTableRecord
  2
*MODEL_SPACE
  0
BLOCK_RECORD
  5
D
102
{ACAD_XDICTIONARY
360
189
102
}
330
1
100
AcDbSymbolTableRecord
100
AcDbBlockTableRecord
  2
*PAPER_SPACE
  0
BLOCK_RECORD
  5
23
330
1
100
AcDbSymbolTableRecord
100
AcDbBlockTableRecord
  2
_FILLED
  0
ENDTAB
  0
ENDSEC
  0
SECTION
  2
BLOCKS
  0
BLOCK
  5
5
330
2
100
AcDbEntity
  8
0
100
AcDbBlockBegin
  2
*MODEL_SPACE
 70
     0
 10
0.0
 20
0.0
 30
0.0
  3
*MODEL_SPACE
  1

  0
ENDBLK
  5
9
330
2
100
AcDbEntity
  8
0
100
AcDbBlockEnd
  0
BLOCK
  5
E
330
D
100
AcDbEntity
 67
     1
  8
0
100
AcDbBlockBegin
  2
*PAPER_SPACE
 70
     0
 10
0.0
 20
0.0
 30
0.0
  3
*PAPER_SPACE
  1

  0
ENDBLK
  5
F
330
D
100
AcDbEntity
 67
     1
  8
0
100
AcDbBlockEnd
  0
BLOCK
  5
24
330
23
100
AcDbEntity
  8
0
100
AcDbBlockBegin
  2
_FILLED
 70
     0
 10
0.0
 20
0.0
 30
0.0
  3
_FILLED
  1

  0
SOLID
  5
25
330
23
100
AcDbEntity
  8
0
  6
BYBLOCK
 62
     0
100
AcDbTrace
 10
0.0
 20
0.0
 30
0.0
 11
-1.0
 21
0.1666666667
 31
0.0
 12
-1.0
 22
-0.1666666667
 32
0.0
 13
-1.0
 23
-0.1666666667
 33
0.0
  0
ENDBLK
  5
26
330
23
100
AcDbEntity
  8
0
  6
BYBLOCK
 62
     0
100
AcDbBlockEnd
  0
ENDSEC
  0
SECTION
  2
ENTITIES
  0
LWPOLYLINE
  5
32
330
2
100
AcDbEntity
  8
0
100
AcDbPolyline
 90
       28
 70
     0
 43
0.0
 10
-27.00270452036159
 20
14.92145496701903
 10
-27.01292612356159
 20
14.80584515101902
 10
-27.01745471556159
 20
14.75568915741902
 10
-27.02173962596159
 20
14.70990935901903
 10
-27.02584800196159
 20
14.66804296701902
 10
-27.02982669316158
 20
14.62970380221902
 10
-27.03370729316159
 20
14.59458220541903
 10
-27.03751060196159
 20
14.56242534621902
 10
-27.04125258436159
 20
14.53299913341903
 10
-27.04494717956158
 20
14.50608353981903
 10
-27.04860565316159
 20
14.48148125981902
 10
-27.05223987236159
 20
14.45899862301902
 10
-27.05586284036159
 20
14.43845082621903
 10
-27.05948621476159
 20
14.41968035581903
 10
-27.06312124196159
 20
14.40255086301903
 10
-27.06677817636158
 20
14.38694888061903
 10
-27.07046771556159
 20
14.37277608061902
 10
-27.07420222596159
 20
14.35994555741903
 10
-27.07799619556158
 20
14.34838273981903
 10
-27.08186674916159
 20
14.33802664061902
 10
-27.08583410916158
 20
14.32883192221903
 10
-27.08992124996159
 20
14.32077300701902
 10
-27.09415254276159
 20
14.31384866141903
 10
-27.09856125156159
 20
14.30807370141902
 10
-27.10315114756159
 20
14.30352321821902
 10
-27.10785265316159
 20
14.30030847901903
 10
-27.11249172516159
 20
14.29847918941902
 10
-27.11705309156159
 20
14.29789969981902
  0
LWPOLYLINE
  5
33
330
2
100
AcDbEntity
  8
0
100
AcDbPolyline
 90
       27
 70
     0
 43
0.0
 10
-23.03698081014426
 20
12.76138936381902
 10
-23.20128351876159
 20
13.06902181501902
 10
-23.31589581476158
 20
13.28120356061902
 10
-23.43136876196159
 20
13.49291807901902
 10
-23.63873933476158
 20
13.86811464541902
 10
-23.82637737636159
 20
14.20212480541903
 10
-23.99684460516159
 20
14.50096045501902
 10
-24.15148024836159
 20
14.76804788381903
 10
-24.29137509956159
 20
15.00615047261902
 10
-24.41780610596159
 20
15.21818519421903
 10
-24.53201033316159
 20
15.40685574941903
 10
-24.63523580836159
 20
15.57475715101903
 10
-24.68188843716159
 20
15.64949368381903
 10
-24.72920493476159
 20
15.72381117021903
 10
-24.77239446436159
 20
15.78972191421903
 10
-24.81672208676159
 20
15.85487264061902
 10
-24.85752273316158
 20
15.91217865821902
 10
-24.89978076516159
 20
15.96841723101903
 10
-24.93867083236159
 20
16.01709770941902
 10
-24.97918427236159
 20
16.06443426141903
 10
-25.01628883876159
 20
16.10463759261903
 10
-25.05501605796159
 20
16.14327594781902
 10
-25.09059821956159
 20
16.17576599261902
 10
-25.12762549476159
 20
16.20659467421902
 10
-25.16329205156159
 20
16.23354132221903
 10
-25.20017331716159
 20
16.25880129821903
 10
-25.22317116196159
 20
16.27330958141903
  0
LWPOLYLINE
  5
35
330
2
100
AcDbEntity
  8
0
100
AcDbPolyline
 90
       67
 70
     0
 43
0.0
 10
-25.22317116196159
 20
16.27330958141903
 10
-25.24928625476159
 20
16.28869753821903
 10
-25.27588170276159
 20
16.30323891901903
 10
-25.31540306596159
 20
16.32286084221903
 10
-25.35579378756159
 20
16.34062548861903
 10
-25.39803826436159
 20
16.35690634141902
 10
-25.44098760836158
 20
16.37122683741902
 10
-25.48670418596159
 20
16.38417385821903
 10
-25.53296049476159
 20
16.39503903101903
 10
-25.56624150276159
 20
16.40155440381902
 10
-25.59970324996159
 20
16.40707115901903
 10
-25.63331098756159
 20
16.41162180541902
 10
-25.66891964676159
 20
16.41540925501903
 10
-25.70462254596159
 20
16.41816453181902
 10
-25.74038989636159
 20
16.41989638781903
 10
-25.77658305476159
 20
16.42061390781902
 10
-25.81278181476159
 20
16.42029197661903
 10
-25.84895635236159
 20
16.41892808861903
 10
-25.88453864516159
 20
16.41656236381903
 10
-25.92003804196159
 20
16.41317492861903
 10
-25.95542409156159
 20
16.40875762141903
 10
-25.98949600036159
 20
16.40349937181903
 10
-26.02340099716159
 20
16.39725686781903
 10
-26.05710655876158
 20
16.39001598781903
 10
-26.10487530596159
 20
16.37790263261903
 10
-26.15205720516159
 20
16.36367488861902
 10
-26.19598622596159
 20
16.34824657981902
 10
-26.23916400196159
 20
16.33083216861903
 10
-26.28058175556159
 20
16.31182770941902
 10
-26.32107685796159
 20
16.29092762461902
 10
-26.36198538116159
 20
16.26734969981902
 10
-26.40178157316159
 20
16.24193651261902
 10
-26.42925947876159
 20
16.22291042141902
 10
-26.45615538596159
 20
16.20306993341902
 10
-26.48246169156159
 20
16.18245382781902
 10
-26.50984011076159
 20
16.15967232221903
 10
-26.53653838116159
 20
16.13609661821903
 10
-26.56255461316158
 20
16.11176936541903
 10
-26.58948764996159
 20
16.08510275741902
 10
-26.61564291396159
 20
16.05767291741903
 10
-26.64101707396159
 20
16.02951932861903
 10
-26.66655350916158
 20
15.99954155421903
 10
-26.69125196196159
 20
15.96886891741903
 10
-26.71512136836159
 20
15.93754532221903
 10
-26.73701262276159
 20
15.90723709661902
 10
-26.75810785956159
 20
15.87637153821903
 10
-26.77835023236159
 20
15.84493845661902
 10
-26.79553065636159
 20
15.81658225181902
 10
-26.81190130276159
 20
15.78775334301902
 10
-26.82736762116159
 20
15.75843323261902
 10
-26.84136001796159
 20
15.72967331901902
 10
-26.85443763556158
 20
15.70048274941903
 10
-26.86661542756159
 20
15.67090528701903
 10
-26.87895238916159
 20
15.63810375261903
 10
-26.89029969316159
 20
15.60494611581903
 10
-26.90073008196159
 20
15.57148824701902
 10
-26.91159368996159
 20
15.53305299421902
 10
-26.92147048996159
 20
15.49435201981903
 10
-26.93047037476159
 20
15.45543706301902
 10
-26.94243811236159
 20
15.39733869181903
 10
-26.95297303716159
 20
15.33896475741902
 10
-26.96123537636159
 20
15.28755621821903
 10
-26.96871144996158
 20
15.23602792861903
 10
-26.98038587876158
 20
15.14430671261902
 10
-26.98940977316159
 20
15.06215410141903
 10
-26.99663006596159
 20
14.98822217981903
 10
-27.00270452036159
 20
14.92145496701903
  0
LINE
  5
36
330
2
100
AcDbEntity
  8
0
100
AcDbLine
 10
24.8446815356384
 20
-5.854711424980969
 30
0.0
 11
5.385906628438399
 21
-5.501615908180973
 31
0.0
  0
LWPOLYLINE
  5
37
330
2
100
AcDbEntity
  8
0
100
AcDbPolyline
 90
       14
 70
     0
 43
0.0
 10
25.69212180923841
 20
8.622268672619028
 10
26.89976404923841
 20
8.668616983019028
 10
28.09056421723841
 20
8.715417754219032
 10
28.6694038380384
 20
8.738032325419027
 10
29.23220774043841
 20
8.759714571819031
 10
29.77547678523841
 20
8.780135266219026
 10
30.29599316443841
 20
8.79942945821903
 10
30.6854659276384
 20
8.813859386219029
 10
31.22941622843841
 20
8.833187237419032
 10
31.7349410828384
 20
8.84920269181903
 10
31.9733823228384
 20
8.855699384619029
 10
32.20235166203841
 20
8.861168051819028
 10
32.4930126364384
 20
8.866959197419028
 10
32.6321067468384
 20
8.869261959019027
  0
LWPOLYLINE
  5
38
330
2
100
AcDbEntity
  8
0
100
AcDbPolyline
 90
        8
 70
     0
 43
0.0
 10
25.69212175963841
 20
8.622284928619031
 10
24.86741668923841
 20
8.592753357419027
 10
24.04262694363841
 20
8.565656224619026
 10
23.2378414988384
 20
8.540905771819026
 10
22.43302803003841
 20
8.517067487019026
 10
21.35701111963841
 20
8.485360419819031
 10
20.2810279692384
 20
8.452570240619031
 10
19.20512325883841
 20
8.417371455019029
  0
LWPOLYLINE
  5
3A
330
2
100
AcDbEntity
  8
0
100
AcDbPolyline
 90
       27
 70
     0
 43
0.0
 10
-10.37462422436159
 20
14.29789969981902
 10
-11.05249898756159
 20
14.36502845501903
 10
-11.73112252836158
 20
14.42296413981902
 10
-12.41034548996159
 20
14.47348505661902
 10
-13.09001851556159
 20
14.51836950621903
 10
-13.76999224516159
 20
14.55939578781902
 10
-14.45011732356159
 20
14.59834220381902
 10
-15.13024439076159
 20
14.63698705181902
 10
-15.81022408996159
 20
14.67710863421903
 10
-16.48990706436158
 20
14.72048525181902
 10
-17.16914395396159
 20
14.76889520381902
 10
-17.84778540356158
 20
14.82411679261903
 10
-18.52568205476158
 20
14.88792831741903
 10
-19.08674890116159
 20
14.94858419261903
 10
-19.59206456676159
 20
15.01015376061902
 10
-20.09659914596159
 20
15.07865670301902
 10
-20.60013990756158
 20
15.15441452861902
 10
-21.10247412196159
 20
15.23774875261902
 10
-21.60338905476159
 20
15.32898088381903
 10
-22.10267197796159
 20
15.42843243741902
 10
-22.60011016036159
 20
15.53642492061902
 10
-23.04226452036159
 20
15.64026406141903
 10
-23.48262941156158
 20
15.75138858941903
 10
-23.92105367716158
 20
15.87002695421903
 10
-24.35738616196159
 20
15.99640760861903
 10
-24.79147570916159
 20
16.13075900061903
 10
-25.22317116196159
 20
16.27330958141903
  0
LINE
  5
3B
330
2
100
AcDbEntity
  8
0
100
AcDbLine
 10
35.1670044642003
 20
12.76138936381902
 30
0.0
 11
35.2922109036384
 21
13.65227948221902
 31
0.0
  0
LINE
  5
3C
330
2
100
AcDbEntity
  8
0
100
AcDbLine
 10
-28.6170530915616
 20
12.76138936381902
 30
0.0
 11
-28.5057859763616
 21
14.03317829981902
 31
0.0
  0
LWPOLYLINE
  5
3E
330
2
100
AcDbEntity
  8
0
100
AcDbPolyline
 90
       26
 70
     0
 43
0.0
 10
-27.10169055396159
 20
14.36797155901903
 10
-27.05916939396159
 20
14.63350516381903
 10
-27.01787097796159
 20
14.86560090621902
 10
-26.97956996996158
 20
15.06949730301902
 10
-26.94404261316159
 20
15.24926677181903
 10
-26.90890651716159
 20
15.40778789021902
 10
-26.87226877636159
 20
15.54714939101902
 10
-26.83309930756159
 20
15.66855364221903
 10
-26.79126897636159
 20
15.77260880221903
 10
-26.74683676996159
 20
15.86098345981903
 10
-26.69882472676159
 20
15.93799526621902
 10
-26.64601655076159
 20
16.00746806461903
 10
-26.58778965796159
 20
16.07083380861903
 10
-26.52358644356159
 20
16.12878604061902
 10
-26.45258828036158
 20
16.18180222941902
 10
-26.37363405476158
 20
16.23015806301902
 10
-26.28519553796159
 20
16.27390426781902
 10
-26.18684370916159
 20
16.31225787421903
 10
-26.08084712676159
 20
16.34343490941902
 10
-25.97050644676158
 20
16.36593760861902
 10
-25.85927941156159
 20
16.37895448541902
 10
-25.75057945796159
 20
16.38235340221903
 10
-25.64719036516159
 20
16.37664697501903
 10
-25.55052227236159
 20
16.36268773821903
 10
-25.46022172836158
 20
16.34119823901903
 10
-25.39624644356159
 20
16.32044390781903
  0
LWPOLYLINE
  5
3F
330
2
100
AcDbEntity
  8
0
100
AcDbPolyline
 90
       20
 70
     0
 43
0.0
 10
-19.43765268356159
 20
-1.763971236180971
 10
-19.50393385156159
 20
-0.7701822361809719
 10
-19.58031937796159
 20
0.0936851958190275
 10
-19.66766784356158
 20
0.8971062790190273
 10
-19.77649595236159
 20
1.734326354219028
 10
-19.92261652996159
 20
2.684215504619032
 10
-20.09423877316159
 20
3.635827331819029
 10
-20.26874408836159
 20
4.477069551019027
 10
-20.44153019556159
 20
5.218824075819028
 10
-20.60965302596159
 20
5.872062899819027
 10
-20.76934463396159
 20
6.441077139819029
 10
-20.91831472196159
 20
6.933183925419029
 10
-21.05734189316159
 20
7.362393941419028
 10
-21.18768213636159
 20
7.741354762219032
 10
-21.30908687396158
 20
8.08017304381903
 10
-21.41146505796159
 20
8.387960954219032
 10
-21.48597220836158
 20
8.661880290219031
 10
-21.53929434436159
 20
8.913384995819029
 10
-21.57942347396159
 20
9.161482770219031
 10
-21.60995279556158
 20
9.416049533419027
  0
LWPOLYLINE
  5
40
330
2
100
AcDbEntity
  8
0
100
AcDbPolyline
 90
        4
 70
     0
 43
0.0
 10
-21.80695542596159
 20
10.16431739421903
 10
-22.16273739396159
 20
10.94741948861902
 10
-22.49679718596159
 20
11.63919245021902
 10
-22.80840308676159
 20
12.25422674141903
  0
LWPOLYLINE
  5
41
330
2
100
AcDbEntity
  8
0
100
AcDbPolyline
 90
        6
 70
     0
 43
0.0
 10
-19.04073628196159
 20
2.152225859819026
 10
-18.84148822756159
 20
1.319367443819032
 10
-18.67699788196159
 20
0.5878570070190321
 10
-18.53236834116159
 20
-0.1174494313809689
 10
-18.38708958756159
 20
-0.9197163433809691
 10
-18.24216775076158
 20
-1.861754380180968
  0
LINE
  5
42
330
2
100
AcDbEntity
  8
0
100
AcDbLine
 10
-21.80695542596159
 20
10.16431739421903
 30
0.0
 11
-21.80494893956159
 21
10.16071665661903
 31
0.0
  0
LWPOLYLINE
  5
43
330
2
100
AcDbEntity
  8
0
100
AcDbPolyline
 90
       30
 70
     0
 43
0.0
 10
-21.80494893956159
 20
10.16071665661903
 10
-21.78816213956159
 20
10.13010872541902
 10
-21.77342371396159
 20
10.10297553501902
 10
-21.75457463076158
 20
10.06797045821903
 10
-21.73172701476159
 20
10.02511348221902
 10
-21.70490641316158
 20
9.974236146219027
 10
-21.67406572836159
 20
9.914999173419026
 10
-21.63907601316159
 20
9.846863663019028
 10
-21.59980033956159
 20
9.769222978219026
 10
-21.55614006596159
 20
9.681490170219028
 10
-21.50749828516159
 20
9.58199216221903
 10
-21.45358952516159
 20
9.469566259819032
 10
-21.39385704196159
 20
9.342353971819029
 10
-21.32738591716159
 20
9.19753195421903
 10
-21.25334974916159
 20
9.03219402461903
 10
-21.17096876676158
 20
8.843228154219026
 10
-21.07964480676159
 20
8.627582471019032
 10
-20.97906892516159
 20
8.382650557419026
 10
-20.86899920036159
 20
8.106060624619026
 10
-20.74933544836159
 20
7.795882485419028
 10
-20.62011139396159
 20
7.450043352619026
 10
-20.48104865636159
 20
7.064556347819028
 10
-20.33256159556159
 20
6.637095421419026
 10
-20.17545500516158
 20
6.166221899819028
 10
-20.00967398436159
 20
5.647879347819028
 10
-19.83437127076159
 20
5.07522983901903
 10
-19.64920011076159
 20
4.443628461419031
 10
-19.45459810756159
 20
3.751020754219027
 10
-19.24399767396159
 20
2.960853946219032
 10
-19.04074388836159
 20
2.152222378219029
  0
LWPOLYLINE
  5
44
330
2
100
AcDbEntity
  8
0
100
AcDbPolyline
 90
        3
 70
     0
 43
0.0
 10
-23.07419693476159
 20
12.76002755421902
 10
-23.02003532196159
 20
12.65868932061903
 10
-22.80838886276158
 20
12.25421041821903
  0
LINE
  5
45
330
2
100
AcDbEntity
  8
0
100
AcDbLine
 10
-10.51045280036159
 20
-6.55331539778097
 30
0.0
 11
-11.0920639859616
 21
-4.382712903380969
 31
0.0
  0
LWPOLYLINE
  5
46
330
2
100
AcDbEntity
  8
0
100
AcDbPolyline
 90
       29
 70
     0
 43
0.0
 10
31.40954912923841
 20
-5.746559922580971
 10
31.4110281644384
 20
-5.746476760980968
 10
31.53024475643841
 20
-5.73042361218097
 10
31.6427209100384
 20
-5.706276882580972
 10
31.74836469883841
 20
-5.675236127380969
 10
31.8472077132384
 20
-5.638353357780971
 10
31.93939524603841
 20
-5.596561815380972
 10
32.02517035803841
 20
-5.550706503380972
 10
32.1048591228384
 20
-5.501455604180968
 10
32.17883040603841
 20
-5.449307989780969
 10
32.24744800283841
 20
-5.394626314580968
 10
32.31103658363841
 20
-5.337679144980967
 10
32.3696039420384
 20
-5.27901904898097
 10
32.4229835020384
 20
-5.219480959380973
 10
32.47109555163841
 20
-5.159922960980971
 10
32.5139502444384
 20
-5.101207540180972
 10
32.5515958156384
 20
-5.044263888980971
 10
32.58421527643841
 20
-4.989930973780971
 10
32.61261445883841
 20
-4.93794624418097
 10
32.6376166476384
 20
-4.887690525780968
 10
32.65988330843841
 20
-4.838519522580973
 10
32.6796942076384
 20
-4.790360709780969
 10
32.69715755483841
 20
-4.743499149780973
 10
32.71239801083841
 20
-4.698212018580967
 10
32.72555920603841
 20
-4.654751959380973
 10
32.7367534524384
 20
-4.613524536980968
 10
32.74609373083841
 20
-4.57503709698097
 10
32.75374251003841
 20
-4.539696535380969
 10
32.75989162203841
 20
-4.507810440980968
  0
LWPOLYLINE
  5
47
330
2
100
AcDbEntity
  8
0
100
AcDbPolyline
 90
       29
 70
     0
 43
0.0
 10
31.2958599820384
 20
-5.752952341780968
 10
31.40812167963841
 20
-5.746748591380971
 10
31.5258246860384
 20
-5.731191519380971
 10
31.63709542843841
 20
-5.707698431380968
 10
31.7417438412384
 20
-5.677429080980971
 10
31.83970499163841
 20
-5.64143269058097
 10
31.9310300764384
 20
-5.600663818580969
 10
32.01587995963841
 20
-5.556017607380972
 10
32.09453929883841
 20
-5.508220375380972
 10
32.1673860524384
 20
-5.45781326978097
 10
32.23480155643841
 20
-5.405201405780971
 10
32.29711640443841
 20
-5.35070969058097
 10
32.35457427963841
 20
-5.294693120980973
 10
32.40742559803841
 20
-5.237491464980969
 10
32.45591297403841
 20
-5.179385392980968
 10
32.5002663532384
 20
-5.120602176980973
 10
32.5406887996384
 20
-5.061341876180968
 10
32.5772423372384
 20
-5.001986962580971
 10
32.6099393820384
 20
-4.943055349780969
 10
32.6388665772384
 20
-4.885047746580973
 10
32.66417472923841
 20
-4.82847394818097
 10
32.68604791163841
 20
-4.77384621058097
 10
32.70470557083841
 20
-4.721653964180973
 10
32.72040371643841
 20
-4.672335183380972
 10
32.73341303963841
 20
-4.626313092180971
 10
32.74402003643841
 20
-4.583968844180972
 10
32.7525235964384
 20
-4.545609975380969
 10
32.75919464923841
 20
-4.511616536980973
 10
32.7647186252384
 20
-4.47975222818097
  0
LINE
  5
48
330
2
100
AcDbEntity
  8
0
100
AcDbLine
 10
29.2211829772384
 20
-5.893341218580971
 30
0.0
 11
29.11991472763839
 21
-5.897590767380968
 31
0.0
  0
LINE
  5
49
330
2
100
AcDbEntity
  8
0
100
AcDbLine
 10
26.4956227404384
 20
-5.861795887380971
 30
0.0
 11
26.9893339052384
 21
-5.85165466818097
 31
0.0
  0
LWPOLYLINE
  5
4A
330
2
100
AcDbEntity
  8
0
100
AcDbPolyline
 90
        3
 70
     0
 43
0.0
 10
26.9895248572384
 20
-5.820417320980972
 10
26.3427070940384
 20
-5.833456957780967
 10
25.68754392923841
 20
-5.844695591380968
  0
LINE
  5
4B
330
2
100
AcDbEntity
  8
0
100
AcDbLine
 10
31.21739589083839
 20
-5.754283324180967
 30
0.0
 11
31.2958586924384
 21
-5.752954220180967
 31
0.0
  0
LWPOLYLINE
  5
4C
330
2
100
AcDbEntity
  8
0
100
AcDbPolyline
 90
        8
 70
     0
 43
0.0
 10
26.98933390523841
 20
-5.85165466818097
 10
27.2424095788384
 20
-5.847596320980969
 10
27.5404432220384
 20
-5.845309498580967
 10
27.8623468492384
 20
-5.844948743380967
 10
28.18716466203841
 20
-5.846664708180966
 10
28.49632939323841
 20
-5.85035605538097
 10
28.7733478380384
 20
-5.85570992418097
 10
29.0018641740384
 20
-5.862430495380969
  0
LINE
  5
4D
330
2
100
AcDbEntity
  8
0
100
AcDbLine
 10
25.68754392923841
 20
-5.844695591380968
 30
0.0
 11
25.0138081372384
 21
-5.85450851138097
 31
0.0
  0
LINE
  5
4E
330
2
100
AcDbEntity
  8
0
100
AcDbLine
 10
27.3304804348384
 20
-5.81545786018097
 30
0.0
 11
26.9895248572384
 21
-5.820417320980972
 31
0.0
  0
LWPOLYLINE
  5
4F
330
2
100
AcDbEntity
  8
0
100
AcDbPolyline
 90
        4
 70
     0
 43
0.0
 10
25.0135842684384
 20
-5.88575121058097
 10
25.50772826683841
 20
-5.878723319380966
 10
26.00174678683841
 20
-5.870763420180971
 10
26.4956227404384
 20
-5.861795887380971
  0
LINE
  5
50
330
2
100
AcDbEntity
  8
0
100
AcDbLine
 10
24.97756256283841
 20
-5.886086712980969
 30
0.0
 11
25.0135842684384
 21
-5.88575121058097
 31
0.0
  0
LINE
  5
51
330
2
100
AcDbEntity
  8
0
100
AcDbLine
 10
30.1543925084384
 20
-6.254235636180972
 30
0.0
 11
28.7995575116384
 21
-6.254235636180972
 31
0.0
  0
LWPOLYLINE
  5
52
330
2
100
AcDbEntity
  8
0
100
AcDbPolyline
 90
        3
 70
     0
 43
0.0
 10
3.974637983638402
 20
-5.502319648980972
 10
3.984920530838408
 20
-5.501536964180971
 10
4.067043636438413
 20
-5.50180128418097
  0
LWPOLYLINE
  5
53
330
2
100
AcDbEntity
  8
0
100
AcDbPolyline
 90
        3
 70
     0
 43
0.0
 10
3.975612546838405
 20
-5.471085111380972
 10
3.991143518038413
 20
-5.470214008980967
 10
4.103526954838415
 20
-5.471036560980969
  0
LWPOLYLINE
  5
54
330
2
100
AcDbEntity
  8
0
100
AcDbPolyline
 90
        4
 70
     0
 43
0.0
 10
30.8579853308384
 20
-5.758382600980972
 10
30.95687079963841
 20
-5.757546684180972
 10
31.07376585723841
 20
-5.756286730580967
 10
31.2173958908384
 20
-5.754283324180967
  0
LINE
  5
55
330
2
100
AcDbEntity
  8
0
100
AcDbLine
 10
25.0138081372384
 20
-5.85450851138097
 30
0.0
 11
24.96423120123839
 21
-5.854914741780973
 31
0.0
  0
LWPOLYLINE
  5
56
330
2
100
AcDbEntity
  8
0
100
AcDbPolyline
 90
        5
 70
     0
 43
0.0
 10
30.56799803003841
 20
-5.759833085780968
 10
30.62900258203841
 20
-5.759635452180972
 10
30.6965788236384
 20
-5.759354584980968
 10
30.77222777243841
 20
-5.758955216980972
 10
30.8579853308384
 20
-5.758382600980972
  0
LINE
  5
57
330
2
100
AcDbEntity
  8
0
100
AcDbLine
 10
27.3131609356384
 20
-5.753496317780971
 30
0.0
 11
27.2375296428384
 21
-5.753668080980972
 31
0.0
  0
LINE
  5
58
330
2
100
AcDbEntity
  8
0
100
AcDbLine
 10
27.2375296428384
 20
-5.753668080980972
 30
0.0
 11
27.1078722140384
 21
-5.753955989780969
 31
0.0
  0
LINE
  5
59
330
2
100
AcDbEntity
  8
0
100
AcDbLine
 10
27.57921525563839
 20
-5.75293665218097
 30
0.0
 11
27.3131609356384
 21
-5.753496317780971
 31
0.0
  0
LINE
  5
5A
330
2
100
AcDbEntity
  8
0
100
AcDbLine
 10
30.46197276923841
 20
-5.760064277780969
 30
0.0
 11
30.5679980300384
 21
-5.759833085780968
 31
0.0
  0
LINE
  5
5B
330
2
100
AcDbEntity
  8
0
100
AcDbLine
 10
27.1078722140384
 20
-5.753955989780969
 30
0.0
 11
26.9416989244384
 21
-5.754262021780967
 31
0.0
  0
LINE
  5
5C
330
2
100
AcDbEntity
  8
0
100
AcDbLine
 10
24.96423120123839
 20
-5.854914741780973
 30
0.0
 11
24.9061511820384
 21
-5.85498383778097
 31
0.0
  0
LINE
  5
5D
330
2
100
AcDbEntity
  8
0
100
AcDbLine
 10
26.9416989244384
 20
-5.754262021780967
 30
0.0
 11
26.9043291820384
 21
-5.754304162580972
 31
0.0
  0
LINE
  5
5E
330
2
100
AcDbEntity
  8
0
100
AcDbLine
 10
30.3070630380384
 20
-5.760176125780972
 30
0.0
 11
30.46197276923841
 21
-5.760064277780969
 31
0.0
  0
LINE
  5
5F
330
2
100
AcDbEntity
  8
0
100
AcDbLine
 10
30.2661073788384
 20
-5.760162589780968
 30
0.0
 11
30.3070630380384
 21
-5.760176125780972
 31
0.0
  0
LINE
  5
60
330
2
100
AcDbEntity
  8
0
100
AcDbLine
 10
30.24490200443841
 20
-5.760149986580969
 30
0.0
 11
30.2661073788384
 21
-5.760162589780968
 31
0.0
  0
LWPOLYLINE
  5
61
330
2
100
AcDbEntity
  8
0
100
AcDbPolyline
 90
        4
 70
     0
 43
0.0
 10
30.21565034203841
 20
-5.760127133780969
 10
30.22010536443841
 20
-5.760130991380968
 10
30.2275550652384
 20
-5.760137127380971
 10
30.24490200443841
 20
-5.760149986580969
  0
LINE
  5
62
330
2
100
AcDbEntity
  8
0
100
AcDbLine
 10
30.2133706492384
 20
-5.760125058580968
 30
0.0
 11
30.2156503420384
 21
-5.760127133780969
 31
0.0
  0
LWPOLYLINE
  5
63
330
2
100
AcDbEntity
  8
0
100
AcDbPolyline
 90
        3
 70
     0
 43
0.0
 10
24.8905665980384
 20
-5.886190668180972
 10
24.93574645883841
 20
-5.886233885780967
 10
24.97756256283841
 20
-5.886086712980969
  0
LWPOLYLINE
  5
64
330
2
100
AcDbEntity
  8
0
100
AcDbPolyline
 90
       13
 70
     0
 43
0.0
 10
26.90435346203841
 20
-5.754292141780972
 10
24.9472050828384
 20
-5.751932744980969
 10
22.9359745052384
 20
-5.742386044180967
 10
20.88303427963841
 20
-5.72542390018097
 10
18.7992692364384
 20
-5.701001632980968
 10
16.6952149676384
 20
-5.669231599380971
 10
14.5823626428384
 20
-5.630390439380967
 10
12.47482928443841
 20
-5.584982256980971
 10
10.3819061260384
 20
-5.533566429780968
 10
8.298368639638411
 20
-5.476376644180973
 10
6.215219175638409
 20
-5.413459028180973
 10
4.124374431638415
 20
-5.344791909780973
 10
2.017981151638409
 20
-5.270283052180971
  0
LWPOLYLINE
  5
65
330
2
100
AcDbEntity
  8
0
100
AcDbPolyline
 90
        4
 70
     0
 43
0.0
 10
30.18142112763841
 20
-5.760051264980972
 10
30.1873244524384
 20
-5.760072773780969
 10
30.19241789723841
 20
-5.760091173780971
 10
30.21337064923841
 20
-5.760125058580968
  0
LWPOLYLINE
  5
66
330
2
100
AcDbEntity
  8
0
100
AcDbPolyline
 90
        3
 70
     0
 43
0.0
 10
30.15925287163841
 20
-5.759968554580972
 10
30.16746410843841
 20
-5.759999570580973
 10
30.18142112763841
 20
-5.760051264980972
  0
LINE
  5
67
330
2
100
AcDbEntity
  8
0
100
AcDbLine
 10
30.1398287708384
 20
-5.759893293780969
 30
0.0
 11
30.1592528716384
 21
-5.759968554580972
 31
0.0
  0
LWPOLYLINE
  5
68
330
2
100
AcDbEntity
  8
0
100
AcDbPolyline
 90
       11
 70
     0
 43
0.0
 10
28.88287865723841
 20
-5.753979071380967
 10
28.75405054843841
 20
-5.753470269780969
 10
28.62556963483841
 20
-5.753068578580972
 10
28.4980395932384
 20
-5.75276816418097
 10
28.3720711564384
 20
-5.752561676180967
 10
28.24823475963841
 20
-5.752440536980969
 10
28.1270671900384
 20
-5.752395188180969
 10
28.0091008460384
 20
-5.752415503380973
 10
27.89487316123841
 20
-5.752490832980967
 10
27.78485118043841
 20
-5.752610159380971
 10
27.5792152556384
 20
-5.75293665218097
  0
LINE
  5
69
330
2
100
AcDbEntity
  8
0
100
AcDbLine
 10
30.11548542203839
 20
-5.759795317780969
 30
0.0
 11
30.1398287708384
 21
-5.759893293780969
 31
0.0
  0
LWPOLYLINE
  5
6A
330
2
100
AcDbEntity
  8
0
100
AcDbPolyline
 90
        3
 70
     0
 43
0.0
 10
30.0664978604384
 20
-5.759587348180971
 10
30.0847961852384
 20
-5.759666485780968
 10
30.1154854220384
 20
-5.759795317780969
  0
LINE
  5
6B
330
2
100
AcDbEntity
  8
0
100
AcDbLine
 10
24.9061511820384
 20
-5.85498383778097
 30
0.0
 11
24.8446815356384
 21
-5.854711424980969
 31
0.0
  0
LINE
  5
6C
330
2
100
AcDbEntity
  8
0
100
AcDbLine
 10
30.0224658524384
 20
-5.759391418580968
 30
0.0
 11
30.06649786043839
 21
-5.759587348180971
 31
0.0
  0
LINE
  5
6D
330
2
100
AcDbEntity
  8
0
100
AcDbLine
 10
28.8828786540384
 20
-5.753979052180973
 30
0.0
 11
29.2408230236384
 21
-5.755545944980973
 31
0.0
  0
LINE
  5
6E
330
2
100
AcDbEntity
  8
0
100
AcDbLine
 10
29.96580650843839
 20
-5.759130415380973
 30
0.0
 11
30.0224658524384
 21
-5.759391418580968
 31
0.0
  0
LWPOLYLINE
  5
6F
330
2
100
AcDbEntity
  8
0
100
AcDbPolyline
 90
        3
 70
     0
 43
0.0
 10
29.8468123532384
 20
-5.75856051458097
 10
29.89205389563841
 20
-5.758780042580973
 10
29.9658065084384
 20
-5.759130415380973
  0
LWPOLYLINE
  5
70
330
2
100
AcDbEntity
  8
0
100
AcDbPolyline
 90
        6
 70
     0
 43
0.0
 10
29.24082302363841
 20
-5.755545944980973
 10
29.48347010523841
 20
-5.756743319380973
 10
29.5809876124384
 20
-5.757233328980973
 10
29.66361346203841
 20
-5.757649407380966
 10
29.7341343372384
 20
-5.758003106580972
 10
29.8468123532384
 20
-5.75856051458097
  0
LINE
  5
71
330
2
100
AcDbEntity
  8
0
100
AcDbLine
 10
24.84445362043841
 20
-5.885954176980973
 30
0.0
 11
24.89056659803839
 21
-5.886190668180972
 31
0.0
  0
LINE
  5
72
330
2
100
AcDbEntity
  8
0
100
AcDbLine
 10
4.067043636438406
 20
-5.50180128418097
 30
0.0
 11
4.224686807638399
 21
-5.504339994580973
 31
0.0
  0
LWPOLYLINE
  5
73
330
2
100
AcDbEntity
  8
0
100
AcDbPolyline
 90
        5
 70
     0
 43
0.0
 10
4.103526954838415
 20
-5.471036560980969
 10
4.313691788438404
 20
-5.474839724180966
 10
4.614093681238415
 20
-5.481515476180973
 10
4.979946503638402
 20
-5.490573445780967
 10
5.385906628438405
 20
-5.501615908180973
  0
LWPOLYLINE
  5
74
330
2
100
AcDbEntity
  8
0
100
AcDbPolyline
 90
        3
 70
     0
 43
0.0
 10
11.0807833516384
 20
-5.647179658580967
 10
17.6104061980384
 20
-5.771167088980973
 10
24.84468153563841
 20
-5.854711424980969
  0
LWPOLYLINE
  5
75
330
2
100
AcDbEntity
  8
0
100
AcDbPolyline
 90
        5
 70
     0
 43
0.0
 10
28.8033380252384
 20
-5.825205101780973
 10
28.49951455483841
 20
-5.819167919380973
 10
28.1341679468384
 20
-5.815002445780969
 10
27.7271974428384
 20
-5.813616186580972
 10
27.3304804348384
 20
-5.81545786018097
  0
LWPOLYLINE
  5
76
330
2
100
AcDbEntity
  8
0
100
AcDbPolyline
 90
        5
 70
     0
 43
0.0
 10
4.224686807638406
 20
-5.504339994580973
 10
4.450875610838409
 20
-5.509027941780971
 10
4.733973207638413
 20
-5.51564958978097
 10
5.05280155963841
 20
-5.523733232980973
 10
5.385012812438404
 20
-5.532850906580968
  0
LINE
  5
77
330
2
100
AcDbEntity
  8
0
100
AcDbLine
 10
-11.66448641956159
 20
-4.099430232980971
 30
0.0
 11
-5.851671470761593
 21
-4.243893752980973
 31
0.0
  0
LINE
  5
78
330
2
100
AcDbEntity
  8
0
100
AcDbLine
 10
-11.66371001636159
 20
-4.068189879380973
 30
0.0
 11
-5.850895065961601
 21
-4.212653399380968
 31
0.0
  0
LINE
  5
79
330
2
100
AcDbEntity
  8
0
100
AcDbLine
 10
-17.3534608355616
 20
-3.786116399380972
 30
0.0
 11
2.127096876438408
 21
-4.270258757780972
 31
0.0
  0
LINE
  5
7A
330
2
100
AcDbEntity
  8
0
100
AcDbLine
 10
5.385906628438399
 20
-5.501615908180973
 30
0.0
 11
11.08078335163839
 21
-5.647179658580967
 31
0.0
  0
LWPOLYLINE
  5
7B
330
2
100
AcDbEntity
  8
0
100
AcDbPolyline
 90
        5
 70
     0
 43
0.0
 10
5.385012812438404
 20
-5.532850906580968
 10
10.24904980603841
 20
-5.659381439380972
 10
15.1137608700384
 20
-5.76032071458097
 10
19.97895547003841
 20
-5.836054778580972
 10
24.84445362043841
 20
-5.885954176980973
  0
LINE
  5
7C
330
2
100
AcDbEntity
  8
0
100
AcDbLine
 10
29.0325247596384
 20
-5.832354028180972
 30
0.0
 11
28.80333802523839
 21
-5.825205101780973
 31
0.0
  0
LINE
  5
7D
330
2
100
AcDbEntity
  8
0
100
AcDbLine
 10
29.00186417403839
 20
-5.862430495380969
 30
0.0
 11
29.1687211900384
 21
-5.870138791380973
 31
0.0
  0
LINE
  5
7E
330
2
100
AcDbEntity
  8
0
100
AcDbLine
 10
29.1922376988384
 20
-5.840397735380967
 30
0.0
 11
29.0325247596384
 21
-5.832354028180972
 31
0.0
  0
LWPOLYLINE
  5
7F
330
2
100
AcDbEntity
  8
0
100
AcDbPolyline
 90
        3
 70
     0
 43
0.0
 10
4.066875524438415
 20
-5.508307837780968
 10
3.984921306838401
 20
-5.50371554818097
 10
3.974637983638402
 20
-5.502319648980972
  0
LWPOLYLINE
  5
80
330
2
100
AcDbEntity
  8
0
100
AcDbPolyline
 90
       24
 70
     0
 43
0.0
 10
-16.23100441636159
 20
-3.814012386580969
 10
-16.36219928836159
 20
-3.806445564180968
 10
-16.49265253476158
 20
-3.790301620180969
 10
-16.62183944356159
 20
-3.765645488980972
 10
-16.74924038596159
 20
-3.73257634658097
 10
-16.87434292036159
 20
-3.691227204180968
 10
-16.99664384836159
 20
-3.641764381780973
 10
-17.11565123876159
 20
-3.584386831380967
 10
-17.23088640996159
 20
-3.51932534498097
 10
-17.34188585316159
 20
-3.446841616980968
 10
-17.44820309476159
 20
-3.36722719778097
 10
-17.54941049956158
 20
-3.280802320980967
 10
-17.64510097956159
 20
-3.187914612180968
 10
-17.73488964036159
 20
-3.088937690580969
 10
-17.81841532996159
 20
-2.984269672980971
 10
-17.89534208036159
 20
-2.87433156418097
 10
-17.96536047076158
 20
-2.759565565780967
 10
-18.02818887076158
 20
-2.640433300180973
 10
-18.08357456356159
 20
-2.517413952980973
 10
-18.13129477476159
 20
-2.391002341780968
 10
-18.17115756036159
 20
-2.26170693378097
 10
-18.20300251716159
 20
-2.13004808738097
 10
-18.22670185636159
 20
-1.996553703380968
 10
-18.24215960516158
 20
-1.861763965780973
  0
LWPOLYLINE
  5
81
330
2
100
AcDbEntity
  8
0
100
AcDbPolyline
 90
        7
 70
     0
 43
0.0
 10
4.078276962838401
 20
-5.507393373780971
 10
4.074487298838405
 20
-5.507128554580972
 10
4.075811178838407
 20
-5.507262597780972
 10
4.09149615963841
 20
-5.509273002580968
 10
4.129811410838414
 20
-5.517313719380972
 10
4.180152193238413
 20
-5.53466996258097
 10
4.233186873238409
 20
-5.562521384980968
  0
LWPOLYLINE
  5
82
330
2
100
AcDbEntity
  8
0
100
AcDbPolyline
 90
       17
 70
     0
 43
0.0
 10
2.017981151638409
 20
-5.270283052180971
 10
1.971927561238402
 20
-5.266524100180973
 10
1.926395054038408
 20
-5.258660356180968
 10
1.88175011163841
 20
-5.24674909538097
 10
1.838349620438407
 20
-5.230891653780972
 10
1.796544334038415
 20
-5.211209940180971
 10
1.756667377238414
 20
-5.18786715298097
 10
1.719041958038403
 20
-5.161045967380971
 10
1.683966844438401
 20
-5.130966111380971
 10
1.651727410838404
 20
-5.097865268180967
 10
1.622578622038403
 20
-5.062012640980967
 10
1.59675865243841
 20
-5.02369326818097
 10
1.574470666838408
 20
-4.983217229780969
 10
1.555897847638405
 20
-4.940907708180972
 10
1.541185194838405
 20
-4.89710584738097
 10
1.530454894038413
 20
-4.852162608980968
 10
1.523789258838405
 20
-4.806439133780969
  0
LWPOLYLINE
  5
83
330
2
100
AcDbEntity
  8
0
100
AcDbPolyline
 90
        3
 70
     0
 43
0.0
 10
29.16872119003841
 20
-5.870138791380973
 10
29.26525406203841
 20
-5.878292764180969
 10
29.2862864540384
 20
-5.884111719380967
  0
LWPOLYLINE
  5
84
330
2
100
AcDbEntity
  8
0
100
AcDbPolyline
 90
        5
 70
     0
 43
0.0
 10
4.092085551638405
 20
-5.509391087380969
 10
4.093167294038408
 20
-5.509533439380973
 10
4.133011303638411
 20
-5.518181604180973
 10
4.184296174038408
 20
-5.53646847138097
 10
4.237643270038404
 20
-5.565382343380967
  0
LINE
  5
85
330
2
100
AcDbEntity
  8
0
100
AcDbLine
 10
-6.973653381161603
 20
-6.55331539778097
 30
0.0
 11
-6.427926016361602
 21
-4.516633143380971
 31
0.0
  0
LWPOLYLINE
  5
86
330
2
100
AcDbEntity
  8
0
100
AcDbPolyline
 90
        6
 70
     0
 43
0.0
 10
4.233186873238409
 20
-5.562521384980968
 10
4.285487860438408
 20
-5.60240858658097
 10
4.332560036438408
 20
-5.654178980180972
 10
4.370376772438405
 20
-5.716224832980969
 10
4.395822015638415
 20
-5.785580559380967
 10
4.402057265238411
 20
-5.814306592980969
  0
LINE
  5
87
330
2
100
AcDbEntity
  8
0
100
AcDbLine
 10
1.500026967638398
 20
-4.569424168980972
 30
0.0
 11
1.523788871638395
 21
-4.806439178580973
 31
0.0
  0
LINE
  5
88
330
2
100
AcDbEntity
  8
0
100
AcDbLine
 10
4.437542334038405
 20
-6.015552972180969
 30
0.0
 11
4.402066270038397
 21
-5.81435821538097
 31
0.0
  0
LINE
  5
89
330
2
100
AcDbEntity
  8
0
100
AcDbLine
 10
3.975505857238396
 20
-5.471081644180969
 30
0.0
 11
3.974490729238405
 21
-5.502314861780973
 31
0.0
  0
LWPOLYLINE
  5
8A
330
2
100
AcDbEntity
  8
0
  6
HIDDEN
 48
0.5
100
AcDbPolyline
 90
       16
 70
     0
 43
0.0
 10
14.04799695643841
 20
10.75749590301902
 10
14.06438108923841
 20
10.76581218461903
 10
14.09845234683841
 20
10.78506411581903
 10
14.1310810636384
 20
10.80620935741902
 10
14.1621318348384
 20
10.82912971901903
 10
14.19135161243841
 20
10.85359765021902
 10
14.2185219308384
 20
10.87935742141903
 10
14.2435056924384
 20
10.90617773661902
 10
14.26622687643841
 20
10.93385805181902
 10
14.28657367803841
 20
10.96211421981902
 10
14.3045358828384
 20
10.99075114941903
 10
14.32010291643841
 20
11.01954316861903
 10
14.33332338683841
 20
11.04834342781902
 10
14.34422478523841
 20
11.07693594781903
 10
14.3528903612384
 20
11.10521434781903
 10
14.3593910092384
 20
11.13302875421902
  0
LINE
  5
8B
330
2
100
AcDbEntity
  8
0
100
AcDbLine
 10
-25.36153508196159
 20
16.30745114621903
 30
0.0
 11
-25.3962464435616
 21
16.32044390781903
 31
0.0
  0
LWPOLYLINE
  5
8C
330
2
100
AcDbEntity
  8
0
100
AcDbPolyline
 90
        3
 70
     0
 43
0.0
 10
-25.19563669636159
 20
16.24066644221903
 10
-25.28959006276159
 20
16.27924355581902
 10
-25.36153481956159
 20
16.30745104541903
  0
LWPOLYLINE
  5
8D
330
2
100
AcDbEntity
  8
0
100
AcDbPolyline
 90
        3
 70
     0
 43
0.0
 10
29.2858495788384
 20
-5.852872932180972
 10
29.27725602843841
 20
-5.849066586580967
 10
29.19223769883841
 20
-5.840397735380967
  0
LWPOLYLINE
  5
8E
330
2
100
AcDbEntity
  8
0
  6
HIDDEN
 48
0.5
100
AcDbPolyline
 90
       14
 70
     0
 43
0.0
 10
3.112118894038403
 20
10.54358411101903
 10
3.120643089238413
 20
10.51602265021902
 10
3.131354375638409
 20
10.48828371741903
 10
3.144295569238408
 20
10.46053417181902
 10
3.159521767638409
 20
10.43289837181902
 10
3.177026682838402
 20
10.40559672061903
 10
3.196828876438402
 20
10.37878155421903
 10
3.218878305238405
 20
10.35268044861903
 10
3.243135353238415
 20
10.32747820221902
 10
3.26945926363841
 20
10.30343363261903
 10
3.297764876438407
 20
10.28071660701903
 10
3.327874255638405
 20
10.25954752061903
 10
3.35953410523841
 20
10.24015282461903
 10
3.389751868438409
 20
10.22405850301903
  0
LWPOLYLINE
  5
8F
330
2
100
AcDbEntity
  8
0
  6
HIDDEN
 48
0.5
100
AcDbPolyline
 90
        3
 70
     0
 43
0.0
 10
3.112118894038403
 20
10.54358411101903
 10
3.094022775638407
 20
10.61071201021903
 10
3.076121878038406
 20
10.67815764381902
  0
LWPOLYLINE
  5
90
330
2
100
AcDbEntity
  8
0
  6
HIDDEN
 48
0.5
100
AcDbPolyline
 90
       11
 70
     0
 43
0.0
 10
12.4879991548384
 20
11.73097168381902
 10
12.46651318363841
 20
11.70695696861903
 10
12.4457803932384
 20
11.68055764861902
 10
12.42659746043841
 20
11.65257609501902
 10
12.4091574668384
 20
11.62323126621902
 10
12.3936909740384
 20
11.59289418621902
 10
12.3803681628384
 20
11.56196719261902
 10
12.36923165403841
 20
11.53067722301902
 10
12.3603029692384
 20
11.49923050941902
 10
12.35360850683841
 20
11.46792520381902
 10
12.3491349356384
 20
11.43705556221902
  0
LWPOLYLINE
  5
91
330
2
100
AcDbEntity
  8
0
100
AcDbPolyline
 90
        4
 70
     0
 43
0.0
 10
-10.53525248196159
 20
4.68324885341903
 10
-11.03629626276158
 20
4.561521378219026
 10
-11.48992453316159
 20
4.448798354219029
 10
-11.90349245956159
 20
4.343873946219027
  0
LINE
  5
92
330
2
100
AcDbEntity
  8
0
100
AcDbLine
 10
-10.53525588676159
 20
4.68324807581903
 30
0.0
 11
-9.975408825961601
 21
4.815938757419026
 31
0.0
  0
LWPOLYLINE
  5
93
330
2
100
AcDbEntity
  8
0
100
AcDbPolyline
 90
        3
 70
     0
 43
0.0
 10
-8.826761413161591
 20
5.077482696619028
 10
-9.377977590761588
 20
4.953755714219028
 10
-9.975418496361584
 20
4.81593649341903
  0
LINE
  5
94
330
2
100
AcDbEntity
  8
0
100
AcDbLine
 10
-8.826800357161594
 20
5.077473136619026
 30
0.0
 11
-8.331154878761601
 21
5.185934320619033
 31
0.0
  0
LINE
  5
95
330
2
100
AcDbEntity
  8
0
100
AcDbLine
 10
-7.882362677161601
 20
5.281877322219031
 30
0.0
 11
-8.331144846761596
 21
5.185936832619027
 31
0.0
  0
LINE
  5
96
330
2
100
AcDbEntity
  8
0
100
AcDbLine
 10
-7.882358977961593
 20
5.281878285419033
 30
0.0
 11
-7.473636814761596
 21
5.36739659741903
 31
0.0
  0
LWPOLYLINE
  5
97
330
2
100
AcDbEntity
  8
0
100
AcDbPolyline
 90
        3
 70
     0
 43
0.0
 10
-6.756821038761586
 20
5.513145984619029
 10
-7.099821179561587
 20
5.444072819819027
 10
-7.473635190761598
 20
5.367397008619029
  0
LINE
  5
98
330
2
100
AcDbEntity
  8
0
100
AcDbLine
 10
-6.75682084676159
 20
5.513146039019027
 30
0.0
 11
-6.441177729961601
 21
5.575634976619028
 31
0.0
  0
LINE
  5
99
330
2
100
AcDbEntity
  8
0
100
AcDbLine
 10
-6.1500803043616
 20
5.632358835819026
 30
0.0
 11
-6.441177638761593
 21
5.57563500221903
 31
0.0
  0
LWPOLYLINE
  5
9A
330
2
100
AcDbEntity
  8
0
100
AcDbPolyline
 90
        6
 70
     0
 43
0.0
 10
-6.150080304361594
 20
5.632358835819026
 10
-5.881145904361588
 20
5.68399803581903
 10
-5.632307016361593
 20
5.731128699819031
 10
-5.401751454761594
 20
5.774243423019029
 10
-5.187891213161591
 20
5.813764098219031
 10
-4.989778592361588
 20
5.849972479019029
  0
LWPOLYLINE
  5
9B
330
2
100
AcDbEntity
  8
0
100
AcDbPolyline
 90
       11
 70
     0
 43
0.0
 10
-4.601345043561593
 20
5.919850248619027
 10
-6.012595217961589
 20
5.658836352619026
 10
-7.264032025961597
 20
5.410569149419032
 10
-8.371323278761593
 20
5.177239055019029
 10
-9.350346305961593
 20
4.960032714219032
 10
-10.21391271396159
 20
4.759830255019032
 10
-10.97380657156158
 20
4.576860525419029
 10
-11.64468103076159
 20
4.409780567019026
 10
-12.24137304196159
 20
4.256582063019031
 10
-12.77586101796158
 20
4.115538611819026
 10
-13.26053001956159
 20
3.984350499819029
  0
LWPOLYLINE
  5
9C
330
2
100
AcDbEntity
  8
0
100
AcDbPolyline
 90
       11
 70
     0
 43
0.0
 10
-4.989777392361588
 20
5.849965317419027
 10
-2.144966963561586
 20
6.329089186219029
 10
0.7764704588384035
 20
6.749504167019026
 10
3.320214850838411
 20
7.066817506219031
 10
5.505632436438403
 20
7.311283789419029
 10
7.643577498838411
 20
7.529529488619026
 10
9.838307556438408
 20
7.733812987819028
 10
12.09084985723841
 20
7.923342618219031
 10
14.4020626716384
 20
8.09743269661903
 10
16.77298363963841
 20
8.255402095019029
 10
19.20488555963841
 20
8.396489930219026
  0
LWPOLYLINE
  5
9D
330
2
100
AcDbEntity
  8
0
100
AcDbPolyline
 90
       15
 70
     0
 43
0.0
 10
19.20488556123841
 20
8.39648989981903
 10
17.4222332620384
 20
8.295108579819029
 10
15.67216070523841
 20
8.184602917419027
 10
13.9543077196384
 20
8.065277509419026
 10
12.26838288603841
 20
7.93742913501903
 10
10.61423893403841
 20
7.801369159019031
 10
8.991718038038413
 20
7.657362715819026
 10
7.400584318038411
 20
7.505711242219028
 10
5.839536095638408
 20
7.346561896619029
 10
4.293311327638406
 20
7.178510331819026
 10
2.588337414038406
 20
6.979570823019031
 10
0.6930963724384043
 20
6.738391875819026
 10
-1.229614862761593
 20
6.468034499819026
 10
-3.015274270761594
 20
6.190351645419028
 10
-4.601345043561593
 20
5.919850248619027
  0
LWPOLYLINE
  5
9E
330
2
100
AcDbEntity
  8
0
  6
HIDDEN
 48
0.5
100
AcDbPolyline
 90
       11
 70
     0
 43
0.0
 10
5.740247908438405
 20
11.09069846941903
 10
5.732388386838408
 20
11.12016834781903
 10
5.72227734523841
 20
11.14992301341902
 10
5.709876580438404
 20
11.17976121341902
 10
5.695212226838407
 20
11.20938608061902
 10
5.678388230038407
 20
11.23844322461903
 10
5.659476897238405
 20
11.26671363581903
 10
5.638633202838406
 20
11.29390171901903
 10
5.616052919638406
 20
11.31972905501903
 10
5.591913903638413
 20
11.34399411581902
 10
5.586097489238412
 20
11.34939255901903
  0
LWPOLYLINE
  5
9F
330
2
100
AcDbEntity
  8
0
100
AcDbPolyline
 90
        5
 70
     0
 43
0.0
 10
-13.26053262596158
 20
3.984361821419028
 10
-12.95774570916159
 20
4.066671514219031
 10
-12.63294417316159
 20
4.153605981419026
 10
-12.28287382276159
 20
4.24576474141903
 10
-11.90349165316158
 20
4.343874114219026
  0
LWPOLYLINE
  5
A0
330
2
100
AcDbEntity
  8
0
  6
HIDDEN
 48
0.5
100
AcDbPolyline
 90
       30
 70
     0
 43
0.0
 10
10.9215634268384
 20
11.26227221021903
 10
11.0099708764384
 20
11.27141802141903
 10
11.09766590523841
 20
11.28178267901903
 10
11.18440991163841
 20
11.29333168221902
 10
11.26997320923841
 20
11.30602562301903
 10
11.35412940283841
 20
11.31981954621902
 10
11.4366541132384
 20
11.33466252061902
 10
11.51732616603841
 20
11.35049749821902
 10
11.59592791003841
 20
11.36726097661902
 10
11.6722459532384
 20
11.38488266621902
 10
11.7460719164384
 20
11.40328508541902
 10
11.81720338203841
 20
11.42238313341903
 10
11.8854593836384
 20
11.44208789821902
 10
11.9506422956384
 20
11.46229507901902
 10
12.0125745500384
 20
11.48289383261902
 10
12.0710914428384
 20
11.50376404861903
 10
12.1260427484384
 20
11.52477580381903
 10
12.17729558203841
 20
11.54578923581903
 10
12.22473773723841
 20
11.56665469981903
 10
12.26829584923841
 20
11.58722039101903
 10
12.3079073484384
 20
11.60731918461902
 10
12.34353140443841
 20
11.62677109501903
 10
12.3751749980384
 20
11.64539667901902
 10
12.4028851644384
 20
11.66301485021902
 10
12.4267625756384
 20
11.67945435101903
 10
12.44692015483841
 20
11.69452796701902
 10
12.46352229723841
 20
11.70806015101902
 10
12.4767780780384
 20
11.71988821501903
 10
12.48691600283841
 20
11.72984383261903
 10
12.4879989756384
 20
11.73097185341902
  0
LWPOLYLINE
  5
A1
330
2
100
AcDbEntity
  8
0
  6
HIDDEN
 48
0.5
100
AcDbPolyline
 90
       22
 70
     0
 43
0.0
 10
11.02782486523841
 20
10.01648804541903
 10
11.1963047516384
 20
10.03345758141902
 10
11.3639798668384
 20
10.05255885341902
 10
11.53062849563841
 20
10.07377079901903
 10
11.6960251132384
 20
10.09707052381902
 10
11.8599474684384
 20
10.12243417341903
 10
12.0221765164384
 20
10.14983713181902
 10
12.1824971804384
 20
10.17925439741903
 10
12.3406988588384
 20
10.21066098141903
 10
12.4965711724384
 20
10.24403134141903
 10
12.64991468283841
 20
10.27934201501903
 10
12.8005383244384
 20
10.31657198141903
 10
12.94825487643841
 20
10.35570235261902
 10
13.0928842028384
 20
10.39671801021903
 10
13.2342535900384
 20
10.43960885981903
 10
13.37219791163841
 20
10.48437133661902
 10
13.50655796443841
 20
10.53100961501903
 10
13.63716735483841
 20
10.57953265821903
 10
13.7638947516384
 20
10.62997247101903
 10
13.88659711483841
 20
10.68237098301902
 10
14.00512911163841
 20
10.73678664061903
 10
14.04799747483841
 20
10.75749483901903
  0
LWPOLYLINE
  5
A3
330
2
100
AcDbEntity
  8
0
  6
HIDDEN
 48
0.5
100
AcDbPolyline
 90
        8
 70
     0
 43
0.0
 10
13.8128440396384
 20
10.69500557661903
 10
13.84783852603841
 20
10.69795860221903
 10
13.88354214683841
 20
10.70323964061903
 10
13.9197736124384
 20
10.71091432221903
 10
13.95632811483841
 20
10.72103831581902
 10
13.9929511292384
 20
10.73364300221903
 10
14.02910030683841
 20
10.74861384061903
 10
14.04799695643841
 20
10.75749590301902
  0
LWPOLYLINE
  5
A4
330
2
100
AcDbEntity
  8
0
  6
HIDDEN
 48
0.5
100
AcDbPolyline
 90
        6
 70
     0
 43
0.0
 10
8.025173735638404
 20
11.01116194621902
 10
8.605338577238413
 20
11.05709354941903
 10
9.185138506838413
 20
11.10517706301902
 10
9.764494950038411
 20
11.15540595101902
 10
10.3433294028384
 20
11.20777337661903
 10
10.9215634268384
 20
11.26227221021903
  0
LWPOLYLINE
  5
A5
330
2
100
AcDbEntity
  8
0
  6
HIDDEN
 48
0.5
100
AcDbPolyline
 90
        6
 70
     0
 43
0.0
 10
7.92358039963841
 20
9.750562322219032
 10
8.54524239483841
 20
9.799600496619028
 10
9.166564980438408
 20
9.850717778219028
 10
9.787480993238403
 20
9.90390865341903
 10
10.40792331003841
 20
9.959167392619029
 10
11.02782486523841
 20
10.01648804541903
  0
LWPOLYLINE
  5
A9
330
2
100
AcDbEntity
  8
0
  6
HIDDEN
 48
0.5
100
AcDbPolyline
 90
        9
 70
     0
 43
0.0
 10
3.389751868438409
 20
10.22405850301903
 10
3.426546974038402
 20
10.20732584861902
 10
3.461535212438406
 20
10.19409072221903
 10
3.49708543483841
 20
10.18313791421903
 10
3.532845198038401
 20
10.17454105021902
 10
3.568567174038406
 20
10.16831000221902
 10
3.603867945238405
 20
10.16444492061903
 10
3.638435978838401
 20
10.16288876701902
 10
3.672050153238402
 20
10.16354908861902
  0
LWPOLYLINE
  5
AA
330
2
100
AcDbEntity
  8
0
  6
HIDDEN
 48
0.5
100
AcDbPolyline
 90
       29
 70
     0
 43
0.0
 10
3.389751974038404
 20
10.22405864061902
 10
3.450475361238403
 20
10.19494338781903
 10
3.556510137238404
 20
10.14847383261903
 10
3.668222894038407
 20
10.10457726941903
 10
3.785291090838413
 20
10.06320806781902
 10
3.907568070038408
 20
10.02426657821902
 10
4.035084790038411
 20
9.987626562219027
 10
4.167879012438405
 20
9.953196651819027
 10
4.305962854038412
 20
9.920920888619029
 10
4.449285514838408
 20
9.890777698219032
 10
4.597780426838411
 20
9.862761279019032
 10
4.751372690838408
 20
9.836877061419031
 10
4.909952094038402
 20
9.813143557419031
 10
5.073366372438414
 20
9.791589344619026
 10
5.241450983638415
 20
9.772246162219026
 10
5.414025204438402
 20
9.755148458219032
 10
5.590852078038409
 20
9.74033547261903
 10
5.771662615638405
 20
9.727846002219031
 10
5.956176057238408
 20
9.71771577341903
 10
6.144084121238407
 20
9.709977831019031
 10
6.33503741883841
 20
9.704661592619032
 10
6.528673324438415
 20
9.70179055741903
 10
6.724616983638412
 20
9.701382072619026
 10
6.922461479638414
 20
9.70344675741903
 10
7.121782687638415
 20
9.707987418219026
 10
7.322150729238401
 20
9.714998843819032
 10
7.523131103638405
 20
9.724467826219026
 10
7.724291774038405
 20
9.736373511019031
 10
7.92358039803841
 20
9.750562323819032
  0
LWPOLYLINE
  5
AB
330
2
100
AcDbEntity
  8
0
  6
HIDDEN
 48
0.5
100
AcDbPolyline
 90
       13
 70
     0
 43
0.0
 10
5.586097489238412
 20
11.34939255901903
 10
5.566381967638406
 20
11.36653945021903
 10
5.53977191003841
 20
11.38712140221903
 10
5.512346782038406
 20
11.40560393821903
 10
5.484347146838402
 20
11.42190793821902
 10
5.455973436438412
 20
11.43600583581903
 10
5.42743933563841
 20
11.44788468061902
 10
5.398883030038405
 20
11.45757925181902
 10
5.37049809723841
 20
11.46511569661903
 10
5.34237570363841
 20
11.47055907741903
 10
5.314666110038402
 20
11.47396513181902
 10
5.287425873238404
 20
11.47540645021903
 10
5.260785076438409
 20
11.47495075261903
  0
LWPOLYLINE
  5
AC
330
2
100
AcDbEntity
  8
0
  6
HIDDEN
 48
0.5
100
AcDbPolyline
 90
       34
 70
     0
 43
0.0
 10
5.586097820438411
 20
11.34939291901903
 10
5.589040047638405
 20
11.34673985501903
 10
5.604291761238414
 20
11.33396508861903
 10
5.623543698838403
 20
11.31953958941902
 10
5.647037026838404
 20
11.30370406621902
 10
5.674960782038411
 20
11.28670306301903
 10
5.707462268438405
 20
11.26877489021902
 10
5.744677255638407
 20
11.25013616221902
 10
5.786649286038411
 20
11.23102237981903
 10
5.833396823638409
 20
11.21164933821903
 10
5.884936370838403
 20
11.19220784381902
 10
5.941211570838405
 20
11.17289279581903
 10
6.002084465238411
 20
11.15389953821902
 10
6.067500526038415
 20
11.13537320861903
 10
6.137321122838415
 20
11.11746591741903
 10
6.21137347803841
 20
11.10031850621903
 10
6.289457838038401
 20
11.08405879261903
 10
6.371425663638405
 20
11.06878818621903
 10
6.45707348763841
 20
11.05460625341903
 10
6.546186902038414
 20
11.04160122301902
 10
6.638510599638408
 20
11.02985447421902
 10
6.733858857238402
 20
11.01942748541903
 10
6.831997346838406
 20
11.01037922301902
 10
6.932686903638412
 20
11.00276014781903
 10
7.035672393238414
 20
10.99661340221903
 10
7.140713110038404
 20
10.99197333821903
 10
7.247572926038415
 20
10.98886755101902
 10
7.355999758038407
 20
10.98731792861902
 10
7.465739564438408
 20
10.98734005181903
 10
7.57652949243841
 20
10.98894330301902
 10
7.688124350038407
 20
10.99213150941903
 10
7.80026889243841
 20
10.99690304221903
 10
7.91270486043841
 20
11.00325072701902
 10
8.025173735638404
 20
11.01116194621902
  0
LWPOLYLINE
  5
AD
330
2
100
AcDbEntity
  8
0
  6
HIDDEN
 48
0.5
100
AcDbPolyline
 90
       12
 70
     0
 43
0.0
 10
12.77068968923841
 20
11.86852817501903
 10
12.74476151323841
 20
11.86623570141903
 10
12.71855086523841
 20
11.86202296061902
 10
12.69219234203841
 20
11.85585040701902
 10
12.6657367628384
 20
11.84766277341903
 10
12.6393228172384
 20
11.83742833821902
 10
12.6130199452384
 20
11.82509137501902
 10
12.58698921883841
 20
11.81063670461902
 10
12.5613523692384
 20
11.79403633341902
 10
12.53631299323841
 20
11.77532475741902
 10
12.51201897563841
 20
11.75451432381903
 10
12.4879991548384
 20
11.73097168381902
  0
LWPOLYLINE
  5
AE
330
2
100
AcDbEntity
  8
0
  6
HIDDEN
 48
0.5
100
AcDbPolyline
 90
       29
 70
     0
 43
0.0
 10
3.602010596438404
 20
11.38801806621903
 10
3.559338558038405
 20
11.38450535741903
 10
3.518346345238413
 20
11.37862457341903
 10
3.479088418838415
 20
11.37052461341902
 10
3.441510070038404
 20
11.36032456541902
 10
3.405623778838403
 20
11.34814456381902
 10
3.371389198038414
 20
11.33407564381902
 10
3.338850174038412
 20
11.31823224861903
 10
3.307954660438412
 20
11.30067554461903
 10
3.278733342038407
 20
11.28149763741902
 10
3.251183634838412
 20
11.26076487901902
 10
3.225290775638413
 20
11.23851987261903
 10
3.201101606038406
 20
11.21484785661903
 10
3.178590809238414
 20
11.18975534941903
 10
3.157817375638401
 20
11.16332500861903
 10
3.138793906838415
 20
11.13557883901903
 10
3.121556156438401
 20
11.10655281661902
 10
3.106166780438414
 20
11.07632265661902
 10
3.09265050843841
 20
11.04487951901902
 10
3.081086481238415
 20
11.01231879261902
 10
3.071522470038402
 20
10.97864863261902
 10
3.06403346843841
 20
10.94394004061903
 10
3.058694686038407
 20
10.90827257661902
 10
3.05557689723841
 20
10.87167309981902
 10
3.054763028438415
 20
10.83426796701903
 10
3.056331889238407
 20
10.79609402621903
 10
3.060361345238405
 20
10.75729596701903
 10
3.066934084438415
 20
10.71793518461902
 10
3.076121878038406
 20
10.67815764381902
  0
LINE
  5
AF
330
2
100
AcDbEntity
  8
0
  6
HIDDEN
 48
0.5
100
AcDbLine
 10
13.79365668763839
 20
11.92213960381902
 30
0.0
 11
12.7706896892384
 21
11.86852817501903
 31
0.0
  0
LINE
  5
B0
330
2
100
AcDbEntity
  8
0
  6
HIDDEN
 48
0.5
100
AcDbLine
 10
5.260785076438403
 20
11.47495075261903
 30
0.0
 11
3.602010596438398
 21
11.38801806621903
 31
0.0
  0
LINE
  5
B2
330
2
100
AcDbEntity
  8
0
100
AcDbLine
 10
36.8848495596384
 20
12.76138936381902
 30
0.0
 11
-28.1189557427616
 21
12.76138936381902
 31
0.0
  0
LWPOLYLINE
  5
B3
330
2
100
AcDbEntity
  8
0
100
AcDbPolyline
 90
       25
 70
     0
 43
0.0
 10
-16.44076303556158
 20
14.62204960381902
 10
-16.95808046916159
 20
14.66169114141902
 10
-17.52518962276159
 20
14.71215625021903
 10
-18.13955961156159
 20
14.77573424381903
 10
-18.75757140996159
 20
14.84926669021903
 10
-19.36685756516158
 20
14.93119223901902
 10
-19.96770606116159
 20
15.02114252381903
 10
-20.55191234596159
 20
15.11703090621902
 10
-21.10269046436159
 20
15.21472953021903
 10
-21.60933177316159
 20
15.31073541821903
 10
-22.07172046436159
 20
15.40349869821903
 10
-22.49162764676159
 20
15.49217445341903
 10
-22.87241596036159
 20
15.57662276221903
 10
-23.21802657476158
 20
15.65698230621902
 10
-23.53127372676159
 20
15.73323930621902
 10
-23.81272585476158
 20
15.80487156381902
 10
-24.06281309636159
 20
15.87133705981902
 10
-24.28285088516159
 20
15.93236440381903
 10
-24.47509534596159
 20
15.98807373341903
 10
-24.64116947076159
 20
16.03856484541903
 10
-24.78235414436159
 20
16.08391601501903
 10
-24.90239890596159
 20
16.12516874621902
 10
-25.00927024196159
 20
16.16487689501902
 10
-25.10488451556159
 20
16.20293977181902
 10
-25.19563710756159
 20
16.24066661341903
  0
LWPOLYLINE
  5
B4
330
2
100
AcDbEntity
  8
0
  6
HIDDEN
 48
0.5
100
AcDbPolyline
 90
       29
 70
     0
 43
0.0
 10
14.3861141372384
 20
11.27088920861903
 10
14.3925287180384
 20
11.31143212221903
 10
14.3963026284384
 20
11.35120328381903
 10
14.3975358428384
 20
11.39009052701902
 10
14.39632828123841
 20
11.42804416381903
 10
14.3927803804384
 20
11.46493420221902
 10
14.38698203963841
 20
11.50075200541903
 10
14.3790310892384
 20
11.53539404541903
 10
14.3690032316384
 20
11.56885365181902
 10
14.35697744923841
 20
11.60107795581903
 10
14.3430343212384
 20
11.63200790141903
 10
14.32721260763841
 20
11.66166024061902
 10
14.30959248283841
 20
11.68995358461902
 10
14.2901890060384
 20
11.71690544861903
 10
14.2690507756384
 20
11.74246221181903
 10
14.24621435803841
 20
11.76658087581903
 10
14.22166504443841
 20
11.78925632541903
 10
14.1954581740384
 20
11.81040384221903
 10
14.16755275323841
 20
11.83000955741903
 10
14.1379704044384
 20
11.84799524381902
 10
14.10670036923841
 20
11.86429552701903
 10
14.0737034172384
 20
11.87884350621902
 10
14.03901260923841
 20
11.89152831261903
 10
14.00255458043841
 20
11.90226833021903
 10
13.96435612283841
 20
11.91093434461903
 10
13.9243597420384
 20
11.91740683101903
 10
13.88258916283841
 20
11.92153683901902
 10
13.83902709403841
 20
11.92317105821903
 10
13.7936566876384
 20
11.92213960381902
  0
LWPOLYLINE
  5
B5
330
2
100
AcDbEntity
  8
0
  6
HIDDEN
 48
0.5
100
AcDbPolyline
 90
        3
 70
     0
 43
0.0
 10
14.3593910092384
 20
11.13302875421902
 10
14.3728471308384
 20
11.20175377021902
 10
14.3861141372384
 20
11.27088920861903
  0
LINE
  5
B6
330
2
100
AcDbEntity
  8
0
100
AcDbLine
 10
37.02263111963839
 20
14.26138936381902
 30
0.0
 11
36.77358244603839
 21
14.26138936381902
 31
0.0
  0
LINE
  5
B7
330
2
100
AcDbEntity
  8
0
100
AcDbLine
 10
36.0373570908384
 20
14.26138936381902
 30
0.0
 11
-27.22532624676159
 21
14.26138936381902
 31
0.0
  0
LINE
  5
B8
330
2
100
AcDbEntity
  8
0
100
AcDbLine
 10
-28.00768862756159
 20
14.26138936381902
 30
0.0
 11
-28.2567373027616
 21
14.26138936381902
 31
0.0
  0
LINE
  5
B9
330
2
100
AcDbEntity
  8
0
100
AcDbLine
 10
-8.617451565161594
 20
14.26138936381902
 30
0.0
 11
-8.944614245161595
 21
14.26151509661902
 31
0.0
  0
LWPOLYLINE
  5
BA
330
2
100
AcDbEntity
  8
0
100
AcDbPolyline
 90
        6
 70
     0
 43
0.0
 10
-8.944614222761586
 20
14.26151509661902
 10
-9.239641262761594
 20
14.26207751101903
 10
-9.502810365161593
 20
14.26339800541902
 10
-9.749721563561593
 20
14.26601492061903
 10
-9.998183213161595
 20
14.27084715581902
 10
-10.26770431396158
 20
14.27893647101902
  0
LINE
  5
BB
330
2
100
AcDbEntity
  8
0
100
AcDbLine
 10
-10.26770449316159
 20
14.27893647741903
 30
0.0
 11
-10.57631785156159
 21
14.29108680381902
 31
0.0
  0
LWPOLYLINE
  5
BC
330
2
100
AcDbEntity
  8
0
100
AcDbPolyline
 90
       14
 70
     0
 43
0.0
 10
-10.57631760836159
 20
14.29108679421902
 10
-10.92394797316158
 20
14.30719541181903
 10
-11.29371011716158
 20
14.32609173661902
 10
-11.67909249636159
 20
14.34699331741902
 10
-12.08000522596159
 20
14.36953622461903
 10
-12.50123705956158
 20
14.39369946781903
 10
-12.94760552996159
 20
14.41947814141902
 10
-13.42928204516159
 20
14.44710209181902
 10
-13.94033117636158
 20
14.47595046781903
 10
-14.46151117156158
 20
14.50486118781903
 10
-14.97587744996159
 20
14.53314962461902
 10
-15.47156767076159
 20
14.56088834621903
 10
-15.95144611876158
 20
14.58946467901903
 10
-16.44076198116159
 20
14.62204953021903
  0
LINE
  5
BD
330
2
100
AcDbEntity
  8
CENTER
 62
     1
 48
4.0
100
AcDbLine
 10
30.2951939100384
 20
11.32569002461902
 30
0.0
 11
39.4183628652384
 21
10.20550573021903
 31
0.0
  0
LWPOLYLINE
  5
C4
330
2
100
AcDbEntity
  8
0
100
AcDbPolyline
 90
        4
 70
     0
 43
0.0
 10
29.07960781563841
 20
-5.909441338580968
 10
29.12601238203841
 20
-5.895798005780967
 10
29.1450995180384
 20
-5.892349224980968
 10
29.1471017724384
 20
-5.892093656980968
  0
LINE
  5
C5
330
2
100
AcDbEntity
  8
0
100
AcDbLine
 10
29.0138175548384
 20
-5.941690119380972
 30
0.0
 11
29.0796078156384
 21
-5.909441338580968
 31
0.0
  0
LWPOLYLINE
  5
C6
330
2
100
AcDbEntity
  8
0
100
AcDbPolyline
 90
        3
 70
     0
 43
0.0
 10
29.2862864540384
 20
-5.884111719380967
 10
29.2832579388384
 20
-5.886258975380968
 10
29.22118297723841
 20
-5.893341218580971
  0
LINE
  5
C7
330
2
100
AcDbEntity
  8
0
100
AcDbLine
 10
29.28639580923841
 20
-5.884111877780966
 30
0.0
 11
29.28644325723839
 21
-5.852873760980969
 31
0.0
  0
LWPOLYLINE
  5
C8
330
2
100
AcDbEntity
  8
0
100
AcDbPolyline
 90
        3
 70
     0
 43
0.0
 10
28.8895577180384
 20
-6.068733965780971
 10
28.94620516123841
 20
-5.995475612180968
 10
29.01381755483841
 20
-5.941690119380972
  0
LINE
  5
C9
330
2
100
AcDbEntity
  8
0
100
AcDbLine
 10
30.6970884572384
 20
-5.821566175380972
 30
0.0
 11
30.3422187564384
 21
-6.176435874580967
 31
0.0
  0
LINE
  5
CA
330
2
100
AcDbEntity
  8
0
100
AcDbLine
 10
28.8567334076384
 20
-6.140671821780969
 30
0.0
 11
28.88955771803839
 21
-6.068733965780971
 31
0.0
  0
LWPOLYLINE
  5
CB
330
2
100
AcDbEntity
  8
0
100
AcDbPolyline
 90
        7
 70
     0
 43
0.0
 10
34.24946751323841
 20
6.045747250219029
 10
34.3616419548384
 20
6.85493012381903
 10
34.41437016283841
 20
7.234779786219029
 10
34.4645842812384
 20
7.595804277419027
 10
34.51237855803841
 20
7.93861851741903
 10
34.55787137723841
 20
8.264108592619031
 10
34.60106548443841
 20
8.57236724221903
  0
LINE
  5
CC
330
2
100
AcDbEntity
  8
0
100
AcDbLine
 10
34.6010654844384
 20
8.57236724381903
 30
0.0
 11
34.64025128123839
 21
8.851308439019028
 31
0.0
  0
LINE
  5
CD
330
2
100
AcDbEntity
  8
0
100
AcDbLine
 10
34.6402494380384
 20
8.85130863741903
 30
0.0
 11
35.19025738294573
 21
12.76138936381902
 31
0.0
  0
LWPOLYLINE
  5
CE
330
2
100
AcDbEntity
  8
0
100
AcDbPolyline
 90
        8
 70
     0
 43
0.0
 10
32.8549289884384
 20
-3.841582010580971
 10
32.9477430252384
 20
-3.183329061780973
 10
33.0456964444384
 20
-2.489479071380969
 10
33.14758017563841
 20
-1.768505418580971
 10
33.2517094748384
 20
-1.032176423380967
 10
33.35667788123841
 20
-0.2903872025809733
 10
33.4609650300384
 20
0.4461754326190288
 10
33.56326420763841
 20
1.16833739901903
  0
LWPOLYLINE
  5
CF
330
2
100
AcDbEntity
  8
0
100
AcDbPolyline
 90
        9
 70
     0
 43
0.0
 10
33.56326420763841
 20
1.16833739901903
 10
33.7565471644384
 20
2.532290647019031
 10
33.8446760876384
 20
3.155106610219029
 10
33.9252533340384
 20
3.725909178219026
 10
33.99835917723841
 20
4.24538620221903
 10
34.0661112588384
 20
4.728549109419027
 10
34.12976779643841
 20
5.184301280619031
 10
34.19053805723841
 20
5.621083015019031
 10
34.24946751323841
 20
6.045747250219029
  0
LINE
  5
D0
330
2
100
AcDbEntity
  8
0
100
AcDbLine
 10
32.76820043803839
 20
-4.457233282580972
 30
0.0
 11
32.85492899483839
 21
-3.841581965780967
 31
0.0
  0
LINE
  5
D1
330
2
100
AcDbEntity
  8
0
100
AcDbLine
 10
32.76433495643839
 20
-4.482103412180968
 30
0.0
 11
32.7683974252384
 21
-4.455887652180969
 31
0.0
  0
LINE
  5
D4
330
2
100
AcDbEntity
  8
0
100
AcDbLine
 10
37.3829469084384
 20
12.76138936381902
 30
0.0
 11
37.27167979483839
 21
14.03317829981902
 31
0.0
  0
ARC
  5
D6
330
2
100
AcDbEntity
  8
0
100
AcDbCircle
 10
35.97045366197479
 20
13.58289765251621
 30
0.0
 40
0.6817822754372071
100
AcDbArc
 50
84.36849096233087
 51
174.1591622706995
  0
ARC
  5
D7
330
2
100
AcDbEntity
  8
0
100
AcDbCircle
 10
-6.065703832361598
 20
-4.613690285780968
 30
0.0
 40
0.375
100
AcDbArc
 50
88.5763444104
 51
165.0
  0
ARC
  5
D8
330
2
100
AcDbEntity
  8
0
100
AcDbCircle
 10
-11.4542502835616
 20
-4.479770936980969
 30
0.0
 40
0.3749852416
100
AcDbArc
 50
15.0015509705
 51
88.5818290757
  0
ARC
  5
D9
330
2
100
AcDbEntity
  8
0
100
AcDbCircle
 10
-8.742053091561594
 20
-7.301110636180972
 30
0.0
 40
0.9375
100
AcDbArc
 50
43.173185495
 51
136.8268472293999
  0
ARC
  5
DA
330
2
100
AcDbEntity
  8
0
100
AcDbCircle
 10
-7.876027686761594
 20
-6.488610636180972
 30
0.0
 40
0.25
100
AcDbArc
 50
223.1749221533
 51
270.0
  0
ARC
  5
DB
330
2
100
AcDbEntity
  8
0
100
AcDbCircle
 10
-9.608078494761592
 20
-6.488610636180972
 30
0.0
 40
0.25
100
AcDbArc
 50
270.0
 51
316.8249483901
  0
ARC
  5
DC
330
2
100
AcDbEntity
  8
0
100
AcDbCircle
 10
-10.2689610787616
 20
-6.488610636180972
 30
0.0
 40
0.25
100
AcDbArc
 50
194.9993911401
 51
269.9976474526
  0
ARC
  5
DD
330
2
100
AcDbEntity
  8
0
100
AcDbCircle
 10
-7.215148928361592
 20
-6.488610636180972
 30
0.0
 40
0.25
100
AcDbArc
 50
270.0032292840999
 51
345.0008357546999
  0
ARC
  5
DE
330
2
100
AcDbEntity
  8
0
100
AcDbCircle
 10
28.02676603003839
 20
-5.863610636180972
 30
0.0
 40
0.875
100
AcDbArc
 50
270.0
 51
341.5435352559
  0
ARC
  5
DF
330
2
100
AcDbEntity
  8
0
100
AcDbCircle
 10
5.299249086038408
 20
-5.863610636180972
 30
0.0
 40
0.875
100
AcDbArc
 50
190.0000119430999
 51
270.0
  0
ARC
  5
E0
330
2
100
AcDbEntity
  8
0
100
AcDbCircle
 10
37.0226310364384
 20
14.01138936381902
 30
0.0
 40
0.25
100
AcDbArc
 50
4.9999983306
 51
89.9999808459
  0
ARC
  5
E1
330
2
100
AcDbEntity
  8
0
100
AcDbCircle
 10
-28.2567373027616
 20
14.01138936381902
 30
0.0
 40
0.25
100
AcDbArc
 50
90.0
 51
175.0
  0
ARC
  5
E2
330
2
100
AcDbEntity
  8
0
100
AcDbCircle
 10
30.86281637883839
 20
-5.98729455618097
 30
0.0
 40
0.234375
100
AcDbArc
 50
102.4115047758
 51
134.9999999933999
  0
ARC
  5
E3
330
2
100
AcDbEntity
  8
0
100
AcDbCircle
 10
26.90446202043839
 20
-5.988679124180968
 30
0.0
 40
0.2343749984
100
AcDbArc
 50
52.50541273799999
 51
90.03247369150001
  0
ARC
  5
E4
330
2
100
AcDbEntity
  8
0
100
AcDbCircle
 10
30.1543935180384
 20
-5.988610636180972
 30
0.0
 40
0.265625
100
AcDbArc
 50
270.0
 51
315.0
  0
ARC
  5
E5
330
2
100
AcDbEntity
  8
0
100
AcDbCircle
 10
1.142444514838396
 20
-4.605273560980968
 30
0.0
 40
0.359375
100
AcDbArc
 50
5.725054230899998
 51
88.5765130573
  0
ARC
  5
E6
330
2
100
AcDbEntity
  8
0
100
AcDbCircle
 10
-17.3002724851616
 20
-1.646152290580971
 30
0.0
 40
2.140625
100
AcDbArc
 50
183.1551229887999
 51
268.5763444103999
  0
ARC
  5
E7
330
2
100
AcDbEntity
  8
0
100
AcDbCircle
 10
-24.0816437571616
 20
9.165324827819027
 30
0.0
 40
2.4843749952
100
AcDbArc
 50
5.792188889100001
 51
23.7111063565
  0
ARC
  5
E8
330
2
100
AcDbEntity
  8
0
100
AcDbCircle
 10
-27.22532624836159
 20
14.38638936381902
 30
0.0
 40
0.125
100
AcDbArc
 50
270.0000011108999
 51
351.5270517373999
  0
LINE
  5
E9
330
2
100
AcDbEntity
  8
0
100
AcDbLine
 10
-10.26897134368608
 20
-6.738610635970232
 30
0.0
 11
-9.608078494841315
 21
-6.738610636180972
 31
0.0
  0
LINE
  5
EA
330
2
100
AcDbEntity
  8
0
100
AcDbLine
 10
-7.876027686761594
 20
-6.738610636180972
 30
0.0
 11
-7.215134837951587
 21
-6.738610635783892
 31
0.0
  0
LINE
  5
EB
330
2
100
AcDbEntity
  8
0
100
AcDbLine
 10
5.299249086038408
 20
-6.738610636180972
 30
0.0
 11
28.02676603003839
 21
-6.738610636180972
 31
0.0
  0
LINE
  5
EC
330
2
100
AcDbEntity
  8
0
100
AcDbLine
 10
-28.00768862756159
 20
14.26138936381902
 30
0.0
 11
-27.22532624593799
 21
14.26138936381902
 31
0.0
  0
LINE
  5
ED
330
2
100
AcDbEntity
  8
0
100
AcDbLine
 10
36.03735709083837
 20
14.26138936381902
 30
0.0
 11
36.77358244603839
 21
14.26138936381902
 31
0.0
  0
LWPOLYLINE
  5
EE
330
2
100
AcDbEntity
  8
CENTER
 62
     1
 48
4.0
100
AcDbPolyline
 90
        3
 70
   128
 43
0.0
 10
28.88296584447179
 20
-10.10423563618098
 10
28.88296584447179
 20
-6.254235636180972
 10
28.88296584447179
 20
-2.404235636180978
  0
LINE
  5
197
330
2
100
AcDbEntity
  8
0
100
AcDbLine
 10
37.38294690843841
 20
12.76138936381902
 30
0.0
 11
-28.61705309156159
 21
12.76138936381902
 31
0.0
  0
ENDSEC
  0
SECTION
  2
OBJECTS
  0
DICTIONARY
  5
C
330
0
100
AcDbDictionary
  3
ACAD_COLOR
350
2E
  3
ACAD_GROUP
350
29
  3
ACAD_LAYOUT
350
B
  3
ACAD_MATERIAL
350
2D
  3
ACAD_MLINESTYLE
350
2A
  3
ACAD_PLOTSETTINGS
350
2B
  3
ACAD_PLOTSTYLENAME
350
2C
  3
ACAD_TABLESTYLE
350
2F
  3
ACDBHEADERROUNDTRIPXREC
350
1D4
  3
ACDBVARIABLEDICTIONARY
350
F4
  0
DICTIONARY
  5
12
330
11
100
AcDbDictionary
280
     1
  3
ACAD_LAYERFILTERS
360
13
  3
ACLYDICTIONARY
360
14
  0
DICTIONARY
  5
3
330
2
100
AcDbDictionary
280
     1
  3
ACAD_LAYOUTSELFREF
360
1F5
  3
ACAD_SORTENTS
360
EF
  0
DICTIONARY
  5
189
330
D
100
AcDbDictionary
280
     1
  3
ACAD_LAYOUTSELFREF
360
1F6
  0
DICTIONARY
  5
2E
102
{ACAD_REACTORS
330
C
102
}
330
C
100
AcDbDictionary
  0
DICTIONARY
  5
29
102
{ACAD_REACTORS
330
C
102
}
330
C
100
AcDbDictionary
  0
DICTIONARY
  5
B
102
{ACAD_REACTORS
330
C
102
}
330
C
100
AcDbDictionary
  0
DICTIONARY
  5
2D
102
{ACAD_REACTORS
330
C
102
}
330
C
100
AcDbDictionary
  0
DICTIONARY
  5
2A
102
{ACAD_REACTORS
330
C
102
}
330
C
100
AcDbDictionary
  3
STANDARD
350
30
  0
DICTIONARY
  5
2B
102
{ACAD_REACTORS
330
C
102
}
330
C
100
AcDbDictionary
  0
ACDBDICTIONARYWDFLT
  5
2C
102
{ACAD_REACTORS
330
C
102
}
330
C
100
AcDbDictionary
281
     1
  3
Normal
350
7
100
AcDbDictionaryWithDefault
340
7
  0
DICTIONARY
  5
2F
102
{ACAD_REACTORS
330
C
102
}
330
C
100
AcDbDictionary
  3
STANDARD
350
31
  0
DICTIONARY
  5
1D4
102
{ACAD_REACTORS
330
C
102
}
330
C
100
AcDbDictionary
  3
CEPSNTYPE
350
1DE
  3
DIMSTYLEDATA
350
1E2
  3
FINGERPRINTGUID
350
1DF
  3
HYPERLINKBASE
350
1D7
  3
INSUNITS
350
1DD
  3
LAYOUTDICT
350
1D9
  3
LWETCUNION
350
1DC
  3
PLOTSETDICT
350
1DA
  3
PLOTSTYLNAMDICT
350
1DB
  3
PSVPSCALE
350
1E1
  3
PUCSBASE
350
1E5
  3
PUCSORGBACK
350
1EB
  3
PUCSORGBOTTOM
350
1E7
  3
PUCSORGFRONT
350
1EA
  3
PUCSORGLEFT
350
1E8
  3
PUCSORGRIGHT
350
1E9
  3
PUCSORGTOP
350
1E6
  3
PUCSORTHOREF
350
1E3
  3
PUCSORTHOVIEW
350
1E4
  3
STYLESHEET
350
1D8
  3
TSTACKALIGN
350
1D5
  3
TSTACKSIZE
350
1D6
  3
UCSBASE
350
1EE
  3
UCSORGBACK
350
1F4
  3
UCSORGBOTTOM
350
1F0
  3
UCSORGFRONT
350
1F3
  3
UCSORGLEFT
350
1F1
  3
UCSORGRIGHT
350
1F2
  3
UCSORGTOP
350
1EF
  3
UCSORTHOREF
350
1EC
  3
UCSORTHOVIEW
350
1ED
  3
VERSIONGUID
350
1E0
  0
DICTIONARY
  5
F4
102
{ACAD_REACTORS
330
C
102
}
330
C
100
AcDbDictionary
  3
CTABLESTYLE
350
F5
  3
DIMASSOC
350
129
  3
HIDETEXT
350
128
  3
PROJECTNAME
350
12A
  0
DICTIONARY
  5
13
102
{ACAD_REACTORS
330
12
102
}
330
12
100
AcDbDictionary
  0
DICTIONARY
  5
14
102
{ACAD_REACTORS
330
12
102
}
330
12
100
AcDbDictionary
1001
ACAD
1000
<All
  0
XRECORD
  5
1F5
102
{ACAD_REACTORS
330
3
102
}
330
3
100
AcDbXrecord
340
2
  0
SORTENTSTABLE
  5
EF
102
{ACAD_REACTORS
330
3
102
}
330
3
100
AcDbSortentsTable
330
2
  0
XRECORD
  5
1F6
102
{ACAD_REACTORS
330
189
102
}
330
189
100
AcDbXrecord
340
D
  0
MLINESTYLE
  5
30
102
{ACAD_REACTORS
330
2A
102
}
330
2A
100
AcDbMlineStyle
  2
STANDARD
 70
     0
  3

 62
   256
 51
90.0
 52
90.0
 71
     2
 49
0.5
 62
   256
  6
BYLAYER
 49
-0.5
 62
   256
  6
BYLAYER
  0
ACDBPLACEHOLDER
  5
7
102
{ACAD_REACTORS
330
2C
102
}
330
0
100
AcDbPlaceHolder
280
     0
  0
ACAD_PROXY_OBJECT
  5
31
102
{ACAD_REACTORS
330
2F
102
}
330
2F
100
AcDbProxyObject
 90
      499
 91
      525
 93
     1841
310
4214DD185B99185C9928B81E85EB51B8AE3F2E07A17AD46E2B8FC02B5E8DC0F42B1CFD028000000C1008070000C3001FDFF8000000C1003FBFF000000182007F7FE00000030400FEFFC00000060801FDFF8000000C1003FBFF00000018200000000000000681FA0B0000001820100E000186003FBFF000000182007F7FE000
310
00030400FEFFC00000060801FDFF8000000C1003FBFF000000182007F7FE000000304000AD7A3703D0AC73F4160000003040201C00030C007F7FE00000030400FEFFC00000060801FDFF8000000C1003FBFF000000182007F7FE00000030400FEFFC000000608018
340
17
340
17
340
17
 94
        0
1001
ACAD
1000
AcadProxyRoundTripData
1071
      524
1071
   851991
1070
     0
  0
XRECORD
  5
1DE
102
{ACAD_REACTORS
330
1D4
102
}
330
1D4
100
AcDbXrecord
 90
        0
  0
XRECORD
  5
1E2
102
{ACAD_REACTORS
330
1D4
102
}
330
1D4
100
AcDbXrecord
1000
DSTYLE
1002
{
1070
   341
340
23
1070
   342
340
23
1002
}
  0
XRECORD
  5
1DF
102
{ACAD_REACTORS
330
1D4
102
}
330
1D4
100
AcDbXrecord
  1
{2461BD4B-0368-4113-8DE0-02472AA66188}
  0
XRECORD
  5
1D7
102
{ACAD_REACTORS
330
1D4
102
}
330
1D4
100
AcDbXrecord
  1

  0
XRECORD
  5
1DD
102
{ACAD_REACTORS
330
1D4
102
}
330
1D4
100
AcDbXrecord
 90
        1
  0
XRECORD
  5
1D9
102
{ACAD_REACTORS
330
1D4
102
}
330
1D4
100
AcDbXrecord
340
B
  0
XRECORD
  5
1DC
102
{ACAD_REACTORS
330
1D4
102
}
330
1D4
100
AcDbXrecord
 90
    10781
  0
XRECORD
  5
1DA
102
{ACAD_REACTORS
330
1D4
102
}
330
1D4
100
AcDbXrecord
340
2B
  0
XRECORD
  5
1DB
102
{ACAD_REACTORS
330
1D4
102
}
330
1D4
100
AcDbXrecord
340
2C
  0
XRECORD
  5
1E1
102
{ACAD_REACTORS
330
1D4
102
}
330
1D4
100
AcDbXrecord
 40
0.0
  0
XRECORD
  5
1E5
102
{ACAD_REACTORS
330
1D4
102
}
330
1D4
100
AcDbXrecord
340
0
  0
XRECORD
  5
1EB
102
{ACAD_REACTORS
330
1D4
102
}
330
1D4
100
AcDbXrecord
 10
0.0
 20
0.0
 30
0.0
  0
XRECORD
  5
1E7
102
{ACAD_REACTORS
330
1D4
102
}
330
1D4
100
AcDbXrecord
 10
0.0
 20
0.0
 30
0.0
  0
XRECORD
  5
1EA
102
{ACAD_REACTORS
330
1D4
102
}
330
1D4
100
AcDbXrecord
 10
0.0
 20
0.0
 30
0.0
  0
XRECORD
  5
1E8
102
{ACAD_REACTORS
330
1D4
102
}
330
1D4
100
AcDbXrecord
 10
0.0
 20
0.0
 30
0.0
  0
XRECORD
  5
1E9
102
{ACAD_REACTORS
330
1D4
102
}
330
1D4
100
AcDbXrecord
 10
0.0
 20
0.0
 30
0.0
  0
XRECORD
  5
1E6
102
{ACAD_REACTORS
330
1D4
102
}
330
1D4
100
AcDbXrecord
 10
0.0
 20
0.0
 30
0.0
  0
XRECORD
  5
1E3
102
{ACAD_REACTORS
330
1D4
102
}
330
1D4
100
AcDbXrecord
340
0
  0
XRECORD
  5
1E4
102
{ACAD_REACTORS
330
1D4
102
}
330
1D4
100
AcDbXrecord
 70
     0
  0
XRECORD
  5
1D8
102
{ACAD_REACTORS
330
1D4
102
}
330
1D4
100
AcDbXrecord
  1

  0
XRECORD
  5
1D5
102
{ACAD_REACTORS
330
1D4
102
}
330
1D4
100
AcDbXrecord
 90
        1
  0
XRECORD
  5
1D6
102
{ACAD_REACTORS
330
1D4
102
}
330
1D4
100
AcDbXrecord
 90
       70
  0
XRECORD
  5
1EE
102
{ACAD_REACTORS
330
1D4
102
}
330
1D4
100
AcDbXrecord
340
0
  0
XRECORD
  5
1F4
102
{ACAD_REACTORS
330
1D4
102
}
330
1D4
100
AcDbXrecord
 10
0.0
 20
0.0
 30
0.0
  0
XRECORD
  5
1F0
102
{ACAD_REACTORS
330
1D4
102
}
330
1D4
100
AcDbXrecord
 10
0.0
 20
0.0
 30
0.0
  0
XRECORD
  5
1F3
102
{ACAD_REACTORS
330
1D4
102
}
330
1D4
100
AcDbXrecord
 10
0.0
 20
0.0
 30
0.0
  0
XRECORD
  5
1F1
102
{ACAD_REACTORS
330
1D4
102
}
330
1D4
100
AcDbXrecord
 10
0.0
 20
0.0
 30
0.0
  0
XRECORD
  5
1F2
102
{ACAD_REACTORS
330
1D4
102
}
330
1D4
100
AcDbXrecord
 10
0.0
 20
0.0
 30
0.0
  0
XRECORD
  5
1EF
102
{ACAD_REACTORS
330
1D4
102
}
330
1D4
100
AcDbXrecord
 10
0.0
 20
0.0
 30
0.0
  0
XRECORD
  5
1EC
102
{ACAD_REACTORS
330
1D4
102
}
330
1D4
100
AcDbXrecord
340
0
  0
XRECORD
  5
1ED
102
{ACAD_REACTORS
330
1D4
102
}
330
1D4
100
AcDbXrecord
 70
     0
  0
XRECORD
  5
1E0
102
{ACAD_REACTORS
330
1D4
102
}
330
1D4
100
AcDbXrecord
  1
{3A3171FD-40BC-4121-BA28-457DCE545B23}
  0
DICTIONARYVAR
  5
F5
102
{ACAD_REACTORS
330
F4
102
}
330
F4
100
DictionaryVariables
280
     0
  1
STANDARD
  0
DICTIONARYVAR
  5
129
102
{ACAD_REACTORS
330
F4
102
}
330
F4
100
DictionaryVariables
280
     0
  1
1
  0
DICTIONARYVAR
  5
128
102
{ACAD_REACTORS
330
F4
102
}
330
F4
100
DictionaryVariables
280
     0
  1
1
  0
DICTIONARYVAR
  5
12A
102
{ACAD_REACTORS
330
F4
102
}
330
F4
100
DictionaryVariables
280
     0
  1

  0
ENDSEC
  0
EOF
